0
SECTION
  2
HEADER
  9
$ACADVER
  1
AC1027
  9
$ACADMAINTVER
 70
     8
  9
$DWGCODEPAGE
  3
ANSI_1252
  9
$REQUIREDVERSIONS
160
                 0
  9
$COMMENTS
  1
File was created by Cadenas
  9
$CUSTOMPROPERTYTAG
  1
NN
  9
$CUSTOMPROPERTY
  1
Grip Tight Two-Bolt Pillow Block - Stainless Housing, Corrision Resistant Insert Inch Bore
  9
$CUSTOMPROPERTYTAG
  1
NT
  9
$CUSTOMPROPERTY
  1
GTEZ Normal Duty Stainless Steel Housed Pillow Blocks
  9
$CUSTOMPROPERTYTAG
  1
NB
  9
$CUSTOMPROPERTY
  1
 129269
  9
$CUSTOMPROPERTYTAG
  1
NBSYN
  9
$CUSTOMPROPERTY
  1
 $PN.$LUBE.
  9
$CUSTOMPROPERTYTAG
  1
LINA
  9
$CUSTOMPROPERTY
  1
129269
  9
$CUSTOMPROPERTYTAG
  1
SERIES
  9
$CUSTOMPROPERTY
  1
207
  9
$CUSTOMPROPERTYTAG
  1
SS
  9
$CUSTOMPROPERTY
  1
1-7/16
  9
$CUSTOMPROPERTYTAG
  1
PN
  9
$CUSTOMPROPERTY
  1
129269
  9
$CUSTOMPROPERTYTAG
  1
DESCRIPTION
  9
$CUSTOMPROPERTY
  1
P2B-GTEZ-107-SHCR
  9
$CUSTOMPROPERTYTAG
  1
A
  9
$CUSTOMPROPERTY
  1
1-5/8
  9
$CUSTOMPROPERTYTAG
  1
B
  9
$CUSTOMPROPERTY
  1
6-1/2
  9
$CUSTOMPROPERTYTAG
  1
C
  9
$CUSTOMPROPERTY
  1
1-3/8
  9
$CUSTOMPROPERTYTAG
  1
DMIN
  9
$CUSTOMPROPERTY
  1
4-11/16
  9
$CUSTOMPROPERTYTAG
  1
DMAX
  9
$CUSTOMPROPERTY
  1
5-7/16
  9
$CUSTOMPROPERTYTAG
  1
F
  9
$CUSTOMPROPERTY
  1
1/2
  9
$CUSTOMPROPERTYTAG
  1
G
  9
$CUSTOMPROPERTY
  1
15/16
  9
$CUSTOMPROPERTYTAG
  1
H
  9
$CUSTOMPROPERTY
  1
9/16
  9
$CUSTOMPROPERTYTAG
  1
J
  9
$CUSTOMPROPERTY
  1
3-5/8
  9
$CUSTOMPROPERTYTAG
  1
L
  9
$CUSTOMPROPERTY
  1
2-19/64
  9
$CUSTOMPROPERTYTAG
  1
M
  9
$CUSTOMPROPERTY
  1
1-7/8
  9
$CUSTOMPROPERTYTAG
  1
R
  9
$CUSTOMPROPERTY
  1
9/16
  9
$CUSTOMPROPERTYTAG
  1
S
  9
$CUSTOMPROPERTY
  1
1-1/16
  9
$CUSTOMPROPERTYTAG
  1
Z
  9
$CUSTOMPROPERTY
  1
1-3/64
  9
$CUSTOMPROPERTYTAG
  1
COMPANY
  9
$CUSTOMPROPERTY
  1
baldor
  9
$INSBASE
 10
0.0
 20
0.0
 30
0.0
  9
$EXTMIN
 10
1.000000000000000E+20
 20
1.000000000000000E+20
 30
1.000000000000000E+20
  9
$EXTMAX
 10
-1.000000000000000E+20
 20
-1.000000000000000E+20
 30
-1.000000000000000E+20
  9
$LIMMIN
 10
0.0
 20
0.0
  9
$LIMMAX
 10
12.0
 20
9.0
  9
$ORTHOMODE
 70
     0
  9
$REGENMODE
 70
     1
  9
$FILLMODE
 70
     1
  9
$QTEXTMODE
 70
     0
  9
$MIRRTEXT
 70
     1
  9
$LTSCALE
 40
1.0
  9
$ATTMODE
 70
     1
  9
$TEXTSIZE
 40
0.2
  9
$TRACEWID
 40
0.05
  9
$TEXTSTYLE
  7
Standard
  9
$CLAYER
  8
0
  9
$CELTYPE
  6
ByLayer
  9
$CECOLOR
 62
   256
  9
$CELTSCALE
 40
1.0
  9
$DISPSILH
 70
     0
  9
$DIMSCALE
 40
1.0
  9
$DIMASZ
 40
0.18
  9
$DIMEXO
 40
0.0625
  9
$DIMDLI
 40
0.38
  9
$DIMRND
 40
0.0
  9
$DIMDLE
 40
0.0
  9
$DIMEXE
 40
0.18
  9
$DIMTP
 40
0.0
  9
$DIMTM
 40
0.0
  9
$DIMTXT
 40
0.18
  9
$DIMCEN
 40
0.09
  9
$DIMTSZ
 40
0.0
  9
$DIMTOL
 70
     0
  9
$DIMLIM
 70
     0
  9
$DIMTIH
 70
     1
  9
$DIMTOH
 70
     1
  9
$DIMSE1
 70
     0
  9
$DIMSE2
 70
     0
  9
$DIMTAD
 70
     0
  9
$DIMZIN
 70
     0
  9
$DIMBLK
  1

  9
$DIMASO
 70
     1
  9
$DIMSHO
 70
     1
  9
$DIMPOST
  1

  9
$DIMAPOST
  1

  9
$DIMALT
 70
     0
  9
$DIMALTD
 70
     2
  9
$DIMALTF
 40
25.4
  9
$DIMLFAC
 40
1.0
  9
$DIMTOFL
 70
     0
  9
$DIMTVP
 40
0.0
  9
$DIMTIX
 70
     0
  9
$DIMSOXD
 70
     0
  9
$DIMSAH
 70
     0
  9
$DIMBLK1
  1

  9
$DIMBLK2
  1

  9
$DIMSTYLE
  2
Standard
  9
$DIMCLRD
 70
     0
  9
$DIMCLRE
 70
     0
  9
$DIMCLRT
 70
     0
  9
$DIMTFAC
 40
1.0
  9
$DIMGAP
 40
0.09
  9
$DIMJUST
 70
     0
  9
$DIMSD1
 70
     0
  9
$DIMSD2
 70
     0
  9
$DIMTOLJ
 70
     1
  9
$DIMTZIN
 70
     0
  9
$DIMALTZ
 70
     0
  9
$DIMALTTZ
 70
     0
  9
$DIMUPT
 70
     0
  9
$DIMDEC
 70
     4
  9
$DIMTDEC
 70
     4
  9
$DIMALTU
 70
     2
  9
$DIMALTTD
 70
     2
  9
$DIMTXSTY
  7
Standard
  9
$DIMAUNIT
 70
     0
  9
$DIMADEC
 70
     0
  9
$DIMALTRND
 40
0.0
  9
$DIMAZIN
 70
     0
  9
$DIMDSEP
 70
    46
  9
$DIMATFIT
 70
     3
  9
$DIMFRAC
 70
     0
  9
$DIMLDRBLK
  1

  9
$DIMLUNIT
 70
     2
  9
$DIMLWD
 70
    -2
  9
$DIMLWE
 70
    -2
  9
$DIMTMOVE
 70
     0
  9
$DIMFXL
 40
1.0
  9
$DIMFXLON
 70
     0
  9
$DIMJOGANG
 40
0.7853981633974483
  9
$DIMTFILL
 70
     0
  9
$DIMTFILLCLR
 70
     0
  9
$DIMARCSYM
 70
     0
  9
$DIMLTYPE
  6

  9
$DIMLTEX1
  6

  9
$DIMLTEX2
  6

  9
$DIMTXTDIRECTION
 70
     0
  9
$LUNITS
 70
     2
  9
$LUPREC
 70
     4
  9
$SKETCHINC
 40
0.1
  9
$FILLETRAD
 40
0.5
  9
$AUNITS
 70
     0
  9
$AUPREC
 70
     0
  9
$MENU
  1
.
  9
$ELEVATION
 40
0.0
  9
$PELEVATION
 40
0.0
  9
$THICKNESS
 40
0.0
  9
$LIMCHECK
 70
     0
  9
$CHAMFERA
 40
0.0
  9
$CHAMFERB
 40
0.0
  9
$CHAMFERC
 40
0.0
  9
$CHAMFERD
 40
0.0
  9
$SKPOLY
 70
     0
  9
$TDCREATE
 40
2458168.992108901
  9
$TDUCREATE
 40
2458168.950442234
  9
$TDUPDATE
 40
2458168.992109074
  9
$TDUUPDATE
 40
2458168.950442407
  9
$TDINDWG
 40
0.0000000116
  9
$TDUSRTIMER
 40
0.0000000116
  9
$USRTIMER
 70
     1
  9
$ANGBASE
 50
0.0
  9
$ANGDIR
 70
     0
  9
$PDMODE
 70
     0
  9
$PDSIZE
 40
0.0
  9
$PLINEWID
 40
0.0
  9
$SPLFRAME
 70
     0
  9
$SPLINETYPE
 70
     6
  9
$SPLINESEGS
 70
     8
  9
$HANDSEED
  5
211
  9
$SURFTAB1
 70
     6
  9
$SURFTAB2
 70
     6
  9
$SURFTYPE
 70
     6
  9
$SURFU
 70
     6
  9
$SURFV
 70
     6
  9
$UCSBASE
  2

  9
$UCSNAME
  2

  9
$UCSORG
 10
0.0
 20
0.0
 30
0.0
  9
$UCSXDIR
 10
1.0
 20
0.0
 30
0.0
  9
$UCSYDIR
 10
0.0
 20
1.0
 30
0.0
  9
$UCSORTHOREF
  2

  9
$UCSORTHOVIEW
 70
     0
  9
$UCSORGTOP
 10
0.0
 20
0.0
 30
0.0
  9
$UCSORGBOTTOM
 10
0.0
 20
0.0
 30
0.0
  9
$UCSORGLEFT
 10
0.0
 20
0.0
 30
0.0
  9
$UCSORGRIGHT
 10
0.0
 20
0.0
 30
0.0
  9
$UCSORGFRONT
 10
0.0
 20
0.0
 30
0.0
  9
$UCSORGBACK
 10
0.0
 20
0.0
 30
0.0
  9
$PUCSBASE
  2

  9
$PUCSNAME
  2

  9
$PUCSORG
 10
0.0
 20
0.0
 30
0.0
  9
$PUCSXDIR
 10
1.0
 20
0.0
 30
0.0
  9
$PUCSYDIR
 10
0.0
 20
1.0
 30
0.0
  9
$PUCSORTHOREF
  2

  9
$PUCSORTHOVIEW
 70
     0
  9
$PUCSORGTOP
 10
0.0
 20
0.0
 30
0.0
  9
$PUCSORGBOTTOM
 10
0.0
 20
0.0
 30
0.0
  9
$PUCSORGLEFT
 10
0.0
 20
0.0
 30
0.0
  9
$PUCSORGRIGHT
 10
0.0
 20
0.0
 30
0.0
  9
$PUCSORGFRONT
 10
0.0
 20
0.0
 30
0.0
  9
$PUCSORGBACK
 10
0.0
 20
0.0
 30
0.0
  9
$USERI1
 70
     0
  9
$USERI2
 70
     0
  9
$USERI3
 70
     0
  9
$USERI4
 70
     0
  9
$USERI5
 70
     0
  9
$USERR1
 40
0.0
  9
$USERR2
 40
0.0
  9
$USERR3
 40
0.0
  9
$USERR4
 40
0.0
  9
$USERR5
 40
0.0
  9
$WORLDVIEW
 70
     1
  9
$SHADEDGE
 70
     3
  9
$SHADEDIF
 70
    70
  9
$TILEMODE
 70
     1
  9
$MAXACTVP
 70
    64
  9
$PINSBASE
 10
0.0
 20
0.0
 30
0.0
  9
$PLIMCHECK
 70
     0
  9
$PEXTMIN
 10
1.000000000000000E+20
 20
1.000000000000000E+20
 30
1.000000000000000E+20
  9
$PEXTMAX
 10
-1.000000000000000E+20
 20
-1.000000000000000E+20
 30
-1.000000000000000E+20
  9
$PLIMMIN
 10
0.0
 20
0.0
  9
$PLIMMAX
 10
12.0
 20
9.0
  9
$UNITMODE
 70
     0
  9
$VISRETAIN
 70
     1
  9
$PLINEGEN
 70
     0
  9
$PSLTSCALE
 70
     1
  9
$TREEDEPTH
 70
  3020
  9
$CMLSTYLE
  2
Standard
  9
$CMLJUST
 70
     0
  9
$CMLSCALE
 40
1.0
  9
$PROXYGRAPHICS
 70
     1
  9
$MEASUREMENT
 70
     0
  9
$CELWEIGHT
370
    -1
  9
$ENDCAPS
280
     0
  9
$JOINSTYLE
280
     0
  9
$LWDISPLAY
290
     0
  9
$INSUNITS
 70
     1
  9
$HYPERLINKBASE
  1

  9
$STYLESHEET
  1

  9
$XEDIT
290
     1
  9
$CEPSNTYPE
380
     0
  9
$PSTYLEMODE
290
     1
  9
$FINGERPRINTGUID
  2
{1CDD62ED-CE43-4A10-9E98-BBEC12239E05}
  9
$VERSIONGUID
  2
{FAEB1C32-E019-11D5-929B-00C0DF256EC4}
  9
$EXTNAMES
290
     1
  9
$PSVPSCALE
 40
0.0
  9
$OLESTARTUP
290
     0
  9
$SORTENTS
280
   127
  9
$INDEXCTL
280
     0
  9
$HIDETEXT
280
     1
  9
$XCLIPFRAME
280
     2
  9
$HALOGAP
280
     0
  9
$OBSCOLOR
 70
   257
  9
$OBSLTYPE
280
     0
  9
$INTERSECTIONDISPLAY
280
     0
  9
$INTERSECTIONCOLOR
 70
   257
  9
$DIMASSOC
280
     2
  9
$PROJECTNAME
  1

  9
$CAMERADISPLAY
290
     0
  9
$LENSLENGTH
 40
50.0
  9
$CAMERAHEIGHT
 40
0.0
  9
$STEPSPERSEC
 40
2.0
  9
$STEPSIZE
 40
6.0
  9
$3DDWFPREC
 40
2.0
  9
$PSOLWIDTH
 40
0.25
  9
$PSOLHEIGHT
 40
4.0
  9
$LOFTANG1
 40
1.570796326794897
  9
$LOFTANG2
 40
1.570796326794897
  9
$LOFTMAG1
 40
0.0
  9
$LOFTMAG2
 40
0.0
  9
$LOFTPARAM
 70
     7
  9
$LOFTNORMALS
280
     1
  9
$LATITUDE
 40
37.795
  9
$LONGITUDE
 40
-122.394
  9
$NORTHDIRECTION
 40
0.0
  9
$TIMEZONE
 70
 -8000
  9
$LIGHTGLYPHDISPLAY
280
     1
  9
$TILEMODELIGHTSYNCH
280
     1
  9
$CMATERIAL
347
44
  9
$SOLIDHIST
280
     0
  9
$SHOWHIST
280
     1
  9
$DWFFRAME
280
     2
  9
$DGNFRAME
280
     2
  9
$REALWORLDSCALE
290
     1
  9
$INTERFERECOLOR
 62
   256
  9
$CSHADOW
280
     0
  9
$SHADOWPLANELOCATION
 40
0.0
  0
ENDSEC
  0
SECTION
  2
CLASSES
  0
CLASS
  1
ACDBDICTIONARYWDFLT
  2
AcDbDictionaryWithDefault
  3
ObjectDBX Classes
 90
        0
 91
        4
280
     0
281
     0
  0
CLASS
  1
VISUALSTYLE
  2
AcDbVisualStyle
  3
ObjectDBX Classes
 90
     4095
 91
        4
280
     0
281
     0
  0
CLASS
  1
MATERIAL
  2
AcDbMaterial
  3
ObjectDBX Classes
 90
     1153
 91
        4
280
     0
281
     0
  0
CLASS
  1
SCALE
  2
AcDbScale
  3
ObjectDBX Classes
 90
     1153
 91
        4
280
     0
281
     0
  0
CLASS
  1
TABLESTYLE
  2
AcDbTableStyle
  3
ObjectDBX Classes
 90
     4095
 91
        4
280
     0
281
     0
  0
CLASS
  1
MLEADERSTYLE
  2
AcDbMLeaderStyle
  3
ACDB_MLEADERSTYLE_CLASS
 90
     4095
 91
        4
280
     0
281
     0
  0
CLASS
  1
SUN
  2
AcDbSun
  3
SCENEOE
 90
     1153
 91
        4
280
     0
281
     0
  0
CLASS
  1
DICTIONARYVAR
  2
AcDbDictionaryVar
  3
ObjectDBX Classes
 90
        0
 91
        4
280
     0
281
     0
  0
CLASS
  1
CELLSTYLEMAP
  2
AcDbCellStyleMap
  3
ObjectDBX Classes
 90
     1152
 91
        4
280
     0
281
     0
  0
ENDSEC
  0
SECTION
  2
TABLES
  0
TABLE
  2
VPORT
  5
8
330
0
100
AcDbSymbolTable
 70
     1
  0
VPORT
  5
29
330
8
100
AcDbSymbolTableRecord
100
AcDbViewportTableRecord
  2
*Active
 70
     0
 10
0.0
 20
0.0
 11
1.0
 21
1.0
 12
0.0
 22
-0.1937499999999996
 13
0.0
 23
0.0
 14
0.5
 24
0.5
 15
0.5
 25
0.5
 16
0.0
 26
0.0
 36
1.0
 17
0.0
 27
0.0
 37
0.0
 40
1.937999999999999
 41
3.42105263157895
 42
50.0
 43
0.0
 44
0.0
 50
0.0
 51
0.0
 71
     0
 72
   100
 73
     1
 74
     3
 75
     0
 76
     0
 77
     0
 78
     0
281
     0
 65
     1
110
0.0
120
0.0
130
0.0
111
1.0
121
0.0
131
0.0
112
0.0
122
1.0
132
0.0
 79
     0
146
0.0
348
2F
 60
     3
 61
     5
292
     1
282
     1
141
0.0
142
0.0
 63
   250
361
6D
  0
ENDTAB
  0
TABLE
  2
LTYPE
  5
5
330
0
100
AcDbSymbolTable
 70
     3
  0
LTYPE
  5
14
330
5
100
AcDbSymbolTableRecord
100
AcDbLinetypeTableRecord
  2
ByBlock
 70
     0
  3

 72
    65
 73
     0
 40
0.0
  0
LTYPE
  5
15
330
5
100
AcDbSymbolTableRecord
100
AcDbLinetypeTableRecord
  2
ByLayer
 70
     0
  3

 72
    65
 73
     0
 40
0.0
  0
LTYPE
  5
16
330
5
100
AcDbSymbolTableRecord
100
AcDbLinetypeTableRecord
  2
Continuous
 70
     0
  3
Solid line
 72
    65
 73
     0
 40
0.0
  0
LTYPE
  5
A1
330
5
100
AcDbSymbolTableRecord
100
AcDbLinetypeTableRecord
  2
Dashed
 70
     0
  3

 72
    65
 73
     2
 40
2.0
 49
1.0
 74
     0
 49
-1.0
 74
     0
  0
LTYPE
  5
10C
330
5
100
AcDbSymbolTableRecord
100
AcDbLinetypeTableRecord
  2
Center
 70
     0
  3

 72
    65
 73
     4
 40
1.5
 49
0.45
 74
     0
 49
-0.5
 74
     0
 49
0.05
 74
     0
 49
-0.5
 74
     0
  0
ENDTAB
  0
TABLE
  2
LAYER
  5
2
330
0
100
AcDbSymbolTable
 70
     7
  0
LAYER
  5
10
330
2
100
AcDbSymbolTableRecord
100
AcDbLayerTableRecord
  2
0
 70
     0
 62
     7
  6
Continuous
370
    -3
390
F
347
46
348
0
  0
LAYER
  5
72
330
2
100
AcDbSymbolTableRecord
100
AcDbLayerTableRecord
  2
AM_6
 70
     0
 62
    -2
  6
Continuous
370
    35
390
F
347
46
348
0
  0
LAYER
  5
A2
330
2
100
AcDbSymbolTableRecord
100
AcDbLayerTableRecord
  2
AM_9
 70
     0
 62
     6
  6
Dashed
370
    25
390
F
347
46
348
0
  0
LAYER
  5
D0
330
2
100
AcDbSymbolTableRecord
100
AcDbLayerTableRecord
  2
AM_4
 70
     0
 62
     7
  6
Continuous
370
    50
390
F
347
46
348
0
  0
LAYER
  5
109
330
2
100
AcDbSymbolTableRecord
100
AcDbLayerTableRecord
  2
AM_5
 70
     0
 62
     3
  6
Continuous
370
    25
390
F
347
46
348
0
  0
LAYER
  5
10D
330
2
100
AcDbSymbolTableRecord
100
AcDbLayerTableRecord
  2
AM_7
 70
     0
 62
     7
  6
Center
370
    25
390
F
347
46
348
0
  0
LAYER
  5
204
330
2
100
AcDbSymbolTableRecord
100
AcDbLayerTableRecord
  2
ConnectionPoints
 70
     0
 62
     7
  6
Continuous
370
    50
390
F
347
46
348
0
  0
ENDTAB
  0
TABLE
  2
STYLE
  5
3
330
0
100
AcDbSymbolTable
 70
     1
  0
STYLE
  5
11
330
3
100
AcDbSymbolTableRecord
100
AcDbTextStyleTableRecord
  2
Standard
 70
     0
 40
0.0
 41
1.0
 50
0.0
 71
     0
 42
0.2
  3
txt
  4

  0
ENDTAB
  0
TABLE
  2
VIEW
  5
6
330
0
100
AcDbSymbolTable
 70
     0
  0
ENDTAB
  0
TABLE
  2
UCS
  5
7
330
0
100
AcDbSymbolTable
 70
     0
  0
ENDTAB
  0
TABLE
  2
APPID
  5
9
330
0
100
AcDbSymbolTable
 70
     1
  0
APPID
  5
12
330
9
100
AcDbSymbolTableRecord
100
AcDbRegAppTableRecord
  2
ACAD
 70
     0
  0
ENDTAB
  0
TABLE
  2
DIMSTYLE
  5
A
330
0
100
AcDbSymbolTable
 70
     1
100
AcDbDimStyleTable
  0
DIMSTYLE
105
27
330
A
100
AcDbSymbolTableRecord
100
AcDbDimStyleTableRecord
  2
Standard
 70
     0
178
     0
340
11
  0
ENDTAB
  0
TABLE
  2
BLOCK_RECORD
  5
1
330
0
100
AcDbSymbolTable
 70
     5
  0
BLOCK_RECORD
  5
1F
330
1
100
AcDbSymbolTableRecord
100
AcDbBlockTableRecord
  2
*Model_Space
340
22
 70
     0
280
     1
281
     0
  0
BLOCK_RECORD
  5
1B
330
1
100
AcDbSymbolTableRecord
100
AcDbBlockTableRecord
  2
*Paper_Space
340
1E
 70
     0
280
     1
281
     0
  0
BLOCK_RECORD
  5
23
330
1
100
AcDbSymbolTableRecord
100
AcDbBlockTableRecord
  2
*Paper_Space0
340
26
 70
     0
280
     1
281
     0
  0
BLOCK_RECORD
  5
6E
330
1
100
AcDbSymbolTableRecord
100
AcDbBlockTableRecord
  2
1__129269_4
340
0
102
{BLKREFS
331
6F
102
}
 70
     0
280
     1
281
     0
  0
BLOCK_RECORD
  5
8B
330
1
100
AcDbSymbolTableRecord
100
AcDbBlockTableRecord
  2
2_INS_GT_07_CRI_0_in__129269_4
340
0
102
{BLKREFS
331
8C
102
}
 70
     0
280
     1
281
     0
  0
BLOCK_RECORD
  5
D8
330
1
100
AcDbSymbolTableRecord
100
AcDbBlockTableRecord
  2
3_129974_0_in__129269_4
340
0
102
{BLKREFS
331
D9
102
}
 70
     0
280
     1
281
     0
  0
BLOCK_RECORD
  5
12E
330
1
100
AcDbSymbolTableRecord
100
AcDbBlockTableRecord
  2
4_P2B_GTEZ_07_SHCRI_0_in__129269_4
340
0
102
{BLKREFS
331
12F
102
}
 70
     0
280
     1
281
     0
  0
ENDTAB
  0
ENDSEC
  0
SECTION
  2
BLOCKS
  0
BLOCK
  5
20
330
1F
100
AcDbEntity
  8
0
100
AcDbBlockBegin
  2
*Model_Space
 70
     0
 10
0.0
 20
0.0
 30
0.0
  3
*Model_Space
  1

  0
ENDBLK
  5
21
330
1F
100
AcDbEntity
  8
0
100
AcDbBlockEnd
  0
BLOCK
  5
1C
330
1B
100
AcDbEntity
 67
     1
  8
0
100
AcDbBlockBegin
  2
*Paper_Space
 70
     0
 10
0.0
 20
0.0
 30
0.0
  3
*Paper_Space
  1

  0
ENDBLK
  5
1D
330
1B
100
AcDbEntity
 67
     1
  8
0
100
AcDbBlockEnd
  0
BLOCK
  5
24
330
23
100
AcDbEntity
  8
0
100
AcDbBlockBegin
  2
*Paper_Space0
 70
     0
 10
0.0
 20
0.0
 30
0.0
  3
*Paper_Space0
  1

  0
ENDBLK
  5
25
330
23
100
AcDbEntity
  8
0
100
AcDbBlockEnd
  0
BLOCK
  5
70
330
6E
100
AcDbEntity
  8
0
100
AcDbBlockBegin
  2
1__129269_4
 70
     2
 10
0.0
 20
0.0
 30
0.0
  3
1__129269_4
  1

  0
ATTDEF
  5
73
330
6E
100
AcDbEntity
  8
AM_6
100
AcDbText
 10
8.25
 20
0.75625
 30
0.0
 40
0.5
  1
Grip Tight Two-Bolt Pillow Block - Stainless Housing, Corrision Resistant Insert Inch Bore
100
AcDbAttributeDefinition
  3

  2
NN
 70
     8
280
     0
  0
ATTDEF
  5
74
330
6E
100
AcDbEntity
  8
AM_6
100
AcDbText
 10
8.25
 20
0.25625
 30
0.0
 40
0.5
  1
GTEZ Normal Duty Stainless Steel Housed Pillow Blocks
100
AcDbAttributeDefinition
  3

  2
NT
 70
     8
280
     0
  0
ATTDEF
  5
75
330
6E
100
AcDbEntity
  8
AM_6
100
AcDbText
 10
8.25
 20
-0.24375
 30
0.0
 40
0.5
  1
 129269
100
AcDbAttributeDefinition
  3

  2
NB
 70
     8
280
     0
  0
ATTDEF
  5
76
330
6E
100
AcDbEntity
  8
AM_6
100
AcDbText
 10
8.25
 20
-0.74375
 30
0.0
 40
0.5
  1
 $PN.$LUBE.
100
AcDbAttributeDefinition
  3

  2
NBSYN
 70
     8
280
     0
  0
ATTDEF
  5
77
330
6E
100
AcDbEntity
  8
AM_6
100
AcDbText
 10
8.25
 20
-1.24375
 30
0.0
 40
0.5
  1
129269
100
AcDbAttributeDefinition
  3

  2
LINA
 70
     8
280
     0
  0
ATTDEF
  5
78
330
6E
100
AcDbEntity
  8
AM_6
100
AcDbText
 10
8.25
 20
-1.74375
 30
0.0
 40
0.5
  1
207
100
AcDbAttributeDefinition
  3

  2
SERIES
 70
     8
280
     0
  0
ATTDEF
  5
79
330
6E
100
AcDbEntity
  8
AM_6
100
AcDbText
 10
8.25
 20
-2.24375
 30
0.0
 40
0.5
  1
1-7/16
100
AcDbAttributeDefinition
  3

  2
SS
 70
     8
280
     0
  0
ATTDEF
  5
7A
330
6E
100
AcDbEntity
  8
AM_6
100
AcDbText
 10
8.25
 20
-2.74375
 30
0.0
 40
0.5
  1
129269
100
AcDbAttributeDefinition
  3

  2
PN
 70
     8
280
     0
  0
ATTDEF
  5
7B
330
6E
100
AcDbEntity
  8
AM_6
100
AcDbText
 10
8.25
 20
-3.24375
 30
0.0
 40
0.5
  1
P2B-GTEZ-107-SHCR
100
AcDbAttributeDefinition
  3

  2
DESCRIPTION
 70
     8
280
     0
  0
ATTDEF
  5
7C
330
6E
100
AcDbEntity
  8
AM_6
100
AcDbText
 10
8.25
 20
-3.74375
 30
0.0
 40
0.5
  1
1-5/8
100
AcDbAttributeDefinition
  3

  2
A
 70
     8
280
     0
  0
ATTDEF
  5
7D
330
6E
100
AcDbEntity
  8
AM_6
100
AcDbText
 10
8.25
 20
-4.24375
 30
0.0
 40
0.5
  1
6-1/2
100
AcDbAttributeDefinition
  3

  2
B
 70
     8
280
     0
  0
ATTDEF
  5
7E
330
6E
100
AcDbEntity
  8
AM_6
100
AcDbText
 10
8.25
 20
-4.74375
 30
0.0
 40
0.5
  1
1-3/8
100
AcDbAttributeDefinition
  3

  2
C
 70
     8
280
     0
  0
ATTDEF
  5
7F
330
6E
100
AcDbEntity
  8
AM_6
100
AcDbText
 10
8.25
 20
-5.24375
 30
0.0
 40
0.5
  1
4-11/16
100
AcDbAttributeDefinition
  3

  2
DMIN
 70
     8
280
     0
  0
ATTDEF
  5
80
330
6E
100
AcDbEntity
  8
AM_6
100
AcDbText
 10
8.25
 20
-5.74375
 30
0.0
 40
0.5
  1
5-7/16
100
AcDbAttributeDefinition
  3

  2
DMAX
 70
     8
280
     0
  0
ATTDEF
  5
81
330
6E
100
AcDbEntity
  8
AM_6
100
AcDbText
 10
8.25
 20
-6.24375
 30
0.0
 40
0.5
  1
1/2
100
AcDbAttributeDefinition
  3

  2
F
 70
     8
280
     0
  0
ATTDEF
  5
82
330
6E
100
AcDbEntity
  8
AM_6
100
AcDbText
 10
8.25
 20
-6.74375
 30
0.0
 40
0.5
  1
15/16
100
AcDbAttributeDefinition
  3

  2
G
 70
     8
280
     0
  0
ATTDEF
  5
83
330
6E
100
AcDbEntity
  8
AM_6
100
AcDbText
 10
8.25
 20
-7.24375
 30
0.0
 40
0.5
  1
9/16
100
AcDbAttributeDefinition
  3

  2
H
 70
     8
280
     0
  0
ATTDEF
  5
84
330
6E
100
AcDbEntity
  8
AM_6
100
AcDbText
 10
8.25
 20
-7.74375
 30
0.0
 40
0.5
  1
3-5/8
100
AcDbAttributeDefinition
  3

  2
J
 70
     8
280
     0
  0
ATTDEF
  5
85
330
6E
100
AcDbEntity
  8
AM_6
100
AcDbText
 10
8.25
 20
-8.24375
 30
0.0
 40
0.5
  1
2-19/64
100
AcDbAttributeDefinition
  3

  2
L
 70
     8
280
     0
  0
ATTDEF
  5
86
330
6E
100
AcDbEntity
  8
AM_6
100
AcDbText
 10
8.25
 20
-8.74375
 30
0.0
 40
0.5
  1
1-7/8
100
AcDbAttributeDefinition
  3

  2
M
 70
     8
280
     0
  0
ATTDEF
  5
87
330
6E
100
AcDbEntity
  8
AM_6
100
AcDbText
 10
8.25
 20
-9.24375
 30
0.0
 40
0.5
  1
9/16
100
AcDbAttributeDefinition
  3

  2
R
 70
     8
280
     0
  0
ATTDEF
  5
88
330
6E
100
AcDbEntity
  8
AM_6
100
AcDbText
 10
8.25
 20
-9.74375
 30
0.0
 40
0.5
  1
1-1/16
100
AcDbAttributeDefinition
  3

  2
S
 70
     8
280
     0
  0
ATTDEF
  5
89
330
6E
100
AcDbEntity
  8
AM_6
100
AcDbText
 10
8.25
 20
-10.24375
 30
0.0
 40
0.5
  1
1-3/64
100
AcDbAttributeDefinition
  3

  2
Z
 70
     8
280
     0
  0
ATTDEF
  5
8A
330
6E
100
AcDbEntity
  8
AM_6
100
AcDbText
 10
8.25
 20
-10.74375
 30
0.0
 40
0.5
  1
baldor
100
AcDbAttributeDefinition
  3

  2
COMPANY
 70
     8
280
     0
  0
INSERT
  5
8C
330
6E
100
AcDbEntity
  8
0
100
AcDbBlockReference
  2
2_INS_GT_07_CRI_0_in__129269_4
 10
0.0
 20
0.0
 30
0.0
  0
INSERT
  5
D9
330
6E
100
AcDbEntity
  8
0
100
AcDbBlockReference
  2
3_129974_0_in__129269_4
 10
0.0
 20
0.0
 30
0.0
  0
INSERT
  5
12F
330
6E
100
AcDbEntity
  8
0
100
AcDbBlockReference
  2
4_P2B_GTEZ_07_SHCRI_0_in__129269_4
 10
0.0
 20
0.0
 30
0.0
  0
ENDBLK
  5
71
330
6E
100
AcDbEntity
  8
0
100
AcDbBlockEnd
  0
BLOCK
  5
8D
330
8B
100
AcDbEntity
  8
0
100
AcDbBlockBegin
  2
2_INS_GT_07_CRI_0_in__129269_4
 70
     2
 10
0.0
 20
0.0
 30
0.0
  3
2_INS_GT_07_CRI_0_in__129269_4
  1

  0
ATTDEF
  5
8F
330
8B
100
AcDbEntity
  8
AM_6
100
AcDbText
 10
6.416783542715761
 20
0.50625
 30
0.0
 40
0.5
  1
INS-GT-CR-I
100
AcDbAttributeDefinition
  3

  2
NN
 70
     8
280
     0
  0
ATTDEF
  5
90
330
8B
100
AcDbEntity
  8
AM_6
100
AcDbText
 10
6.416783542715761
 20
0.00625
 30
0.0
 40
0.5
  1
GT Normal Duty Corrosion Resistant Bearing Inserts
100
AcDbAttributeDefinition
  3

  2
NT
 70
     8
280
     0
  0
ATTDEF
  5
91
330
8B
100
AcDbEntity
  8
AM_6
100
AcDbText
 10
6.416783542715761
 20
-0.49375
 30
0.0
 40
0.5
  1
INS-GT-07-CRI
100
AcDbAttributeDefinition
  3

  2
NB
 70
     8
280
     0
  0
ATTDEF
  5
92
330
8B
100
AcDbEntity
  8
AM_6
100
AcDbText
 10
6.416783542715761
 20
-0.99375
 30
0.0
 40
0.5
  1
$PN.I
100
AcDbAttributeDefinition
  3

  2
NBSYN
 70
     8
280
     0
  0
ATTDEF
  5
93
330
8B
100
AcDbEntity
  8
AM_6
100
AcDbText
 10
6.416783542715761
 20
-1.49375
 30
0.0
 40
0.5
  1
INS-GT-07-CR
100
AcDbAttributeDefinition
  3

  2
LINA
 70
     8
280
     0
  0
ATTDEF
  5
94
330
8B
100
AcDbEntity
  8
AM_6
100
AcDbText
 10
6.416783542715761
 20
-1.99375
 30
0.0
 40
0.5
  1
207
100
AcDbAttributeDefinition
  3

  2
SERIES
 70
     8
280
     0
  0
ATTDEF
  5
95
330
8B
100
AcDbEntity
  8
AM_6
100
AcDbText
 10
6.416783542715761
 20
-2.49375
 30
0.0
 40
0.5
  1
INS-GT-07-CR
100
AcDbAttributeDefinition
  3

  2
PN
 70
     8
280
     0
  0
ATTDEF
  5
96
330
8B
100
AcDbEntity
  8
AM_6
100
AcDbText
 10
6.416783542715761
 20
-2.99375
 30
0.0
 40
0.5
  1
INS-GT-07-CR
100
AcDbAttributeDefinition
  3

  2
DESCRIPTION
 70
     8
280
     0
  0
ATTDEF
  5
97
330
8B
100
AcDbEntity
  8
AM_6
100
AcDbText
 10
6.416783542715761
 20
-3.49375
 30
0.0
 40
0.5
  1
1-5/8
100
AcDbAttributeDefinition
  3

  2
A
 70
     8
280
     0
  0
ATTDEF
  5
98
330
8B
100
AcDbEntity
  8
AM_6
100
AcDbText
 10
6.416783542715761
 20
-3.99375
 30
0.0
 40
0.5
  1
0.7480
100
AcDbAttributeDefinition
  3

  2
C
 70
     8
280
     0
  0
ATTDEF
  5
99
330
8B
100
AcDbEntity
  8
AM_6
100
AcDbText
 10
6.416783542715761
 20
-4.49375
 30
0.0
 40
0.5
  1
2.8346
100
AcDbAttributeDefinition
  3

  2
D
 70
     8
280
     0
  0
ATTDEF
  5
9A
330
8B
100
AcDbEntity
  8
AM_6
100
AcDbText
 10
6.416783542715761
 20
-4.99375
 30
0.0
 40
0.5
  1
0.202
100
AcDbAttributeDefinition
  3

  2
J
 70
     8
280
     0
  0
ATTDEF
  5
9B
330
8B
100
AcDbEntity
  8
AM_6
100
AcDbText
 10
6.416783542715761
 20
-5.49375
 30
0.0
 40
0.5
  1
2-19/64
100
AcDbAttributeDefinition
  3

  2
L
 70
     8
280
     0
  0
ATTDEF
  5
9C
330
8B
100
AcDbEntity
  8
AM_6
100
AcDbText
 10
6.416783542715761
 20
-5.99375
 30
0.0
 40
0.5
  1
10 - 32 x 1/4
100
AcDbAttributeDefinition
  3

  2
N
 70
     8
280
     0
  0
ATTDEF
  5
9D
330
8B
100
AcDbEntity
  8
AM_6
100
AcDbText
 10
6.416783542715761
 20
-6.49375
 30
0.0
 40
0.5
  1
9/16
100
AcDbAttributeDefinition
  3

  2
W
 70
     8
280
     0
  0
ATTDEF
  5
9E
330
8B
100
AcDbEntity
  8
AM_6
100
AcDbText
 10
6.416783542715761
 20
-6.99375
 30
0.0
 40
0.5
  1
1-3/64
100
AcDbAttributeDefinition
  3

  2
X
 70
     8
280
     0
  0
ATTDEF
  5
9F
330
8B
100
AcDbEntity
  8
AM_6
100
AcDbText
 10
6.416783542715761
 20
-7.49375
 30
0.0
 40
0.5
  1
1-1/16
100
AcDbAttributeDefinition
  3

  2
Y
 70
     8
280
     0
  0
ATTDEF
  5
A0
330
8B
100
AcDbEntity
  8
AM_6
100
AcDbText
 10
6.416783542715761
 20
-7.99375
 30
0.0
 40
0.5
  1
baldor
100
AcDbAttributeDefinition
  3

  2
COMPANY
 70
     8
280
     0
  0
LINE
  5
A3
330
8B
100
AcDbEntity
  8
AM_9
100
AcDbLine
 10
0.8567707677083334
 20
-0.7851555852330452
 30
0.0
 11
0.8567707677083334
 21
-0.3925774602330431
 31
0.0
  0
LINE
  5
A4
330
8B
100
AcDbEntity
  8
AM_9
100
AcDbLine
 10
-0.8567707677083334
 20
-0.3925774602330431
 30
0.0
 11
-0.8567707677083334
 21
-0.7851555852330452
 31
0.0
  0
LINE
  5
A5
330
8B
100
AcDbEntity
  8
AM_9
100
AcDbLine
 10
-0.8567707677083334
 20
-0.3925774602330431
 30
0.0
 11
0.8567707677083334
 21
-0.3925774602330431
 31
0.0
  0
LINE
  5
A6
330
8B
100
AcDbEntity
  8
AM_9
100
AcDbLine
 10
0.8567707677083334
 20
-0.3925774602330431
 30
0.0
 11
0.8881585142599845
 21
0.50625
 31
0.0
  0
LINE
  5
A7
330
8B
100
AcDbEntity
  8
AM_9
100
AcDbLine
 10
-0.8881585142599845
 20
0.50625
 30
0.0
 11
-0.8567707677083334
 21
-0.3925774602330431
 31
0.0
  0
LINE
  5
A8
330
8B
100
AcDbEntity
  8
AM_9
100
AcDbLine
 10
0.9388020505208333
 20
-0.6542962102330453
 30
0.0
 11
0.9388020505208333
 21
-0.5234374999999999
 31
0.0
  0
LINE
  5
A9
330
8B
100
AcDbEntity
  8
AM_9
100
AcDbLine
 10
-0.9388020505208333
 20
-0.5234374999999999
 30
0.0
 11
-0.9388020505208333
 21
-0.6542962102330453
 31
0.0
  0
LINE
  5
AA
330
8B
100
AcDbEntity
  8
AM_9
100
AcDbLine
 10
1.020833333333333
 20
-0.4866979613168444
 30
0.0
 11
1.020833333333333
 21
-0.374
 31
0.0
  0
LINE
  5
AB
330
8B
100
AcDbEntity
  8
AM_9
100
AcDbLine
 10
-1.020833333333333
 20
-0.374
 30
0.0
 11
-1.020833333333333
 21
-0.4866979613168444
 31
0.0
  0
LINE
  5
AC
330
8B
100
AcDbEntity
  8
AM_9
100
AcDbLine
 10
-1.011321168925684
 20
0.4858421644076492
 30
0.0
 11
-1.020833333333333
 21
0.47633
 31
0.0
  0
LINE
  5
AD
330
8B
100
AcDbEntity
  8
AM_9
100
AcDbLine
 10
1.020833333333333
 20
0.47633
 30
0.0
 11
1.011321168925684
 21
0.4858421644076492
 31
0.0
  0
LINE
  5
AE
330
8B
100
AcDbEntity
  8
AM_9
100
AcDbLine
 10
0.9909133333333333
 20
-0.7851555852330452
 30
0.0
 11
1.020833333333333
 21
-0.7552355852330452
 31
0.0
  0
LINE
  5
AF
330
8B
100
AcDbEntity
  8
AM_9
100
AcDbLine
 10
-1.020833333333333
 20
-0.7552355852330452
 30
0.0
 11
-0.9909133333333333
 21
-0.7851555852330452
 31
0.0
  0
LINE
  5
B0
330
8B
100
AcDbEntity
  8
AM_9
100
AcDbLine
 10
-0.9909133333333333
 20
-0.7851555852330452
 30
0.0
 11
0.9909133333333333
 21
-0.7851555852330452
 31
0.0
  0
LINE
  5
B1
330
8B
100
AcDbEntity
  8
AM_9
100
AcDbLine
 10
1.020833333333333
 20
-0.7552355852330452
 30
0.0
 11
1.020833333333333
 21
-0.6542962102330453
 31
0.0
  0
LINE
  5
B2
330
8B
100
AcDbEntity
  8
AM_9
100
AcDbLine
 10
-1.020833333333333
 20
-0.6542962102330453
 30
0.0
 11
-1.020833333333333
 21
-0.7552355852330452
 31
0.0
  0
LINE
  5
B3
330
8B
100
AcDbEntity
  8
AM_9
100
AcDbLine
 10
-1.020833333333333
 20
-0.7552355852330452
 30
0.0
 11
1.020833333333333
 21
-0.7552355852330452
 31
0.0
  0
LINE
  5
B4
330
8B
100
AcDbEntity
  8
AM_9
100
AcDbLine
 10
-1.020833333333333
 20
-0.6542962102330453
 30
0.0
 11
1.020833333333333
 21
-0.6542962102330453
 31
0.0
  0
LINE
  5
B5
330
8B
100
AcDbEntity
  8
AM_9
100
AcDbLine
 10
0.8916452967146381
 20
0.47633
 30
0.0
 11
1.020833333333333
 21
0.47633
 31
0.0
  0
LINE
  5
B6
330
8B
100
AcDbEntity
  8
AM_9
100
AcDbLine
 10
1.020833333333333
 20
0.374
 30
0.0
 11
1.020833333333333
 21
0.47633
 31
0.0
  0
LINE
  5
B7
330
8B
100
AcDbEntity
  8
AM_9
100
AcDbLine
 10
-1.020833333333333
 20
0.47633
 30
0.0
 11
-1.020833333333333
 21
0.374
 31
0.0
  0
LINE
  5
B8
330
8B
100
AcDbEntity
  8
AM_9
100
AcDbLine
 10
-1.020833333333333
 20
0.47633
 30
0.0
 11
-0.8916452967146381
 21
0.47633
 31
0.0
  0
LINE
  5
B9
330
8B
100
AcDbEntity
  8
AM_9
100
AcDbLine
 10
1.3425
 20
-0.2424
 30
0.0
 11
1.3425
 21
-0.1616
 31
0.0
  0
LINE
  5
BA
330
8B
100
AcDbEntity
  8
AM_9
100
AcDbLine
 10
-1.3425
 20
-0.1616
 30
0.0
 11
-1.3425
 21
-0.2424
 31
0.0
  0
LINE
  5
BB
330
8B
100
AcDbEntity
  8
AM_9
100
AcDbLine
 10
-1.322326637389132
 20
-0.3739999999999998
 30
0.0
 11
1.322326637389132
 21
-0.3739999999999998
 31
0.0
  0
ARC
  5
BC
330
8B
100
AcDbEntity
  8
AM_9
100
AcDbCircle
 10
1.322326637389132
 20
-0.3440799999999993
 30
0.0
 40
0.0299200000000004
100
AcDbArc
 50
270.0
 51
338.5875329531146
  0
ARC
  5
BD
330
8B
100
AcDbEntity
  8
AM_9
100
AcDbCircle
 10
-1.322326637389132
 20
-0.3440799999999993
 30
0.0
 40
0.0299200000000004
100
AcDbArc
 50
201.4124670468854
 51
270.0
  0
LINE
  5
BE
330
8B
100
AcDbEntity
  8
AM_9
100
AcDbLine
 10
-1.322326637389132
 20
0.374
 30
0.0
 11
1.322326637389132
 21
0.374
 31
0.0
  0
ARC
  5
BF
330
8B
100
AcDbEntity
  8
AM_9
100
AcDbCircle
 10
1.322326637389132
 20
0.3440799999999992
 30
0.0
 40
0.0299200000000008
100
AcDbArc
 50
21.41246704688535
 51
90.0
  0
ARC
  5
C0
330
8B
100
AcDbEntity
  8
AM_9
100
AcDbCircle
 10
-1.322326637389132
 20
0.3440799999999992
 30
0.0
 40
0.0299200000000008
100
AcDbArc
 50
90.0
 51
158.5875329531146
  0
LINE
  5
C1
330
8B
100
AcDbEntity
  8
AM_9
100
AcDbLine
 10
-1.350181451274502
 20
-0.3550031746031747
 30
0.0
 11
1.350181451274502
 21
-0.3550031746031747
 31
0.0
  0
ARC
  5
C2
330
8B
100
AcDbEntity
  8
AM_9
100
AcDbCircle
 10
0.4448999999988437
 20
0.0000000000003764
 30
0.0
 40
0.9724000000012142
100
AcDbArc
 50
338.5875329531202
 51
344.9913735011764
  0
ARC
  5
C3
330
8B
100
AcDbEntity
  8
AM_9
100
AcDbCircle
 10
-0.4449000000000395
 20
-0.000000000000017
 30
0.0
 40
0.9723999999999573
100
AcDbArc
 50
195.0086264988194
 51
201.412467046884
  0
LINE
  5
C4
330
8B
100
AcDbEntity
  8
AM_9
100
AcDbLine
 10
-1.376903536473977
 20
-0.2424
 30
0.0
 11
1.376903536473977
 21
-0.2424
 31
0.0
  0
ARC
  5
C5
330
8B
100
AcDbEntity
  8
AM_9
100
AcDbCircle
 10
1.376903536473977
 20
-0.2498799999999999
 30
0.0
 40
0.00748
100
AcDbArc
 50
344.9913811387568
 51
90.0
  0
ARC
  5
C6
330
8B
100
AcDbEntity
  8
AM_9
100
AcDbCircle
 10
-1.376903536473977
 20
-0.2498799999999999
 30
0.0
 40
0.0074799999999999
100
AcDbArc
 50
90.0
 51
195.0086188612433
  0
LINE
  5
C7
330
8B
100
AcDbEntity
  8
AM_9
100
AcDbLine
 10
-1.384128370350267
 20
-0.2518170532930236
 30
0.0
 11
1.384128370350267
 21
-0.2518170532930236
 31
0.0
  0
LINE
  5
C8
330
8B
100
AcDbEntity
  8
AM_9
100
AcDbLine
 10
-1.397432220977328
 20
-0.1616
 30
0.0
 11
1.397432220977328
 21
-0.1616
 31
0.0
  0
ARC
  5
C9
330
8B
100
AcDbEntity
  8
AM_9
100
AcDbCircle
 10
1.397432220977327
 20
-0.1541199999999999
 30
0.0
 40
0.0074800000000001
100
AcDbArc
 50
270.0
 51
350.8091764947177
  0
ARC
  5
CA
330
8B
100
AcDbEntity
  8
AM_9
100
AcDbCircle
 10
-1.397432220977327
 20
-0.1541199999999999
 30
0.0
 40
0.0074800000000002
100
AcDbArc
 50
189.1908235052823
 51
270.0
  0
LINE
  5
CB
330
8B
100
AcDbEntity
  8
AM_9
100
AcDbLine
 10
-1.350181451274502
 20
0.3550031746031747
 30
0.0
 11
1.350181451274502
 21
0.3550031746031747
 31
0.0
  0
ARC
  5
CC
330
8B
100
AcDbEntity
  8
AM_9
100
AcDbCircle
 10
0.4449000000000152
 20
0.0000000000000037
 30
0.0
 40
0.9723999999999852
100
AcDbArc
 50
358.1325388212506
 51
21.41246704688417
  0
ARC
  5
CD
330
8B
100
AcDbEntity
  8
AM_9
100
AcDbCircle
 10
0.4448999999999174
 20
0.0000000000000109
 30
0.0
 40
0.9724000000000835
100
AcDbArc
 50
350.8091764947195
 51
357.9021275452891
  0
ARC
  5
CE
330
8B
100
AcDbEntity
  8
AM_9
100
AcDbCircle
 10
-0.4448999999999549
 20
-0.000000000000004
 30
0.0
 40
0.972400000000044
100
AcDbArc
 50
158.5875329531168
 51
189.19082350528
  0
LINE
  5
CF
330
8B
100
AcDbEntity
  8
AM_9
100
AcDbLine
 10
-1.404816191682578
 20
-0.1553147286821707
 30
0.0
 11
1.404816191682578
 21
-0.1553147286821707
 31
0.0
  0
LINE
  5
D1
330
8B
100
AcDbEntity
  8
AM_4
100
AcDbLine
 10
1.020833333333333
 20
-0.5234368352330454
 30
0.0
 11
1.020833333333333
 21
-0.4866979613168444
 31
0.0
  0
LINE
  5
D2
330
8B
100
AcDbEntity
  8
AM_4
100
AcDbLine
 10
-1.020833333333333
 20
-0.4866979613168444
 30
0.0
 11
-1.020833333333333
 21
-0.5234368352330454
 31
0.0
  0
LINE
  5
D3
330
8B
100
AcDbEntity
  8
AM_4
100
AcDbLine
 10
-1.020833333333333
 20
-0.5234368352330454
 30
0.0
 11
1.020833333333333
 21
-0.5234368352330454
 31
0.0
  0
LINE
  5
D4
330
8B
100
AcDbEntity
  8
AM_4
100
AcDbLine
 10
-0.9909133333333333
 20
0.50625
 30
0.0
 11
0.9909133333333333
 21
0.50625
 31
0.0
  0
LINE
  5
D5
330
8B
100
AcDbEntity
  8
AM_4
100
AcDbLine
 10
-0.9909133333333333
 20
0.50625
 30
0.0
 11
-1.011321168925684
 21
0.4858421644076492
 31
0.0
  0
LINE
  5
D6
330
8B
100
AcDbEntity
  8
AM_4
100
AcDbLine
 10
1.011321168925684
 20
0.4858421644076492
 30
0.0
 11
0.9909133333333333
 21
0.50625
 31
0.0
  0
LINE
  5
D7
330
8B
100
AcDbEntity
  8
AM_4
100
AcDbLine
 10
-0.8916452967146381
 20
0.47633
 30
0.0
 11
0.8916452967146381
 21
0.47633
 31
0.0
  0
ENDBLK
  5
8E
330
8B
100
AcDbEntity
  8
0
100
AcDbBlockEnd
  0
BLOCK
  5
DA
330
D8
100
AcDbEntity
  8
0
100
AcDbBlockBegin
  2
3_129974_0_in__129269_4
 70
     2
 10
0.0
 20
0.0
 30
0.0
  3
3_129974_0_in__129269_4
  1

  0
ATTDEF
  5
DC
330
D8
100
AcDbEntity
  8
AM_6
100
AcDbText
 10
6.143987627295965
 20
0.5625000000000001
 30
0.0
 40
0.5
  1
Grip Tight Adapter and Nut - Corrosion Resistant Inch Bore
100
AcDbAttributeDefinition
  3

  2
NN
 70
     8
280
     0
  0
ATTDEF
  5
DD
330
D8
100
AcDbEntity
  8
AM_6
100
AcDbText
 10
6.143987627295965
 20
0.0625000000000001
 30
0.0
 40
0.5
  1
GT and GTM Adapter & Lock Nut Assemblies
100
AcDbAttributeDefinition
  3

  2
NT
 70
     8
280
     0
  0
ATTDEF
  5
DE
330
D8
100
AcDbEntity
  8
AM_6
100
AcDbText
 10
6.143987627295965
 20
-0.4374999999999999
 30
0.0
 40
0.5
  1
129974
100
AcDbAttributeDefinition
  3

  2
NB
 70
     8
280
     0
  0
ATTDEF
  5
DF
330
D8
100
AcDbEntity
  8
AM_6
100
AcDbText
 10
6.143987627295965
 20
-0.9374999999999999
 30
0.0
 40
0.5
  1
$PN.
100
AcDbAttributeDefinition
  3

  2
NBSYN
 70
     8
280
     0
  0
ATTDEF
  5
E0
330
D8
100
AcDbEntity
  8
AM_6
100
AcDbText
 10
6.143987627295965
 20
-1.4375
 30
0.0
 40
0.5
  1
129974
100
AcDbAttributeDefinition
  3

  2
LINA
 70
     8
280
     0
  0
ATTDEF
  5
E1
330
D8
100
AcDbEntity
  8
AM_6
100
AcDbText
 10
6.143987627295965
 20
-1.9375
 30
0.0
 40
0.5
  1
207
100
AcDbAttributeDefinition
  3

  2
SERIES
 70
     8
280
     0
  0
ATTDEF
  5
E2
330
D8
100
AcDbEntity
  8
AM_6
100
AcDbText
 10
6.143987627295965
 20
-2.4375
 30
0.0
 40
0.5
  1
1-7/16
100
AcDbAttributeDefinition
  3

  2
SS
 70
     8
280
     0
  0
ATTDEF
  5
E3
330
D8
100
AcDbEntity
  8
AM_6
100
AcDbText
 10
6.143987627295965
 20
-2.9375
 30
0.0
 40
0.5
  1
129974
100
AcDbAttributeDefinition
  3

  2
PN
 70
     8
280
     0
  0
ATTDEF
  5
E4
330
D8
100
AcDbEntity
  8
AM_6
100
AcDbText
 10
6.143987627295965
 20
-3.4375
 30
0.0
 40
0.5
  1
AN-GT-07-107-CR
100
AcDbAttributeDefinition
  3

  2
DESCRIPTION
 70
     8
280
     0
  0
ATTDEF
  5
E5
330
D8
100
AcDbEntity
  8
AM_6
100
AcDbText
 10
6.143987627295965
 20
-3.9375
 30
0.0
 40
0.5
  1
1-5/8
100
AcDbAttributeDefinition
  3

  2
A
 70
     8
280
     0
  0
ATTDEF
  5
E6
330
D8
100
AcDbEntity
  8
AM_6
100
AcDbText
 10
6.143987627295965
 20
-4.4375
 30
0.0
 40
0.5
  1
0.7480
100
AcDbAttributeDefinition
  3

  2
C
 70
     8
280
     0
  0
ATTDEF
  5
E7
330
D8
100
AcDbEntity
  8
AM_6
100
AcDbText
 10
6.143987627295965
 20
-4.9375
 30
0.0
 40
0.5
  1
2.8346
100
AcDbAttributeDefinition
  3

  2
D
 70
     8
280
     0
  0
ATTDEF
  5
E8
330
D8
100
AcDbEntity
  8
AM_6
100
AcDbText
 10
6.143987627295965
 20
-5.4375
 30
0.0
 40
0.5
  1
0.202
100
AcDbAttributeDefinition
  3

  2
J
 70
     8
280
     0
  0
ATTDEF
  5
E9
330
D8
100
AcDbEntity
  8
AM_6
100
AcDbText
 10
6.143987627295965
 20
-5.9375
 30
0.0
 40
0.5
  1
2-19/64
100
AcDbAttributeDefinition
  3

  2
L
 70
     8
280
     0
  0
ATTDEF
  5
EA
330
D8
100
AcDbEntity
  8
AM_6
100
AcDbText
 10
6.143987627295965
 20
-6.4375
 30
0.0
 40
0.5
  1
10 - 32 x 1/4
100
AcDbAttributeDefinition
  3

  2
N
 70
     8
280
     0
  0
ATTDEF
  5
EB
330
D8
100
AcDbEntity
  8
AM_6
100
AcDbText
 10
6.143987627295965
 20
-6.9375
 30
0.0
 40
0.5
  1
9/16
100
AcDbAttributeDefinition
  3

  2
W
 70
     8
280
     0
  0
ATTDEF
  5
EC
330
D8
100
AcDbEntity
  8
AM_6
100
AcDbText
 10
6.143987627295965
 20
-7.4375
 30
0.0
 40
0.5
  1
1-3/64
100
AcDbAttributeDefinition
  3

  2
X
 70
     8
280
     0
  0
ATTDEF
  5
ED
330
D8
100
AcDbEntity
  8
AM_6
100
AcDbText
 10
6.143987627295965
 20
-7.9375
 30
0.0
 40
0.5
  1
1-1/16
100
AcDbAttributeDefinition
  3

  2
Y
 70
     8
280
     0
  0
ATTDEF
  5
EE
330
D8
100
AcDbEntity
  8
AM_6
100
AcDbText
 10
6.143987627295965
 20
-8.4375
 30
0.0
 40
0.5
  1
baldor
100
AcDbAttributeDefinition
  3

  2
COMPANY
 70
     8
280
     0
  0
LINE
  5
EF
330
D8
100
AcDbEntity
  8
AM_9
100
AcDbLine
 10
-1.1314375
 20
-1.015083491660317
 30
0.0
 11
-0.8783281250000001
 21
-1.015083491660317
 31
0.0
  0
LINE
  5
F0
330
D8
100
AcDbEntity
  8
AM_9
100
AcDbLine
 10
-0.8783281250000001
 20
-0.8590834916603167
 30
0.0
 11
-1.1314375
 21
-0.8590834916603167
 31
0.0
  0
LINE
  5
F1
330
D8
100
AcDbEntity
  8
AM_9
100
AcDbLine
 10
-0.8783281250000001
 20
-1.015083491660317
 30
0.0
 11
-0.861328125
 21
-1.032083491660317
 31
0.0
  0
LINE
  5
F2
330
D8
100
AcDbEntity
  8
AM_9
100
AcDbLine
 10
-0.861328125
 20
-0.8420834916603167
 30
0.0
 11
-0.8783281250000001
 21
-0.8590834916603167
 31
0.0
  0
LINE
  5
F3
330
D8
100
AcDbEntity
  8
AM_9
100
AcDbLine
 10
-0.861328125
 20
-0.8420834916603167
 30
0.0
 11
-0.861328125
 21
-1.032083491660317
 31
0.0
  0
LINE
  5
F4
330
D8
100
AcDbEntity
  8
AM_9
100
AcDbLine
 10
-0.8783281250000001
 20
-0.8590834916603167
 30
0.0
 11
-0.8783281250000001
 21
-1.015083491660317
 31
0.0
  0
LINE
  5
F5
330
D8
100
AcDbEntity
  8
AM_9
100
AcDbLine
 10
-1.1314375
 20
-0.8590834916603167
 30
0.0
 11
-1.148356101208709
 21
-0.8421648904516079
 31
0.0
  0
LINE
  5
F6
330
D8
100
AcDbEntity
  8
AM_9
100
AcDbLine
 10
-1.140856633323558
 20
-1.024502624983875
 30
0.0
 11
-1.1314375
 21
-1.015083491660317
 31
0.0
  0
LINE
  5
F7
330
D8
100
AcDbEntity
  8
AM_9
100
AcDbLine
 10
-1.1314375
 20
-0.8590834916603167
 30
0.0
 11
-1.1314375
 21
-1.015083491660317
 31
0.0
  0
LINE
  5
F8
330
D8
100
AcDbEntity
  8
AM_9
100
AcDbLine
 10
1.071874805530861
 20
-0.5234375
 30
0.0
 11
1.071874805530861
 21
-1.046875
 31
0.0
  0
LINE
  5
F9
330
D8
100
AcDbEntity
  8
AM_9
100
AcDbLine
 10
0.71875
 20
-1.0625
 30
0.0
 11
0.71875
 21
0.5625000000000001
 31
0.0
  0
LINE
  5
FA
330
D8
100
AcDbEntity
  8
AM_9
100
AcDbLine
 10
-0.71875
 20
0.5625000000000001
 30
0.0
 11
-0.71875
 21
-1.0625
 31
0.0
  0
LINE
  5
FB
330
D8
100
AcDbEntity
  8
AM_9
100
AcDbLine
 10
0.8567708333333334
 20
-0.7851555852330451
 30
0.0
 11
0.8567708333333334
 21
-0.3925781249999991
 31
0.0
  0
LINE
  5
FC
330
D8
100
AcDbEntity
  8
AM_9
100
AcDbLine
 10
-0.8567708333333334
 20
-0.3925781249999991
 30
0.0
 11
-0.8567708333333334
 21
-0.7851555852330451
 31
0.0
  0
LINE
  5
FD
330
D8
100
AcDbEntity
  8
AM_9
100
AcDbLine
 10
-0.05
 20
0.506249996540292
 30
0.0
 11
-0.05
 21
-1.046875
 31
0.0
  0
LINE
  5
FE
330
D8
100
AcDbEntity
  8
AM_9
100
AcDbLine
 10
0.05
 20
0.506249996540292
 30
0.0
 11
0.05
 21
-1.046875
 31
0.0
  0
LINE
  5
FF
330
D8
100
AcDbEntity
  8
AM_9
100
AcDbLine
 10
-0.8567708333333333
 20
-0.3925781249999991
 30
0.0
 11
0.8567708333333333
 21
-0.3925781249999991
 31
0.0
  0
LINE
  5
100
330
D8
100
AcDbEntity
  8
AM_9
100
AcDbLine
 10
0.8567708333333333
 20
-0.3925781249999991
 30
0.0
 11
0.888158603099158
 21
0.50625
 31
0.0
  0
LINE
  5
101
330
D8
100
AcDbEntity
  8
AM_9
100
AcDbLine
 10
-0.888158603099158
 20
0.50625
 30
0.0
 11
-0.8567708333333333
 21
-0.3925781249999991
 31
0.0
  0
LINE
  5
102
330
D8
100
AcDbEntity
  8
AM_9
100
AcDbLine
 10
0.9388020833333331
 20
-0.654296875
 30
0.0
 11
0.9388020833333331
 21
-0.5234374999999999
 31
0.0
  0
LINE
  5
103
330
D8
100
AcDbEntity
  8
AM_9
100
AcDbLine
 10
-0.9388020833333331
 20
-0.5234374999999999
 30
0.0
 11
-0.9388020833333331
 21
-0.654296875
 31
0.0
  0
LINE
  5
104
330
D8
100
AcDbEntity
  8
AM_9
100
AcDbLine
 10
-0.4484688369832025
 20
-0.5234374999999999
 30
0.0
 11
-0.4484688369832025
 21
-1.046875
 31
0.0
  0
LINE
  5
105
330
D8
100
AcDbEntity
  8
AM_9
100
AcDbLine
 10
-1.020833333333333
 20
-0.654296875
 30
0.0
 11
1.020833333333333
 21
-0.654296875
 31
0.0
  0
LINE
  5
106
330
D8
100
AcDbEntity
  8
AM_9
100
AcDbLine
 10
-1.020833333333333
 20
-0.78515625
 30
0.0
 11
1.020833333333333
 21
-0.78515625
 31
0.0
  0
LINE
  5
107
330
D8
100
AcDbEntity
  8
AM_9
100
AcDbLine
 10
1.020833333333333
 20
-0.78515625
 30
0.0
 11
1.020833333333333
 21
-0.654296875
 31
0.0
  0
LINE
  5
108
330
D8
100
AcDbEntity
  8
AM_9
100
AcDbLine
 10
-1.020833333333333
 20
-0.654296875
 30
0.0
 11
-1.020833333333333
 21
-0.78515625
 31
0.0
  0
LINE
  5
10A
330
D8
100
AcDbEntity
  8
AM_5
100
AcDbLine
 10
-1.133309008339683
 20
-1.032083491660317
 30
0.0
 11
-0.861328125
 21
-1.032083491660317
 31
0.0
  0
LINE
  5
10B
330
D8
100
AcDbEntity
  8
AM_5
100
AcDbLine
 10
-1.1484375
 20
-0.8420834916603165
 30
0.0
 11
-0.861328125
 21
-0.8420834916603165
 31
0.0
  0
LINE
  5
10E
330
D8
100
AcDbEntity
  8
AM_7
100
AcDbLine
 10
-0.84697265625
 20
-0.9370834916603167
 30
0.0
 11
-1.16279296875
 21
-0.9370834916603167
 31
0.0
  0
LINE
  5
10F
330
D8
100
AcDbEntity
  8
AM_4
100
AcDbLine
 10
-0.05
 20
-1.0625
 30
0.0
 11
-0.05
 21
-1.046875
 31
0.0
  0
LINE
  5
110
330
D8
100
AcDbEntity
  8
AM_4
100
AcDbLine
 10
0.05
 20
-1.0625
 30
0.0
 11
0.05
 21
-1.046875
 31
0.0
  0
LINE
  5
111
330
D8
100
AcDbEntity
  8
AM_4
100
AcDbLine
 10
0.8567708333333331
 20
-1.0625
 30
0.0
 11
0.8567708333333331
 21
-1.046875
 31
0.0
  0
LINE
  5
112
330
D8
100
AcDbEntity
  8
AM_4
100
AcDbLine
 10
-0.8567708333333331
 20
-1.046875
 30
0.0
 11
-0.8567708333333331
 21
-1.0625
 31
0.0
  0
LINE
  5
113
330
D8
100
AcDbEntity
  8
AM_4
100
AcDbLine
 10
-0.8567708333333331
 20
-1.0625
 30
0.0
 11
0.8567708333333331
 21
-1.0625
 31
0.0
  0
LINE
  5
114
330
D8
100
AcDbEntity
  8
AM_4
100
AcDbLine
 10
0.05
 20
0.506249996540292
 30
0.0
 11
0.05
 21
0.5625000000000001
 31
0.0
  0
LINE
  5
115
330
D8
100
AcDbEntity
  8
AM_4
100
AcDbLine
 10
-0.05
 20
0.506249996540292
 30
0.0
 11
-0.05
 21
0.5625000000000001
 31
0.0
  0
LINE
  5
116
330
D8
100
AcDbEntity
  8
AM_4
100
AcDbLine
 10
0.888158603099158
 20
0.50625
 30
0.0
 11
0.8901228963830687
 21
0.5625
 31
0.0
  0
LINE
  5
117
330
D8
100
AcDbEntity
  8
AM_4
100
AcDbLine
 10
-0.8901228963830687
 20
0.5625
 30
0.0
 11
-0.888158603099158
 21
0.50625
 31
0.0
  0
LINE
  5
118
330
D8
100
AcDbEntity
  8
AM_4
100
AcDbLine
 10
-0.8901228963830687
 20
0.5625
 30
0.0
 11
0.8901228963830687
 21
0.5625
 31
0.0
  0
LINE
  5
119
330
D8
100
AcDbEntity
  8
AM_4
100
AcDbLine
 10
-0.6444426221363487
 20
-0.5234374999999999
 30
0.0
 11
-0.6594623794302107
 21
-0.5533574999999998
 31
0.0
  0
LINE
  5
11A
330
D8
100
AcDbEntity
  8
AM_4
100
AcDbLine
 10
-1.1185175
 20
-0.5234374999999999
 30
0.0
 11
-1.1484375
 21
-0.5533575
 31
0.0
  0
LINE
  5
11B
330
D8
100
AcDbEntity
  8
AM_4
100
AcDbLine
 10
-1.147372786500038
 20
-1.016955
 30
0.0
 11
-1.140873254169867
 21
-1.024519245830129
 31
0.0
  0
LINE
  5
11C
330
D8
100
AcDbEntity
  8
AM_4
100
AcDbLine
 10
-0.6594623794302108
 20
-1.016955
 30
0.0
 11
-0.6444426221363486
 21
-1.046875
 31
0.0
  0
LINE
  5
11D
330
D8
100
AcDbEntity
  8
AM_4
100
AcDbLine
 10
-1.141091037726582
 20
-1.024301462273418
 30
0.0
 11
-1.1185175
 21
-1.046875
 31
0.0
  0
LINE
  5
11E
330
D8
100
AcDbEntity
  8
AM_4
100
AcDbLine
 10
-1.147372786500038
 20
-1.016955
 30
0.0
 11
-0.6594623794302108
 21
-1.016955
 31
0.0
  0
LINE
  5
11F
330
D8
100
AcDbEntity
  8
AM_4
100
AcDbLine
 10
-0.6594623794302107
 20
-0.5533574999999998
 30
0.0
 11
-0.6594623794302108
 21
-1.016955
 31
0.0
  0
LINE
  5
120
330
D8
100
AcDbEntity
  8
AM_4
100
AcDbLine
 10
-1.1484375
 20
-0.5533575
 30
0.0
 11
-1.1484375
 21
-0.8422350457473741
 31
0.0
  0
LWPOLYLINE
  5
121
330
D8
100
AcDbEntity
  8
AM_4
100
AcDbPolyline
 90
       17
 70
     0
 43
0.0
 10
-1.148437499999999
 20
-0.8420834916603347
 10
-1.148361459032061
 20
-0.8430839853727102
 10
-1.148111361355729
 20
-0.8464515619012123
 10
-1.147700235991567
 20
-0.8522742723179342
 10
-1.147186795356318
 20
-0.8601563676177827
 10
-1.146603620382192
 20
-0.8702172307033211
 10
-1.146021440895132
 20
-0.8820540659248164
 10
-1.145492017330086
 20
-0.8956431185735031
 10
-1.145084430539929
 20
-0.9104597891361973
 10
-1.144843903647286
 20
-0.9264062757387496
 10
-1.144810138162525
 20
-0.9426079860470146
 10
-1.144994048037215
 20
-0.9591125661503832
 10
-1.145285169246178
 20
-0.9718026770619421
 10
-1.145690322055493
 20
-0.9840750344644245
 10
-1.146174466487861
 20
-0.9954560980425321
 10
-1.146709038717889
 20
-1.00587671811363
 10
-1.147372786500038
 20
-1.016955
  0
LINE
  5
122
330
D8
100
AcDbEntity
  8
AM_4
100
AcDbLine
 10
-1.1484375
 20
-0.5533575
 30
0.0
 11
-0.6594623794302107
 21
-0.5533574999999998
 31
0.0
  0
LINE
  5
123
330
D8
100
AcDbEntity
  8
AM_4
100
AcDbLine
 10
-0.6234059685476592
 20
-0.5234374999999999
 30
0.0
 11
-0.6234059685476592
 21
-1.046875
 31
0.0
  0
LINE
  5
124
330
D8
100
AcDbEntity
  8
AM_4
100
AcDbLine
 10
1.11394811270824
 20
-0.5234374999999999
 30
0.0
 11
1.143987627295964
 21
-0.5533575
 31
0.0
  0
LINE
  5
125
330
D8
100
AcDbEntity
  8
AM_4
100
AcDbLine
 10
-1.1185175
 20
-0.5234374999999999
 30
0.0
 11
1.11394811270824
 21
-0.5234374999999999
 31
0.0
  0
LINE
  5
126
330
D8
100
AcDbEntity
  8
AM_4
100
AcDbLine
 10
-0.4845252478657543
 20
-0.5533574999999998
 30
0.0
 11
-0.4695054905718921
 21
-0.5234374999999999
 31
0.0
  0
LINE
  5
127
330
D8
100
AcDbEntity
  8
AM_4
100
AcDbLine
 10
1.143987627295964
 20
-0.5533575
 30
0.0
 11
1.143987627295964
 21
-1.016955
 31
0.0
  0
LINE
  5
128
330
D8
100
AcDbEntity
  8
AM_4
100
AcDbLine
 10
-0.4845252478657543
 20
-0.5533574999999998
 30
0.0
 11
1.143987627295964
 21
-0.5533575
 31
0.0
  0
LINE
  5
129
330
D8
100
AcDbEntity
  8
AM_4
100
AcDbLine
 10
-0.4845252478657542
 20
-1.016955
 30
0.0
 11
-0.4845252478657543
 21
-0.5533574999999998
 31
0.0
  0
LINE
  5
12A
330
D8
100
AcDbEntity
  8
AM_4
100
AcDbLine
 10
1.143987627295964
 20
-1.016955
 30
0.0
 11
1.11394811270824
 21
-1.046875
 31
0.0
  0
LINE
  5
12B
330
D8
100
AcDbEntity
  8
AM_4
100
AcDbLine
 10
-0.4845252478657542
 20
-1.016955
 30
0.0
 11
1.143987627295964
 21
-1.016955
 31
0.0
  0
LINE
  5
12C
330
D8
100
AcDbEntity
  8
AM_4
100
AcDbLine
 10
-0.4695054905718922
 20
-1.046875
 30
0.0
 11
-0.4845252478657542
 21
-1.016955
 31
0.0
  0
LINE
  5
12D
330
D8
100
AcDbEntity
  8
AM_4
100
AcDbLine
 10
-1.1185175
 20
-1.046875
 30
0.0
 11
1.11394811270824
 21
-1.046875
 31
0.0
  0
ENDBLK
  5
DB
330
D8
100
AcDbEntity
  8
0
100
AcDbBlockEnd
  0
BLOCK
  5
130
330
12E
100
AcDbEntity
  8
0
100
AcDbBlockBegin
  2
4_P2B_GTEZ_07_SHCRI_0_in__129269_4
 70
     2
 10
0.0
 20
0.0
 30
0.0
  3
4_P2B_GTEZ_07_SHCRI_0_in__129269_4
  1

  0
ATTDEF
  5
132
330
12E
100
AcDbEntity
  8
AM_6
100
AcDbText
 10
8.25
 20
0.75625
 30
0.0
 40
0.5
  1
P2B-GTEZ-SHCR-I
100
AcDbAttributeDefinition
  3

  2
NN
 70
     8
280
     0
  0
ATTDEF
  5
133
330
12E
100
AcDbEntity
  8
AM_6
100
AcDbText
 10
8.25
 20
0.25625
 30
0.0
 40
0.5
  1
GTEZ Normal Duty Stainless Steel Housed Pillow Blocks
100
AcDbAttributeDefinition
  3

  2
NT
 70
     8
280
     0
  0
ATTDEF
  5
134
330
12E
100
AcDbEntity
  8
AM_6
100
AcDbText
 10
8.25
 20
-0.24375
 30
0.0
 40
0.5
  1
P2B-GTEZ-07-SHCRI
100
AcDbAttributeDefinition
  3

  2
NB
 70
     8
280
     0
  0
ATTDEF
  5
135
330
12E
100
AcDbEntity
  8
AM_6
100
AcDbText
 10
8.25
 20
-0.74375
 30
0.0
 40
0.5
  1
$PN.$LUBE.I
100
AcDbAttributeDefinition
  3

  2
NBSYN
 70
     8
280
     0
  0
ATTDEF
  5
136
330
12E
100
AcDbEntity
  8
AM_6
100
AcDbText
 10
8.25
 20
-1.24375
 30
0.0
 40
0.5
  1
P2B-GTEZ-07-SHCR
100
AcDbAttributeDefinition
  3

  2
LINA
 70
     8
280
     0
  0
ATTDEF
  5
137
330
12E
100
AcDbEntity
  8
AM_6
100
AcDbText
 10
8.25
 20
-1.74375
 30
0.0
 40
0.5
  1
207
100
AcDbAttributeDefinition
  3

  2
SERIES
 70
     8
280
     0
  0
ATTDEF
  5
138
330
12E
100
AcDbEntity
  8
AM_6
100
AcDbText
 10
8.25
 20
-2.24375
 30
0.0
 40
0.5
  1
P2B-GTEZ-07-SHCR
100
AcDbAttributeDefinition
  3

  2
PN
 70
     8
280
     0
  0
ATTDEF
  5
139
330
12E
100
AcDbEntity
  8
AM_6
100
AcDbText
 10
8.25
 20
-2.74375
 30
0.0
 40
0.5
  1
P2B-GTEZ-07-SHCR
100
AcDbAttributeDefinition
  3

  2
DESCRIPTION
 70
     8
280
     0
  0
ATTDEF
  5
13A
330
12E
100
AcDbEntity
  8
AM_6
100
AcDbText
 10
8.25
 20
-3.24375
 30
0.0
 40
0.5
  1
1-5/8
100
AcDbAttributeDefinition
  3

  2
A
 70
     8
280
     0
  0
ATTDEF
  5
13B
330
12E
100
AcDbEntity
  8
AM_6
100
AcDbText
 10
8.25
 20
-3.74375
 30
0.0
 40
0.5
  1
6-1/2
100
AcDbAttributeDefinition
  3

  2
B
 70
     8
280
     0
  0
ATTDEF
  5
13C
330
12E
100
AcDbEntity
  8
AM_6
100
AcDbText
 10
8.25
 20
-4.24375
 30
0.0
 40
0.5
  1
1-3/8
100
AcDbAttributeDefinition
  3

  2
C
 70
     8
280
     0
  0
ATTDEF
  5
13D
330
12E
100
AcDbEntity
  8
AM_6
100
AcDbText
 10
8.25
 20
-4.74375
 30
0.0
 40
0.5
  1
4-11/16
100
AcDbAttributeDefinition
  3

  2
DMIN
 70
     8
280
     0
  0
ATTDEF
  5
13E
330
12E
100
AcDbEntity
  8
AM_6
100
AcDbText
 10
8.25
 20
-5.24375
 30
0.0
 40
0.5
  1
5-7/16
100
AcDbAttributeDefinition
  3

  2
DMAX
 70
     8
280
     0
  0
ATTDEF
  5
13F
330
12E
100
AcDbEntity
  8
AM_6
100
AcDbText
 10
8.25
 20
-5.74375
 30
0.0
 40
0.5
  1
5.438
100
AcDbAttributeDefinition
  3

  2
DMAX1
 70
     8
280
     0
  0
ATTDEF
  5
140
330
12E
100
AcDbEntity
  8
AM_6
100
AcDbText
 10
8.25
 20
-6.24375
 30
0.0
 40
0.5
  1
1/2
100
AcDbAttributeDefinition
  3

  2
F
 70
     8
280
     0
  0
ATTDEF
  5
141
330
12E
100
AcDbEntity
  8
AM_6
100
AcDbText
 10
8.25
 20
-6.74375
 30
0.0
 40
0.5
  1
15/16
100
AcDbAttributeDefinition
  3

  2
G
 70
     8
280
     0
  0
ATTDEF
  5
142
330
12E
100
AcDbEntity
  8
AM_6
100
AcDbText
 10
8.25
 20
-7.24375
 30
0.0
 40
0.5
  1
9/16
100
AcDbAttributeDefinition
  3

  2
H
 70
     8
280
     0
  0
ATTDEF
  5
143
330
12E
100
AcDbEntity
  8
AM_6
100
AcDbText
 10
8.25
 20
-7.74375
 30
0.0
 40
0.5
  1
3-5/8
100
AcDbAttributeDefinition
  3

  2
J
 70
     8
280
     0
  0
ATTDEF
  5
144
330
12E
100
AcDbEntity
  8
AM_6
100
AcDbText
 10
8.25
 20
-8.24375
 30
0.0
 40
0.5
  1
2-19/64
100
AcDbAttributeDefinition
  3

  2
L
 70
     8
280
     0
  0
ATTDEF
  5
145
330
12E
100
AcDbEntity
  8
AM_6
100
AcDbText
 10
8.25
 20
-8.74375
 30
0.0
 40
0.5
  1
1-7/8
100
AcDbAttributeDefinition
  3

  2
M
 70
     8
280
     0
  0
ATTDEF
  5
146
330
12E
100
AcDbEntity
  8
AM_6
100
AcDbText
 10
8.25
 20
-9.24375
 30
0.0
 40
0.5
  1
9/16
100
AcDbAttributeDefinition
  3

  2
R
 70
     8
280
     0
  0
ATTDEF
  5
147
330
12E
100
AcDbEntity
  8
AM_6
100
AcDbText
 10
8.25
 20
-9.74375
 30
0.0
 40
0.5
  1
1-1/16
100
AcDbAttributeDefinition
  3

  2
S
 70
     8
280
     0
  0
ATTDEF
  5
148
330
12E
100
AcDbEntity
  8
AM_6
100
AcDbText
 10
8.25
 20
-10.24375
 30
0.0
 40
0.5
  1
1-3/64
100
AcDbAttributeDefinition
  3

  2
Z
 70
     8
280
     0
  0
ATTDEF
  5
149
330
12E
100
AcDbEntity
  8
AM_6
100
AcDbText
 10
8.25
 20
-10.74375
 30
0.0
 40
0.5
  1
baldor
100
AcDbAttributeDefinition
  3

  2
COMPANY
 70
     8
280
     0
  0
LINE
  5
14A
330
12E
100
AcDbEntity
  8
AM_9
100
AcDbLine
 10
-2.177182
 20
-0.6087598000000001
 30
0.0
 11
-2.177182
 21
-0.6875000000000001
 31
0.0
  0
LINE
  5
14B
330
12E
100
AcDbEntity
  8
AM_9
100
AcDbLine
 10
-2.008834
 20
-0.6087598000000001
 30
0.0
 11
-2.008834
 21
-0.6875000000000001
 31
0.0
  0
LINE
  5
14C
330
12E
100
AcDbEntity
  8
AM_9
100
AcDbLine
 10
-2.568974530935
 20
-0.6087598000000001
 30
0.0
 11
-2.568974530935
 21
-0.6875000000000001
 31
0.0
  0
LINE
  5
14D
330
12E
100
AcDbEntity
  8
AM_9
100
AcDbLine
 10
-2.2751302
 20
-0.6087598000000001
 30
0.0
 11
-2.2751302
 21
-0.6875000000000001
 31
0.0
  0
LINE
  5
14E
330
12E
100
AcDbEntity
  8
AM_9
100
AcDbLine
 10
-2.2506432
 20
-0.6087598000000001
 30
0.0
 11
-2.2506432
 21
-0.6875000000000001
 31
0.0
  0
LINE
  5
14F
330
12E
100
AcDbEntity
  8
AM_9
100
AcDbLine
 10
-2.422052404353
 20
-0.6087598000000001
 30
0.0
 11
-2.422052404353
 21
-0.6875000000000001
 31
0.0
  0
LINE
  5
150
330
12E
100
AcDbEntity
  8
AM_9
100
AcDbLine
 10
-2.544487509838
 20
-0.6087598000000001
 30
0.0
 11
-2.544487509838
 21
-0.6875000000000001
 31
0.0
  0
LINE
  5
151
330
12E
100
AcDbEntity
  8
AM_9
100
AcDbLine
 10
-2.587339895183
 20
-0.6087598000000001
 30
0.0
 11
-2.587339895183
 21
-0.6875000000000001
 31
0.0
  0
LINE
  5
152
330
12E
100
AcDbEntity
  8
AM_9
100
AcDbLine
 10
-2.440417768601
 20
-0.6087598000000001
 30
0.0
 11
-2.440417768601
 21
-0.6875000000000001
 31
0.0
  0
LINE
  5
153
330
12E
100
AcDbEntity
  8
AM_9
100
AcDbLine
 10
-2.2934955
 20
-0.6087598000000001
 30
0.0
 11
-2.2934955
 21
-0.6875000000000001
 31
0.0
  0
LINE
  5
154
330
12E
100
AcDbEntity
  8
AM_9
100
AcDbLine
 10
-2.52612214559
 20
-0.6087598000000001
 30
0.0
 11
-2.52612214559
 21
-0.6875000000000001
 31
0.0
  0
LINE
  5
155
330
12E
100
AcDbEntity
  8
AM_9
100
AcDbLine
 10
-2.131269
 20
-0.6087598000000001
 30
0.0
 11
-2.131269
 21
-0.6875000000000001
 31
0.0
  0
LINE
  5
156
330
12E
100
AcDbEntity
  8
AM_9
100
AcDbLine
 10
-2.232278
 20
-0.6087598000000001
 30
0.0
 11
-2.232278
 21
-0.6875000000000001
 31
0.0
  0
LINE
  5
157
330
12E
100
AcDbEntity
  8
AM_9
100
AcDbLine
 10
-2.2781911
 20
-0.6087598000000001
 30
0.0
 11
-2.2781911
 21
-0.6875000000000001
 31
0.0
  0
LINE
  5
158
330
12E
100
AcDbEntity
  8
AM_9
100
AcDbLine
 10
-2.2475823
 20
-0.6087598000000001
 30
0.0
 11
-2.2475823
 21
-0.6875000000000001
 31
0.0
  0
LINE
  5
159
330
12E
100
AcDbEntity
  8
AM_9
100
AcDbLine
 10
-2.541426878264
 20
-0.6087598000000001
 30
0.0
 11
-2.541426878264
 21
-0.6875000000000001
 31
0.0
  0
LINE
  5
15A
330
12E
100
AcDbEntity
  8
AM_9
100
AcDbLine
 10
-2.57203555621
 20
-0.6087598000000001
 30
0.0
 11
-2.57203555621
 21
-0.6875000000000001
 31
0.0
  0
LINE
  5
15B
330
12E
100
AcDbEntity
  8
AM_9
100
AcDbLine
 10
-2.425113429628
 20
-0.6087598000000001
 30
0.0
 11
-2.425113429628
 21
-0.6875000000000001
 31
0.0
  0
LINE
  5
15C
330
12E
100
AcDbEntity
  8
AM_9
100
AcDbLine
 10
-2.149634
 20
-0.6087598000000001
 30
0.0
 11
-2.149634
 21
-0.6875000000000001
 31
0.0
  0
LINE
  5
15D
330
12E
100
AcDbEntity
  8
AM_9
100
AcDbLine
 10
-2.535304827714
 20
-0.6087598000000001
 30
0.0
 11
-2.535304827714
 21
-0.6875000000000001
 31
0.0
  0
LINE
  5
15E
330
12E
100
AcDbEntity
  8
AM_9
100
AcDbLine
 10
-2.223095
 20
-0.6087598000000001
 30
0.0
 11
-2.223095
 21
-0.6875000000000001
 31
0.0
  0
LINE
  5
15F
330
12E
100
AcDbEntity
  8
AM_9
100
AcDbLine
 10
-2.516939463466
 20
-0.6087598000000001
 30
0.0
 11
-2.516939463466
 21
-0.6875000000000001
 31
0.0
  0
LINE
  5
160
330
12E
100
AcDbEntity
  8
AM_9
100
AcDbLine
 10
-2.3026781
 20
-0.6087598000000001
 30
0.0
 11
-2.3026781
 21
-0.6875000000000001
 31
0.0
  0
LINE
  5
161
330
12E
100
AcDbEntity
  8
AM_9
100
AcDbLine
 10
-2.13433
 20
-0.6087598000000001
 30
0.0
 11
-2.13433
 21
-0.6875000000000001
 31
0.0
  0
LINE
  5
162
330
12E
100
AcDbEntity
  8
AM_9
100
AcDbLine
 10
-2.2843129
 20
-0.6087598000000001
 30
0.0
 11
-2.2843129
 21
-0.6875000000000001
 31
0.0
  0
LINE
  5
163
330
12E
100
AcDbEntity
  8
AM_9
100
AcDbLine
 10
-2.152695
 20
-0.6087598000000001
 30
0.0
 11
-2.152695
 21
-0.6875000000000001
 31
0.0
  0
LINE
  5
164
330
12E
100
AcDbEntity
  8
AM_9
100
AcDbLine
 10
-2.241461
 20
-0.6087598000000001
 30
0.0
 11
-2.241460999999999
 21
-0.6875000000000001
 31
0.0
  0
LINE
  5
165
330
12E
100
AcDbEntity
  8
AM_9
100
AcDbLine
 10
-2.431235086477
 20
-0.6087598000000001
 30
0.0
 11
-2.431235086477
 21
-0.6875000000000001
 31
0.0
  0
LINE
  5
166
330
12E
100
AcDbEntity
  8
AM_9
100
AcDbLine
 10
-2.596522577307
 20
-0.6087598000000001
 30
0.0
 11
-2.596522577307
 21
-0.6875000000000001
 31
0.0
  0
LINE
  5
167
330
12E
100
AcDbEntity
  8
AM_9
100
AcDbLine
 10
-2.449600450725
 20
-0.6087598000000001
 30
0.0
 11
-2.449600450725
 21
-0.6875000000000001
 31
0.0
  0
LINE
  5
168
330
12E
100
AcDbEntity
  8
AM_9
100
AcDbLine
 10
-2.578157213058999
 20
-0.6087598000000001
 30
0.0
 11
-2.578157213058999
 21
-0.6875000000000001
 31
0.0
  0
LINE
  5
169
330
12E
100
AcDbEntity
  8
AM_9
100
AcDbLine
 10
-2.605705259431
 20
-0.6087598000000001
 30
0.0
 11
-2.605705259431
 21
-0.6875000000000001
 31
0.0
  0
LINE
  5
16A
330
12E
100
AcDbEntity
  8
AM_9
100
AcDbLine
 10
-2.3118608
 20
-0.6087598000000001
 30
0.0
 11
-2.3118608
 21
-0.6875000000000001
 31
0.0
  0
LINE
  5
16B
330
12E
100
AcDbEntity
  8
AM_9
100
AcDbLine
 10
-2.3792000977482
 20
-0.6087598000000001
 30
0.0
 11
-2.3792000977482
 21
-0.6875000000000001
 31
0.0
  0
LINE
  5
16C
330
12E
100
AcDbEntity
  8
AM_9
100
AcDbLine
 10
-2.507757175042999
 20
-0.6087598000000001
 30
0.0
 11
-2.507757175042999
 21
-0.6875000000000001
 31
0.0
  0
LINE
  5
16D
330
12E
100
AcDbEntity
  8
AM_9
100
AcDbLine
 10
-2.161878
 20
-0.6087598000000001
 30
0.0
 11
-2.161878
 21
-0.6875000000000001
 31
0.0
  0
LINE
  5
16E
330
12E
100
AcDbEntity
  8
AM_9
100
AcDbLine
 10
-2.213913
 20
-0.6087598000000001
 30
0.0
 11
-2.213913
 21
-0.6875000000000001
 31
0.0
  0
LINE
  5
16F
330
12E
100
AcDbEntity
  8
AM_9
100
AcDbLine
 10
-2.088417
 20
-0.6087598000000001
 30
0.0
 11
-2.088417
 21
-0.6875000000000001
 31
0.0
  0
LINE
  5
170
330
12E
100
AcDbEntity
  8
AM_9
100
AcDbLine
 10
-2.673044665873
 20
-0.6087598000000001
 30
0.0
 11
-2.673044665873
 21
-0.6875000000000001
 31
0.0
  0
LINE
  5
171
330
12E
100
AcDbEntity
  8
AM_9
100
AcDbLine
 10
-2.458783132849
 20
-0.6087598000000001
 30
0.0
 11
-2.458783132849
 21
-0.6875000000000001
 31
0.0
  0
LINE
  5
172
330
12E
100
AcDbEntity
  8
AM_9
100
AcDbLine
 10
-2.146573
 20
-0.6087598000000001
 30
0.0
 11
-2.146573
 21
-0.6875000000000001
 31
0.0
  0
LINE
  5
173
330
12E
100
AcDbEntity
  8
AM_9
100
AcDbLine
 10
-2.590400920458
 20
-0.6087598000000001
 30
0.0
 11
-2.590400920458
 21
-0.6875000000000001
 31
0.0
  0
LINE
  5
174
330
12E
100
AcDbEntity
  8
AM_9
100
AcDbLine
 10
-2.443478400175
 20
-0.6087598000000001
 30
0.0
 11
-2.443478400175
 21
-0.6875000000000001
 31
0.0
  0
LINE
  5
175
330
12E
100
AcDbEntity
  8
AM_9
100
AcDbLine
 10
-2.229217
 20
-0.6087598000000001
 30
0.0
 11
-2.229217
 21
-0.6875000000000001
 31
0.0
  0
LINE
  5
176
330
12E
100
AcDbEntity
  8
AM_9
100
AcDbLine
 10
-2.2965564
 20
-0.6087598000000001
 30
0.0
 11
-2.2965564
 21
-0.6875000000000001
 31
0.0
  0
LINE
  5
177
330
12E
100
AcDbEntity
  8
AM_9
100
AcDbLine
 10
-2.523061514016
 20
-0.6087598000000001
 30
0.0
 11
-2.523061514016
 21
-0.6875000000000001
 31
0.0
  0
LINE
  5
178
330
12E
100
AcDbEntity
  8
AM_9
100
AcDbLine
 10
-2.216974
 20
-0.6087598000000001
 30
0.0
 11
-2.216974
 21
-0.6875000000000001
 31
0.0
  0
LINE
  5
179
330
12E
100
AcDbEntity
  8
AM_9
100
AcDbLine
 10
-2.158817
 20
-0.6087598000000001
 30
0.0
 11
-2.158817
 21
-0.6875000000000001
 31
0.0
  0
LINE
  5
17A
330
12E
100
AcDbEntity
  8
AM_9
100
AcDbLine
 10
-2.602644234156
 20
-0.6087598000000001
 30
0.0
 11
-2.602644234156
 21
-0.6875000000000001
 31
0.0
  0
LINE
  5
17B
330
12E
100
AcDbEntity
  8
AM_9
100
AcDbLine
 10
-2.455722107574
 20
-0.6087598000000001
 30
0.0
 11
-2.455722107574
 21
-0.6875000000000001
 31
0.0
  0
LINE
  5
17C
330
12E
100
AcDbEntity
  8
AM_9
100
AcDbLine
 10
-2.510817806617
 20
-0.6087598000000001
 30
0.0
 11
-2.510817806617
 21
-0.6875000000000001
 31
0.0
  0
LINE
  5
17D
330
12E
100
AcDbEntity
  8
AM_9
100
AcDbLine
 10
-2.3087999
 20
-0.6087598000000001
 30
0.0
 11
-2.3087999
 21
-0.6875000000000001
 31
0.0
  0
LINE
  5
17E
330
12E
100
AcDbEntity
  8
AM_9
100
AcDbLine
 10
-2.174121
 20
-0.6087598000000001
 30
0.0
 11
-2.174121
 21
-0.6875000000000001
 31
0.0
  0
LINE
  5
17F
330
12E
100
AcDbEntity
  8
AM_9
100
AcDbLine
 10
-2.617948573129
 20
-0.6087598000000001
 30
0.0
 11
-2.617948573129
 21
-0.6875000000000001
 31
0.0
  0
LINE
  5
180
330
12E
100
AcDbEntity
  8
AM_9
100
AcDbLine
 10
-2.131269
 20
-0.6087598000000001
 30
0.0
 11
-2.2506432
 21
-0.6087598000000001
 31
0.0
  0
LINE
  5
181
330
12E
100
AcDbEntity
  8
AM_9
100
AcDbLine
 10
-2.201669
 20
-0.6087598000000001
 30
0.0
 11
-2.201669
 21
-0.6875000000000001
 31
0.0
  0
LINE
  5
182
330
12E
100
AcDbEntity
  8
AM_9
100
AcDbLine
 10
-2.397565383256
 20
-0.6087598000000001
 30
0.0
 11
-2.397565383256
 21
-0.6875000000000001
 31
0.0
  0
LINE
  5
183
330
12E
100
AcDbEntity
  8
AM_9
100
AcDbLine
 10
-2.106782
 20
-0.6087598000000001
 30
0.0
 11
-2.106782
 21
-0.6875000000000001
 31
0.0
  0
LINE
  5
184
330
12E
100
AcDbEntity
  8
AM_9
100
AcDbLine
 10
-2.422052404353
 20
-0.6087598000000001
 30
0.0
 11
-2.544487509838
 21
-0.6087598000000001
 31
0.0
  0
LINE
  5
185
330
12E
100
AcDbEntity
  8
AM_9
100
AcDbLine
 10
-2.568974530935
 20
-0.6087598000000001
 30
0.0
 11
-2.69140963642
 21
-0.6087598000000001
 31
0.0
  0
LINE
  5
186
330
12E
100
AcDbEntity
  8
AM_9
100
AcDbLine
 10
-2.69140963642
 20
-0.6087598000000001
 30
0.0
 11
-2.69140963642
 21
-0.6875000000000001
 31
0.0
  0
LINE
  5
187
330
12E
100
AcDbEntity
  8
AM_9
100
AcDbLine
 10
-1.99659
 20
-0.6087598000000001
 30
0.0
 11
-1.99659
 21
-0.6875000000000001
 31
0.0
  0
LINE
  5
188
330
12E
100
AcDbEntity
  8
AM_9
100
AcDbLine
 10
-2.3241043
 20
-0.6087598000000001
 30
0.0
 11
-2.3241043
 21
-0.6875000000000001
 31
0.0
  0
LINE
  5
189
330
12E
100
AcDbEntity
  8
AM_9
100
AcDbLine
 10
-2.2751302
 20
-0.6087598000000001
 30
0.0
 11
-2.397565383256
 21
-0.6087598000000001
 31
0.0
  0
LINE
  5
18A
330
12E
100
AcDbEntity
  8
AM_9
100
AcDbLine
 10
-2.495513467644
 20
-0.6087598000000001
 30
0.0
 11
-2.495513467644
 21
-0.6875000000000001
 31
0.0
  0
LINE
  5
18B
330
12E
100
AcDbEntity
  8
AM_9
100
AcDbLine
 10
-2.471026446547
 20
-0.6087598000000001
 30
0.0
 11
-2.471026446547
 21
-0.6875000000000001
 31
0.0
  0
LINE
  5
18C
330
12E
100
AcDbEntity
  8
AM_9
100
AcDbLine
 10
-1.99659
 20
-0.6087598000000001
 30
0.0
 11
-2.106782
 21
-0.6087598000000001
 31
0.0
  0
LINE
  5
18D
330
12E
100
AcDbEntity
  8
AM_9
100
AcDbLine
 10
1.432400798661024
 20
-0.1522877849083753
 30
0.0
 11
1.432400798661024
 21
-0.1227122150916245
 31
0.0
  0
LWPOLYLINE
  5
18E
330
12E
100
AcDbEntity
  8
AM_9
100
AcDbPolyline
 90
        5
 70
     0
 43
0.0
 10
1.353631055717016
 20
-0.0465785909328831
 10
1.350267227060636
 20
-0.0914019552542312
 10
1.349015619211995
 20
-0.1366255192870853
 10
1.350210522397135
 20
-0.1825211226067939
 10
1.353631055717016
 20
-0.2284214090671168
  0
LINE
  5
18F
330
12E
100
AcDbEntity
  8
AM_9
100
AcDbLine
 10
1.427916162228713
 20
-0.2284214090671168
 30
0.0
 11
1.353631055717016
 21
-0.2284214090671168
 31
0.0
  0
LINE
  5
190
330
12E
100
AcDbEntity
  8
AM_9
100
AcDbLine
 10
1.427916162228713
 20
-0.0465785909328831
 30
0.0
 11
1.353631055717016
 21
-0.0465785909328831
 31
0.0
  0
LINE
  5
191
330
12E
100
AcDbEntity
  8
AM_9
100
AcDbLine
 10
1.367667402070812
 20
-0.2812760060548632
 30
0.0
 11
1.385778665796587
 21
-0.2664882211464874
 31
0.0
  0
LINE
  5
192
330
12E
100
AcDbEntity
  8
AM_9
100
AcDbLine
 10
1.385778665796587
 20
-0.0085117788535124
 30
0.0
 11
1.367667402070812
 21
0.0062760060548633
 31
0.0
  0
LWPOLYLINE
  5
193
330
12E
100
AcDbEntity
  8
AM_9
100
AcDbPolyline
 90
        5
 70
     0
 43
0.0
 10
1.242275526262368
 20
0.0443428181342338
 10
1.266360290391532
 20
0.0219311359735598
 10
1.292802346600534
 20
-0.0006806460428673
 10
1.322102452178293
 20
-0.0236284477027217
 10
1.353631055717016
 20
-0.0465785909328831
  0
LWPOLYLINE
  5
194
330
12E
100
AcDbEntity
  8
AM_9
100
AcDbPolyline
 90
        5
 70
     0
 43
0.0
 10
1.353631055717016
 20
-0.2284214090671168
 10
1.322818634275092
 20
-0.2508330912277908
 10
1.293873362368807
 20
-0.273444873244218
 10
1.26696306316133
 20
-0.2963926749040723
 10
1.242275526262368
 20
-0.3193428181342337
  0
LWPOLYLINE
  5
195
330
12E
100
AcDbEntity
  8
AM_9
100
AcDbPolyline
 90
       20
 70
     0
 43
0.0
 10
1.237429441209206
 20
-0.2477359994997714
 10
1.246355649569605
 20
-0.2470067543656215
 10
1.259041351831719
 20
-0.2433266981650139
 10
1.270998701366339
 20
-0.2366761867314689
 10
1.281906499336126
 20
-0.2271964634146306
 10
1.291496081171547
 20
-0.215197109107181
 10
1.299523440926317
 20
-0.2009574064820328
 10
1.305800341665256
 20
-0.1849268055814012
 10
1.310154035399473
 20
-0.1675359189360805
 10
1.312508651740485
 20
-0.1492951206131055
 10
1.312783925845044
 20
-0.1307475453039823
 10
1.311006559121341
 20
-0.1123905652006454
 10
1.30719453322501
 20
-0.0947659687939281
 10
1.301461716309962
 20
-0.0783434446474214
 10
1.2939057929028
 20
-0.0635873356344814
 10
1.284736962063617
 20
-0.0509111351296323
 10
1.274142297867426
 20
-0.0406918913814391
 10
1.262420147232289
 20
-0.0332033721009713
 10
1.249871987183018
 20
-0.0287017843875068
 10
1.237433134982039
 20
-0.0272640001263506
  0
LWPOLYLINE
  5
196
330
12E
100
AcDbEntity
  8
AM_9
100
AcDbPolyline
 90
       11
 70
     0
 43
0.0
 10
1.237433134982039
 20
-0.0272640001263506
 10
1.236840828022445
 20
-0.0272672212410187
 10
1.223709263957083
 20
-0.0289789905608556
 10
1.210834828692337
 20
-0.0337393390340129
 10
1.198604502078197
 20
-0.0414539358809591
 10
1.187378915644617
 20
-0.051864254853413
 10
1.177506600292452
 20
-0.0647357073667335
 10
1.169300541655687
 20
-0.0796574603625969
 10
1.163048183546225
 20
-0.0962475674919238
 10
1.158933552860139
 20
-0.1140046513545608
 10
1.157030733843154
 20
-0.1374999999999999
  0
ELLIPSE
  5
197
330
12E
100
AcDbEntity
  8
AM_9
100
AcDbEllipse
 10
1.237659535001854
 20
-0.1374999999999999
 30
0.0
 11
9.642868896486251E-18
 21
0.1574799999999999
 31
0.0
210
0.0
220
0.0
230
1.0
 40
0.7071067811865476
 41
0.0
 42
6.283185307179586
  0
ELLIPSE
  5
198
330
12E
100
AcDbEntity
  8
AM_9
100
AcDbEllipse
 10
1.335096021022236
 20
-0.1374999999999999
 30
0.0
 11
-2.025002468262117E-17
 21
-0.1102360000000001
 31
0.0
210
0.0
220
0.0
230
1.0
 40
0.7071067811865456
 41
0.6106536932867064
 42
2.530874119763984
  0
ELLIPSE
  5
199
330
12E
100
AcDbEntity
  8
AM_9
100
AcDbEllipse
 10
1.321176624034578
 20
-0.1374999999999999
 30
0.0
 11
-2.025002468262114E-17
 21
-0.110236
 31
0.0
210
0.0
220
0.0
230
1.0
 40
0.7071067811865485
 41
0.0
 42
3.141592653589793
  0
LINE
  5
19A
330
12E
100
AcDbEntity
  8
AM_9
100
AcDbLine
 10
-1.083336085005503
 20
-0.55
 30
0.0
 11
1.083328414994497
 21
-0.55
 31
0.0
  0
LINE
  5
19B
330
12E
100
AcDbEntity
  8
AM_9
100
AcDbLine
 10
1.083328414994497
 20
-0.5500000000000007
 30
0.0
 11
1.143987627295964
 21
-0.6550648376532483
 31
0.0
  0
LINE
  5
19C
330
12E
100
AcDbEntity
  8
AM_9
100
AcDbLine
 10
-1.1484375
 20
-0.6627589584150947
 30
0.0
 11
-1.083336085005504
 21
-0.5500000000000013
 31
0.0
  0
LINE
  5
19D
330
12E
100
AcDbEntity
  8
AM_9
100
AcDbLine
 10
0.889686386764422
 20
0.55
 30
0.0
 11
-0.889686386764422
 21
0.55
 31
0.0
  0
LINE
  5
19E
330
12E
100
AcDbEntity
  8
AM_9
100
AcDbLine
 10
1.4173
 20
-0.5727148734539876
 30
0.0
 11
1.4173
 21
0.5727148734539876
 31
0.0
  0
LINE
  5
19F
330
12E
100
AcDbEntity
  8
AM_9
100
AcDbLine
 10
-1.4173
 20
0.5727148734539876
 30
0.0
 11
-1.4173
 21
-0.5727148734539876
 31
0.0
  0
LINE
  5
1A0
330
12E
100
AcDbEntity
  8
AM_9
100
AcDbLine
 10
1.143987627295964
 20
-0.6459147930983165
 30
0.0
 11
1.139044163655933
 21
-0.6465025074633446
 31
0.0
  0
LINE
  5
1A1
330
12E
100
AcDbEntity
  8
AM_9
100
AcDbLine
 10
1.27442313634194
 20
0.0062760060548644
 30
0.0
 11
1.256311872616162
 21
-0.008511778853514
 31
0.0
  0
LINE
  5
1A2
330
12E
100
AcDbEntity
  8
AM_9
100
AcDbLine
 10
1.256311872616162
 20
-0.2664882211464861
 30
0.0
 11
1.27442313634194
 21
-0.2812760060548641
 31
0.0
  0
LINE
  5
1A3
330
12E
100
AcDbEntity
  8
AM_9
100
AcDbLine
 10
1.209689739751727
 20
-0.1227122150916204
 30
0.0
 11
1.209689739751727
 21
-0.1522877849083794
 31
0.0
  0
ELLIPSE
  5
1A4
330
12E
100
AcDbEntity
  8
AM_9
100
AcDbEllipse
 10
1.321176624034578
 20
-0.1374999999999998
 30
0.0
 11
-2.892860668945884E-17
 21
-0.1574800000000003
 31
0.0
210
0.0
220
0.0
230
1.0
 40
0.7071067811865469
 41
0.8517727768761132
 42
2.291592049407881
  0
LWPOLYLINE
  5
1A5
330
12E
100
AcDbEntity
  8
AM_9
100
AcDbPolyline
 90
        3
 70
     0
 43
0.0
 10
1.432400798661024
 20
-0.1227122150916245
 10
1.430701329762772
 20
-0.0814941700979901
 10
1.427916162228713
 20
-0.0465785909328831
  0
LINE
  5
1A6
330
12E
100
AcDbEntity
  8
AM_9
100
AcDbLine
 10
1.427916162228713
 20
-0.0465785909328831
 30
0.0
 11
1.41266502046417
 21
-0.0321849089513953
 31
0.0
  0
LINE
  5
1A7
330
12E
100
AcDbEntity
  8
AM_9
100
AcDbLine
 10
1.412715499242331
 20
-0.2427685916202033
 30
0.0
 11
1.427916162228713
 21
-0.2284214090671168
 31
0.0
  0
LWPOLYLINE
  5
1A8
330
12E
100
AcDbEntity
  8
AM_9
100
AcDbPolyline
 90
        3
 70
     0
 43
0.0
 10
1.427916162228713
 20
-0.2284214090671168
 10
1.430888020532098
 20
-0.1904928219930922
 10
1.432400798661024
 20
-0.1522877849083753
  0
LWPOLYLINE
  5
1A9
330
12E
100
AcDbEntity
  8
AM_9
100
AcDbPolyline
 90
       49
 70
     0
 43
0.0
 10
1.352683583319141
 20
-0.0854036058667807
 10
1.354924847506997
 20
-0.0808763364279902
 10
1.358435341501546
 20
-0.0748920154377707
 10
1.361993948188706
 20
-0.0699136886451086
 10
1.365437282070481
 20
-0.0659625142402004
 10
1.368607871380758
 20
-0.0630057028821088
 10
1.371363717419055
 20
-0.0609605370795224
 10
1.373592192879655
 20
-0.059697144946208
 10
1.37523273900507
 20
-0.0590430468050817
 10
1.376327497029154
 20
-0.058794852613207
 10
1.377206653968922
 20
-0.0587758060573044
 10
1.378395909015135
 20
-0.0590188782122426
 10
1.38003996165462
 20
-0.0596610025436031
 10
1.382240985526592
 20
-0.0608936300739408
 10
1.384909650884543
 20
-0.0628481744520457
 10
1.388237300637947
 20
-0.0659277184623517
 10
1.391768706251867
 20
-0.0699825851892057
 10
1.395360902630337
 20
-0.0750279154054569
 10
1.398874951282222
 20
-0.0810492107733414
 10
1.402174608691266
 20
-0.0879950405898531
 10
1.405131064400572
 20
-0.0957737694425019
 10
1.407635959400475
 20
-0.1042778876452247
 10
1.409597405555307
 20
-0.1133755383801504
 10
1.410943119246252
 20
-0.1229150715035248
 10
1.411622760287329
 20
-0.1327299924015534
 10
1.411609573472646
 20
-0.1426440152212671
 10
1.41090149052938
 20
-0.1524759921052809
 10
1.409522958381716
 20
-0.1620387529588504
 10
1.407523886638133
 20
-0.1711589092838867
 10
1.404978794940522
 20
-0.1796754038658344
 10
1.401985545485678
 20
-0.187445226831413
 10
1.398663158075872
 20
-0.194349434493472
 10
1.395148403394222
 20
-0.2002992630713684
 10
1.391590919335146
 20
-0.2052419154003544
 10
1.388154535852207
 20
-0.2091574276631429
 10
1.38499618910969
 20
-0.2120806510889915
 10
1.382257123240825
 20
-0.2140959953855364
 10
1.380048602128436
 20
-0.2153349209069902
 10
1.378428727175744
 20
-0.2159712612097031
 10
1.377349950090461
 20
-0.2162090164825055
 10
1.376462616198123
 20
-0.2162205301181053
 10
1.375157992001765
 20
-0.2159335309952855
 10
1.373450043179948
 20
-0.215234021157187
 10
1.371192324336299
 20
-0.2139271046755339
 10
1.368478172358961
 20
-0.211885866053047
 10
1.365124355394616
 20
-0.2087108832276149
 10
1.36158064235072
 20
-0.2045572880859506
 10
1.357990023599096
 20
-0.1994130850863234
 10
1.35498970453753
 20
-0.1942456073197605
  0
LWPOLYLINE
  5
1AA
330
12E
100
AcDbEntity
  8
AM_9
100
AcDbPolyline
 90
        3
 70
     0
 43
0.0
 10
1.342004671548479
 20
-0.1374999999999999
 10
1.342086648148842
 20
-0.1326969189196564
 10
1.342196110569603
 20
-0.1301636779540064
  0
ELLIPSE
  5
1AB
330
12E
100
AcDbEntity
  8
AM_9
100
AcDbEllipse
 10
1.412929338958492
 20
-0.1375000000000089
 30
0.0
 11
-1.842729205749629E-17
 21
-0.100313505740736
 31
0.0
210
0.0
220
0.0
230
1.0
 40
0.7071067811857505
 41
4.60709385608348
 42
4.935488737362452
  0
ELLIPSE
  5
1AC
330
12E
100
AcDbEntity
  8
AM_9
100
AcDbEllipse
 10
1.412929338958463
 20
-0.1375000000000007
 30
0.0
 11
-1.842729205746799E-17
 21
-0.1003135057405819
 31
0.0
210
0.0
220
0.0
230
1.0
 40
0.7071067811865466
 41
5.193772567935285
 42
10.61705815795858
  0
ELLIPSE
  5
1AD
330
12E
100
AcDbEntity
  8
AM_9
100
AcDbEllipse
 10
1.428085038497207
 20
-0.1374999999999998
 30
0.0
 11
-1.926567240316122E-17
 21
-0.1048774357720922
 31
0.0
210
0.0
220
0.0
230
1.0
 40
0.7071067811865454
 41
0.4261857110404303
 42
2.730079687431005
  0
ELLIPSE
  5
1AE
330
12E
100
AcDbEntity
  8
AM_9
100
AcDbEllipse
 10
1.4655400885545
 20
-0.1375000000000036
 30
0.0
 11
-1.537357571213976E-17
 21
-0.08368984822314182
 31
0.0
210
0.0
220
0.0
230
1.0
 40
0.7071067811867976
 41
0.5102666158536469
 42
2.711840807341243
  0
ELLIPSE
  5
1AF
330
12E
100
AcDbEntity
  8
AM_9
100
AcDbEllipse
 10
1.465540088554719
 20
-0.1374999999998863
 30
0.0
 11
-1.537357571216247E-17
 21
-0.08368984822326542
 31
0.0
210
0.0
220
0.0
230
1.0
 40
0.7071067811854084
 41
0.4262901410908917
 42
0.4904784093382735
  0
LINE
  5
1B0
330
12E
100
AcDbEntity
  8
AM_9
100
AcDbLine
 10
-1.139051343843492
 20
-0.6465016590642483
 30
0.0
 11
-1.1484375
 21
-0.645379493909649
 31
0.0
  0
LWPOLYLINE
  5
1B1
330
12E
100
AcDbEntity
  8
AM_9
100
AcDbPolyline
 90
       11
 70
     0
 43
0.0
 10
1.157030733843154
 20
-0.1374999999999999
 10
1.158212485385976
 20
-0.1559846233467357
 10
1.161683511414221
 20
-0.1739477061216748
 10
1.167360243861879
 20
-0.1908677280446609
 10
1.175024952271549
 20
-0.2062856949156106
 10
1.184468207043083
 20
-0.2197582225257551
 10
1.195357509047573
 20
-0.2309141283647133
 10
1.207379772140209
 20
-0.2394085643566342
 10
1.220145175481342
 20
-0.2450275970395681
 10
1.233259257777307
 20
-0.2475669919327504
 10
1.237429441209206
 20
-0.2477359994997714
  0
ELLIPSE
  5
1B2
330
12E
100
AcDbEntity
  8
AM_9
100
AcDbEllipse
 10
1.237659535001854
 20
-0.1374999999999997
 30
0.0
 11
-2.025002468262115E-17
 21
-0.110236
 31
0.0
210
0.0
220
0.0
230
1.0
 40
0.7071067811865503
 41
0.0
 42
6.283185307179586
  0
LINE
  5
1B3
330
12E
100
AcDbEntity
  8
AM_7
100
AcDbLine
 10
0.0
 20
0.75625
 30
0.0
 11
0.0
 21
-1.14375
 31
0.0
  0
LINE
  5
1B4
330
12E
100
AcDbEntity
  8
AM_7
100
AcDbLine
 10
2.048425
 20
-0.0000000000000001
 30
0.0
 11
3.014575000000001
 21
0.0000000000000001
 31
0.0
  0
LINE
  5
1B5
330
12E
100
AcDbEntity
  8
AM_7
100
AcDbLine
 10
2.344
 20
-0.295575
 30
0.0
 11
2.344
 21
0.2955749999999998
 31
0.0
  0
LINE
  5
1B6
330
12E
100
AcDbEntity
  8
AM_7
100
AcDbLine
 10
-3.014575000000001
 20
0.0000000000000001
 30
0.0
 11
-2.048425
 21
0.0000000000000003
 31
0.0
  0
LINE
  5
1B7
330
12E
100
AcDbEntity
  8
AM_7
100
AcDbLine
 10
-2.719
 20
-0.2955750000000001
 30
0.0
 11
-2.719
 21
0.2955750000000005
 31
0.0
  0
LINE
  5
1B8
330
12E
100
AcDbEntity
  8
AM_7
100
AcDbLine
 10
2.719
 20
-0.2955750000000003
 30
0.0
 11
2.719
 21
0.2955750000000004
 31
0.0
  0
LINE
  5
1B9
330
12E
100
AcDbEntity
  8
AM_7
100
AcDbLine
 10
-2.344
 20
-0.2955749999999996
 30
0.0
 11
-2.344
 21
0.2955750000000001
 31
0.0
  0
LINE
  5
1BA
330
12E
100
AcDbEntity
  8
AM_4
100
AcDbLine
 10
3.25
 20
-0.5156250000000001
 30
0.0
 11
3.078125
 21
-0.6875000000000001
 31
0.0
  0
LINE
  5
1BB
330
12E
100
AcDbEntity
  8
AM_4
100
AcDbLine
 10
3.078125
 20
0.6874999999999999
 30
0.0
 11
3.25
 21
0.515625
 31
0.0
  0
LINE
  5
1BC
330
12E
100
AcDbEntity
  8
AM_4
100
AcDbLine
 10
3.25
 20
-0.5156250000000001
 30
0.0
 11
3.25
 21
0.5156249999999999
 31
0.0
  0
LINE
  5
1BD
330
12E
100
AcDbEntity
  8
AM_4
100
AcDbLine
 10
3.078125
 20
0.6874999999999999
 30
0.0
 11
1.16271407700807
 21
0.6874999999999999
 31
0.0
  0
LINE
  5
1BE
330
12E
100
AcDbEntity
  8
AM_4
100
AcDbLine
 10
3.078125
 20
-0.6875000000000001
 30
0.0
 11
1.16271407700807
 21
-0.6874999999999996
 31
0.0
  0
LINE
  5
1BF
330
12E
100
AcDbEntity
  8
AM_4
100
AcDbLine
 10
2.718999999999999
 20
-0.2815
 30
0.0
 11
2.344
 21
-0.2815000000000001
 31
0.0
  0
LINE
  5
1C0
330
12E
100
AcDbEntity
  8
AM_4
100
AcDbLine
 10
2.344
 20
0.2814999999999999
 30
0.0
 11
2.719
 21
0.2815000000000001
 31
0.0
  0
ARC
  5
1C1
330
12E
100
AcDbEntity
  8
AM_4
100
AcDbCircle
 10
2.344
 20
-0.0000000000000001
 30
0.0
 40
0.2815
100
AcDbArc
 50
90.0
 51
270.0
  0
ARC
  5
1C2
330
12E
100
AcDbEntity
  8
AM_4
100
AcDbCircle
 10
2.719
 20
0.0000000000000001
 30
0.0
 40
0.2815000000000001
100
AcDbArc
 50
270.0
 51
90.0
  0
LINE
  5
1C3
330
12E
100
AcDbEntity
  8
AM_4
100
AcDbLine
 10
3.1909449
 20
-0.5746801000000002
 30
0.0
 11
3.1909449
 21
0.5746801000000005
 31
0.0
  0
LINE
  5
1C4
330
12E
100
AcDbEntity
  8
AM_4
100
AcDbLine
 10
-3.25
 20
0.5156249999999998
 30
0.0
 11
-3.078125
 21
0.6874999999999999
 31
0.0
  0
LINE
  5
1C5
330
12E
100
AcDbEntity
  8
AM_4
100
AcDbLine
 10
-3.078125
 20
-0.6875000000000001
 30
0.0
 11
-3.25
 21
-0.515625
 31
0.0
  0
LINE
  5
1C6
330
12E
100
AcDbEntity
  8
AM_4
100
AcDbLine
 10
-3.25
 20
-0.515625
 30
0.0
 11
-3.25
 21
0.5156249999999999
 31
0.0
  0
LINE
  5
1C7
330
12E
100
AcDbEntity
  8
AM_4
100
AcDbLine
 10
-1.162721747019077
 20
0.6875000000000001
 30
0.0
 11
-3.078125
 21
0.6874999999999999
 31
0.0
  0
LINE
  5
1C8
330
12E
100
AcDbEntity
  8
AM_4
100
AcDbLine
 10
-1.162721747019077
 20
-0.6875000000000001
 30
0.0
 11
-3.078125
 21
-0.6875000000000001
 31
0.0
  0
LINE
  5
1C9
330
12E
100
AcDbEntity
  8
AM_4
100
AcDbLine
 10
-2.344
 20
-0.2814999999999997
 30
0.0
 11
-2.719
 21
-0.2814999999999999
 31
0.0
  0
ARC
  5
1CA
330
12E
100
AcDbEntity
  8
AM_4
100
AcDbCircle
 10
-2.344
 20
0.0000000000000003
 30
0.0
 40
0.2815
100
AcDbArc
 50
270.0
 51
90.0
  0
ARC
  5
1CB
330
12E
100
AcDbEntity
  8
AM_4
100
AcDbCircle
 10
-2.719000000000001
 20
0.0000000000000001
 30
0.0
 40
0.2815000000000001
100
AcDbArc
 50
90.0
 51
270.0
  0
LINE
  5
1CC
330
12E
100
AcDbEntity
  8
AM_4
100
AcDbLine
 10
-2.719
 20
0.2815000000000002
 30
0.0
 11
-2.344
 21
0.2815000000000003
 31
0.0
  0
LINE
  5
1CD
330
12E
100
AcDbEntity
  8
AM_4
100
AcDbLine
 10
-3.1909449
 20
-0.5746801000000004
 30
0.0
 11
-3.1909449
 21
0.5746801000000007
 31
0.0
  0
LINE
  5
1CE
330
12E
100
AcDbEntity
  8
AM_4
100
AcDbLine
 10
-1.8090551
 20
-0.6875000000000001
 30
0.0
 11
-1.8090551
 21
0.6874999999999999
 31
0.0
  0
LINE
  5
1CF
330
12E
100
AcDbEntity
  8
AM_4
100
AcDbLine
 10
1.8090551
 20
-0.6875000000000001
 30
0.0
 11
1.8090551
 21
0.6874999999999999
 31
0.0
  0
LINE
  5
1D0
330
12E
100
AcDbEntity
  8
AM_4
100
AcDbLine
 10
1.321176624034578
 20
-0.247736
 30
0.0
 11
1.335096021022236
 21
-0.247736
 31
0.0
  0
LINE
  5
1D1
330
12E
100
AcDbEntity
  8
AM_4
100
AcDbLine
 10
1.335096021022236
 20
-0.0272639999999999
 30
0.0
 11
1.321176624034578
 21
-0.0272639999999999
 31
0.0
  0
ELLIPSE
  5
1D2
330
12E
100
AcDbEntity
  8
AM_4
100
AcDbEllipse
 10
1.335096021022237
 20
-0.1375000000000024
 30
0.0
 11
-2.025002468262070E-17
 21
-0.1102359999999976
 31
0.0
210
0.0
220
0.0
230
1.0
 40
0.7071067811865458
 41
2.530874119764012
 42
6.893839000466289
  0
ELLIPSE
  5
1D3
330
12E
100
AcDbEntity
  8
AM_4
100
AcDbEllipse
 10
1.321176624034577
 20
-0.1375000000000003
 30
0.0
 11
-2.025002468262120E-17
 21
-0.1102360000000003
 31
0.0
210
0.0
220
0.0
230
1.0
 40
0.7071067811865422
 41
3.141592653589793
 42
6.283185307179586
  0
LINE
  5
1D4
330
12E
100
AcDbEntity
  8
AM_4
100
AcDbLine
 10
-0.889686386764422
 20
0.55
 30
0.0
 11
-1.083336085005503
 21
0.55
 31
0.0
  0
LINE
  5
1D5
330
12E
100
AcDbEntity
  8
AM_4
100
AcDbLine
 10
1.083328414994497
 20
0.5499999999999999
 30
0.0
 11
0.889686386764422
 21
0.55
 31
0.0
  0
LINE
  5
1D6
330
12E
100
AcDbEntity
  8
AM_4
100
AcDbLine
 10
-1.083336085005504
 20
0.5500000000000009
 30
0.0
 11
-1.162721747019077
 21
0.6875000000000001
 31
0.0
  0
LINE
  5
1D7
330
12E
100
AcDbEntity
  8
AM_4
100
AcDbLine
 10
1.16271407700807
 20
0.6874999999999999
 30
0.0
 11
1.083328414994497
 21
0.5500000000000009
 31
0.0
  0
LWPOLYLINE
  5
1D8
330
12E
100
AcDbEntity
  8
AM_4
100
AcDbPolyline
 90
       37
 70
     0
 43
0.0
 10
-1.4173
 20
-0.5727148734539876
 10
-1.411906745605431
 20
-0.5619077633092323
 10
-1.395768028344202
 20
-0.5511829017981901
 10
-1.369006673599497
 20
-0.5406219115928085
 10
-1.331826351439868
 20
-0.5303051682054506
 10
-1.284510026567044
 20
-0.5203111882827143
 10
-1.227417804783685
 20
-0.5107160320463416
 10
-1.160984192370789
 20
-0.501592724429005
 10
-1.085714789232529
 20
-0.4930106993104764
 10
-1.002182440975695
 20
-0.485035271083876
 10
-0.9110228792087335
 20
-0.4777271375737036
 10
-0.8129298832403391
 20
-0.4711419180887432
 10
-0.7086500000000018
 20
-0.4653297301255396
 10
-0.5989768623650953
 20
-0.4603348079439878
 10
-0.4847451491354725
 20
-0.456195165917906
 10
-0.366824232623805
 20
-0.4529423092226967
 10
-0.2461115622073429
 20
-0.4506009940619393
 10
-0.1235258341962586
 20
-0.4491890392577316
 10
-0.0000000000000029
 20
-0.4487171906386954
 10
0.1235258341962529
 20
-0.4491890392577315
 10
0.2461115622073373
 20
-0.4506009940619392
 10
0.3668242326237995
 20
-0.4529423092226966
 10
0.484745149135467
 20
-0.4561951659179058
 10
0.5989768623650901
 20
-0.4603348079439876
 10
0.7086499999999967
 20
-0.4653297301255393
 10
0.8129298832403343
 20
-0.4711419180887428
 10
0.911022879208729
 20
-0.4777271375737032
 10
1.002182440975691
 20
-0.4850352710838756
 10
1.085714789232525
 20
-0.4930106993104759
 10
1.160984192370786
 20
-0.5015927244290046
 10
1.227417804783683
 20
-0.5107160320463412
 10
1.284510026567042
 20
-0.5203111882827138
 10
1.331826351439866
 20
-0.5303051682054502
 10
1.369006673599495
 20
-0.540621911592808
 10
1.395768028344202
 20
-0.5511829017981896
 10
1.41190674560543
 20
-0.5619077633092318
 10
1.4173
 20
-0.5727148734539871
  0
LWPOLYLINE
  5
1D9
330
12E
100
AcDbEntity
  8
AM_4
100
AcDbPolyline
 90
        9
 70
     0
 43
0.0
 10
1.4173
 20
-0.5727148734539876
 10
1.411906745605431
 20
-0.583521983598743
 10
1.395768028344202
 20
-0.5942468451097851
 10
1.369006673599497
 20
-0.6048078353151667
 10
1.331826351439868
 20
-0.6151245787025246
 10
1.284510026567044
 20
-0.6251185586252609
 10
1.227417804783685
 20
-0.6347137148616336
 10
1.160984192370789
 20
-0.6438370224789701
 10
1.143987627295964
 20
-0.6459147930983165
  0
LWPOLYLINE
  5
1DA
330
12E
100
AcDbEntity
  8
AM_4
100
AcDbPolyline
 90
       37
 70
     0
 43
0.0
 10
1.4173
 20
0.5727148734539876
 10
1.411906745605431
 20
0.5619077633092323
 10
1.395768028344202
 20
0.5511829017981901
 10
1.369006673599497
 20
0.5406219115928085
 10
1.331826351439868
 20
0.5303051682054506
 10
1.284510026567044
 20
0.5203111882827144
 10
1.227417804783685
 20
0.5107160320463416
 10
1.160984192370789
 20
0.501592724429005
 10
1.085714789232528
 20
0.4930106993104764
 10
1.002182440975695
 20
0.485035271083876
 10
0.9110228792087334
 20
0.4777271375737036
 10
0.812929883240339
 20
0.4711419180887432
 10
0.7086500000000016
 20
0.4653297301255396
 10
0.5989768623650951
 20
0.4603348079439878
 10
0.4847451491354723
 20
0.456195165917906
 10
0.3668242326238048
 20
0.4529423092226968
 10
0.2461115622073428
 20
0.4506009940619393
 10
0.1235258341962585
 20
0.4491890392577317
 10
0.0000000000000027
 20
0.4487171906386955
 10
-0.1235258341962531
 20
0.4491890392577317
 10
-0.2461115622073374
 20
0.4506009940619393
 10
-0.3668242326237996
 20
0.4529423092226967
 10
-0.4847451491354672
 20
0.4561951659179059
 10
-0.5989768623650903
 20
0.4603348079439876
 10
-0.708649999999997
 20
0.4653297301255394
 10
-0.8129298832403345
 20
0.4711419180887429
 10
-0.9110228792087293
 20
0.4777271375737033
 10
-1.002182440975691
 20
0.4850352710838757
 10
-1.085714789232525
 20
0.4930106993104761
 10
-1.160984192370786
 20
0.5015927244290047
 10
-1.227417804783683
 20
0.5107160320463412
 10
-1.284510026567042
 20
0.5203111882827138
 10
-1.331826351439866
 20
0.5303051682054503
 10
-1.369006673599495
 20
0.540621911592808
 10
-1.395768028344202
 20
0.5511829017981896
 10
-1.41190674560543
 20
0.5619077633092319
 10
-1.4173
 20
0.5727148734539871
  0
LWPOLYLINE
  5
1DB
330
12E
100
AcDbEntity
  8
AM_4
100
AcDbPolyline
 90
        9
 70
     0
 43
0.0
 10
-1.4173
 20
0.5727148734539876
 10
-1.411906745605431
 20
0.5835219835987429
 10
-1.395768028344202
 20
0.5942468451097851
 10
-1.369006673599497
 20
0.6048078353151667
 10
-1.331826351439868
 20
0.6151245787025246
 10
-1.284510026567044
 20
0.6251185586252609
 10
-1.227417804783685
 20
0.6347137148616335
 10
-1.160984192370789
 20
0.6438370224789701
 10
-1.139051343843493
 20
0.6465016590642482
  0
LINE
  5
1DC
330
12E
100
AcDbEntity
  8
AM_4
100
AcDbLine
 10
1.316560632774065
 20
0.0443428181342338
 30
0.0
 11
1.242275526262368
 21
0.0443428181342338
 31
0.0
  0
LWPOLYLINE
  5
1DD
330
12E
100
AcDbEntity
  8
AM_4
100
AcDbPolyline
 90
        5
 70
     0
 43
0.0
 10
1.130919996807719
 20
-0.0465785909328831
 10
1.155004760936884
 20
-0.024166908772209
 10
1.181446817145886
 20
-0.0015551267557819
 10
1.210746922723645
 20
0.0213926749040724
 10
1.242275526262368
 20
0.0443428181342338
  0
LINE
  5
1DE
330
12E
100
AcDbEntity
  8
AM_4
100
AcDbLine
 10
1.316560632774065
 20
-0.3193428181342337
 30
0.0
 11
1.242275526262368
 21
-0.3193428181342337
 31
0.0
  0
LWPOLYLINE
  5
1DF
330
12E
100
AcDbEntity
  8
AM_4
100
AcDbPolyline
 90
        5
 70
     0
 43
0.0
 10
1.242275526262368
 20
-0.3193428181342337
 10
1.211463104820444
 20
-0.2969311359735596
 10
1.182517832914159
 20
-0.2743193539571325
 10
1.155607533706682
 20
-0.2513715522972782
 10
1.130919996807719
 20
-0.2284214090671168
  0
LINE
  5
1E0
330
12E
100
AcDbEntity
  8
AM_4
100
AcDbLine
 10
1.205205103319417
 20
-0.2284214090671168
 30
0.0
 11
1.130919996807719
 21
-0.2284214090671168
 31
0.0
  0
LINE
  5
1E1
330
12E
100
AcDbEntity
  8
AM_4
100
AcDbLine
 10
1.205205103319417
 20
-0.0465785909328831
 30
0.0
 11
1.130919996807719
 21
-0.0465785909328831
 31
0.0
  0
LWPOLYLINE
  5
1E2
330
12E
100
AcDbEntity
  8
AM_4
100
AcDbPolyline
 90
        5
 70
     0
 43
0.0
 10
1.130919996807719
 20
-0.2284214090671168
 10
1.12755616815134
 20
-0.1835980447457687
 10
1.126304560302699
 20
-0.1383744807129145
 10
1.127499463487839
 20
-0.092478877393206
 10
1.130919996807719
 20
-0.0465785909328831
  0
ELLIPSE
  5
1E3
330
12E
100
AcDbEntity
  8
AM_4
100
AcDbEllipse
 10
1.321176624034578
 20
-0.1374999999999998
 30
0.0
 11
-2.892860668945877E-17
 21
-0.15748
 31
0.0
210
0.0
220
0.0
230
1.0
 40
0.7071067811865472
 41
2.291592049407885
 42
7.134958084055695
  0
LWPOLYLINE
  5
1E4
330
12E
100
AcDbEntity
  8
AM_4
100
AcDbPolyline
 90
        3
 70
     0
 43
0.0
 10
1.41266502046417
 20
-0.0321849089513953
 10
1.407661599283078
 20
-0.0276142973958708
 10
1.385778665796587
 20
-0.0085117788535124
  0
LWPOLYLINE
  5
1E5
330
12E
100
AcDbEntity
  8
AM_4
100
AcDbPolyline
 90
        3
 70
     0
 43
0.0
 10
1.367667402070812
 20
0.0062760060548633
 10
1.342834353373454
 20
0.0253224548133508
 10
1.316560632774065
 20
0.0443428181342338
  0
LWPOLYLINE
  5
1E6
330
12E
100
AcDbEntity
  8
AM_4
100
AcDbPolyline
 90
        3
 70
     0
 43
0.0
 10
1.316560632774065
 20
0.0443428181342338
 10
1.296306069828431
 20
0.0253785245972222
 10
1.27442313634194
 20
0.0062760060548644
  0
LWPOLYLINE
  5
1E7
330
12E
100
AcDbEntity
  8
AM_4
100
AcDbPolyline
 90
        3
 70
     0
 43
0.0
 10
1.256311872616162
 20
-0.008511778853514
 10
1.231478823918805
 20
-0.0275582276120008
 10
1.205205103319417
 20
-0.0465785909328831
  0
LWPOLYLINE
  5
1E8
330
12E
100
AcDbEntity
  8
AM_4
100
AcDbPolyline
 90
        3
 70
     0
 43
0.0
 10
1.205205103319417
 20
-0.0465785909328831
 10
1.208176961622802
 20
-0.0845071780069057
 10
1.209689739751727
 20
-0.1227122150916204
  0
LWPOLYLINE
  5
1E9
330
12E
100
AcDbEntity
  8
AM_4
100
AcDbPolyline
 90
        3
 70
     0
 43
0.0
 10
1.209689739751727
 20
-0.1522877849083794
 10
1.207990270853476
 20
-0.1935058299020096
 10
1.205205103319417
 20
-0.2284214090671168
  0
LWPOLYLINE
  5
1EA
330
12E
100
AcDbEntity
  8
AM_4
100
AcDbPolyline
 90
        3
 70
     0
 43
0.0
 10
1.205205103319417
 20
-0.2284214090671168
 10
1.231403382871822
 20
-0.2473857026041285
 10
1.256311872616162
 20
-0.2664882211464861
  0
LWPOLYLINE
  5
1EB
330
12E
100
AcDbEntity
  8
AM_4
100
AcDbPolyline
 90
        3
 70
     0
 43
0.0
 10
1.27442313634194
 20
-0.2812760060548641
 10
1.296244168514942
 20
-0.3003224548133512
 10
1.316560632774065
 20
-0.3193428181342337
  0
LWPOLYLINE
  5
1EC
330
12E
100
AcDbEntity
  8
AM_4
100
AcDbPolyline
 90
        3
 70
     0
 43
0.0
 10
1.316560632774065
 20
-0.3193428181342337
 10
1.342758912326471
 20
-0.3003785245972213
 10
1.367667402070812
 20
-0.2812760060548632
  0
LWPOLYLINE
  5
1ED
330
12E
100
AcDbEntity
  8
AM_4
100
AcDbPolyline
 90
        3
 70
     0
 43
0.0
 10
1.385778665796587
 20
-0.2664882211464874
 10
1.40759969796959
 20
-0.2474417723879997
 10
1.412715499242331
 20
-0.2427685916202033
  0
LWPOLYLINE
  5
1EE
330
12E
100
AcDbEntity
  8
AM_4
100
AcDbPolyline
 90
        3
 70
     0
 43
0.0
 10
1.448855991763504
 20
-0.2382871595412746
 10
1.452751244204854
 20
-0.2364403572966935
 10
1.458872186768447
 20
-0.232914439202381
  0
LWPOLYLINE
  5
1EF
330
12E
100
AcDbEntity
  8
AM_4
100
AcDbPolyline
 90
       19
 70
     0
 43
0.0
 10
1.341994849327374
 20
-0.1374999999999999
 10
1.34213788400768
 20
-0.1438740493388732
 10
1.343138862416406
 20
-0.1554672618654719
 10
1.345091201726307
 20
-0.1668685292728396
 10
1.34798258329207
 20
-0.1779454135247316
 10
1.351794421557093
 20
-0.1885704497882622
 10
1.35650077403705
 20
-0.1986161367710411
 10
1.362065127192999
 20
-0.2079524285889511
 10
1.368434140398888
 20
-0.216445177358688
 10
1.375535164124456
 20
-0.2239643346405441
 10
1.383271097308434
 20
-0.2303887303779449
 10
1.391520989128542
 20
-0.2356170509380789
 10
1.400147767877375
 20
-0.2395786177959554
 10
1.409010965864387
 20
-0.2422381188303088
 10
1.417978757764927
 20
-0.2435916813839488
 10
1.42693481601649
 20
-0.2436570230413515
 10
1.435779291057064
 20
-0.2424626399157082
 10
1.444409917126756
 20
-0.2400452258157608
 10
1.448312988520753
 20
-0.2385214596417737
  0
LWPOLYLINE
  5
1F0
330
12E
100
AcDbEntity
  8
AM_4
100
AcDbPolyline
 90
       20
 70
     0
 43
0.0
 10
1.451218547252999
 20
-0.0377976818376901
 10
1.449905250938513
 20
-0.0371814063919276
 10
1.4411394802108
 20
-0.033888189800404
 10
1.432206842090012
 20
-0.0319024183133605
 10
1.423231641856811
 20
-0.0312154434888885
 10
1.414321526625546
 20
-0.031802756482959
 10
1.40557689437835
 20
-0.0336314907883919
 10
1.397086263911488
 20
-0.0366644205130575
 10
1.388921708775023
 20
-0.0408678122591093
 10
1.381156326748348
 20
-0.0462082533392519
 10
1.373869438110592
 20
-0.0526448246764003
 10
1.367147159990881
 20
-0.0601198024122714
 10
1.361077817162964
 20
-0.0685523359493319
 10
1.355744390674844
 20
-0.0778383132438212
 10
1.351217814574349
 20
-0.0878559058600989
 10
1.347553752207887
 20
-0.0984732151214746
 10
1.344793426359381
 20
-0.109551650672747
 10
1.342963581623724
 20
-0.1209568201006816
 10
1.34208086794211
 20
-0.1325560726083855
 10
1.341994849327374
 20
-0.1374999999999999
  0
LINE
  5
1F1
330
12E
100
AcDbEntity
  8
AM_4
100
AcDbLine
 10
1.457422332532878
 20
-0.0411778773120173
 30
0.0
 11
1.451850247830151
 21
-0.0381060914460499
 31
0.0
  0
ELLIPSE
  5
1F2
330
12E
100
AcDbEntity
  8
AM_4
100
AcDbEllipse
 10
1.428085038497207
 20
-0.1374999999999998
 30
0.0
 11
-1.926567240316125E-17
 21
-0.1048774357720923
 31
0.0
210
0.0
220
0.0
230
1.0
 40
0.7071067811865466
 41
2.730079687431004
 42
6.694698273338377
  0
LINE
  5
1F3
330
12E
100
AcDbEntity
  8
AM_4
100
AcDbLine
 10
1.489210941796924
 20
-0.0607968572406101
 30
0.0
 11
1.457748593197166
 21
-0.0413780796110768
 31
0.0
  0
LINE
  5
1F4
330
12E
100
AcDbEntity
  8
AM_4
100
AcDbLine
 10
1.457748593197166
 20
-0.2336219203889231
 30
0.0
 11
1.489210941796924
 21
-0.2142031427593896
 31
0.0
  0
ELLIPSE
  5
1F5
330
12E
100
AcDbEntity
  8
AM_4
100
AcDbEllipse
 10
1.465540088554545
 20
-0.1374999999999996
 30
0.0
 11
-1.537357571213899E-17
 21
-0.08368984822313763
 31
0.0
210
0.0
220
0.0
230
1.0
 40
0.7071067811865465
 41
2.730079687431003
 42
6.694698273338373
  0
ELLIPSE
  5
1F6
330
12E
100
AcDbEntity
  8
AM_4
100
AcDbEllipse
 10
1.474289990898808
 20
-0.1374999999999999
 30
0.0
 11
4.005376489621533E-18
 21
0.06541276215167072
 31
0.0
210
0.0
220
0.0
230
1.0
 40
0.7071067811865459
 41
0.0
 42
6.283185307179586
  0
LWPOLYLINE
  5
1F7
330
12E
100
AcDbEntity
  8
AM_4
100
AcDbPolyline
 90
       20
 70
     0
 43
0.0
 10
1.490139548539521
 20
-0.2136183505981262
 10
1.491366313632706
 20
-0.2128093757307913
 10
1.498159372681266
 20
-0.2075082507999266
 10
1.504418513119874
 20
-0.201154512737638
 10
1.51004986139073
 20
-0.193818939683014
 10
1.514957983260429
 20
-0.1856033912851616
 10
1.519057225406626
 20
-0.1766385168748085
 10
1.522280140274641
 20
-0.1670731426795205
 10
1.524579000635627
 20
-0.1570657847366279
 10
1.525925252582988
 20
-0.146769746029067
 10
1.526303332031847
 20
-0.1363330144392843
 10
1.525706867034668
 20
-0.1259009593192962
 10
1.524137364344375
 20
-0.1156189887028189
 10
1.521603494440888
 20
-0.1056304715734898
 10
1.518120608915668
 20
-0.0960775176293142
 10
1.513712544822082
 20
-0.087104598687948
 10
1.508419260591757
 20
-0.0788651098395794
 10
1.502305973714638
 20
-0.0715180847683689
 10
1.49547034331801
 20
-0.0652171708239642
 10
1.490364098704103
 20
-0.0615265943520749
  0
LINE
  5
1F8
330
12E
100
AcDbEntity
  8
AM_4
100
AcDbLine
 10
1.16271407700807
 20
-0.6874999999999996
 30
0.0
 11
1.143987627295964
 21
-0.6550648376532483
 31
0.0
  0
LWPOLYLINE
  5
1F9
330
12E
100
AcDbEntity
  8
AM_4
100
AcDbPolyline
 90
       19
 70
     0
 43
0.0
 10
1.809055105565543
 20
-0.6875
 10
1.803908114440827
 20
-0.6874803393725855
 10
1.798800294984052
 20
-0.6874215070347118
 10
1.793770520785468
 20
-0.6873239507359943
 10
1.788857071463788
 20
-0.6871884129387721
 10
1.784097341335172
 20
-0.6870159251675221
 10
1.779527554819902
 20
-0.6868078001583346
 10
1.775182490752671
 20
-0.6865656218681987
 10
1.771095217694654
 20
-0.6862912334201337
 10
1.767296842261783
 20
-0.6859867230759095
 10
1.763816272384626
 20
-0.6856544083431139
 10
1.760679997301573
 20
-0.6852968183375209
 10
1.757911885959741
 20
-0.6849166745349917
 10
1.755533005357872
 20
-0.6845168700594008
 10
1.753561460213754
 20
-0.6841004476642156
 10
1.752012255176385
 20
-0.6836705765753066
 10
1.750897180631535
 20
-0.6832305283712233
 10
1.750224722969791
 20
-0.6827836520845074
 10
1.75
 20
-0.682333348713532
  0
LWPOLYLINE
  5
1FA
330
12E
100
AcDbEntity
  8
AM_4
100
AcDbPolyline
 90
       19
 70
     0
 43
0.0
 10
-1.75
 20
-0.6823333482266103
 10
-1.750224722484722
 20
-0.6827836515994385
 10
-1.750897179665089
 20
-0.6832305278916991
 10
-1.752012253735916
 20
-0.6836705761049764
 10
-1.753561458310226
 20
-0.684100447206659
 10
-1.755533003005772
 20
-0.6845168696180998
 10
-1.75791188317697
 20
-0.6849166741133053
 10
-1.760679994109309
 20
-0.685296817938658
 10
-1.763816268807165
 20
-0.6856544079701102
 10
-1.767296838326351
 20
-0.6859867227316037
 10
-1.771095213431201
 20
-0.6862912331071463
 10
-1.775182486193646
 20
-0.6865656215889119
 10
-1.77952755
 20
-0.6868077999148738
 10
-1.784097336291077
 20
-0.6870159249617402
 10
-1.788857066233889
 20
-0.6871884127722352
 10
-1.793770515409566
 20
-0.6873239506099698
 10
-1.798800289503062
 20
-0.6874215069501589
 10
-1.803908108896463
 20
-0.6874803393301475
 10
-1.8090551
 20
-0.6875000000000001
  0
LINE
  5
1FB
330
12E
100
AcDbEntity
  8
AM_4
100
AcDbLine
 10
-1.1484375
 20
-0.6627589584150947
 30
0.0
 11
-1.162721747019077
 21
-0.6875000000000001
 31
0.0
  0
LWPOLYLINE
  5
1FC
330
12E
100
AcDbEntity
  8
AM_4
100
AcDbPolyline
 90
        9
 70
     0
 43
0.0
 10
-1.1484375
 20
-0.645379493909649
 10
-1.216455458226517
 20
-0.6363459870018175
 10
-1.275215455900043
 20
-0.6268282088983702
 10
-1.324270293958025
 20
-0.6168985956376658
 10
-1.363246635462721
 20
-0.6066327175722827
 10
-1.39184784692072
 20
-0.5961087042330052
 10
-1.409856255842946
 20
-0.5854066497159182
 10
-1.417134807363724
 20
-0.5746080031179738
 10
-1.4173
 20
-0.5727148734539876
  0
LWPOLYLINE
  5
1FD
330
12E
100
AcDbEntity
  8
AM_4
100
AcDbPolyline
 90
       19
 70
     0
 43
0.0
 10
-1.809055094297016
 20
0.6874999999999999
 10
-1.80390810321518
 20
0.6874803392866612
 10
-1.798800283886719
 20
0.6874215068635174
 10
-1.793770509900906
 20
0.6873239504808326
 10
-1.788857060874836
 20
0.6871884126015851
 10
-1.784097331122418
 20
0.6870159247508759
 10
-1.779527545061071
 20
0.6868077996654003
 10
-1.775182481522034
 20
0.6865656213027276
 10
-1.771095209062461
 20
0.6862912327864295
 10
-1.767296834293732
 20
0.685986722378795
 10
-1.763816265141357
 20
0.6856544075878948
 10
-1.760679990838212
 20
0.6852968175299448
 10
-1.757911880325478
 20
0.6849166736812046
 10
-1.755533000595587
 20
0.6845168691659004
 10
-1.753561456359691
 20
0.6841004467378022
 10
-1.752012252259876
 20
0.6836705756230307
 10
-1.750897178674776
 20
0.6832305274003324
 10
-1.750224721987675
 20
0.6827836511023905
 10
-1.75
 20
0.6823333482266101
  0
LINE
  5
1FE
330
12E
100
AcDbEntity
  8
AM_4
100
AcDbLine
 10
-1.75
 20
-0.6823333482266103
 30
0.0
 11
-1.75
 21
0.6823333482266101
 31
0.0
  0
LINE
  5
1FF
330
12E
100
AcDbEntity
  8
AM_4
100
AcDbLine
 10
1.75
 20
0.6823333482266101
 30
0.0
 11
1.75
 21
-0.6823333482266102
 31
0.0
  0
LWPOLYLINE
  5
200
330
12E
100
AcDbEntity
  8
AM_4
100
AcDbPolyline
 90
       19
 70
     0
 43
0.0
 10
1.75
 20
0.6823333482266101
 10
1.750224722484722
 20
0.6827836515994383
 10
1.750897179665088
 20
0.6832305278916988
 10
1.752012253735916
 20
0.6836705761049761
 10
1.753561458310226
 20
0.6841004472066586
 10
1.755533003005772
 20
0.6845168696180995
 10
1.757911883176969
 20
0.6849166741133049
 10
1.760679994109309
 20
0.6852968179386577
 10
1.763816268807164
 20
0.68565440797011
 10
1.76729683832635
 20
0.6859867227316034
 10
1.7710952134312
 20
0.6862912331071461
 10
1.775182486193645
 20
0.6865656215889117
 10
1.77952755
 20
0.6868077999148736
 10
1.784097336291077
 20
0.6870159249617399
 10
1.788857066233889
 20
0.6871884127722349
 10
1.793770515409566
 20
0.6873239506099695
 10
1.798800289503062
 20
0.6874215069501587
 10
1.803908108896463
 20
0.6874803393301474
 10
1.8090551
 20
0.6874999999999999
  0
LWPOLYLINE
  5
201
330
12E
100
AcDbEntity
  8
AM_4
100
AcDbPolyline
 90
        9
 70
     0
 43
0.0
 10
1.139044163655933
 20
0.6465025074633445
 10
1.208216606511243
 20
0.6375363526494334
 10
1.268193791449868
 20
0.6280768672385657
 10
1.318519255879212
 20
0.6181960436265115
 10
1.358809992627622
 20
0.6079690808471632
 10
1.388759364860229
 20
0.5974738122624801
 10
1.408139439770418
 20
0.5867901132036086
 10
1.416802723286114
 20
0.5759992930713802
 10
1.4173
 20
0.5727148734539876
  0
LWPOLYLINE
  5
202
330
12E
100
AcDbEntity
  8
AM_4
100
AcDbPolyline
 90
       37
 70
     0
 43
0.0
 10
-1.75
 20
-0.5727148734539876
 10
-1.743340721660554
 20
-0.5593708794136844
 10
-1.723413567771364
 20
-0.5461284412253518
 10
-1.690370196005869
 20
-0.5330883418396057
 10
-1.644462086375339
 20
-0.5203498242865991
 10
-1.586038627314138
 20
-0.5080098363766375
 10
-1.515544456622768
 20
-0.4961622928688041
 10
-1.433516077505736
 20
-0.484897360722936
 10
-1.340577775458212
 20
-0.4743007728746151
 10
-1.23743686707646
 20
-0.4644531757557619
 10
-1.124878316951445
 20
-0.4554295155265925
 10
-1.003758763614332
 20
-0.447298467690086
 10
-0.8750000000000019
 20
-0.440121914429939
 10
-0.7395819580462262
 20
-0.4339544736497827
 10
-0.5985352508199228
 20
-0.4288430832979566
 10
-0.452933328929414
 20
-0.4248266441413799
 10
-0.303884310917131
 20
-0.4219357237072265
 10
-0.152522549808405
 20
-0.4201923236455857
 10
-0.0000000000000034
 20
-0.4196097122836205
 10
0.1525225498083982
 20
-0.4201923236455857
 10
0.3038843109171244
 20
-0.4219357237072264
 10
0.4529333289294075
 20
-0.4248266441413797
 10
0.5985352508199163
 20
-0.4288430832979563
 10
0.7395819580462201
 20
-0.4339544736497824
 10
0.874999999999996
 20
-0.4401219144299387
 10
1.003758763614327
 20
-0.4472984676900856
 10
1.12487831695144
 20
-0.4554295155265921
 10
1.237436867076455
 20
-0.4644531757557614
 10
1.340577775458208
 20
-0.4743007728746146
 10
1.433516077505733
 20
-0.4848973607229355
 10
1.515544456622765
 20
-0.4961622928688036
 10
1.586038627314135
 20
-0.508009836376637
 10
1.644462086375337
 20
-0.5203498242865986
 10
1.690370196005867
 20
-0.5330883418396051
 10
1.723413567771363
 20
-0.5461284412253512
 10
1.743340721660554
 20
-0.5593708794136838
 10
1.75
 20
-0.572714873453987
  0
LWPOLYLINE
  5
203
330
12E
100
AcDbEntity
  8
AM_4
100
AcDbPolyline
 90
       37
 70
     0
 43
0.0
 10
1.75
 20
0.5727148734539876
 10
1.743340721660555
 20
0.5593708794136844
 10
1.723413567771364
 20
0.5461284412253518
 10
1.69037019600587
 20
0.5330883418396059
 10
1.64446208637534
 20
0.5203498242865991
 10
1.586038627314138
 20
0.5080098363766375
 10
1.515544456622768
 20
0.4961622928688042
 10
1.433516077505736
 20
0.484897360722936
 10
1.340577775458212
 20
0.4743007728746151
 10
1.23743686707646
 20
0.4644531757557619
 10
1.124878316951445
 20
0.4554295155265926
 10
1.003758763614332
 20
0.447298467690086
 10
0.8750000000000019
 20
0.4401219144299391
 10
0.7395819580462262
 20
0.4339544736497827
 10
0.5985352508199228
 20
0.4288430832979566
 10
0.452933328929414
 20
0.4248266441413799
 10
0.3038843109171311
 20
0.4219357237072265
 10
0.152522549808405
 20
0.4201923236455859
 10
0.0000000000000035
 20
0.4196097122836206
 10
-0.1525225498083981
 20
0.4201923236455858
 10
-0.3038843109171243
 20
0.4219357237072265
 10
-0.4529333289294074
 20
0.4248266441413798
 10
-0.5985352508199162
 20
0.4288430832979565
 10
-0.73958195804622
 20
0.4339544736497826
 10
-0.8749999999999959
 20
0.4401219144299388
 10
-1.003758763614327
 20
0.4472984676900857
 10
-1.12487831695144
 20
0.4554295155265922
 10
-1.237436867076455
 20
0.4644531757557616
 10
-1.340577775458208
 20
0.4743007728746147
 10
-1.433516077505732
 20
0.4848973607229356
 10
-1.515544456622764
 20
0.4961622928688038
 10
-1.586038627314134
 20
0.508009836376637
 10
-1.644462086375337
 20
0.5203498242865986
 10
-1.690370196005867
 20
0.5330883418396052
 10
-1.723413567771362
 20
0.5461284412253512
 10
-1.743340721660554
 20
0.5593708794136838
 10
-1.75
 20
0.5727148734539871
  0
ENDBLK
  5
131
330
12E
100
AcDbEntity
  8
0
100
AcDbBlockEnd
  0
ENDSEC
  0
SECTION
  2
ENTITIES
  0
INSERT
  5
6F
330
1F
100
AcDbEntity
  8
0
100
AcDbBlockReference
  2
1__129269_4
 10
0.0
 20
0.0
 30
0.0
  0
POINT
  5
205
330
1F
100
AcDbEntity
  8
ConnectionPoints
100
AcDbPoint
 10
0.0
 20
0.0
 30
0.0
  0
POINT
  5
206
330
1F
100
AcDbEntity
  8
ConnectionPoints
100
AcDbPoint
 10
0.0
 20
0.5625
 30
0.0
  0
POINT
  5
207
330
1F
100
AcDbEntity
  8
ConnectionPoints
100
AcDbPoint
 10
0.0
 20
0.0
 30
0.0
  0
ENDSEC
  0
SECTION
  2
OBJECTS
  0
DICTIONARY
  5
C
330
0
100
AcDbDictionary
281
     1
  3
ACAD_DETAILVIEWSTYLE
350
20F
  3
ACAD_GROUP
350
D
  3
ACAD_LAYOUT
350
1A
  3
ACAD_MATERIAL
350
43
  3
ACAD_MLEADERSTYLE
350
6B
  3
ACAD_MLINESTYLE
350
17
  3
ACAD_PLOTSETTINGS
350
19
  3
ACAD_PLOTSTYLENAME
350
E
  3
ACAD_SCALELIST
350
47
  3
ACAD_SECTIONVIEWSTYLE
350
210
  3
ACAD_TABLESTYLE
350
69
  3
ACAD_VISUALSTYLE
350
2A
  3
ACDB_RECOMPOSE_DATA
350
20C
  3
AcDbVariableDictionary
350
208
  0
SUN
  5
6D
330
29
100
AcDbSun
 90
        1
290
     0
 63
     7
421
 16777215
 40
1.0
291
     1
 91
  2455826
 92
 54000000
292
     0
 70
     2
 71
   256
280
     1
  0
DICTIONARY
  5
20F
102
{ACAD_REACTORS
330
C
102
}
330
C
100
AcDbDictionary
281
     1
  0
DICTIONARY
  5
D
102
{ACAD_REACTORS
330
C
102
}
330
C
100
AcDbDictionary
281
     1
  0
DICTIONARY
  5
1A
102
{ACAD_REACTORS
330
C
102
}
330
C
100
AcDbDictionary
281
     1
  3
Layout1
350
1E
  3
Layout2
350
26
  3
Model
350
22
  0
DICTIONARY
  5
43
102
{ACAD_REACTORS
330
C
102
}
330
C
100
AcDbDictionary
281
     1
  3
ByBlock
350
45
  3
ByLayer
350
44
  3
Global
350
46
  0
DICTIONARY
  5
6B
102
{ACAD_REACTORS
330
C
102
}
330
C
100
AcDbDictionary
281
     1
  3
Standard
350
6C
  0
DICTIONARY
  5
17
102
{ACAD_REACTORS
330
C
102
}
330
C
100
AcDbDictionary
281
     1
  3
Standard
350
18
  0
DICTIONARY
  5
19
102
{ACAD_REACTORS
330
C
102
}
330
C
100
AcDbDictionary
281
     1
  0
ACDBDICTIONARYWDFLT
  5
E
102
{ACAD_REACTORS
330
C
102
}
330
C
100
AcDbDictionary
281
     1
  3
Normal
350
F
100
AcDbDictionaryWithDefault
340
F
  0
DICTIONARY
  5
47
102
{ACAD_REACTORS
330
C
102
}
330
C
100
AcDbDictionary
281
     1
  3
A0
350
48
  3
A1
350
49
  3
A2
350
4A
  3
A3
350
4B
  3
A4
350
4C
  3
A5
350
4D
  3
A6
350
4E
  3
A7
350
4F
  3
A8
350
50
  3
A9
350
51
  3
B0
350
52
  3
B1
350
53
  3
B2
350
54
  3
B3
350
55
  3
B4
350
56
  3
B5
350
57
  3
B6
350
58
  3
B7
350
59
  3
B8
350
5A
  3
B9
350
5B
  3
C0
350
5C
  3
C1
350
5D
  3
C2
350
5E
  3
C3
350
5F
  3
C4
350
60
  3
C5
350
61
  3
C6
350
62
  3
C7
350
63
  3
C8
350
64
  3
C9
350
65
  3
D0
350
66
  3
D1
350
67
  3
D2
350
68
  0
DICTIONARY
  5
210
102
{ACAD_REACTORS
330
C
102
}
330
C
100
AcDbDictionary
281
     1
  0
DICTIONARY
  5
69
102
{ACAD_REACTORS
330
C
102
}
330
C
100
AcDbDictionary
281
     1
  3
Standard
350
6A
  0
DICTIONARY
  5
2A
102
{ACAD_REACTORS
330
C
102
}
330
C
100
AcDbDictionary
281
     1
  3
2dWireframe
350
2F
  3
Basic
350
32
  3
Brighten
350
36
  3
ColorChange
350
3A
  3
Conceptual
350
34
  3
Dim
350
35
  3
EdgeColorOff
350
3D
  3
Facepattern
350
39
  3
Flat
350
2B
  3
FlatWithEdges
350
2C
  3
Gouraud
350
2D
  3
GouraudWithEdges
350
2E
  3
Hidden
350
31
  3
JitterOff
350
3B
  3
Linepattern
350
38
  3
OverhangOff
350
3C
  3
Realistic
350
33
  3
Shaded
350
42
  3
Shaded with edges
350
41
  3
Shades of Gray
350
3E
  3
Sketchy
350
3F
  3
Thicken
350
37
  3
Wireframe
350
30
  3
X-Ray
350
40
  0
XRECORD
  5
20C
102
{ACAD_REACTORS
330
C
102
}
330
C
100
AcDbXrecord
280
     1
 90
        1
330
6A
  0
DICTIONARY
  5
208
102
{ACAD_REACTORS
330
C
102
}
330
C
100
AcDbDictionary
281
     1
  3
CANNOSCALE
350
209
  3
CMLEADERSTYLE
350
20E
  3
CTABLESTYLE
350
20D
  0
LAYOUT
  5
1E
102
{ACAD_REACTORS
330
1A
102
}
330
1A
100
AcDbPlotSettings
  1

  2
none_device
  4

  6

 40
0.0
 41
0.0
 42
0.0
 43
0.0
 44
0.0
 45
0.0
 46
0.0
 47
0.0
 48
0.0
 49
0.0
140
0.0
141
0.0
142
1.0
143
1.0
 70
   688
 72
     0
 73
     0
 74
     5
  7

 75
    16
 76
     0
 77
     2
 78
   300
147
1.0
148
0.0
149
0.0
100
AcDbLayout
  1
Layout1
 70
     1
 71
     1
 10
0.0
 20
0.0
 11
12.0
 21
9.0
 12
0.0
 22
0.0
 32
0.0
 14
1.000000000000000E+20
 24
1.000000000000000E+20
 34
1.000000000000000E+20
 15
-1.000000000000000E+20
 25
-1.000000000000000E+20
 35
-1.000000000000000E+20
146
0.0
 13
0.0
 23
0.0
 33
0.0
 16
1.0
 26
0.0
 36
0.0
 17
0.0
 27
1.0
 37
0.0
 76
     0
330
1B
  0
LAYOUT
  5
26
102
{ACAD_REACTORS
330
1A
102
}
330
1A
100
AcDbPlotSettings
  1

  2
none_device
  4

  6

 40
0.0
 41
0.0
 42
0.0
 43
0.0
 44
0.0
 45
0.0
 46
0.0
 47
0.0
 48
0.0
 49
0.0
140
0.0
141
0.0
142
1.0
143
1.0
 70
   688
 72
     0
 73
     0
 74
     5
  7

 75
    16
 76
     0
 77
     2
 78
   300
147
1.0
148
0.0
149
0.0
100
AcDbLayout
  1
Layout2
 70
     1
 71
     2
 10
0.0
 20
0.0
 11
0.0
 21
0.0
 12
0.0
 22
0.0
 32
0.0
 14
0.0
 24
0.0
 34
0.0
 15
0.0
 25
0.0
 35
0.0
146
0.0
 13
0.0
 23
0.0
 33
0.0
 16
1.0
 26
0.0
 36
0.0
 17
0.0
 27
1.0
 37
0.0
 76
     0
330
23
  0
LAYOUT
  5
22
102
{ACAD_REACTORS
330
1A
102
}
330
1A
100
AcDbPlotSettings
  1

  2
none_device
  4
Letter_(8.50_x_11.00_Inches)
  6

 40
6.35
 41
6.35
 42
6.35000508
 43
6.35000508
 44
215.9
 45
279.4
 46
0.0
 47
0.0
 48
0.0
 49
0.0
140
0.0
141
0.0
142
1.0
143
1.0
 70
  1712
 72
     0
 73
     0
 74
     0
  7

 75
     0
 76
     0
 77
     2
 78
   300
147
1.0
148
0.0
149
0.0
100
AcDbLayout
  1
Model
 70
     1
 71
     0
 10
0.0
 20
0.0
 11
12.0
 21
9.0
 12
0.0
 22
0.0
 32
0.0
 14
1.000000000000000E+20
 24
1.000000000000000E+20
 34
1.000000000000000E+20
 15
-1.000000000000000E+20
 25
-1.000000000000000E+20
 35
-1.000000000000000E+20
146
0.0
 13
0.0
 23
0.0
 33
0.0
 16
1.0
 26
0.0
 36
0.0
 17
0.0
 27
1.0
 37
0.0
 76
     0
330
1F
331
29
  0
MATERIAL
  5
45
102
{ACAD_REACTORS
330
43
102
}
330
43
100
AcDbMaterial
  1
ByBlock
 72
     1
 94
      127
  0
MATERIAL
  5
44
102
{ACAD_REACTORS
330
43
102
}
330
43
100
AcDbMaterial
  1
ByLayer
 72
     1
 94
      127
  0
MATERIAL
  5
46
102
{ACAD_REACTORS
330
43
102
}
330
43
100
AcDbMaterial
  1
Global
 72
     1
 94
      127
  0
MLEADERSTYLE
  5
6C
102
{ACAD_REACTORS
330
6B
102
}
330
6B
100
AcDbMLeaderStyle
179
     2
170
     2
171
     1
172
     0
 90
        2
 40
0.0
 41
0.0
173
     1
 91
-1056964608
340
14
 92
       -2
290
     1
 42
0.09
291
     1
 43
0.36
  3
Standard
341
0
 44
0.18
300

342
11
174
     1
178
     6
175
     1
176
     0
 93
-1056964608
 45
0.18
292
     0
297
     0
 46
0.18
343
0
 94
-1056964608
 47
1.0
 49
1.0
140
1.0
293
     1
141
0.0
294
     1
177
     0
142
1.0
295
     0
296
     0
143
0.125
271
     0
272
     9
273
     9
298
     0
  0
MLINESTYLE
  5
18
102
{ACAD_REACTORS
330
17
102
}
330
17
100
AcDbMlineStyle
  2
Standard
 70
     0
  3

 62
   256
 51
90.0
 52
90.0
 71
     2
 49
0.5
 62
   256
  6
BYLAYER
 49
-0.5
 62
   256
  6
BYLAYER
  0
ACDBPLACEHOLDER
  5
F
102
{ACAD_REACTORS
330
E
102
}
330
E
  0
SCALE
  5
48
102
{ACAD_REACTORS
330
47
102
}
330
47
100
AcDbScale
 70
     0
300
1:1
140
1.0
141
1.0
290
     1
  0
SCALE
  5
49
102
{ACAD_REACTORS
330
47
102
}
330
47
100
AcDbScale
 70
     0
300
1:2
140
1.0
141
2.0
290
     0
  0
SCALE
  5
4A
102
{ACAD_REACTORS
330
47
102
}
330
47
100
AcDbScale
 70
     0
300
1:4
140
1.0
141
4.0
290
     0
  0
SCALE
  5
4B
102
{ACAD_REACTORS
330
47
102
}
330
47
100
AcDbScale
 70
     0
300
1:5
140
1.0
141
5.0
290
     0
  0
SCALE
  5
4C
102
{ACAD_REACTORS
330
47
102
}
330
47
100
AcDbScale
 70
     0
300
1:8
140
1.0
141
8.0
290
     0
  0
SCALE
  5
4D
102
{ACAD_REACTORS
330
47
102
}
330
47
100
AcDbScale
 70
     0
300
1:10
140
1.0
141
10.0
290
     0
  0
SCALE
  5
4E
102
{ACAD_REACTORS
330
47
102
}
330
47
100
AcDbScale
 70
     0
300
1:16
140
1.0
141
16.0
290
     0
  0
SCALE
  5
4F
102
{ACAD_REACTORS
330
47
102
}
330
47
100
AcDbScale
 70
     0
300
1:20
140
1.0
141
20.0
290
     0
  0
SCALE
  5
50
102
{ACAD_REACTORS
330
47
102
}
330
47
100
AcDbScale
 70
     0
300
1:30
140
1.0
141
30.0
290
     0
  0
SCALE
  5
51
102
{ACAD_REACTORS
330
47
102
}
330
47
100
AcDbScale
 70
     0
300
1:40
140
1.0
141
40.0
290
     0
  0
SCALE
  5
52
102
{ACAD_REACTORS
330
47
102
}
330
47
100
AcDbScale
 70
     0
300
1:50
140
1.0
141
50.0
290
     0
  0
SCALE
  5
53
102
{ACAD_REACTORS
330
47
102
}
330
47
100
AcDbScale
 70
     0
300
1:100
140
1.0
141
100.0
290
     0
  0
SCALE
  5
54
102
{ACAD_REACTORS
330
47
102
}
330
47
100
AcDbScale
 70
     0
300
2:1
140
2.0
141
1.0
290
     0
  0
SCALE
  5
55
102
{ACAD_REACTORS
330
47
102
}
330
47
100
AcDbScale
 70
     0
300
4:1
140
4.0
141
1.0
290
     0
  0
SCALE
  5
56
102
{ACAD_REACTORS
330
47
102
}
330
47
100
AcDbScale
 70
     0
300
8:1
140
8.0
141
1.0
290
     0
  0
SCALE
  5
57
102
{ACAD_REACTORS
330
47
102
}
330
47
100
AcDbScale
 70
     0
300
10:1
140
10.0
141
1.0
290
     0
  0
SCALE
  5
58
102
{ACAD_REACTORS
330
47
102
}
330
47
100
AcDbScale
 70
     0
300
100:1
140
100.0
141
1.0
290
     0
  0
SCALE
  5
59
102
{ACAD_REACTORS
330
47
102
}
330
47
100
AcDbScale
 70
     0
300
1/128" = 1'-0"
140
0.0078125
141
12.0
290
     0
  0
SCALE
  5
5A
102
{ACAD_REACTORS
330
47
102
}
330
47
100
AcDbScale
 70
     0
300
1/64" = 1'-0"
140
0.015625
141
12.0
290
     0
  0
SCALE
  5
5B
102
{ACAD_REACTORS
330
47
102
}
330
47
100
AcDbScale
 70
     0
300
1/32" = 1'-0"
140
0.03125
141
12.0
290
     0
  0
SCALE
  5
5C
102
{ACAD_REACTORS
330
47
102
}
330
47
100
AcDbScale
 70
     0
300
1/16" = 1'-0"
140
0.0625
141
12.0
290
     0
  0
SCALE
  5
5D
102
{ACAD_REACTORS
330
47
102
}
330
47
100
AcDbScale
 70
     0
300
3/32" = 1'-0"
140
0.09375
141
12.0
290
     0
  0
SCALE
  5
5E
102
{ACAD_REACTORS
330
47
102
}
330
47
100
AcDbScale
 70
     0
300
1/8" = 1'-0"
140
0.125
141
12.0
290
     0
  0
SCALE
  5
5F
102
{ACAD_REACTORS
330
47
102
}
330
47
100
AcDbScale
 70
     0
300
3/16" = 1'-0"
140
0.1875
141
12.0
290
     0
  0
SCALE
  5
60
102
{ACAD_REACTORS
330
47
102
}
330
47
100
AcDbScale
 70
     0
300
1/4" = 1'-0"
140
0.25
141
12.0
290
     0
  0
SCALE
  5
61
102
{ACAD_REACTORS
330
47
102
}
330
47
100
AcDbScale
 70
     0
300
3/8" = 1'-0"
140
0.375
141
12.0
290
     0
  0
SCALE
  5
62
102
{ACAD_REACTORS
330
47
102
}
330
47
100
AcDbScale
 70
     0
300
1/2" = 1'-0"
140
0.5
141
12.0
290
     0
  0
SCALE
  5
63
102
{ACAD_REACTORS
330
47
102
}
330
47
100
AcDbScale
 70
     0
300
3/4" = 1'-0"
140
0.75
141
12.0
290
     0
  0
SCALE
  5
64
102
{ACAD_REACTORS
330
47
102
}
330
47
100
AcDbScale
 70
     0
300
1" = 1'-0"
140
1.0
141
12.0
290
     0
  0
SCALE
  5
65
102
{ACAD_REACTORS
330
47
102
}
330
47
100
AcDbScale
 70
     0
300
1-1/2" = 1'-0"
140
1.5
141
12.0
290
     0
  0
SCALE
  5
66
102
{ACAD_REACTORS
330
47
102
}
330
47
100
AcDbScale
 70
     0
300
3" = 1'-0"
140
3.0
141
12.0
290
     0
  0
SCALE
  5
67
102
{ACAD_REACTORS
330
47
102
}
330
47
100
AcDbScale
 70
     0
300
6" = 1'-0"
140
6.0
141
12.0
290
     0
  0
SCALE
  5
68
102
{ACAD_REACTORS
330
47
102
}
330
47
100
AcDbScale
 70
     0
300
1'-0" = 1'-0"
140
12.0
141
12.0
290
     0
  0
TABLESTYLE
  5
6A
102
{ACAD_REACTORS
330
69
102
}
102
{ACAD_XDICTIONARY
360
20A
102
}
330
69
100
AcDbTableStyle
  3
Standard
 70
     0
 71
     0
 40
0.06
 41
0.06
280
     0
281
     0
  7
Standard
140
0.18
170
     2
 62
     0
 63
   257
283
     0
 90
        4
 91
        0
  1

274
    -2
284
     1
 64
     0
275
    -2
285
     1
 65
     0
276
    -2
286
     1
 66
     0
277
    -2
287
     1
 67
     0
278
    -2
288
     1
 68
     0
279
    -2
289
     1
 69
     0
  7
Standard
140
0.25
170
     5
 62
     0
 63
   257
283
     0
 90
        4
 91
        0
  1

274
    -2
284
     1
 64
     0
275
    -2
285
     1
 65
     0
276
    -2
286
     1
 66
     0
277
    -2
287
     1
 67
     0
278
    -2
288
     1
 68
     0
279
    -2
289
     1
 69
     0
  7
Standard
140
0.18
170
     5
 62
     0
 63
   257
283
     0
 90
        4
 91
        0
  1

274
    -2
284
     1
 64
     0
275
    -2
285
     1
 65
     0
276
    -2
286
     1
 66
     0
277
    -2
287
     1
 67
     0
278
    -2
288
     1
 68
     0
279
    -2
289
     1
 69
     0
  0
VISUALSTYLE
  5
2F
102
{ACAD_REACTORS
330
2A
102
}
330
2A
100
AcDbVisualStyle
  2
2dWireframe
 70
     4
177
     3
291
     0
 70
    58
 90
        0
176
     1
 90
        2
176
     1
 90
        0
176
     1
 90
        0
176
     1
 40
0.6
176
     1
 40
30.0
176
     1
 62
     7
420
 16777215
176
     1
 90
        1
176
     1
 90
        4
176
     1
 62
     7
176
     1
 62
   257
176
     1
 90
        1
176
     1
 90
        1
176
     1
 40
1.0
176
     1
 90
        0
176
     1
 62
   257
176
     1
 40
1.0
176
     1
 90
        1
176
     1
 90
        6
176
     1
 90
        2
176
     1
 62
     7
176
     1
 90
        5
176
     1
 90
        0
176
     1
 90
        0
176
     1
290
     0
176
     1
 90
        1
176
     1
 40
0.0
176
     1
 90
        0
176
     1
290
     1
176
     1
290
     1
176
     1
290
     0
176
     1
290
     0
176
     1
290
     0
176
     1
290
     0
176
     1
290
     0
176
     1
290
     0
176
     1
290
     0
176
     1
 90
       50
176
     1
 40
0.0
176
     1
 40
1.0
176
     1
 90
        0
176
     1
 62
    18
420
        0
176
     1
 90
       50
176
     1
 90
        3
176
     1
 62
     5
420
      255
176
     1
290
     0
176
     1
 90
       50
176
     1
 90
       50
176
     1
 90
       50
176
     1
290
     0
176
     1
 90
       50
176
     1
 62
   256
176
     0
 40
1.0
176
     0
 90
        2
176
     1
  1
strokes_ogs.tif
176
     1
290
     0
176
     1
 40
1.0
176
     1
 40
1.0
176
     1
  0
VISUALSTYLE
  5
32
102
{ACAD_REACTORS
330
2A
102
}
330
2A
100
AcDbVisualStyle
  2
Basic
 70
     7
177
     3
291
     1
 70
    58
 90
        1
176
     1
 90
        0
176
     1
 90
        1
176
     1
 90
        0
176
     1
 40
0.6
176
     1
 40
30.0
176
     1
 62
     7
420
 16777215
176
     1
 90
        0
176
     1
 90
        4
176
     1
 62
     7
176
     1
 62
   257
176
     1
 90
        1
176
     1
 90
        1
176
     1
 40
1.0
176
     1
 90
        8
176
     1
 62
     7
176
     1
 40
1.0
176
     1
 90
        1
176
     1
 90
        6
176
     1
 90
        2
176
     1
 62
     7
176
     1
 90
        5
176
     1
 90
        0
176
     1
 90
        0
176
     1
290
     0
176
     1
 90
        1
176
     1
 40
0.0
176
     1
 90
        0
176
     1
290
     0
176
     1
290
     1
176
     1
290
     1
176
     1
290
     0
176
     1
290
     0
176
     1
290
     0
176
     1
290
     0
176
     1
290
     0
176
     1
290
     0
176
     1
 90
       50
176
     1
 40
0.0
176
     1
 40
1.0
176
     1
 90
        0
176
     1
 62
    18
420
        0
176
     1
 90
       50
176
     1
 90
        3
176
     1
 62
     5
420
      255
176
     1
290
     0
176
     1
 90
       50
176
     1
 90
       50
176
     1
 90
       50
176
     1
290
     0
176
     1
 90
       50
176
     1
 62
   256
176
     0
 40
1.0
176
     0
 90
        2
176
     1
  1
strokes_ogs.tif
176
     1
290
     0
176
     1
 40
1.0
176
     1
 40
1.0
176
     1
  0
VISUALSTYLE
  5
36
102
{ACAD_REACTORS
330
2A
102
}
330
2A
100
AcDbVisualStyle
  2
Brighten
 70
    12
177
     3
291
     1
 70
    58
 90
        2
176
     1
 90
        2
176
     1
 90
        0
176
     1
 90
        0
176
     1
 40
0.6
176
     1
 40
30.0
176
     1
 62
     7
420
 16777215
176
     1
 90
        1
176
     1
 90
        4
176
     1
 62
     7
176
     1
 62
   257
176
     1
 90
        1
176
     1
 90
        1
176
     1
 40
1.0
176
     1
 90
        8
176
     1
 62
     7
176
     1
 40
1.0
176
     1
 90
        1
176
     1
 90
        6
176
     1
 90
        2
176
     1
 62
     7
176
     1
 90
        5
176
     1
 90
        0
176
     1
 90
        0
176
     1
290
     0
176
     1
 90
        1
176
     1
 40
50.0
176
     1
 90
        0
176
     1
290
     0
176
     1
290
     1
176
     1
290
     1
176
     1
290
     0
176
     1
290
     0
176
     1
290
     0
176
     1
290
     0
176
     1
290
     0
176
     1
290
     0
176
     1
 90
       50
176
     1
 40
0.0
176
     1
 40
1.0
176
     1
 90
        0
176
     1
 62
    18
420
        0
176
     1
 90
       50
176
     1
 90
        3
176
     1
 62
     5
420
      255
176
     1
290
     0
176
     1
 90
       50
176
     1
 90
       50
176
     1
 90
       50
176
     1
290
     0
176
     1
 90
       50
176
     1
 62
   256
176
     0
 40
1.0
176
     0
 90
        2
176
     1
  1
strokes_ogs.tif
176
     1
290
     0
176
     1
 40
1.0
176
     1
 40
1.0
176
     1
  0
VISUALSTYLE
  5
3A
102
{ACAD_REACTORS
330
2A
102
}
330
2A
100
AcDbVisualStyle
  2
ColorChange
 70
    16
177
     3
291
     1
 70
    58
 90
        2
176
     1
 90
        2
176
     1
 90
        3
176
     1
 90
        0
176
     1
 40
0.6
176
     1
 40
30.0
176
     1
 62
     8
420
  8421504
176
     1
 90
        1
176
     1
 90
        4
176
     1
 62
     7
176
     1
 62
   257
176
     1
 90
        1
176
     1
 90
        1
176
     1
 40
1.0
176
     1
 90
        8
176
     1
 62
     8
420
  8421504
176
     1
 40
1.0
176
     1
 90
        1
176
     1
 90
        6
176
     1
 90
        2
176
     1
 62
     7
176
     1
 90
        5
176
     1
 90
        0
176
     1
 90
        0
176
     1
290
     0
176
     1
 90
        1
176
     1
 40
0.0
176
     1
 90
        0
176
     1
290
     0
176
     1
290
     1
176
     1
290
     1
176
     1
290
     0
176
     1
290
     0
176
     1
290
     0
176
     1
290
     0
176
     1
290
     0
176
     1
290
     0
176
     1
 90
       50
176
     1
 40
0.0
176
     1
 40
1.0
176
     1
 90
        0
176
     1
 62
    18
420
        0
176
     1
 90
       50
176
     1
 90
        3
176
     1
 62
     5
420
      255
176
     1
290
     0
176
     1
 90
       50
176
     1
 90
       50
176
     1
 90
       50
176
     1
290
     0
176
     1
 90
       50
176
     1
 62
   256
176
     0
 40
1.0
176
     0
 90
        2
176
     1
  1
strokes_ogs.tif
176
     1
290
     0
176
     1
 40
1.0
176
     1
 40
1.0
176
     1
  0
VISUALSTYLE
  5
34
102
{ACAD_REACTORS
330
2A
102
}
330
2A
100
AcDbVisualStyle
  2
Conceptual
 70
     9
177
     3
291
     0
 70
    58
 90
        3
176
     1
 90
        2
176
     1
 90
        0
176
     1
 90
        0
176
     1
 40
0.6
176
     1
 40
30.0
176
     1
 62
     7
420
 16777215
176
     1
 90
        2
176
     1
 90
        2
176
     1
 62
     7
176
     1
 62
   257
176
     1
 90
        1
176
     1
 90
        1
176
     1
 40
179.0
176
     1
 90
        8
176
     1
 62
     7
176
     1
 40
1.0
176
     1
 90
        1
176
     1
 90
        6
176
     1
 90
        2
176
     1
 62
     7
176
     1
 90
        3
176
     1
 90
        0
176
     1
 90
        0
176
     1
290
     0
176
     1
 90
        1
176
     1
 40
0.0
176
     1
 90
        0
176
     1
290
     0
176
     1
290
     1
176
     1
290
     1
176
     1
290
     0
176
     1
290
     0
176
     1
290
     0
176
     1
290
     0
176
     1
290
     0
176
     1
290
     0
176
     1
 90
       50
176
     1
 40
0.0
176
     1
 40
1.0
176
     1
 90
        0
176
     1
 62
    18
420
        0
176
     1
 90
       50
176
     1
 90
        3
176
     1
 62
     5
420
      255
176
     1
290
     0
176
     1
 90
       50
176
     1
 90
       50
176
     1
 90
       50
176
     1
290
     0
176
     1
 90
       50
176
     1
 62
   256
176
     0
 40
1.0
176
     0
 90
        2
176
     1
  1
strokes_ogs.tif
176
     1
290
     0
176
     1
 40
1.0
176
     1
 40
1.0
176
     1
  0
VISUALSTYLE
  5
35
102
{ACAD_REACTORS
330
2A
102
}
330
2A
100
AcDbVisualStyle
  2
Dim
 70
    11
177
     3
291
     1
 70
    58
 90
        2
176
     1
 90
        2
176
     1
 90
        0
176
     1
 90
        0
176
     1
 40
0.6
176
     1
 40
30.0
176
     1
 62
     7
420
 16777215
176
     1
 90
        1
176
     1
 90
        4
176
     1
 62
     7
176
     1
 62
   257
176
     1
 90
        1
176
     1
 90
        1
176
     1
 40
1.0
176
     1
 90
        8
176
     1
 62
     7
176
     1
 40
1.0
176
     1
 90
        1
176
     1
 90
        6
176
     1
 90
        2
176
     1
 62
     7
176
     1
 90
        5
176
     1
 90
        0
176
     1
 90
        0
176
     1
290
     0
176
     1
 90
        1
176
     1
 40
-50.0
176
     1
 90
        0
176
     1
290
     0
176
     1
290
     1
176
     1
290
     1
176
     1
290
     0
176
     1
290
     0
176
     1
290
     0
176
     1
290
     0
176
     1
290
     0
176
     1
290
     0
176
     1
 90
       50
176
     1
 40
0.0
176
     1
 40
1.0
176
     1
 90
        0
176
     1
 62
    18
420
        0
176
     1
 90
       50
176
     1
 90
        3
176
     1
 62
     5
420
      255
176
     1
290
     0
176
     1
 90
       50
176
     1
 90
       50
176
     1
 90
       50
176
     1
290
     0
176
     1
 90
       50
176
     1
 62
   256
176
     0
 40
1.0
176
     0
 90
        2
176
     1
  1
strokes_ogs.tif
176
     1
290
     0
176
     1
 40
1.0
176
     1
 40
1.0
176
     1
  0
VISUALSTYLE
  5
3D
102
{ACAD_REACTORS
330
2A
102
}
330
2A
100
AcDbVisualStyle
  2
EdgeColorOff
 70
    22
177
     3
291
     1
 70
    58
 90
        2
176
     0
 90
        2
176
     0
 90
        0
176
     0
 90
        0
176
     0
 40
0.6
176
     0
 40
30.0
176
     0
 62
     7
420
 16777215
176
     0
 90
        1
176
     0
 90
        4
176
     0
 62
     7
176
     0
 62
   257
176
     0
 90
        1
176
     0
 90
        1
176
     0
 40
1.0
176
     0
 90
        8
176
     2
 62
     7
176
     0
 40
1.0
176
     0
 90
        1
176
     0
 90
        6
176
     0
 90
        2
176
     0
 62
     7
176
     0
 90
        5
176
     0
 90
        0
176
     0
 90
        0
176
     0
290
     0
176
     0
 90
        1
176
     0
 40
0.0
176
     0
 90
        0
176
     0
290
     0
176
     0
290
     1
176
     0
290
     1
176
     0
290
     0
176
     0
290
     0
176
     0
290
     0
176
     0
290
     0
176
     0
290
     0
176
     0
290
     0
176
     0
 90
       50
176
     0
 40
0.0
176
     0
 40
1.0
176
     0
 90
        0
176
     0
 62
    18
420
        0
176
     0
 90
       50
176
     0
 90
        3
176
     0
 62
     5
420
      255
176
     0
290
     0
176
     0
 90
       50
176
     0
 90
       50
176
     0
 90
       50
176
     0
290
     0
176
     0
 90
       50
176
     0
 62
   256
176
     0
 40
1.0
176
     0
 90
        2
176
     0
  1
strokes_ogs.tif
176
     0
290
     0
176
     0
 40
1.0
176
     0
 40
1.0
176
     0
  0
VISUALSTYLE
  5
39
102
{ACAD_REACTORS
330
2A
102
}
330
2A
100
AcDbVisualStyle
  2
Facepattern
 70
    15
177
     3
291
     1
 70
    58
 90
        2
176
     1
 90
        2
176
     1
 90
        0
176
     1
 90
        0
176
     1
 40
0.6
176
     1
 40
30.0
176
     1
 62
     7
420
 16777215
176
     1
 90
        1
176
     1
 90
        4
176
     1
 62
     7
176
     1
 62
   257
176
     1
 90
        1
176
     1
 90
        1
176
     1
 40
1.0
176
     1
 90
        8
176
     1
 62
     7
176
     1
 40
1.0
176
     1
 90
        1
176
     1
 90
        6
176
     1
 90
        2
176
     1
 62
     7
176
     1
 90
        5
176
     1
 90
        0
176
     1
 90
        0
176
     1
290
     0
176
     1
 90
        1
176
     1
 40
0.0
176
     1
 90
        0
176
     1
290
     0
176
     1
290
     1
176
     1
290
     1
176
     1
290
     0
176
     1
290
     0
176
     1
290
     0
176
     1
290
     0
176
     1
290
     0
176
     1
290
     0
176
     1
 90
       50
176
     1
 40
0.0
176
     1
 40
1.0
176
     1
 90
        0
176
     1
 62
    18
420
        0
176
     1
 90
       50
176
     1
 90
        3
176
     1
 62
     5
420
      255
176
     1
290
     0
176
     1
 90
       50
176
     1
 90
       50
176
     1
 90
       50
176
     1
290
     0
176
     1
 90
       50
176
     1
 62
   256
176
     0
 40
1.0
176
     0
 90
        2
176
     1
  1
strokes_ogs.tif
176
     1
290
     0
176
     1
 40
1.0
176
     1
 40
1.0
176
     1
  0
VISUALSTYLE
  5
2B
102
{ACAD_REACTORS
330
2A
102
}
330
2A
100
AcDbVisualStyle
  2
Flat
 70
     0
177
     3
291
     1
 70
    58
 90
        2
176
     1
 90
        1
176
     1
 90
        1
176
     1
 90
        2
176
     1
 40
0.6
176
     1
 40
30.0
176
     1
 62
     7
420
 16777215
176
     1
 90
        0
176
     1
 90
        0
176
     1
 62
     7
176
     1
 62
   257
176
     1
 90
        1
176
     1
 90
        1
176
     1
 40
1.0
176
     1
 90
        8
176
     1
 62
     7
176
     1
 40
1.0
176
     1
 90
        1
176
     1
 90
        6
176
     1
 90
        2
176
     1
 62
     7
176
     1
 90
        5
176
     1
 90
        0
176
     1
 90
        0
176
     1
290
     0
176
     1
 90
       13
176
     1
 40
0.0
176
     1
 90
        0
176
     1
290
     0
176
     1
290
     1
176
     1
290
     1
176
     1
290
     0
176
     1
290
     0
176
     1
290
     0
176
     1
290
     0
176
     1
290
     0
176
     1
290
     0
176
     1
 90
       50
176
     1
 40
0.0
176
     1
 40
1.0
176
     1
 90
        0
176
     1
 62
    18
420
        0
176
     1
 90
       50
176
     1
 90
        3
176
     1
 62
     5
420
      255
176
     1
290
     0
176
     1
 90
       50
176
     1
 90
       50
176
     1
 90
       50
176
     1
290
     0
176
     1
 90
       50
176
     1
 62
   256
176
     0
 40
1.0
176
     0
 90
        2
176
     1
  1
strokes_ogs.tif
176
     1
290
     0
176
     1
 40
1.0
176
     1
 40
1.0
176
     1
  0
VISUALSTYLE
  5
2C
102
{ACAD_REACTORS
330
2A
102
}
330
2A
100
AcDbVisualStyle
  2
FlatWithEdges
 70
     1
177
     3
291
     1
 70
    58
 90
        2
176
     1
 90
        1
176
     1
 90
        1
176
     1
 90
        2
176
     1
 40
0.6
176
     1
 40
30.0
176
     1
 62
     7
420
 16777215
176
     1
 90
        1
176
     1
 90
        0
176
     1
 62
     7
176
     1
 62
   257
176
     1
 90
        1
176
     1
 90
        1
176
     1
 40
1.0
176
     1
 90
        0
176
     1
 62
   257
176
     1
 40
1.0
176
     1
 90
        1
176
     1
 90
        6
176
     1
 90
        2
176
     1
 62
     7
176
     1
 90
        5
176
     1
 90
        0
176
     1
 90
        0
176
     1
290
     0
176
     1
 90
       13
176
     1
 40
0.0
176
     1
 90
        0
176
     1
290
     0
176
     1
290
     1
176
     1
290
     1
176
     1
290
     0
176
     1
290
     0
176
     1
290
     0
176
     1
290
     0
176
     1
290
     0
176
     1
290
     0
176
     1
 90
       50
176
     1
 40
0.0
176
     1
 40
1.0
176
     1
 90
        0
176
     1
 62
    18
420
        0
176
     1
 90
       50
176
     1
 90
        3
176
     1
 62
     5
420
      255
176
     1
290
     0
176
     1
 90
       50
176
     1
 90
       50
176
     1
 90
       50
176
     1
290
     0
176
     1
 90
       50
176
     1
 62
   256
176
     0
 40
1.0
176
     0
 90
        2
176
     1
  1
strokes_ogs.tif
176
     1
290
     0
176
     1
 40
1.0
176
     1
 40
1.0
176
     1
  0
VISUALSTYLE
  5
2D
102
{ACAD_REACTORS
330
2A
102
}
330
2A
100
AcDbVisualStyle
  2
Gouraud
 70
     2
177
     3
291
     1
 70
    58
 90
        2
176
     1
 90
        2
176
     1
 90
        1
176
     1
 90
        2
176
     1
 40
0.6
176
     1
 40
30.0
176
     1
 62
     7
420
 16777215
176
     1
 90
        0
176
     1
 90
        0
176
     1
 62
     7
176
     1
 62
   257
176
     1
 90
        1
176
     1
 90
        1
176
     1
 40
1.0
176
     1
 90
        0
176
     1
 62
     7
176
     1
 40
1.0
176
     1
 90
        1
176
     1
 90
        6
176
     1
 90
        2
176
     1
 62
     7
176
     1
 90
        5
176
     1
 90
        0
176
     1
 90
        0
176
     1
290
     0
176
     1
 90
       13
176
     1
 40
0.0
176
     1
 90
        0
176
     1
290
     0
176
     1
290
     1
176
     1
290
     1
176
     1
290
     0
176
     1
290
     0
176
     1
290
     0
176
     1
290
     0
176
     1
290
     0
176
     1
290
     0
176
     1
 90
       50
176
     1
 40
0.0
176
     1
 40
1.0
176
     1
 90
        0
176
     1
 62
    18
420
        0
176
     1
 90
       50
176
     1
 90
        3
176
     1
 62
     5
420
      255
176
     1
290
     0
176
     1
 90
       50
176
     1
 90
       50
176
     1
 90
       50
176
     1
290
     0
176
     1
 90
       50
176
     1
 62
   256
176
     0
 40
1.0
176
     0
 90
        2
176
     1
  1
strokes_ogs.tif
176
     1
290
     0
176
     1
 40
1.0
176
     1
 40
1.0
176
     1
  0
VISUALSTYLE
  5
2E
102
{ACAD_REACTORS
330
2A
102
}
330
2A
100
AcDbVisualStyle
  2
GouraudWithEdges
 70
     3
177
     3
291
     1
 70
    58
 90
        2
176
     1
 90
        2
176
     1
 90
        1
176
     1
 90
        2
176
     1
 40
0.6
176
     1
 40
30.0
176
     1
 62
     7
420
 16777215
176
     1
 90
        1
176
     1
 90
        0
176
     1
 62
     7
176
     1
 62
   257
176
     1
 90
        1
176
     1
 90
        1
176
     1
 40
1.0
176
     1
 90
        0
176
     1
 62
   257
176
     1
 40
1.0
176
     1
 90
        1
176
     1
 90
        6
176
     1
 90
        2
176
     1
 62
     7
176
     1
 90
        5
176
     1
 90
        0
176
     1
 90
        0
176
     1
290
     0
176
     1
 90
       13
176
     1
 40
0.0
176
     1
 90
        0
176
     1
290
     0
176
     1
290
     1
176
     1
290
     1
176
     1
290
     0
176
     1
290
     0
176
     1
290
     0
176
     1
290
     0
176
     1
290
     0
176
     1
290
     0
176
     1
 90
       50
176
     1
 40
0.0
176
     1
 40
1.0
176
     1
 90
        0
176
     1
 62
    18
420
        0
176
     1
 90
       50
176
     1
 90
        3
176
     1
 62
     5
420
      255
176
     1
290
     0
176
     1
 90
       50
176
     1
 90
       50
176
     1
 90
       50
176
     1
290
     0
176
     1
 90
       50
176
     1
 62
   256
176
     0
 40
1.0
176
     0
 90
        2
176
     1
  1
strokes_ogs.tif
176
     1
290
     0
176
     1
 40
1.0
176
     1
 40
1.0
176
     1
  0
VISUALSTYLE
  5
31
102
{ACAD_REACTORS
330
2A
102
}
330
2A
100
AcDbVisualStyle
  2
Hidden
 70
     6
177
     3
291
     0
 70
    58
 90
        1
176
     1
 90
        2
176
     1
 90
        2
176
     1
 90
        0
176
     1
 40
0.6
176
     1
 40
30.0
176
     1
 62
     7
420
 16777215
176
     1
 90
        2
176
     1
 90
        2
176
     1
 62
     7
176
     1
 62
   257
176
     1
 90
        2
176
     1
 90
        1
176
     1
 40
40.0
176
     1
 90
        0
176
     1
 62
   257
176
     1
 40
1.0
176
     1
 90
        1
176
     1
 90
        6
176
     1
 90
        2
176
     1
 62
     7
176
     1
 90
        3
176
     1
 90
        0
176
     1
 90
        0
176
     1
290
     0
176
     1
 90
        1
176
     1
 40
0.0
176
     1
 90
        0
176
     1
290
     0
176
     1
290
     1
176
     1
290
     1
176
     1
290
     0
176
     1
290
     0
176
     1
290
     0
176
     1
290
     0
176
     1
290
     0
176
     1
290
     0
176
     1
 90
       50
176
     1
 40
0.0
176
     1
 40
1.0
176
     1
 90
        0
176
     1
 62
    18
420
        0
176
     1
 90
       50
176
     1
 90
        3
176
     1
 62
     5
420
      255
176
     1
290
     0
176
     1
 90
       50
176
     1
 90
       50
176
     1
 90
       50
176
     1
290
     0
176
     1
 90
       50
176
     1
 62
   256
176
     0
 40
1.0
176
     0
 90
        2
176
     1
  1
strokes_ogs.tif
176
     1
290
     0
176
     1
 40
1.0
176
     1
 40
1.0
176
     1
  0
VISUALSTYLE
  5
3B
102
{ACAD_REACTORS
330
2A
102
}
330
2A
100
AcDbVisualStyle
  2
JitterOff
 70
    20
177
     3
291
     1
 70
    58
 90
        2
176
     0
 90
        2
176
     0
 90
        0
176
     0
 90
        0
176
     0
 40
0.6
176
     0
 40
30.0
176
     0
 62
     7
420
 16777215
176
     0
 90
        1
176
     0
 90
        4
176
     0
 62
     7
176
     0
 62
   257
176
     0
 90
        1
176
     0
 90
        1
176
     0
 40
1.0
176
     0
 90
       10
176
     2
 62
     7
176
     0
 40
1.0
176
     0
 90
        1
176
     0
 90
        6
176
     0
 90
        2
176
     0
 62
     7
176
     0
 90
        5
176
     0
 90
        0
176
     0
 90
        0
176
     0
290
     0
176
     0
 90
        1
176
     0
 40
0.0
176
     0
 90
        0
176
     0
290
     0
176
     0
290
     1
176
     0
290
     1
176
     0
290
     0
176
     0
290
     0
176
     0
290
     0
176
     0
290
     0
176
     0
290
     0
176
     0
290
     0
176
     0
 90
       50
176
     0
 40
0.0
176
     0
 40
1.0
176
     0
 90
        0
176
     0
 62
    18
420
        0
176
     0
 90
       50
176
     0
 90
        3
176
     0
 62
     5
420
      255
176
     0
290
     0
176
     0
 90
       50
176
     0
 90
       50
176
     0
 90
       50
176
     0
290
     0
176
     0
 90
       50
176
     0
 62
   256
176
     0
 40
1.0
176
     0
 90
        2
176
     0
  1
strokes_ogs.tif
176
     0
290
     0
176
     0
 40
1.0
176
     0
 40
1.0
176
     0
  0
VISUALSTYLE
  5
38
102
{ACAD_REACTORS
330
2A
102
}
330
2A
100
AcDbVisualStyle
  2
Linepattern
 70
    14
177
     3
291
     1
 70
    58
 90
        2
176
     1
 90
        2
176
     1
 90
        0
176
     1
 90
        0
176
     1
 40
0.6
176
     1
 40
30.0
176
     1
 62
     7
420
 16777215
176
     1
 90
        1
176
     1
 90
        4
176
     1
 62
     7
176
     1
 62
   257
176
     1
 90
        7
176
     1
 90
        7
176
     1
 40
1.0
176
     1
 90
        8
176
     1
 62
     7
176
     1
 40
1.0
176
     1
 90
        1
176
     1
 90
        6
176
     1
 90
        2
176
     1
 62
     7
176
     1
 90
        5
176
     1
 90
        0
176
     1
 90
        0
176
     1
290
     0
176
     1
 90
        1
176
     1
 40
0.0
176
     1
 90
        0
176
     1
290
     0
176
     1
290
     1
176
     1
290
     1
176
     1
290
     0
176
     1
290
     0
176
     1
290
     0
176
     1
290
     0
176
     1
290
     0
176
     1
290
     0
176
     1
 90
       50
176
     1
 40
0.0
176
     1
 40
1.0
176
     1
 90
        0
176
     1
 62
    18
420
        0
176
     1
 90
       50
176
     1
 90
        3
176
     1
 62
     5
420
      255
176
     1
290
     0
176
     1
 90
       50
176
     1
 90
       50
176
     1
 90
       50
176
     1
290
     0
176
     1
 90
       50
176
     1
 62
   256
176
     0
 40
1.0
176
     0
 90
        2
176
     1
  1
strokes_ogs.tif
176
     1
290
     0
176
     1
 40
1.0
176
     1
 40
1.0
176
     1
  0
VISUALSTYLE
  5
3C
102
{ACAD_REACTORS
330
2A
102
}
330
2A
100
AcDbVisualStyle
  2
OverhangOff
 70
    21
177
     3
291
     1
 70
    58
 90
        2
176
     0
 90
        2
176
     0
 90
        0
176
     0
 90
        0
176
     0
 40
0.6
176
     0
 40
30.0
176
     0
 62
     7
420
 16777215
176
     0
 90
        1
176
     0
 90
        4
176
     0
 62
     7
176
     0
 62
   257
176
     0
 90
        1
176
     0
 90
        1
176
     0
 40
1.0
176
     0
 90
        9
176
     2
 62
     7
176
     0
 40
1.0
176
     0
 90
        1
176
     0
 90
        6
176
     0
 90
        2
176
     0
 62
     7
176
     0
 90
        5
176
     0
 90
        0
176
     0
 90
        0
176
     0
290
     0
176
     0
 90
        1
176
     0
 40
0.0
176
     0
 90
        0
176
     0
290
     0
176
     0
290
     1
176
     0
290
     1
176
     0
290
     0
176
     0
290
     0
176
     0
290
     0
176
     0
290
     0
176
     0
290
     0
176
     0
290
     0
176
     0
 90
       50
176
     0
 40
0.0
176
     0
 40
1.0
176
     0
 90
        0
176
     0
 62
    18
420
        0
176
     0
 90
       50
176
     0
 90
        3
176
     0
 62
     5
420
      255
176
     0
290
     0
176
     0
 90
       50
176
     0
 90
       50
176
     0
 90
       50
176
     0
290
     0
176
     0
 90
       50
176
     0
 62
   256
176
     0
 40
1.0
176
     0
 90
        2
176
     0
  1
strokes_ogs.tif
176
     0
290
     0
176
     0
 40
1.0
176
     0
 40
1.0
176
     0
  0
VISUALSTYLE
  5
33
102
{ACAD_REACTORS
330
2A
102
}
330
2A
100
AcDbVisualStyle
  2
Realistic
 70
     8
177
     3
291
     0
 70
    58
 90
        2
176
     1
 90
        3
176
     1
 90
        0
176
     1
 90
        2
176
     1
 40
0.6
176
     1
 40
30.0
176
     1
 62
     7
420
 16777215
176
     1
 90
        0
176
     1
 90
        0
176
     1
 62
     7
176
     1
 62
   257
176
     1
 90
        1
176
     1
 90
        1
176
     1
 40
1.0
176
     1
 90
        8
176
     1
 62
   257
176
     1
 40
1.0
176
     1
 90
        1
176
     1
 90
        6
176
     1
 90
        2
176
     1
 62
     7
176
     1
 90
        3
176
     1
 90
        0
176
     1
 90
        0
176
     1
290
     0
176
     1
 90
       13
176
     1
 40
0.0
176
     1
 90
        0
176
     1
290
     0
176
     1
290
     1
176
     1
290
     1
176
     1
290
     0
176
     1
290
     0
176
     1
290
     0
176
     1
290
     0
176
     1
290
     0
176
     1
290
     0
176
     1
 90
       50
176
     1
 40
0.0
176
     1
 40
1.0
176
     1
 90
        0
176
     1
 62
    18
420
        0
176
     1
 90
       50
176
     1
 90
        3
176
     1
 62
     5
420
      255
176
     1
290
     0
176
     1
 90
       50
176
     1
 90
       50
176
     1
 90
       50
176
     1
290
     0
176
     1
 90
       50
176
     1
 62
   256
176
     0
 40
1.0
176
     0
 90
        2
176
     1
  1
strokes_ogs.tif
176
     1
290
     0
176
     1
 40
1.0
176
     1
 40
1.0
176
     1
  0
VISUALSTYLE
  5
42
102
{ACAD_REACTORS
330
2A
102
}
330
2A
100
AcDbVisualStyle
  2
Shaded
 70
    27
177
     3
291
     0
 70
    58
 90
        2
176
     1
 90
        2
176
     1
 90
        1
176
     1
 90
        2
176
     1
 40
0.6
176
     1
 40
30.0
176
     1
 62
     7
420
 16777215
176
     1
 90
        0
176
     1
 90
        4
176
     1
 62
     7
176
     1
 62
   257
176
     1
 90
        1
176
     1
 90
        1
176
     1
 40
1.0
176
     1
 90
        8
176
     1
 62
   257
176
     1
 40
1.0
176
     1
 90
        1
176
     1
 90
        6
176
     1
 90
        2
176
     1
 62
     8
420
  7895160
176
     1
 90
        3
176
     1
 90
        0
176
     1
 90
        0
176
     1
290
     0
176
     1
 90
        5
176
     1
 40
0.0
176
     1
 90
        0
176
     1
290
     0
176
     1
290
     1
176
     1
290
     1
176
     1
290
     0
176
     1
290
     0
176
     1
290
     0
176
     1
290
     0
176
     1
290
     0
176
     1
290
     0
176
     1
 90
       50
176
     1
 40
0.0
176
     1
 40
1.0
176
     1
 90
        0
176
     1
 62
    18
420
        0
176
     1
 90
       50
176
     1
 90
        3
176
     1
 62
     5
420
      255
176
     1
290
     0
176
     1
 90
       50
176
     1
 90
       50
176
     1
 90
       50
176
     1
290
     0
176
     1
 90
       50
176
     1
 62
   256
176
     0
 40
1.0
176
     0
 90
        2
176
     1
  1
strokes_ogs.tif
176
     1
290
     0
176
     1
 40
1.0
176
     1
 40
1.0
176
     1
  0
VISUALSTYLE
  5
41
102
{ACAD_REACTORS
330
2A
102
}
330
2A
100
AcDbVisualStyle
  2
Shaded with edges
 70
    26
177
     3
291
     0
 70
    58
 90
        2
176
     1
 90
        2
176
     1
 90
        1
176
     1
 90
        2
176
     1
 40
0.6
176
     1
 40
30.0
176
     1
 62
     7
420
 16777215
176
     1
 90
        1
176
     1
 90
       10
176
     1
 62
     7
176
     1
 62
   257
176
     1
 90
        2
176
     1
 90
        1
176
     1
 40
1.0
176
     1
 90
        8
176
     1
 62
   257
176
     1
 40
1.0
176
     1
 90
        1
176
     1
 90
        6
176
     1
 90
        2
176
     1
 62
     7
176
     1
 90
        3
176
     1
 90
        0
176
     1
 90
        0
176
     1
290
     0
176
     1
 90
        5
176
     1
 40
0.0
176
     1
 90
        0
176
     1
290
     0
176
     1
290
     1
176
     1
290
     1
176
     1
290
     0
176
     1
290
     0
176
     1
290
     0
176
     1
290
     0
176
     1
290
     0
176
     1
290
     0
176
     1
 90
       50
176
     1
 40
0.0
176
     1
 40
1.0
176
     1
 90
        0
176
     1
 62
    18
420
        0
176
     1
 90
       50
176
     1
 90
        3
176
     1
 62
     5
420
      255
176
     1
290
     0
176
     1
 90
       50
176
     1
 90
       50
176
     1
 90
       50
176
     1
290
     0
176
     1
 90
       50
176
     1
 62
   256
176
     0
 40
1.0
176
     0
 90
        2
176
     1
  1
strokes_ogs.tif
176
     1
290
     0
176
     1
 40
1.0
176
     1
 40
1.0
176
     1
  0
VISUALSTYLE
  5
3E
102
{ACAD_REACTORS
330
2A
102
}
330
2A
100
AcDbVisualStyle
  2
Shades of Gray
 70
    23
177
     3
291
     0
 70
    58
 90
        2
176
     1
 90
        2
176
     1
 90
        3
176
     1
 90
        0
176
     1
 40
0.6
176
     1
 40
30.0
176
     1
 62
     7
420
 16777215
176
     1
 90
        2
176
     1
 90
        2
176
     1
 62
     7
176
     1
 62
     7
176
     1
 90
        1
176
     1
 90
        1
176
     1
 40
40.0
176
     1
 90
        8
176
     1
 62
     7
176
     1
 40
1.0
176
     1
 90
        1
176
     1
 90
        6
176
     1
 90
        2
176
     1
 62
     7
176
     1
 90
        3
176
     1
 90
        0
176
     1
 90
        0
176
     1
290
     0
176
     1
 90
        1
176
     1
 40
0.0
176
     1
 90
        0
176
     1
290
     0
176
     1
290
     1
176
     1
290
     1
176
     1
290
     0
176
     1
290
     0
176
     1
290
     0
176
     1
290
     0
176
     1
290
     0
176
     1
290
     0
176
     1
 90
       50
176
     1
 40
0.0
176
     1
 40
1.0
176
     1
 90
        0
176
     1
 62
    18
420
        0
176
     1
 90
       50
176
     1
 90
        3
176
     1
 62
     5
420
      255
176
     1
290
     0
176
     1
 90
       50
176
     1
 90
       50
176
     1
 90
       50
176
     1
290
     0
176
     1
 90
       50
176
     1
 62
   256
176
     0
 40
1.0
176
     0
 90
        2
176
     1
  1
strokes_ogs.tif
176
     1
290
     0
176
     1
 40
1.0
176
     1
 40
1.0
176
     1
  0
VISUALSTYLE
  5
3F
102
{ACAD_REACTORS
330
2A
102
}
330
2A
100
AcDbVisualStyle
  2
Sketchy
 70
    24
177
     3
291
     0
 70
    58
 90
        1
176
     1
 90
        2
176
     1
 90
        2
176
     1
 90
        0
176
     1
 40
0.6
176
     1
 40
30.0
176
     1
 62
     7
420
 16777215
176
     1
 90
        2
176
     1
 90
        2
176
     1
 62
     7
176
     1
 62
     7
176
     1
 90
        1
176
     1
 90
        1
176
     1
 40
40.0
176
     1
 90
       11
176
     1
 62
     7
176
     1
 40
1.0
176
     1
 90
        1
176
     1
 90
        6
176
     1
 90
        2
176
     1
 62
     7
176
     1
 90
        6
176
     1
 90
        0
176
     1
 90
        0
176
     1
290
     0
176
     1
 90
        1
176
     1
 40
0.0
176
     1
 90
        0
176
     1
290
     0
176
     1
290
     1
176
     1
290
     1
176
     1
290
     0
176
     1
290
     0
176
     1
290
     0
176
     1
290
     0
176
     1
290
     0
176
     1
290
     0
176
     1
 90
       50
176
     1
 40
0.0
176
     1
 40
1.0
176
     1
 90
        0
176
     1
 62
    18
420
        0
176
     1
 90
       50
176
     1
 90
        3
176
     1
 62
     5
420
      255
176
     1
290
     0
176
     1
 90
       50
176
     1
 90
       50
176
     1
 90
       50
176
     1
290
     0
176
     1
 90
       50
176
     1
 62
   256
176
     0
 40
1.0
176
     0
 90
        2
176
     1
  1
strokes_ogs.tif
176
     1
290
     0
176
     1
 40
1.0
176
     1
 40
1.0
176
     1
  0
VISUALSTYLE
  5
37
102
{ACAD_REACTORS
330
2A
102
}
330
2A
100
AcDbVisualStyle
  2
Thicken
 70
    13
177
     3
291
     1
 70
    58
 90
        2
176
     1
 90
        2
176
     1
 90
        0
176
     1
 90
        0
176
     1
 40
0.6
176
     1
 40
30.0
176
     1
 62
     7
420
 16777215
176
     1
 90
        1
176
     1
 90
        4
176
     1
 62
     7
176
     1
 62
   257
176
     1
 90
        1
176
     1
 90
        1
176
     1
 40
1.0
176
     1
 90
       12
176
     1
 62
     7
176
     1
 40
1.0
176
     1
 90
        1
176
     1
 90
        6
176
     1
 90
        2
176
     1
 62
     7
176
     1
 90
        5
176
     1
 90
        0
176
     1
 90
        0
176
     1
290
     0
176
     1
 90
        1
176
     1
 40
0.0
176
     1
 90
        0
176
     1
290
     0
176
     1
290
     1
176
     1
290
     1
176
     1
290
     0
176
     1
290
     0
176
     1
290
     0
176
     1
290
     0
176
     1
290
     0
176
     1
290
     0
176
     1
 90
       50
176
     1
 40
0.0
176
     1
 40
1.0
176
     1
 90
        0
176
     1
 62
    18
420
        0
176
     1
 90
       50
176
     1
 90
        3
176
     1
 62
     5
420
      255
176
     1
290
     0
176
     1
 90
       50
176
     1
 90
       50
176
     1
 90
       50
176
     1
290
     0
176
     1
 90
       50
176
     1
 62
   256
176
     0
 40
1.0
176
     0
 90
        2
176
     1
  1
strokes_ogs.tif
176
     1
290
     0
176
     1
 40
1.0
176
     1
 40
1.0
176
     1
  0
VISUALSTYLE
  5
30
102
{ACAD_REACTORS
330
2A
102
}
330
2A
100
AcDbVisualStyle
  2
Wireframe
 70
     5
177
     3
291
     0
 70
    58
 90
        0
176
     1
 90
        2
176
     1
 90
        0
176
     1
 90
        0
176
     1
 40
0.6
176
     1
 40
30.0
176
     1
 62
     7
420
 16777215
176
     1
 90
        1
176
     1
 90
        4
176
     1
 62
     7
176
     1
 62
   257
176
     1
 90
        1
176
     1
 90
        1
176
     1
 40
1.0
176
     1
 90
        0
176
     1
 62
   257
176
     1
 40
1.0
176
     1
 90
        1
176
     1
 90
        6
176
     1
 90
        2
176
     1
 62
     7
176
     1
 90
        3
176
     1
 90
        0
176
     1
 90
        0
176
     1
290
     0
176
     1
 90
        1
176
     1
 40
0.0
176
     1
 90
        0
176
     1
290
     0
176
     1
290
     1
176
     1
290
     1
176
     1
290
     0
176
     1
290
     0
176
     1
290
     0
176
     1
290
     0
176
     1
290
     0
176
     1
290
     0
176
     1
 90
       50
176
     1
 40
0.0
176
     1
 40
1.0
176
     1
 90
        0
176
     1
 62
    18
420
        0
176
     1
 90
       50
176
     1
 90
        3
176
     1
 62
     5
420
      255
176
     1
290
     0
176
     1
 90
       50
176
     1
 90
       50
176
     1
 90
       50
176
     1
290
     0
176
     1
 90
       50
176
     1
 62
   256
176
     0
 40
1.0
176
     0
 90
        2
176
     1
  1
strokes_ogs.tif
176
     1
290
     0
176
     1
 40
1.0
176
     1
 40
1.0
176
     1
  0
VISUALSTYLE
  5
40
102
{ACAD_REACTORS
330
2A
102
}
330
2A
100
AcDbVisualStyle
  2
X-Ray
 70
    25
177
     3
291
     0
 70
    58
 90
        2
176
     1
 90
        2
176
     1
 90
        1
176
     1
 90
        1
176
     1
 40
0.5
176
     1
 40
30.0
176
     1
 62
     7
420
 16777215
176
     1
 90
        1
176
     1
 90
        0
176
     1
 62
     7
176
     1
 62
   257
176
     1
 90
        1
176
     1
 90
        1
176
     1
 40
1.0
176
     1
 90
        8
176
     1
 62
     7
176
     1
 40
1.0
176
     1
 90
        1
176
     1
 90
        6
176
     1
 90
        2
176
     1
 62
     7
176
     1
 90
        3
176
     1
 90
        0
176
     1
 90
        0
176
     1
290
     0
176
     1
 90
       13
176
     1
 40
0.0
176
     1
 90
        0
176
     1
290
     0
176
     1
290
     1
176
     1
290
     1
176
     1
290
     0
176
     1
290
     0
176
     1
290
     0
176
     1
290
     0
176
     1
290
     0
176
     1
290
     0
176
     1
 90
       50
176
     1
 40
0.0
176
     1
 40
1.0
176
     1
 90
        0
176
     1
 62
    18
420
        0
176
     1
 90
       50
176
     1
 90
        3
176
     1
 62
     5
420
      255
176
     1
290
     0
176
     1
 90
       50
176
     1
 90
       50
176
     1
 90
       50
176
     1
290
     0
176
     1
 90
       50
176
     1
 62
   256
176
     0
 40
1.0
176
     0
 90
        2
176
     1
  1
strokes_ogs.tif
176
     1
290
     0
176
     1
 40
1.0
176
     1
 40
1.0
176
     1
  0
DICTIONARYVAR
  5
209
102
{ACAD_REACTORS
330
208
102
}
330
208
100
DictionaryVariables
280
     0
  1
1:1
  0
DICTIONARYVAR
  5
20E
102
{ACAD_REACTORS
330
208
102
}
330
208
100
DictionaryVariables
280
     0
  1
Standard
  0
DICTIONARYVAR
  5
20D
102
{ACAD_REACTORS
330
208
102
}
330
208
100
DictionaryVariables
280
     0
  1
Standard
  0
DICTIONARY
  5
20A
330
6A
100
AcDbDictionary
280
     1
281
     1
  3
ACAD_ROUNDTRIP_2008_TABLESTYLE_CELLSTYLEMAP
360
20B
  0
CELLSTYLEMAP
  5
20B
102
{ACAD_REACTORS
330
20A
102
}
330
20A
100
AcDbCellStyleMap
 90
        3
300
CELLSTYLE
  1
TABLEFORMAT_BEGIN
 90
        5
170
     1
 91
        0
 92
    32768
 62
   257
 93
        1
300
CONTENTFORMAT
  1
CONTENTFORMAT_BEGIN
 90
        0
 91
        0
 92
        4
 93
        0
300

 40
0.0
140
1.0
 94
        5
 62
     0
340
11
144
0.25
309
CONTENTFORMAT_END
171
     1
301
MARGIN
  1
CELLMARGIN_BEGIN
 40
0.06
 40
0.06
 40
0.06
 40
0.06
 40
0.06
 40
0.06
309
CELLMARGIN_END
 94
        6
 95
        1
302
GRIDFORMAT
  1
GRIDFORMAT_BEGIN
 90
        0
 91
        1
 62
     0
 92
       -2
340
14
 93
        0
 40
0.045
309
GRIDFORMAT_END
 95
        2
302
GRIDFORMAT
  1
GRIDFORMAT_BEGIN
 90
        0
 91
        1
 62
     0
 92
       -2
340
14
 93
        0
 40
0.045
309
GRIDFORMAT_END
 95
        4
302
GRIDFORMAT
  1
GRIDFORMAT_BEGIN
 90
        0
 91
        1
 62
     0
 92
       -2
340
14
 93
        0
 40
0.045
309
GRIDFORMAT_END
 95
        8
302
GRIDFORMAT
  1
GRIDFORMAT_BEGIN
 90
        0
 91
        1
 62
     0
 92
       -2
340
14
 93
        0
 40
0.045
309
GRIDFORMAT_END
 95
       16
302
GRIDFORMAT
  1
GRIDFORMAT_BEGIN
 90
        0
 91
        1
 62
     0
 92
       -2
340
14
 93
        0
 40
0.045
309
GRIDFORMAT_END
 95
       32
302
GRIDFORMAT
  1
GRIDFORMAT_BEGIN
 90
        0
 91
        1
 62
     0
 92
       -2
340
14
 93
        0
 40
0.045
309
GRIDFORMAT_END
309
TABLEFORMAT_END
  1
CELLSTYLE_BEGIN
 90
        1
 91
        1
300
_TITLE
309
CELLSTYLE_END
300
CELLSTYLE
  1
TABLEFORMAT_BEGIN
 90
        5
170
     1
 91
        0
 92
        0
 62
   257
 93
        1
300
CONTENTFORMAT
  1
CONTENTFORMAT_BEGIN
 90
        0
 91
        0
 92
        4
 93
        0
300

 40
0.0
140
1.0
 94
        5
 62
     0
340
11
144
0.18
309
CONTENTFORMAT_END
171
     1
301
MARGIN
  1
CELLMARGIN_BEGIN
 40
0.06
 40
0.06
 40
0.06
 40
0.06
 40
0.06
 40
0.06
309
CELLMARGIN_END
 94
        6
 95
        1
302
GRIDFORMAT
  1
GRIDFORMAT_BEGIN
 90
        0
 91
        1
 62
     0
 92
       -2
340
14
 93
        0
 40
0.045
309
GRIDFORMAT_END
 95
        2
302
GRIDFORMAT
  1
GRIDFORMAT_BEGIN
 90
        0
 91
        1
 62
     0
 92
       -2
340
14
 93
        0
 40
0.045
309
GRIDFORMAT_END
 95
        4
302
GRIDFORMAT
  1
GRIDFORMAT_BEGIN
 90
        0
 91
        1
 62
     0
 92
       -2
340
14
 93
        0
 40
0.045
309
GRIDFORMAT_END
 95
        8
302
GRIDFORMAT
  1
GRIDFORMAT_BEGIN
 90
        0
 91
        1
 62
     0
 92
       -2
340
14
 93
        0
 40
0.045
309
GRIDFORMAT_END
 95
       16
302
GRIDFORMAT
  1
GRIDFORMAT_BEGIN
 90
        0
 91
        1
 62
     0
 92
       -2
340
14
 93
        0
 40
0.045
309
GRIDFORMAT_END
 95
       32
302
GRIDFORMAT
  1
GRIDFORMAT_BEGIN
 90
        0
 91
        1
 62
     0
 92
       -2
340
14
 93
        0
 40
0.045
309
GRIDFORMAT_END
309
TABLEFORMAT_END
  1
CELLSTYLE_BEGIN
 90
        2
 91
        1
300
_HEADER
309
CELLSTYLE_END
300
CELLSTYLE
  1
TABLEFORMAT_BEGIN
 90
        5
170
     1
 91
        0
 92
        0
 62
   257
 93
        1
300
CONTENTFORMAT
  1
CONTENTFORMAT_BEGIN
 90
        0
 91
        0
 92
        4
 93
        0
300

 40
0.0
140
1.0
 94
        2
 62
     0
340
11
144
0.18
309
CONTENTFORMAT_END
171
     1
301
MARGIN
  1
CELLMARGIN_BEGIN
 40
0.06
 40
0.06
 40
0.06
 40
0.06
 40
0.06
 40
0.06
309
CELLMARGIN_END
 94
        6
 95
        1
302
GRIDFORMAT
  1
GRIDFORMAT_BEGIN
 90
        0
 91
        1
 62
     0
 92
       -2
340
14
 93
        0
 40
0.045
309
GRIDFORMAT_END
 95
        2
302
GRIDFORMAT
  1
GRIDFORMAT_BEGIN
 90
        0
 91
        1
 62
     0
 92
       -2
340
14
 93
        0
 40
0.045
309
GRIDFORMAT_END
 95
        4
302
GRIDFORMAT
  1
GRIDFORMAT_BEGIN
 90
        0
 91
        1
 62
     0
 92
       -2
340
14
 93
        0
 40
0.045
309
GRIDFORMAT_END
 95
        8
302
GRIDFORMAT
  1
GRIDFORMAT_BEGIN
 90
        0
 91
        1
 62
     0
 92
       -2
340
14
 93
        0
 40
0.045
309
GRIDFORMAT_END
 95
       16
302
GRIDFORMAT
  1
GRIDFORMAT_BEGIN
 90
        0
 91
        1
 62
     0
 92
       -2
340
14
 93
        0
 40
0.045
309
GRIDFORMAT_END
 95
       32
302
GRIDFORMAT
  1
GRIDFORMAT_BEGIN
 90
        0
 91
        1
 62
     0
 92
       -2
340
14
 93
        0
 40
0.045
309
GRIDFORMAT_END
309
TABLEFORMAT_END
  1
CELLSTYLE_BEGIN
 90
        3
 91
        2
300
_DATA
309
CELLSTYLE_END
  0
ENDSEC
  0
EOF