0
SECTION
  2
HEADER
  9
$ACADVER
  1
AC1027
  9
$ACADMAINTVER
 70
     8
  9
$DWGCODEPAGE
  3
ANSI_1252
  9
$REQUIREDVERSIONS
160
                 0
  9
$COMMENTS
  1
File was created by Cadenas
  9
$CUSTOMPROPERTYTAG
  1
NN
  9
$CUSTOMPROPERTY
  1
Grip Tight Two-Bolt Pillow Block - Stainless Housing, Corrision Resistant Insert Metric Bore
  9
$CUSTOMPROPERTYTAG
  1
NT
  9
$CUSTOMPROPERTY
  1
GTEZ Normal Duty Stainless Steel Housed Pillow Blocks
  9
$CUSTOMPROPERTYTAG
  1
NB
  9
$CUSTOMPROPERTY
  1
 129267
  9
$CUSTOMPROPERTYTAG
  1
NBSYN
  9
$CUSTOMPROPERTY
  1
 $PN.$LUBE.
  9
$CUSTOMPROPERTYTAG
  1
LINA
  9
$CUSTOMPROPERTY
  1
 129267
  9
$CUSTOMPROPERTYTAG
  1
SERIES
  9
$CUSTOMPROPERTY
  1
206
  9
$CUSTOMPROPERTYTAG
  1
SS
  9
$CUSTOMPROPERTY
  1
30
  9
$CUSTOMPROPERTYTAG
  1
PN
  9
$CUSTOMPROPERTY
  1
129267
  9
$CUSTOMPROPERTYTAG
  1
DESCRIPTION
  9
$CUSTOMPROPERTY
  1
P2B-GTUEZ-30M-SHCR
  9
$CUSTOMPROPERTYTAG
  1
A
  9
$CUSTOMPROPERTY
  1
40.9
  9
$CUSTOMPROPERTYTAG
  1
B
  9
$CUSTOMPROPERTY
  1
158.8
  9
$CUSTOMPROPERTYTAG
  1
C
  9
$CUSTOMPROPERTY
  1
31.8
  9
$CUSTOMPROPERTYTAG
  1
DMIN
  9
$CUSTOMPROPERTY
  1
108.3
  9
$CUSTOMPROPERTYTAG
  1
DMAX
  9
$CUSTOMPROPERTY
  1
127.0
  9
$CUSTOMPROPERTYTAG
  1
F
  9
$CUSTOMPROPERTY
  1
M12
  9
$CUSTOMPROPERTYTAG
  1
G
  9
$CUSTOMPROPERTY
  1
23.8
  9
$CUSTOMPROPERTYTAG
  1
H
  9
$CUSTOMPROPERTY
  1
15.1
  9
$CUSTOMPROPERTYTAG
  1
J
  9
$CUSTOMPROPERTY
  1
79.8
  9
$CUSTOMPROPERTYTAG
  1
L
  9
$CUSTOMPROPERTY
  1
50.8
  9
$CUSTOMPROPERTYTAG
  1
M
  9
$CUSTOMPROPERTY
  1
42.9
  9
$CUSTOMPROPERTYTAG
  1
R
  9
$CUSTOMPROPERTY
  1
13.5
  9
$CUSTOMPROPERTYTAG
  1
S
  9
$CUSTOMPROPERTY
  1
27.4
  9
$CUSTOMPROPERTYTAG
  1
Z
  9
$CUSTOMPROPERTY
  1
26.2
  9
$CUSTOMPROPERTYTAG
  1
COMPANY
  9
$CUSTOMPROPERTY
  1
baldor
  9
$INSBASE
 10
0.0
 20
0.0
 30
0.0
  9
$EXTMIN
 10
1.000000000000000E+20
 20
1.000000000000000E+20
 30
1.000000000000000E+20
  9
$EXTMAX
 10
-1.000000000000000E+20
 20
-1.000000000000000E+20
 30
-1.000000000000000E+20
  9
$LIMMIN
 10
0.0
 20
0.0
  9
$LIMMAX
 10
420.0
 20
297.0
  9
$ORTHOMODE
 70
     0
  9
$REGENMODE
 70
     1
  9
$FILLMODE
 70
     1
  9
$QTEXTMODE
 70
     0
  9
$MIRRTEXT
 70
     1
  9
$LTSCALE
 40
1.0
  9
$ATTMODE
 70
     1
  9
$TEXTSIZE
 40
2.5
  9
$TRACEWID
 40
1.0
  9
$TEXTSTYLE
  7
Standard
  9
$CLAYER
  8
0
  9
$CELTYPE
  6
ByLayer
  9
$CECOLOR
 62
   256
  9
$CELTSCALE
 40
1.0
  9
$DISPSILH
 70
     0
  9
$DIMSCALE
 40
1.0
  9
$DIMASZ
 40
2.5
  9
$DIMEXO
 40
0.625
  9
$DIMDLI
 40
3.75
  9
$DIMRND
 40
0.0
  9
$DIMDLE
 40
0.0
  9
$DIMEXE
 40
1.25
  9
$DIMTP
 40
0.0
  9
$DIMTM
 40
0.0
  9
$DIMTXT
 40
2.5
  9
$DIMCEN
 40
2.5
  9
$DIMTSZ
 40
0.0
  9
$DIMTOL
 70
     0
  9
$DIMLIM
 70
     0
  9
$DIMTIH
 70
     0
  9
$DIMTOH
 70
     0
  9
$DIMSE1
 70
     0
  9
$DIMSE2
 70
     0
  9
$DIMTAD
 70
     1
  9
$DIMZIN
 70
     8
  9
$DIMBLK
  1

  9
$DIMASO
 70
     1
  9
$DIMSHO
 70
     1
  9
$DIMPOST
  1

  9
$DIMAPOST
  1

  9
$DIMALT
 70
     0
  9
$DIMALTD
 70
     3
  9
$DIMALTF
 40
0.03937007874016
  9
$DIMLFAC
 40
1.0
  9
$DIMTOFL
 70
     1
  9
$DIMTVP
 40
0.0
  9
$DIMTIX
 70
     0
  9
$DIMSOXD
 70
     0
  9
$DIMSAH
 70
     0
  9
$DIMBLK1
  1

  9
$DIMBLK2
  1

  9
$DIMSTYLE
  2
ISO-25
  9
$DIMCLRD
 70
     0
  9
$DIMCLRE
 70
     0
  9
$DIMCLRT
 70
     0
  9
$DIMTFAC
 40
1.0
  9
$DIMGAP
 40
0.625
  9
$DIMJUST
 70
     0
  9
$DIMSD1
 70
     0
  9
$DIMSD2
 70
     0
  9
$DIMTOLJ
 70
     0
  9
$DIMTZIN
 70
     8
  9
$DIMALTZ
 70
     0
  9
$DIMALTTZ
 70
     0
  9
$DIMUPT
 70
     0
  9
$DIMDEC
 70
     2
  9
$DIMTDEC
 70
     2
  9
$DIMALTU
 70
     2
  9
$DIMALTTD
 70
     3
  9
$DIMTXSTY
  7
Standard
  9
$DIMAUNIT
 70
     0
  9
$DIMADEC
 70
     0
  9
$DIMALTRND
 40
0.0
  9
$DIMAZIN
 70
     0
  9
$DIMDSEP
 70
    44
  9
$DIMATFIT
 70
     3
  9
$DIMFRAC
 70
     0
  9
$DIMLDRBLK
  1

  9
$DIMLUNIT
 70
     2
  9
$DIMLWD
 70
    -2
  9
$DIMLWE
 70
    -2
  9
$DIMTMOVE
 70
     0
  9
$DIMFXL
 40
1.0
  9
$DIMFXLON
 70
     0
  9
$DIMJOGANG
 40
0.7853981633974483
  9
$DIMTFILL
 70
     0
  9
$DIMTFILLCLR
 70
     0
  9
$DIMARCSYM
 70
     0
  9
$DIMLTYPE
  6

  9
$DIMLTEX1
  6

  9
$DIMLTEX2
  6

  9
$DIMTXTDIRECTION
 70
     0
  9
$LUNITS
 70
     2
  9
$LUPREC
 70
     4
  9
$SKETCHINC
 40
1.0
  9
$FILLETRAD
 40
10.0
  9
$AUNITS
 70
     0
  9
$AUPREC
 70
     0
  9
$MENU
  1
.
  9
$ELEVATION
 40
0.0
  9
$PELEVATION
 40
0.0
  9
$THICKNESS
 40
0.0
  9
$LIMCHECK
 70
     0
  9
$CHAMFERA
 40
0.0
  9
$CHAMFERB
 40
0.0
  9
$CHAMFERC
 40
0.0
  9
$CHAMFERD
 40
0.0
  9
$SKPOLY
 70
     0
  9
$TDCREATE
 40
2458168.992035428
  9
$TDUCREATE
 40
2458168.950368762
  9
$TDUPDATE
 40
2458168.992035613
  9
$TDUUPDATE
 40
2458168.950368947
  9
$TDINDWG
 40
0.0000000116
  9
$TDUSRTIMER
 40
0.0000000116
  9
$USRTIMER
 70
     1
  9
$ANGBASE
 50
0.0
  9
$ANGDIR
 70
     0
  9
$PDMODE
 70
     0
  9
$PDSIZE
 40
0.0
  9
$PLINEWID
 40
0.0
  9
$SPLFRAME
 70
     0
  9
$SPLINETYPE
 70
     6
  9
$SPLINESEGS
 70
     8
  9
$HANDSEED
  5
210
  9
$SURFTAB1
 70
     6
  9
$SURFTAB2
 70
     6
  9
$SURFTYPE
 70
     6
  9
$SURFU
 70
     6
  9
$SURFV
 70
     6
  9
$UCSBASE
  2

  9
$UCSNAME
  2

  9
$UCSORG
 10
0.0
 20
0.0
 30
0.0
  9
$UCSXDIR
 10
1.0
 20
0.0
 30
0.0
  9
$UCSYDIR
 10
0.0
 20
1.0
 30
0.0
  9
$UCSORTHOREF
  2

  9
$UCSORTHOVIEW
 70
     0
  9
$UCSORGTOP
 10
0.0
 20
0.0
 30
0.0
  9
$UCSORGBOTTOM
 10
0.0
 20
0.0
 30
0.0
  9
$UCSORGLEFT
 10
0.0
 20
0.0
 30
0.0
  9
$UCSORGRIGHT
 10
0.0
 20
0.0
 30
0.0
  9
$UCSORGFRONT
 10
0.0
 20
0.0
 30
0.0
  9
$UCSORGBACK
 10
0.0
 20
0.0
 30
0.0
  9
$PUCSBASE
  2

  9
$PUCSNAME
  2

  9
$PUCSORG
 10
0.0
 20
0.0
 30
0.0
  9
$PUCSXDIR
 10
1.0
 20
0.0
 30
0.0
  9
$PUCSYDIR
 10
0.0
 20
1.0
 30
0.0
  9
$PUCSORTHOREF
  2

  9
$PUCSORTHOVIEW
 70
     0
  9
$PUCSORGTOP
 10
0.0
 20
0.0
 30
0.0
  9
$PUCSORGBOTTOM
 10
0.0
 20
0.0
 30
0.0
  9
$PUCSORGLEFT
 10
0.0
 20
0.0
 30
0.0
  9
$PUCSORGRIGHT
 10
0.0
 20
0.0
 30
0.0
  9
$PUCSORGFRONT
 10
0.0
 20
0.0
 30
0.0
  9
$PUCSORGBACK
 10
0.0
 20
0.0
 30
0.0
  9
$USERI1
 70
     0
  9
$USERI2
 70
     0
  9
$USERI3
 70
     0
  9
$USERI4
 70
     0
  9
$USERI5
 70
     0
  9
$USERR1
 40
0.0
  9
$USERR2
 40
0.0
  9
$USERR3
 40
0.0
  9
$USERR4
 40
0.0
  9
$USERR5
 40
0.0
  9
$WORLDVIEW
 70
     1
  9
$SHADEDGE
 70
     3
  9
$SHADEDIF
 70
    70
  9
$TILEMODE
 70
     1
  9
$MAXACTVP
 70
    64
  9
$PINSBASE
 10
0.0
 20
0.0
 30
0.0
  9
$PLIMCHECK
 70
     0
  9
$PEXTMIN
 10
1.000000000000000E+20
 20
1.000000000000000E+20
 30
1.000000000000000E+20
  9
$PEXTMAX
 10
-1.000000000000000E+20
 20
-1.000000000000000E+20
 30
-1.000000000000000E+20
  9
$PLIMMIN
 10
0.0
 20
0.0
  9
$PLIMMAX
 10
420.0
 20
297.0
  9
$UNITMODE
 70
     0
  9
$VISRETAIN
 70
     1
  9
$PLINEGEN
 70
     0
  9
$PSLTSCALE
 70
     1
  9
$TREEDEPTH
 70
  3020
  9
$CMLSTYLE
  2
Standard
  9
$CMLJUST
 70
     0
  9
$CMLSCALE
 40
20.0
  9
$PROXYGRAPHICS
 70
     1
  9
$MEASUREMENT
 70
     1
  9
$CELWEIGHT
370
    -1
  9
$ENDCAPS
280
     0
  9
$JOINSTYLE
280
     0
  9
$LWDISPLAY
290
     0
  9
$INSUNITS
 70
     4
  9
$HYPERLINKBASE
  1

  9
$STYLESHEET
  1

  9
$XEDIT
290
     1
  9
$CEPSNTYPE
380
     0
  9
$PSTYLEMODE
290
     1
  9
$FINGERPRINTGUID
  2
{64582C8E-F1A9-447F-9B81-DC9A6E3279E7}
  9
$VERSIONGUID
  2
{FAEB1C32-E019-11D5-929B-00C0DF256EC4}
  9
$EXTNAMES
290
     1
  9
$PSVPSCALE
 40
0.0
  9
$OLESTARTUP
290
     0
  9
$SORTENTS
280
   127
  9
$INDEXCTL
280
     0
  9
$HIDETEXT
280
     1
  9
$XCLIPFRAME
280
     2
  9
$HALOGAP
280
     0
  9
$OBSCOLOR
 70
   257
  9
$OBSLTYPE
280
     0
  9
$INTERSECTIONDISPLAY
280
     0
  9
$INTERSECTIONCOLOR
 70
   257
  9
$DIMASSOC
280
     2
  9
$PROJECTNAME
  1

  9
$CAMERADISPLAY
290
     0
  9
$LENSLENGTH
 40
50.0
  9
$CAMERAHEIGHT
 40
0.0
  9
$STEPSPERSEC
 40
2.0
  9
$STEPSIZE
 40
6.0
  9
$3DDWFPREC
 40
2.0
  9
$PSOLWIDTH
 40
5.0
  9
$PSOLHEIGHT
 40
80.0
  9
$LOFTANG1
 40
1.570796326794897
  9
$LOFTANG2
 40
1.570796326794897
  9
$LOFTMAG1
 40
0.0
  9
$LOFTMAG2
 40
0.0
  9
$LOFTPARAM
 70
     7
  9
$LOFTNORMALS
280
     1
  9
$LATITUDE
 40
37.795
  9
$LONGITUDE
 40
-122.394
  9
$NORTHDIRECTION
 40
0.0
  9
$TIMEZONE
 70
 -8000
  9
$LIGHTGLYPHDISPLAY
280
     1
  9
$TILEMODELIGHTSYNCH
280
     1
  9
$CMATERIAL
347
44
  9
$SOLIDHIST
280
     0
  9
$SHOWHIST
280
     1
  9
$DWFFRAME
280
     2
  9
$DGNFRAME
280
     2
  9
$REALWORLDSCALE
290
     1
  9
$INTERFERECOLOR
 62
   256
  9
$CSHADOW
280
     0
  9
$SHADOWPLANELOCATION
 40
0.0
  0
ENDSEC
  0
SECTION
  2
CLASSES
  0
CLASS
  1
ACDBDICTIONARYWDFLT
  2
AcDbDictionaryWithDefault
  3
ObjectDBX Classes
 90
        0
 91
        4
280
     0
281
     0
  0
CLASS
  1
VISUALSTYLE
  2
AcDbVisualStyle
  3
ObjectDBX Classes
 90
     4095
 91
        4
280
     0
281
     0
  0
CLASS
  1
MATERIAL
  2
AcDbMaterial
  3
ObjectDBX Classes
 90
     1153
 91
        4
280
     0
281
     0
  0
CLASS
  1
SCALE
  2
AcDbScale
  3
ObjectDBX Classes
 90
     1153
 91
        4
280
     0
281
     0
  0
CLASS
  1
TABLESTYLE
  2
AcDbTableStyle
  3
ObjectDBX Classes
 90
     4095
 91
        4
280
     0
281
     0
  0
CLASS
  1
MLEADERSTYLE
  2
AcDbMLeaderStyle
  3
ACDB_MLEADERSTYLE_CLASS
 90
     4095
 91
        4
280
     0
281
     0
  0
CLASS
  1
SUN
  2
AcDbSun
  3
SCENEOE
 90
     1153
 91
        4
280
     0
281
     0
  0
CLASS
  1
DICTIONARYVAR
  2
AcDbDictionaryVar
  3
ObjectDBX Classes
 90
        0
 91
        4
280
     0
281
     0
  0
CLASS
  1
CELLSTYLEMAP
  2
AcDbCellStyleMap
  3
ObjectDBX Classes
 90
     1152
 91
        4
280
     0
281
     0
  0
ENDSEC
  0
SECTION
  2
TABLES
  0
TABLE
  2
VPORT
  5
8
330
0
100
AcDbSymbolTable
 70
     1
  0
VPORT
  5
29
330
8
100
AcDbSymbolTableRecord
100
AcDbViewportTableRecord
  2
*Active
 70
     0
 10
0.0
 20
0.0
 11
1.0
 21
1.0
 12
0.0
 22
-5.977499999999992
 13
0.0
 23
0.0
 14
10.0
 24
10.0
 15
10.0
 25
10.0
 16
0.0
 26
0.0
 36
1.0
 17
0.0
 27
0.0
 37
0.0
 40
47.87370000000001
 41
3.383402578033452
 42
50.0
 43
0.0
 44
0.0
 50
0.0
 51
0.0
 71
     0
 72
   100
 73
     1
 74
     3
 75
     0
 76
     0
 77
     0
 78
     0
281
     0
 65
     1
110
0.0
120
0.0
130
0.0
111
1.0
121
0.0
131
0.0
112
0.0
122
1.0
132
0.0
 79
     0
146
0.0
348
2F
 60
     3
 61
     5
292
     1
282
     1
141
0.0
142
0.0
 63
   250
361
6D
  0
ENDTAB
  0
TABLE
  2
LTYPE
  5
5
330
0
100
AcDbSymbolTable
 70
     3
  0
LTYPE
  5
14
330
5
100
AcDbSymbolTableRecord
100
AcDbLinetypeTableRecord
  2
ByBlock
 70
     0
  3

 72
    65
 73
     0
 40
0.0
  0
LTYPE
  5
15
330
5
100
AcDbSymbolTableRecord
100
AcDbLinetypeTableRecord
  2
ByLayer
 70
     0
  3

 72
    65
 73
     0
 40
0.0
  0
LTYPE
  5
16
330
5
100
AcDbSymbolTableRecord
100
AcDbLinetypeTableRecord
  2
Continuous
 70
     0
  3
Solid line
 72
    65
 73
     0
 40
0.0
  0
LTYPE
  5
A1
330
5
100
AcDbSymbolTableRecord
100
AcDbLinetypeTableRecord
  2
Dashed
 70
     0
  3

 72
    65
 73
     2
 40
2.0
 49
1.0
 74
     0
 49
-1.0
 74
     0
  0
LTYPE
  5
10A
330
5
100
AcDbSymbolTableRecord
100
AcDbLinetypeTableRecord
  2
Center
 70
     0
  3

 72
    65
 73
     4
 40
1.5
 49
0.45
 74
     0
 49
-0.5
 74
     0
 49
0.05
 74
     0
 49
-0.5
 74
     0
  0
ENDTAB
  0
TABLE
  2
LAYER
  5
2
330
0
100
AcDbSymbolTable
 70
     7
  0
LAYER
  5
10
330
2
100
AcDbSymbolTableRecord
100
AcDbLayerTableRecord
  2
0
 70
     0
 62
     7
  6
Continuous
370
    -3
390
F
347
46
348
0
  0
LAYER
  5
72
330
2
100
AcDbSymbolTableRecord
100
AcDbLayerTableRecord
  2
AM_6
 70
     0
 62
    -2
  6
Continuous
370
    35
390
F
347
46
348
0
  0
LAYER
  5
A2
330
2
100
AcDbSymbolTableRecord
100
AcDbLayerTableRecord
  2
AM_9
 70
     0
 62
     6
  6
Dashed
370
    25
390
F
347
46
348
0
  0
LAYER
  5
CE
330
2
100
AcDbSymbolTableRecord
100
AcDbLayerTableRecord
  2
AM_4
 70
     0
 62
     7
  6
Continuous
370
    50
390
F
347
46
348
0
  0
LAYER
  5
107
330
2
100
AcDbSymbolTableRecord
100
AcDbLayerTableRecord
  2
AM_5
 70
     0
 62
     3
  6
Continuous
370
    25
390
F
347
46
348
0
  0
LAYER
  5
10B
330
2
100
AcDbSymbolTableRecord
100
AcDbLayerTableRecord
  2
AM_7
 70
     0
 62
     7
  6
Center
370
    25
390
F
347
46
348
0
  0
LAYER
  5
203
330
2
100
AcDbSymbolTableRecord
100
AcDbLayerTableRecord
  2
ConnectionPoints
 70
     0
 62
     7
  6
Continuous
370
    50
390
F
347
46
348
0
  0
ENDTAB
  0
TABLE
  2
STYLE
  5
3
330
0
100
AcDbSymbolTable
 70
     1
  0
STYLE
  5
11
330
3
100
AcDbSymbolTableRecord
100
AcDbTextStyleTableRecord
  2
Standard
 70
     0
 40
0.0
 41
1.0
 50
0.0
 71
     0
 42
2.5
  3
txt
  4

  0
ENDTAB
  0
TABLE
  2
VIEW
  5
6
330
0
100
AcDbSymbolTable
 70
     0
  0
ENDTAB
  0
TABLE
  2
UCS
  5
7
330
0
100
AcDbSymbolTable
 70
     0
  0
ENDTAB
  0
TABLE
  2
APPID
  5
9
330
0
100
AcDbSymbolTable
 70
     1
  0
APPID
  5
12
330
9
100
AcDbSymbolTableRecord
100
AcDbRegAppTableRecord
  2
ACAD
 70
     0
  0
ENDTAB
  0
TABLE
  2
DIMSTYLE
  5
A
330
0
100
AcDbSymbolTable
 70
     1
100
AcDbDimStyleTable
  0
DIMSTYLE
105
27
330
A
100
AcDbSymbolTableRecord
100
AcDbDimStyleTableRecord
  2
ISO-25
 70
     0
 41
2.5
 42
0.625
 43
3.75
 44
1.25
 73
     0
 74
     0
 77
     1
 78
     8
140
2.5
141
2.5
143
0.03937007874016
147
0.625
171
     3
172
     1
178
     0
271
     2
272
     2
274
     3
278
    44
283
     0
284
     8
340
11
  0
ENDTAB
  0
TABLE
  2
BLOCK_RECORD
  5
1
330
0
100
AcDbSymbolTable
 70
     5
  0
BLOCK_RECORD
  5
1F
330
1
100
AcDbSymbolTableRecord
100
AcDbBlockTableRecord
  2
*Model_Space
340
22
 70
     0
280
     1
281
     0
  0
BLOCK_RECORD
  5
1B
330
1
100
AcDbSymbolTableRecord
100
AcDbBlockTableRecord
  2
*Paper_Space
340
1E
 70
     0
280
     1
281
     0
  0
BLOCK_RECORD
  5
23
330
1
100
AcDbSymbolTableRecord
100
AcDbBlockTableRecord
  2
*Paper_Space0
340
26
 70
     0
280
     1
281
     0
  0
BLOCK_RECORD
  5
6E
330
1
100
AcDbSymbolTableRecord
100
AcDbBlockTableRecord
  2
1__129267_4
340
0
102
{BLKREFS
331
6F
102
}
 70
     0
280
     1
281
     0
  0
BLOCK_RECORD
  5
8B
330
1
100
AcDbSymbolTableRecord
100
AcDbBlockTableRecord
  2
2_INS_GT_06_CR_0_in__129267_4
340
0
102
{BLKREFS
331
8C
102
}
 70
     0
280
     1
281
     0
  0
BLOCK_RECORD
  5
D5
330
1
100
AcDbSymbolTableRecord
100
AcDbBlockTableRecord
  2
3_129982_0_in__129267_4
340
0
102
{BLKREFS
331
D6
102
}
 70
     0
280
     1
281
     0
  0
BLOCK_RECORD
  5
12C
330
1
100
AcDbSymbolTableRecord
100
AcDbBlockTableRecord
  2
4_P2B_GTUEZ_06_SHCR_0_in__129267_4
340
0
102
{BLKREFS
331
12D
102
}
 70
     0
280
     1
281
     0
  0
ENDTAB
  0
ENDSEC
  0
SECTION
  2
BLOCKS
  0
BLOCK
  5
20
330
1F
100
AcDbEntity
  8
0
100
AcDbBlockBegin
  2
*Model_Space
 70
     0
 10
0.0
 20
0.0
 30
0.0
  3
*Model_Space
  1

  0
ENDBLK
  5
21
330
1F
100
AcDbEntity
  8
0
100
AcDbBlockEnd
  0
BLOCK
  5
1C
330
1B
100
AcDbEntity
 67
     1
  8
0
100
AcDbBlockBegin
  2
*Paper_Space
 70
     0
 10
0.0
 20
0.0
 30
0.0
  3
*Paper_Space
  1

  0
ENDBLK
  5
1D
330
1B
100
AcDbEntity
 67
     1
  8
0
100
AcDbBlockEnd
  0
BLOCK
  5
24
330
23
100
AcDbEntity
  8
0
100
AcDbBlockBegin
  2
*Paper_Space0
 70
     0
 10
0.0
 20
0.0
 30
0.0
  3
*Paper_Space0
  1

  0
ENDBLK
  5
25
330
23
100
AcDbEntity
  8
0
100
AcDbBlockEnd
  0
BLOCK
  5
70
330
6E
100
AcDbEntity
  8
0
100
AcDbBlockBegin
  2
1__129267_4
 70
     2
 10
0.0
 20
0.0
 30
0.0
  3
1__129267_4
  1

  0
ATTDEF
  5
73
330
6E
100
AcDbEntity
  8
AM_6
100
AcDbText
 10
84.4
 20
17.49
 30
0.0
 40
0.5
  1
Grip Tight Two-Bolt Pillow Block - Stainless Housing, Corrision Resistant Insert Metric Bore
100
AcDbAttributeDefinition
  3

  2
NN
 70
     8
280
     0
  0
ATTDEF
  5
74
330
6E
100
AcDbEntity
  8
AM_6
100
AcDbText
 10
84.4
 20
16.99
 30
0.0
 40
0.5
  1
GTEZ Normal Duty Stainless Steel Housed Pillow Blocks
100
AcDbAttributeDefinition
  3

  2
NT
 70
     8
280
     0
  0
ATTDEF
  5
75
330
6E
100
AcDbEntity
  8
AM_6
100
AcDbText
 10
84.4
 20
16.49
 30
0.0
 40
0.5
  1
 129267
100
AcDbAttributeDefinition
  3

  2
NB
 70
     8
280
     0
  0
ATTDEF
  5
76
330
6E
100
AcDbEntity
  8
AM_6
100
AcDbText
 10
84.4
 20
15.99
 30
0.0
 40
0.5
  1
 $PN.$LUBE.
100
AcDbAttributeDefinition
  3

  2
NBSYN
 70
     8
280
     0
  0
ATTDEF
  5
77
330
6E
100
AcDbEntity
  8
AM_6
100
AcDbText
 10
84.4
 20
15.49
 30
0.0
 40
0.5
  1
 129267
100
AcDbAttributeDefinition
  3

  2
LINA
 70
     8
280
     0
  0
ATTDEF
  5
78
330
6E
100
AcDbEntity
  8
AM_6
100
AcDbText
 10
84.4
 20
14.99
 30
0.0
 40
0.5
  1
206
100
AcDbAttributeDefinition
  3

  2
SERIES
 70
     8
280
     0
  0
ATTDEF
  5
79
330
6E
100
AcDbEntity
  8
AM_6
100
AcDbText
 10
84.4
 20
14.49
 30
0.0
 40
0.5
  1
30
100
AcDbAttributeDefinition
  3

  2
SS
 70
     8
280
     0
  0
ATTDEF
  5
7A
330
6E
100
AcDbEntity
  8
AM_6
100
AcDbText
 10
84.4
 20
13.99
 30
0.0
 40
0.5
  1
129267
100
AcDbAttributeDefinition
  3

  2
PN
 70
     8
280
     0
  0
ATTDEF
  5
7B
330
6E
100
AcDbEntity
  8
AM_6
100
AcDbText
 10
84.4
 20
13.49
 30
0.0
 40
0.5
  1
P2B-GTUEZ-30M-SHCR
100
AcDbAttributeDefinition
  3

  2
DESCRIPTION
 70
     8
280
     0
  0
ATTDEF
  5
7C
330
6E
100
AcDbEntity
  8
AM_6
100
AcDbText
 10
84.4
 20
12.99
 30
0.0
 40
0.5
  1
40.9
100
AcDbAttributeDefinition
  3

  2
A
 70
     8
280
     0
  0
ATTDEF
  5
7D
330
6E
100
AcDbEntity
  8
AM_6
100
AcDbText
 10
84.4
 20
12.49
 30
0.0
 40
0.5
  1
158.8
100
AcDbAttributeDefinition
  3

  2
B
 70
     8
280
     0
  0
ATTDEF
  5
7E
330
6E
100
AcDbEntity
  8
AM_6
100
AcDbText
 10
84.4
 20
11.99
 30
0.0
 40
0.5
  1
31.8
100
AcDbAttributeDefinition
  3

  2
C
 70
     8
280
     0
  0
ATTDEF
  5
7F
330
6E
100
AcDbEntity
  8
AM_6
100
AcDbText
 10
84.4
 20
11.49
 30
0.0
 40
0.5
  1
108.3
100
AcDbAttributeDefinition
  3

  2
DMIN
 70
     8
280
     0
  0
ATTDEF
  5
80
330
6E
100
AcDbEntity
  8
AM_6
100
AcDbText
 10
84.4
 20
10.99
 30
0.0
 40
0.5
  1
127.0
100
AcDbAttributeDefinition
  3

  2
DMAX
 70
     8
280
     0
  0
ATTDEF
  5
81
330
6E
100
AcDbEntity
  8
AM_6
100
AcDbText
 10
84.4
 20
10.49
 30
0.0
 40
0.5
  1
M12
100
AcDbAttributeDefinition
  3

  2
F
 70
     8
280
     0
  0
ATTDEF
  5
82
330
6E
100
AcDbEntity
  8
AM_6
100
AcDbText
 10
84.4
 20
9.990000000000002
 30
0.0
 40
0.5
  1
23.8
100
AcDbAttributeDefinition
  3

  2
G
 70
     8
280
     0
  0
ATTDEF
  5
83
330
6E
100
AcDbEntity
  8
AM_6
100
AcDbText
 10
84.4
 20
9.490000000000002
 30
0.0
 40
0.5
  1
15.1
100
AcDbAttributeDefinition
  3

  2
H
 70
     8
280
     0
  0
ATTDEF
  5
84
330
6E
100
AcDbEntity
  8
AM_6
100
AcDbText
 10
84.4
 20
8.990000000000002
 30
0.0
 40
0.5
  1
79.8
100
AcDbAttributeDefinition
  3

  2
J
 70
     8
280
     0
  0
ATTDEF
  5
85
330
6E
100
AcDbEntity
  8
AM_6
100
AcDbText
 10
84.4
 20
8.490000000000002
 30
0.0
 40
0.5
  1
50.8
100
AcDbAttributeDefinition
  3

  2
L
 70
     8
280
     0
  0
ATTDEF
  5
86
330
6E
100
AcDbEntity
  8
AM_6
100
AcDbText
 10
84.4
 20
7.990000000000002
 30
0.0
 40
0.5
  1
42.9
100
AcDbAttributeDefinition
  3

  2
M
 70
     8
280
     0
  0
ATTDEF
  5
87
330
6E
100
AcDbEntity
  8
AM_6
100
AcDbText
 10
84.4
 20
7.490000000000002
 30
0.0
 40
0.5
  1
13.5
100
AcDbAttributeDefinition
  3

  2
R
 70
     8
280
     0
  0
ATTDEF
  5
88
330
6E
100
AcDbEntity
  8
AM_6
100
AcDbText
 10
84.4
 20
6.990000000000002
 30
0.0
 40
0.5
  1
27.4
100
AcDbAttributeDefinition
  3

  2
S
 70
     8
280
     0
  0
ATTDEF
  5
89
330
6E
100
AcDbEntity
  8
AM_6
100
AcDbText
 10
84.4
 20
6.490000000000002
 30
0.0
 40
0.5
  1
26.2
100
AcDbAttributeDefinition
  3

  2
Z
 70
     8
280
     0
  0
ATTDEF
  5
8A
330
6E
100
AcDbEntity
  8
AM_6
100
AcDbText
 10
84.4
 20
5.990000000000002
 30
0.0
 40
0.5
  1
baldor
100
AcDbAttributeDefinition
  3

  2
COMPANY
 70
     8
280
     0
  0
INSERT
  5
8C
330
6E
100
AcDbEntity
  8
0
100
AcDbBlockReference
  2
2_INS_GT_06_CR_0_in__129267_4
 10
0.0
 20
0.0
 30
0.0
  0
INSERT
  5
D6
330
6E
100
AcDbEntity
  8
0
100
AcDbBlockReference
  2
3_129982_0_in__129267_4
 10
0.0
 20
0.0
 30
0.0
  0
INSERT
  5
12D
330
6E
100
AcDbEntity
  8
0
100
AcDbBlockReference
  2
4_P2B_GTUEZ_06_SHCR_0_in__129267_4
 10
0.0
 20
0.0
 30
0.0
  0
ENDBLK
  5
71
330
6E
100
AcDbEntity
  8
0
100
AcDbBlockEnd
  0
BLOCK
  5
8D
330
8B
100
AcDbEntity
  8
0
100
AcDbBlockBegin
  2
2_INS_GT_06_CR_0_in__129267_4
 70
     2
 10
0.0
 20
0.0
 30
0.0
  3
2_INS_GT_06_CR_0_in__129267_4
  1

  0
ATTDEF
  5
8F
330
8B
100
AcDbEntity
  8
AM_6
100
AcDbText
 10
35.99953819503878
 20
12.15
 30
0.0
 40
0.5
  1
INS-GT-CR-M
100
AcDbAttributeDefinition
  3

  2
NN
 70
     8
280
     0
  0
ATTDEF
  5
90
330
8B
100
AcDbEntity
  8
AM_6
100
AcDbText
 10
35.99953819503878
 20
11.65
 30
0.0
 40
0.5
  1
GT Normal Duty Corrosion Resistant Bearing Inserts
100
AcDbAttributeDefinition
  3

  2
NT
 70
     8
280
     0
  0
ATTDEF
  5
91
330
8B
100
AcDbEntity
  8
AM_6
100
AcDbText
 10
35.99953819503878
 20
11.15
 30
0.0
 40
0.5
  1
INS-GT-06-CR
100
AcDbAttributeDefinition
  3

  2
NB
 70
     8
280
     0
  0
ATTDEF
  5
92
330
8B
100
AcDbEntity
  8
AM_6
100
AcDbText
 10
35.99953819503878
 20
10.65
 30
0.0
 40
0.5
  1
$PN.
100
AcDbAttributeDefinition
  3

  2
NBSYN
 70
     8
280
     0
  0
ATTDEF
  5
93
330
8B
100
AcDbEntity
  8
AM_6
100
AcDbText
 10
35.99953819503878
 20
10.15
 30
0.0
 40
0.5
  1
INS-GT-06-CR
100
AcDbAttributeDefinition
  3

  2
LINA
 70
     8
280
     0
  0
ATTDEF
  5
94
330
8B
100
AcDbEntity
  8
AM_6
100
AcDbText
 10
35.99953819503878
 20
9.65
 30
0.0
 40
0.5
  1
206
100
AcDbAttributeDefinition
  3

  2
SERIES
 70
     8
280
     0
  0
ATTDEF
  5
95
330
8B
100
AcDbEntity
  8
AM_6
100
AcDbText
 10
35.99953819503878
 20
9.15
 30
0.0
 40
0.5
  1
INS-GT-06-CR
100
AcDbAttributeDefinition
  3

  2
PN
 70
     8
280
     0
  0
ATTDEF
  5
96
330
8B
100
AcDbEntity
  8
AM_6
100
AcDbText
 10
35.99953819503878
 20
8.65
 30
0.0
 40
0.5
  1
INS-GT-06-CR
100
AcDbAttributeDefinition
  3

  2
DESCRIPTION
 70
     8
280
     0
  0
ATTDEF
  5
97
330
8B
100
AcDbEntity
  8
AM_6
100
AcDbText
 10
35.99953819503878
 20
8.15
 30
0.0
 40
0.5
  1
40.9
100
AcDbAttributeDefinition
  3

  2
A
 70
     8
280
     0
  0
ATTDEF
  5
98
330
8B
100
AcDbEntity
  8
AM_6
100
AcDbText
 10
35.99953819503878
 20
7.65
 30
0.0
 40
0.5
  1
18.0
100
AcDbAttributeDefinition
  3

  2
C
 70
     8
280
     0
  0
ATTDEF
  5
99
330
8B
100
AcDbEntity
  8
AM_6
100
AcDbText
 10
35.99953819503878
 20
7.15
 30
0.0
 40
0.5
  1
62.0
100
AcDbAttributeDefinition
  3

  2
D
 70
     8
280
     0
  0
ATTDEF
  5
9A
330
8B
100
AcDbEntity
  8
AM_6
100
AcDbText
 10
35.99953819503878
 20
6.65
 30
0.0
 40
0.5
  1
4.8
100
AcDbAttributeDefinition
  3

  2
J
 70
     8
280
     0
  0
ATTDEF
  5
9B
330
8B
100
AcDbEntity
  8
AM_6
100
AcDbText
 10
35.99953819503878
 20
6.15
 30
0.0
 40
0.5
  1
50.8
100
AcDbAttributeDefinition
  3

  2
L
 70
     8
280
     0
  0
ATTDEF
  5
9C
330
8B
100
AcDbEntity
  8
AM_6
100
AcDbText
 10
35.99953819503878
 20
5.65
 30
0.0
 40
0.5
  1
10 - 32 x 1/4
100
AcDbAttributeDefinition
  3

  2
N
 70
     8
280
     0
  0
ATTDEF
  5
9D
330
8B
100
AcDbEntity
  8
AM_6
100
AcDbText
 10
35.99953819503878
 20
5.15
 30
0.0
 40
0.5
  1
13.5
100
AcDbAttributeDefinition
  3

  2
W
 70
     8
280
     0
  0
ATTDEF
  5
9E
330
8B
100
AcDbEntity
  8
AM_6
100
AcDbText
 10
35.99953819503878
 20
4.65
 30
0.0
 40
0.5
  1
26.2
100
AcDbAttributeDefinition
  3

  2
X
 70
     8
280
     0
  0
ATTDEF
  5
9F
330
8B
100
AcDbEntity
  8
AM_6
100
AcDbText
 10
35.99953819503878
 20
4.15
 30
0.0
 40
0.5
  1
27.4
100
AcDbAttributeDefinition
  3

  2
Y
 70
     8
280
     0
  0
ATTDEF
  5
A0
330
8B
100
AcDbEntity
  8
AM_6
100
AcDbText
 10
35.99953819503878
 20
3.65
 30
0.0
 40
0.5
  1
baldor
100
AcDbAttributeDefinition
  3

  2
COMPANY
 70
     8
280
     0
  0
LINE
  5
A3
330
8B
100
AcDbEntity
  8
AM_9
100
AcDbLine
 10
18.94920634920635
 20
-19.65
 30
0.0
 11
18.94920634920635
 21
-9.82500000000007
 31
0.0
  0
LINE
  5
A4
330
8B
100
AcDbEntity
  8
AM_9
100
AcDbLine
 10
-18.94920634920635
 20
-9.82500000000007
 30
0.0
 11
-18.94920634920635
 21
-19.65
 31
0.0
  0
LINE
  5
A5
330
8B
100
AcDbEntity
  8
AM_9
100
AcDbLine
 10
-18.94920634920635
 20
-9.82500000000007
 30
0.0
 11
18.94920634920635
 21
-9.82500000000007
 31
0.0
  0
LINE
  5
A6
330
8B
100
AcDbEntity
  8
AM_9
100
AcDbLine
 10
18.94920634920635
 20
-9.82500000000007
 30
0.0
 11
19.7165902587875
 21
12.15
 31
0.0
  0
LINE
  5
A7
330
8B
100
AcDbEntity
  8
AM_9
100
AcDbLine
 10
-19.7165902587875
 20
12.15
 30
0.0
 11
-18.94920634920635
 21
-9.82500000000007
 31
0.0
  0
LINE
  5
A8
330
8B
100
AcDbEntity
  8
AM_9
100
AcDbLine
 10
20.76349206349206
 20
-16.375
 30
0.0
 11
20.76349206349206
 21
-13.1
 31
0.0
  0
LINE
  5
A9
330
8B
100
AcDbEntity
  8
AM_9
100
AcDbLine
 10
-20.76349206349206
 20
-13.1
 30
0.0
 11
-20.76349206349206
 21
-16.375
 31
0.0
  0
LINE
  5
AA
330
8B
100
AcDbEntity
  8
AM_9
100
AcDbLine
 10
21.85777777777778
 20
-19.65
 30
0.0
 11
22.57777777777778
 21
-18.93
 31
0.0
  0
LINE
  5
AB
330
8B
100
AcDbEntity
  8
AM_9
100
AcDbLine
 10
-22.57777777777778
 20
-18.93
 30
0.0
 11
-21.85777777777778
 21
-19.65
 31
0.0
  0
LINE
  5
AC
330
8B
100
AcDbEntity
  8
AM_9
100
AcDbLine
 10
-22.41359100476776
 20
11.59418677301001
 30
0.0
 11
-22.57777777777778
 21
11.43
 31
0.0
  0
LINE
  5
AD
330
8B
100
AcDbEntity
  8
AM_9
100
AcDbLine
 10
22.57777777777778
 20
11.43
 30
0.0
 11
22.41359100476776
 21
11.59418677301001
 31
0.0
  0
LINE
  5
AE
330
8B
100
AcDbEntity
  8
AM_9
100
AcDbLine
 10
22.57777777777778
 20
-18.93
 30
0.0
 11
22.57777777777778
 21
-16.375
 31
0.0
  0
LINE
  5
AF
330
8B
100
AcDbEntity
  8
AM_9
100
AcDbLine
 10
-22.57777777777778
 20
-16.375
 30
0.0
 11
-22.57777777777778
 21
-18.93
 31
0.0
  0
LINE
  5
B0
330
8B
100
AcDbEntity
  8
AM_9
100
AcDbLine
 10
-22.57777777777778
 20
-18.93
 30
0.0
 11
22.57777777777778
 21
-18.93
 31
0.0
  0
LINE
  5
B1
330
8B
100
AcDbEntity
  8
AM_9
100
AcDbLine
 10
20.45647052791562
 20
11.43
 30
0.0
 11
22.57777777777778
 21
11.43
 31
0.0
  0
LINE
  5
B2
330
8B
100
AcDbEntity
  8
AM_9
100
AcDbLine
 10
22.57777777777778
 20
9.000000000000002
 30
0.0
 11
22.57777777777778
 21
11.43
 31
0.0
  0
LINE
  5
B3
330
8B
100
AcDbEntity
  8
AM_9
100
AcDbLine
 10
-22.57777777777778
 20
11.43
 30
0.0
 11
-22.57777777777778
 21
9.000000000000002
 31
0.0
  0
LINE
  5
B4
330
8B
100
AcDbEntity
  8
AM_9
100
AcDbLine
 10
-22.57777777777778
 20
11.43
 30
0.0
 11
-20.45647052791562
 21
11.43
 31
0.0
  0
LINE
  5
B5
330
8B
100
AcDbEntity
  8
AM_9
100
AcDbLine
 10
22.57777777777778
 20
-11.60933692173672
 30
0.0
 11
22.57777777777778
 21
-9.000000000000002
 31
0.0
  0
LINE
  5
B6
330
8B
100
AcDbEntity
  8
AM_9
100
AcDbLine
 10
-22.57777777777778
 20
-9.000000000000002
 30
0.0
 11
-22.57777777777778
 21
-11.60933692173672
 31
0.0
  0
LINE
  5
B7
330
8B
100
AcDbEntity
  8
AM_9
100
AcDbLine
 10
29.2
 20
-5.760000000000002
 30
0.0
 11
29.2
 21
-3.84
 31
0.0
  0
LINE
  5
B8
330
8B
100
AcDbEntity
  8
AM_9
100
AcDbLine
 10
-29.2
 20
-3.84
 30
0.0
 11
-29.2
 21
-5.760000000000002
 31
0.0
  0
LINE
  5
B9
330
8B
100
AcDbEntity
  8
AM_9
100
AcDbLine
 10
-28.71454475000586
 20
-9.000000000000002
 30
0.0
 11
28.71454475000586
 21
-9.000000000000002
 31
0.0
  0
ARC
  5
BA
330
8B
100
AcDbEntity
  8
AM_9
100
AcDbCircle
 10
28.71454475000586
 20
-8.280000000000005
 30
0.0
 40
0.7199999999999971
100
AcDbArc
 50
270.0
 51
338.5875329531169
  0
ARC
  5
BB
330
8B
100
AcDbEntity
  8
AM_9
100
AcDbCircle
 10
-28.71454475000586
 20
-8.280000000000005
 30
0.0
 40
0.7200000000000009
100
AcDbArc
 50
201.4124670468831
 51
270.0
  0
LINE
  5
BC
330
8B
100
AcDbEntity
  8
AM_9
100
AcDbLine
 10
-28.71454475000586
 20
9.000000000000002
 30
0.0
 11
28.71454475000586
 21
9.000000000000002
 31
0.0
  0
ARC
  5
BD
330
8B
100
AcDbEntity
  8
AM_9
100
AcDbCircle
 10
28.71454475000586
 20
8.28
 30
0.0
 40
0.7200000000000049
100
AcDbArc
 50
21.41246704688395
 51
90.0
  0
ARC
  5
BE
330
8B
100
AcDbEntity
  8
AM_9
100
AcDbCircle
 10
-28.71454475000586
 20
8.28
 30
0.0
 40
0.7200000000000024
100
AcDbArc
 50
90.0
 51
158.587532953116
  0
LINE
  5
BF
330
8B
100
AcDbEntity
  8
AM_9
100
AcDbLine
 10
-29.38484775794256
 20
-8.542857142857137
 30
0.0
 11
29.38484775794256
 21
-8.542857142857137
 31
0.0
  0
ARC
  5
C0
330
8B
100
AcDbEntity
  8
AM_9
100
AcDbCircle
 10
7.600000000020536
 20
-0.0000000000056026
 30
0.0
 40
23.39999999997871
100
AcDbArc
 50
343.6112174321124
 51
345.1781789714648
  0
ARC
  5
C1
330
8B
100
AcDbEntity
  8
AM_9
100
AcDbCircle
 10
7.599999999997415
 20
0.0000000000008384
 30
0.0
 40
23.40000000000271
100
AcDbArc
 50
338.5875329531164
 51
343.4847933809436
  0
ARC
  5
C2
330
8B
100
AcDbEntity
  8
AM_9
100
AcDbCircle
 10
-7.599999999998445
 20
0.0000000000005018
 30
0.0
 40
23.40000000000163
100
AcDbArc
 50
194.8218210285357
 51
201.4124670468838
  0
LINE
  5
C3
330
8B
100
AcDbEntity
  8
AM_9
100
AcDbLine
 10
-30.04737846609266
 20
-5.760000000000002
 30
0.0
 11
30.04737846609266
 21
-5.760000000000002
 31
0.0
  0
ARC
  5
C4
330
8B
100
AcDbEntity
  8
AM_9
100
AcDbCircle
 10
30.04737846609265
 20
-5.939999999999999
 30
0.0
 40
0.1799999999999969
100
AcDbArc
 50
345.1781832948446
 51
90.0
  0
ARC
  5
C5
330
8B
100
AcDbEntity
  8
AM_9
100
AcDbCircle
 10
-30.04737846609265
 20
-5.939999999999999
 30
0.0
 40
0.1799999999999979
100
AcDbArc
 50
90.0
 51
194.8218167051555
  0
LINE
  5
C6
330
8B
100
AcDbEntity
  8
AM_9
100
AcDbLine
 10
-30.22138915537779
 20
-5.986046498395757
 30
0.0
 11
30.22138915537779
 21
-5.986046498395757
 31
0.0
  0
LINE
  5
C7
330
8B
100
AcDbEntity
  8
AM_9
100
AcDbLine
 10
-30.52973615199332
 20
-3.839999999999996
 30
0.0
 11
30.52973615199332
 21
-3.839999999999996
 31
0.0
  0
ARC
  5
C8
330
8B
100
AcDbEntity
  8
AM_9
100
AcDbCircle
 10
30.52973615199332
 20
-3.660000000000004
 30
0.0
 40
0.1799999999999935
100
AcDbArc
 50
270.0
 51
350.9312134485462
  0
ARC
  5
C9
330
8B
100
AcDbEntity
  8
AM_9
100
AcDbCircle
 10
-30.52973615199332
 20
-3.660000000000004
 30
0.0
 40
0.1799999999999941
100
AcDbArc
 50
189.0687865514537
 51
270.0
  0
LINE
  5
CA
330
8B
100
AcDbEntity
  8
AM_9
100
AcDbLine
 10
-29.38484775794256
 20
8.542857142857141
 30
0.0
 11
29.38484775794256
 21
8.542857142857141
 31
0.0
  0
ARC
  5
CB
330
8B
100
AcDbEntity
  8
AM_9
100
AcDbCircle
 10
7.600000000004133
 20
0.0000000000004409
 30
0.0
 40
23.399999999996
100
AcDbArc
 50
350.9310628341472
 51
21.41246704688673
  0
ARC
  5
CC
330
8B
100
AcDbEntity
  8
AM_9
100
AcDbCircle
 10
-7.599999999998907
 20
-0.0000000000001226
 30
0.0
 40
23.40000000000107
100
AcDbArc
 50
158.5875329531166
 51
189.0689371658494
  0
LINE
  5
CD
330
8B
100
AcDbEntity
  8
AM_9
100
AcDbLine
 10
-30.70748611980417
 20
-3.688371622146847
 30
0.0
 11
30.70748611980417
 21
-3.688371622146847
 31
0.0
  0
LINE
  5
CF
330
8B
100
AcDbEntity
  8
AM_4
100
AcDbLine
 10
-21.85777777777778
 20
12.15
 30
0.0
 11
21.85777777777778
 21
12.15
 31
0.0
  0
LINE
  5
D0
330
8B
100
AcDbEntity
  8
AM_4
100
AcDbLine
 10
-21.85777777777778
 20
12.15
 30
0.0
 11
-22.41359100476776
 21
11.59418677301001
 31
0.0
  0
LINE
  5
D1
330
8B
100
AcDbEntity
  8
AM_4
100
AcDbLine
 10
22.41359100476776
 20
11.59418677301001
 30
0.0
 11
21.85777777777778
 21
12.15
 31
0.0
  0
LINE
  5
D2
330
8B
100
AcDbEntity
  8
AM_4
100
AcDbLine
 10
-20.45647052791562
 20
11.43
 30
0.0
 11
20.45647052791562
 21
11.43
 31
0.0
  0
LINE
  5
D3
330
8B
100
AcDbEntity
  8
AM_4
100
AcDbLine
 10
22.57777777777778
 20
-13.1
 30
0.0
 11
22.57777777777778
 21
-11.60933692173672
 31
0.0
  0
LINE
  5
D4
330
8B
100
AcDbEntity
  8
AM_4
100
AcDbLine
 10
-22.57777777777778
 20
-11.60933692173672
 30
0.0
 11
-22.57777777777778
 21
-13.1
 31
0.0
  0
ENDBLK
  5
8E
330
8B
100
AcDbEntity
  8
0
100
AcDbBlockEnd
  0
BLOCK
  5
D7
330
D5
100
AcDbEntity
  8
0
100
AcDbBlockBegin
  2
3_129982_0_in__129267_4
 70
     2
 10
0.0
 20
0.0
 30
0.0
  3
3_129982_0_in__129267_4
  1

  0
ATTDEF
  5
D9
330
D5
100
AcDbEntity
  8
AM_6
100
AcDbText
 10
30.28635995947223
 20
13.5
 30
0.0
 40
0.5
  1
Grip Tight Adapter and Nut - Corrosion Resistant Metric Bore
100
AcDbAttributeDefinition
  3

  2
NN
 70
     8
280
     0
  0
ATTDEF
  5
DA
330
D5
100
AcDbEntity
  8
AM_6
100
AcDbText
 10
30.28635995947223
 20
13.0
 30
0.0
 40
0.5
  1
GT and GTM Adapter & Lock Nut Assemblies
100
AcDbAttributeDefinition
  3

  2
NT
 70
     8
280
     0
  0
ATTDEF
  5
DB
330
D5
100
AcDbEntity
  8
AM_6
100
AcDbText
 10
30.28635995947223
 20
12.5
 30
0.0
 40
0.5
  1
129982
100
AcDbAttributeDefinition
  3

  2
NB
 70
     8
280
     0
  0
ATTDEF
  5
DC
330
D5
100
AcDbEntity
  8
AM_6
100
AcDbText
 10
30.28635995947223
 20
12.0
 30
0.0
 40
0.5
  1
$PN.
100
AcDbAttributeDefinition
  3

  2
NBSYN
 70
     8
280
     0
  0
ATTDEF
  5
DD
330
D5
100
AcDbEntity
  8
AM_6
100
AcDbText
 10
30.28635995947223
 20
11.5
 30
0.0
 40
0.5
  1
129982
100
AcDbAttributeDefinition
  3

  2
LINA
 70
     8
280
     0
  0
ATTDEF
  5
DE
330
D5
100
AcDbEntity
  8
AM_6
100
AcDbText
 10
30.28635995947223
 20
11.0
 30
0.0
 40
0.5
  1
206
100
AcDbAttributeDefinition
  3

  2
SERIES
 70
     8
280
     0
  0
ATTDEF
  5
DF
330
D5
100
AcDbEntity
  8
AM_6
100
AcDbText
 10
30.28635995947223
 20
10.5
 30
0.0
 40
0.5
  1
30
100
AcDbAttributeDefinition
  3

  2
SS
 70
     8
280
     0
  0
ATTDEF
  5
E0
330
D5
100
AcDbEntity
  8
AM_6
100
AcDbText
 10
30.28635995947223
 20
10.0
 30
0.0
 40
0.5
  1
129982
100
AcDbAttributeDefinition
  3

  2
PN
 70
     8
280
     0
  0
ATTDEF
  5
E1
330
D5
100
AcDbEntity
  8
AM_6
100
AcDbText
 10
30.28635995947223
 20
9.500000000000002
 30
0.0
 40
0.5
  1
AN-GT-06-30M-CR
100
AcDbAttributeDefinition
  3

  2
DESCRIPTION
 70
     8
280
     0
  0
ATTDEF
  5
E2
330
D5
100
AcDbEntity
  8
AM_6
100
AcDbText
 10
30.28635995947223
 20
9.000000000000002
 30
0.0
 40
0.5
  1
40.9
100
AcDbAttributeDefinition
  3

  2
A
 70
     8
280
     0
  0
ATTDEF
  5
E3
330
D5
100
AcDbEntity
  8
AM_6
100
AcDbText
 10
30.28635995947223
 20
8.500000000000002
 30
0.0
 40
0.5
  1
18.0
100
AcDbAttributeDefinition
  3

  2
C
 70
     8
280
     0
  0
ATTDEF
  5
E4
330
D5
100
AcDbEntity
  8
AM_6
100
AcDbText
 10
30.28635995947223
 20
8.000000000000002
 30
0.0
 40
0.5
  1
62.0
100
AcDbAttributeDefinition
  3

  2
D
 70
     8
280
     0
  0
ATTDEF
  5
E5
330
D5
100
AcDbEntity
  8
AM_6
100
AcDbText
 10
30.28635995947223
 20
7.500000000000002
 30
0.0
 40
0.5
  1
4.8
100
AcDbAttributeDefinition
  3

  2
J
 70
     8
280
     0
  0
ATTDEF
  5
E6
330
D5
100
AcDbEntity
  8
AM_6
100
AcDbText
 10
30.28635995947223
 20
7.000000000000002
 30
0.0
 40
0.5
  1
50.8
100
AcDbAttributeDefinition
  3

  2
L
 70
     8
280
     0
  0
ATTDEF
  5
E7
330
D5
100
AcDbEntity
  8
AM_6
100
AcDbText
 10
30.28635995947223
 20
6.500000000000002
 30
0.0
 40
0.5
  1
10 - 32 x 1/4
100
AcDbAttributeDefinition
  3

  2
N
 70
     8
280
     0
  0
ATTDEF
  5
E8
330
D5
100
AcDbEntity
  8
AM_6
100
AcDbText
 10
30.28635995947223
 20
6.000000000000002
 30
0.0
 40
0.5
  1
13.5
100
AcDbAttributeDefinition
  3

  2
W
 70
     8
280
     0
  0
ATTDEF
  5
E9
330
D5
100
AcDbEntity
  8
AM_6
100
AcDbText
 10
30.28635995947223
 20
5.500000000000002
 30
0.0
 40
0.5
  1
26.2
100
AcDbAttributeDefinition
  3

  2
X
 70
     8
280
     0
  0
ATTDEF
  5
EA
330
D5
100
AcDbEntity
  8
AM_6
100
AcDbText
 10
30.28635995947223
 20
5.000000000000002
 30
0.0
 40
0.5
  1
27.4
100
AcDbAttributeDefinition
  3

  2
Y
 70
     8
280
     0
  0
ATTDEF
  5
EB
330
D5
100
AcDbEntity
  8
AM_6
100
AcDbText
 10
30.28635995947223
 20
4.500000000000002
 30
0.0
 40
0.5
  1
baldor
100
AcDbAttributeDefinition
  3

  2
COMPANY
 70
     8
280
     0
  0
LINE
  5
EC
330
D5
100
AcDbEntity
  8
AM_9
100
AcDbLine
 10
-24.9682
 20
-25.0812
 30
0.0
 11
-19.4818
 21
-25.0812
 31
0.0
  0
LINE
  5
ED
330
D5
100
AcDbEntity
  8
AM_9
100
AcDbLine
 10
-19.4818
 20
-21.1188
 30
0.0
 11
-24.9682
 21
-21.1188
 31
0.0
  0
LINE
  5
EE
330
D5
100
AcDbEntity
  8
AM_9
100
AcDbLine
 10
23.70666102220341
 20
-13.1
 30
0.0
 11
23.70666102220341
 21
-26.2
 31
0.0
  0
LINE
  5
EF
330
D5
100
AcDbEntity
  8
AM_9
100
AcDbLine
 10
-19.4818
 20
-25.0812
 30
0.0
 11
-19.05
 21
-25.513
 31
0.0
  0
LINE
  5
F0
330
D5
100
AcDbEntity
  8
AM_9
100
AcDbLine
 10
-19.05
 20
-20.687
 30
0.0
 11
-19.4818
 21
-21.1188
 31
0.0
  0
LINE
  5
F1
330
D5
100
AcDbEntity
  8
AM_9
100
AcDbLine
 10
-19.05
 20
-20.687
 30
0.0
 11
-19.05
 21
-25.513
 31
0.0
  0
LINE
  5
F2
330
D5
100
AcDbEntity
  8
AM_9
100
AcDbLine
 10
-19.4818
 20
-21.1188
 30
0.0
 11
-19.4818
 21
-25.0812
 31
0.0
  0
LINE
  5
F3
330
D5
100
AcDbEntity
  8
AM_9
100
AcDbLine
 10
-24.9682
 20
-21.1188
 30
0.0
 11
-25.39626991627811
 21
-20.6907300837219
 31
0.0
  0
LINE
  5
F4
330
D5
100
AcDbEntity
  8
AM_9
100
AcDbLine
 10
-25.38349099216704
 20
-25.49649099216704
 30
0.0
 11
-24.9682
 21
-25.0812
 31
0.0
  0
LINE
  5
F5
330
D5
100
AcDbEntity
  8
AM_9
100
AcDbLine
 10
-24.9682
 20
-21.1188
 30
0.0
 11
-24.9682
 21
-25.0812
 31
0.0
  0
LINE
  5
F6
330
D5
100
AcDbEntity
  8
AM_9
100
AcDbLine
 10
15.0
 20
-27.4
 30
0.0
 11
15.0
 21
13.5
 31
0.0
  0
LINE
  5
F7
330
D5
100
AcDbEntity
  8
AM_9
100
AcDbLine
 10
-15.0
 20
13.5
 30
0.0
 11
-15.0
 21
-27.4
 31
0.0
  0
LINE
  5
F8
330
D5
100
AcDbEntity
  8
AM_9
100
AcDbLine
 10
18.94920634920636
 20
-19.65
 30
0.0
 11
18.94920634920636
 21
-9.824999999999541
 31
0.0
  0
LINE
  5
F9
330
D5
100
AcDbEntity
  8
AM_9
100
AcDbLine
 10
-18.94920634920636
 20
-9.824999999999541
 30
0.0
 11
-18.94920634920636
 21
-19.65
 31
0.0
  0
LINE
  5
FA
330
D5
100
AcDbEntity
  8
AM_9
100
AcDbLine
 10
1.25
 20
12.14999988350618
 30
0.0
 11
1.25
 21
-26.2
 31
0.0
  0
LINE
  5
FB
330
D5
100
AcDbEntity
  8
AM_9
100
AcDbLine
 10
-1.25
 20
12.14999988350618
 30
0.0
 11
-1.250000000000001
 21
-26.2
 31
0.0
  0
LINE
  5
FC
330
D5
100
AcDbEntity
  8
AM_9
100
AcDbLine
 10
1.25
 20
-9.82499999999954
 30
0.0
 11
18.94920634920636
 21
-9.824999999999541
 31
0.0
  0
LINE
  5
FD
330
D5
100
AcDbEntity
  8
AM_9
100
AcDbLine
 10
18.94920634920636
 20
-9.824999999999541
 30
0.0
 11
19.71659025878751
 21
12.15
 31
0.0
  0
LINE
  5
FE
330
D5
100
AcDbEntity
  8
AM_9
100
AcDbLine
 10
-19.71659025878751
 20
12.15
 30
0.0
 11
-18.94920634920636
 21
-9.824999999999541
 31
0.0
  0
LINE
  5
FF
330
D5
100
AcDbEntity
  8
AM_9
100
AcDbLine
 10
-18.94920634920636
 20
-9.824999999999541
 30
0.0
 11
-1.25
 21
-9.82499999999954
 31
0.0
  0
LINE
  5
100
330
D5
100
AcDbEntity
  8
AM_9
100
AcDbLine
 10
20.76349206349207
 20
-16.375
 30
0.0
 11
20.76349206349207
 21
-13.1
 31
0.0
  0
LINE
  5
101
330
D5
100
AcDbEntity
  8
AM_9
100
AcDbLine
 10
-20.76349206349207
 20
-13.1
 30
0.0
 11
-20.76349206349207
 21
-16.375
 31
0.0
  0
LINE
  5
102
330
D5
100
AcDbEntity
  8
AM_9
100
AcDbLine
 10
-9.774869542019061
 20
-13.1
 30
0.0
 11
-9.774869542019061
 21
-26.2
 31
0.0
  0
LINE
  5
103
330
D5
100
AcDbEntity
  8
AM_9
100
AcDbLine
 10
-22.8317777777778
 20
-16.375
 30
0.0
 11
22.8317777777778
 21
-16.375
 31
0.0
  0
LINE
  5
104
330
D5
100
AcDbEntity
  8
AM_9
100
AcDbLine
 10
-22.8317777777778
 20
-19.65
 30
0.0
 11
22.8317777777778
 21
-19.65
 31
0.0
  0
LINE
  5
105
330
D5
100
AcDbEntity
  8
AM_9
100
AcDbLine
 10
22.8317777777778
 20
-19.65
 30
0.0
 11
22.8317777777778
 21
-16.375
 31
0.0
  0
LINE
  5
106
330
D5
100
AcDbEntity
  8
AM_9
100
AcDbLine
 10
-22.8317777777778
 20
-16.375
 30
0.0
 11
-22.8317777777778
 21
-19.65
 31
0.0
  0
LINE
  5
108
330
D5
100
AcDbEntity
  8
AM_5
100
AcDbLine
 10
-25.367
 20
-25.513
 30
0.0
 11
-19.05
 21
-25.513
 31
0.0
  0
LINE
  5
109
330
D5
100
AcDbEntity
  8
AM_5
100
AcDbLine
 10
-25.40000000000001
 20
-20.687
 30
0.0
 11
-19.05
 21
-20.687
 31
0.0
  0
LINE
  5
10C
330
D5
100
AcDbEntity
  8
AM_7
100
AcDbLine
 10
-18.7325
 20
-23.1
 30
0.0
 11
-25.7175
 21
-23.1
 31
0.0
  0
LINE
  5
10D
330
D5
100
AcDbEntity
  8
AM_4
100
AcDbLine
 10
1.25
 20
-27.4
 30
0.0
 11
1.250000000000001
 21
-26.2
 31
0.0
  0
LINE
  5
10E
330
D5
100
AcDbEntity
  8
AM_4
100
AcDbLine
 10
-1.25
 20
-27.4
 30
0.0
 11
-1.250000000000001
 21
-26.2
 31
0.0
  0
LINE
  5
10F
330
D5
100
AcDbEntity
  8
AM_4
100
AcDbLine
 10
18.94920634920635
 20
-27.4
 30
0.0
 11
18.94920634920635
 21
-26.2
 31
0.0
  0
LINE
  5
110
330
D5
100
AcDbEntity
  8
AM_4
100
AcDbLine
 10
-18.94920634920635
 20
-26.2
 30
0.0
 11
-18.94920634920635
 21
-27.4
 31
0.0
  0
LINE
  5
111
330
D5
100
AcDbEntity
  8
AM_4
100
AcDbLine
 10
-18.94920634920635
 20
-27.4
 30
0.0
 11
18.94920634920635
 21
-27.4
 31
0.0
  0
LINE
  5
112
330
D5
100
AcDbEntity
  8
AM_4
100
AcDbLine
 10
1.25
 20
12.14999988350618
 30
0.0
 11
1.25
 21
13.5
 31
0.0
  0
LINE
  5
113
330
D5
100
AcDbEntity
  8
AM_4
100
AcDbLine
 10
-1.25
 20
12.14999988350618
 30
0.0
 11
-1.25
 21
13.5
 31
0.0
  0
LINE
  5
114
330
D5
100
AcDbEntity
  8
AM_4
100
AcDbLine
 10
19.71659025878751
 20
12.15
 30
0.0
 11
19.76373329760136
 21
13.5
 31
0.0
  0
LINE
  5
115
330
D5
100
AcDbEntity
  8
AM_4
100
AcDbLine
 10
-19.76373329760136
 20
13.5
 30
0.0
 11
-19.71659025878751
 21
12.15
 31
0.0
  0
LINE
  5
116
330
D5
100
AcDbEntity
  8
AM_4
100
AcDbLine
 10
-19.76373329760136
 20
13.5
 30
0.0
 11
19.76373329760136
 21
13.5
 31
0.0
  0
LINE
  5
117
330
D5
100
AcDbEntity
  8
AM_4
100
AcDbLine
 10
-25.39715627272193
 20
-25.48
 30
0.0
 11
-25.3835
 21
-25.4965
 31
0.0
  0
LINE
  5
118
330
D5
100
AcDbEntity
  8
AM_4
100
AcDbLine
 10
-25.3835
 20
-25.4965
 30
0.0
 11
-24.68
 21
-26.2
 31
0.0
  0
LINE
  5
119
330
D5
100
AcDbEntity
  8
AM_4
100
AcDbLine
 10
-24.68000000000002
 20
-13.1
 30
0.0
 11
-25.40000000000002
 21
-13.82
 31
0.0
  0
LINE
  5
11A
330
D5
100
AcDbEntity
  8
AM_4
100
AcDbLine
 10
-25.39715627272193
 20
-25.48
 30
0.0
 11
-14.72164094881877
 21
-25.48
 31
0.0
  0
LINE
  5
11B
330
D5
100
AcDbEntity
  8
AM_4
100
AcDbLine
 10
-25.40000000000001
 20
-13.82
 30
0.0
 11
-25.40000000000001
 21
-20.69387054762545
 31
0.0
  0
LWPOLYLINE
  5
11C
330
D5
100
AcDbEntity
  8
AM_4
100
AcDbPolyline
 90
       21
 70
     0
 43
0.0
 10
-25.39999999999993
 20
-20.68700000000094
 10
-25.39977275043652
 20
-20.6896207520255
 10
-25.39564476302661
 20
-20.73772513786046
 10
-25.38643016692052
 20
-20.84875551175352
 10
-25.37356165741586
 20
-21.0135418222904
 10
-25.35777478450607
 20
-21.23524395681874
 10
-25.34092970714361
 20
-21.50510079046785
 10
-25.32445150031309
 20
-21.82268903237093
 10
-25.31030186287101
 20
-22.17852730063711
 10
-25.30004655404916
 20
-22.5684550835036
 10
-25.2952117028013
 20
-22.97519473374777
 10
-25.29652510271858
 20
-23.39679702248886
 10
-25.30391455630498
 20
-23.80440395654783
 10
-25.3169658276927
 20
-24.20340358834622
 10
-25.32983669602667
 20
-24.48906833223854
 10
-25.34440813130762
 20
-24.75420569840856
 10
-25.35972061793633
 20
-24.9934711380332
 10
-25.37437190210894
 20
-25.19721101120374
 10
-25.38764572870549
 20
-25.36619848226268
 10
-25.39673075894214
 20
-25.47502327836784
 10
-25.39715627272194
 20
-25.48000000000001
  0
LINE
  5
11D
330
D5
100
AcDbEntity
  8
AM_4
100
AcDbLine
 10
-25.40000000000001
 20
-13.82
 30
0.0
 11
-14.72164094881878
 21
-13.82
 31
0.0
  0
LINE
  5
11E
330
D5
100
AcDbEntity
  8
AM_4
100
AcDbLine
 10
-14.35997553366305
 20
-13.1
 30
0.0
 11
-14.72164094881878
 21
-13.82
 31
0.0
  0
LINE
  5
11F
330
D5
100
AcDbEntity
  8
AM_4
100
AcDbLine
 10
-14.72164094881878
 20
-13.82
 30
0.0
 11
-14.72164094881877
 21
-25.48
 31
0.0
  0
LINE
  5
120
330
D5
100
AcDbEntity
  8
AM_4
100
AcDbLine
 10
-14.72164094881877
 20
-25.48
 30
0.0
 11
-14.35997553366305
 21
-26.2
 31
0.0
  0
LINE
  5
121
330
D5
100
AcDbEntity
  8
AM_4
100
AcDbLine
 10
-13.93179148018436
 20
-13.1
 30
0.0
 11
-13.93179148018436
 21
-26.2
 31
0.0
  0
LINE
  5
122
330
D5
100
AcDbEntity
  8
AM_4
100
AcDbLine
 10
25.28635995947222
 20
-25.48000000000001
 30
0.0
 11
24.56302912916076
 21
-26.2
 31
0.0
  0
LINE
  5
123
330
D5
100
AcDbEntity
  8
AM_4
100
AcDbLine
 10
-10.20305359549774
 20
-26.2
 30
0.0
 11
-10.56471901065347
 21
-25.48
 31
0.0
  0
LINE
  5
124
330
D5
100
AcDbEntity
  8
AM_4
100
AcDbLine
 10
-24.68
 20
-26.2
 30
0.0
 11
24.56302912916076
 21
-26.2
 31
0.0
  0
LINE
  5
125
330
D5
100
AcDbEntity
  8
AM_4
100
AcDbLine
 10
24.56302912916078
 20
-13.1
 30
0.0
 11
25.28635995947223
 21
-13.82
 31
0.0
  0
LINE
  5
126
330
D5
100
AcDbEntity
  8
AM_4
100
AcDbLine
 10
-24.68000000000002
 20
-13.1
 30
0.0
 11
24.56302912916078
 21
-13.1
 31
0.0
  0
LINE
  5
127
330
D5
100
AcDbEntity
  8
AM_4
100
AcDbLine
 10
-10.56471901065347
 20
-13.82
 30
0.0
 11
-10.20305359549775
 21
-13.1
 31
0.0
  0
LINE
  5
128
330
D5
100
AcDbEntity
  8
AM_4
100
AcDbLine
 10
25.28635995947223
 20
-13.82
 30
0.0
 11
25.28635995947222
 21
-25.48000000000001
 31
0.0
  0
LINE
  5
129
330
D5
100
AcDbEntity
  8
AM_4
100
AcDbLine
 10
-10.56471901065347
 20
-13.82
 30
0.0
 11
25.28635995947223
 21
-13.82
 31
0.0
  0
LINE
  5
12A
330
D5
100
AcDbEntity
  8
AM_4
100
AcDbLine
 10
-10.56471901065347
 20
-25.48
 30
0.0
 11
-10.56471901065347
 21
-13.82
 31
0.0
  0
LINE
  5
12B
330
D5
100
AcDbEntity
  8
AM_4
100
AcDbLine
 10
-10.56471901065347
 20
-25.48
 30
0.0
 11
25.28635995947222
 21
-25.48000000000001
 31
0.0
  0
ENDBLK
  5
D8
330
D5
100
AcDbEntity
  8
0
100
AcDbBlockEnd
  0
BLOCK
  5
12E
330
12C
100
AcDbEntity
  8
0
100
AcDbBlockBegin
  2
4_P2B_GTUEZ_06_SHCR_0_in__129267_4
 70
     2
 10
0.0
 20
0.0
 30
0.0
  3
4_P2B_GTUEZ_06_SHCR_0_in__129267_4
  1

  0
ATTDEF
  5
130
330
12C
100
AcDbEntity
  8
AM_6
100
AcDbText
 10
84.4
 20
17.49
 30
0.0
 40
0.5
  1
P2B-GTEZ-SHCR-M-Body
100
AcDbAttributeDefinition
  3

  2
NN
 70
     8
280
     0
  0
ATTDEF
  5
131
330
12C
100
AcDbEntity
  8
AM_6
100
AcDbText
 10
84.4
 20
16.99
 30
0.0
 40
0.5
  1
GTEZ Normal Duty Stainless Steel Housed Pillow Blocks
100
AcDbAttributeDefinition
  3

  2
NT
 70
     8
280
     0
  0
ATTDEF
  5
132
330
12C
100
AcDbEntity
  8
AM_6
100
AcDbText
 10
84.4
 20
16.49
 30
0.0
 40
0.5
  1
P2B-GTUEZ-06-SHCR
100
AcDbAttributeDefinition
  3

  2
NB
 70
     8
280
     0
  0
ATTDEF
  5
133
330
12C
100
AcDbEntity
  8
AM_6
100
AcDbText
 10
84.4
 20
15.99
 30
0.0
 40
0.5
  1
$PN.$LUBE.
100
AcDbAttributeDefinition
  3

  2
NBSYN
 70
     8
280
     0
  0
ATTDEF
  5
134
330
12C
100
AcDbEntity
  8
AM_6
100
AcDbText
 10
84.4
 20
15.49
 30
0.0
 40
0.5
  1
P2B-GTUEZ-06-SHCR
100
AcDbAttributeDefinition
  3

  2
LINA
 70
     8
280
     0
  0
ATTDEF
  5
135
330
12C
100
AcDbEntity
  8
AM_6
100
AcDbText
 10
84.4
 20
14.99
 30
0.0
 40
0.5
  1
206
100
AcDbAttributeDefinition
  3

  2
SERIES
 70
     8
280
     0
  0
ATTDEF
  5
136
330
12C
100
AcDbEntity
  8
AM_6
100
AcDbText
 10
84.4
 20
14.49
 30
0.0
 40
0.5
  1
P2B-GTUEZ-06-SHCR
100
AcDbAttributeDefinition
  3

  2
PN
 70
     8
280
     0
  0
ATTDEF
  5
137
330
12C
100
AcDbEntity
  8
AM_6
100
AcDbText
 10
84.4
 20
13.99
 30
0.0
 40
0.5
  1
P2B-GTUEZ-06-SHCR
100
AcDbAttributeDefinition
  3

  2
DESCRIPTION
 70
     8
280
     0
  0
ATTDEF
  5
138
330
12C
100
AcDbEntity
  8
AM_6
100
AcDbText
 10
84.4
 20
13.49
 30
0.0
 40
0.5
  1
40.9
100
AcDbAttributeDefinition
  3

  2
A
 70
     8
280
     0
  0
ATTDEF
  5
139
330
12C
100
AcDbEntity
  8
AM_6
100
AcDbText
 10
84.4
 20
12.99
 30
0.0
 40
0.5
  1
158.8
100
AcDbAttributeDefinition
  3

  2
B
 70
     8
280
     0
  0
ATTDEF
  5
13A
330
12C
100
AcDbEntity
  8
AM_6
100
AcDbText
 10
84.4
 20
12.49
 30
0.0
 40
0.5
  1
31.8
100
AcDbAttributeDefinition
  3

  2
C
 70
     8
280
     0
  0
ATTDEF
  5
13B
330
12C
100
AcDbEntity
  8
AM_6
100
AcDbText
 10
84.4
 20
11.99
 30
0.0
 40
0.5
  1
108.3
100
AcDbAttributeDefinition
  3

  2
DMIN
 70
     8
280
     0
  0
ATTDEF
  5
13C
330
12C
100
AcDbEntity
  8
AM_6
100
AcDbText
 10
84.4
 20
11.49
 30
0.0
 40
0.5
  1
127.0
100
AcDbAttributeDefinition
  3

  2
DMAX
 70
     8
280
     0
  0
ATTDEF
  5
13D
330
12C
100
AcDbEntity
  8
AM_6
100
AcDbText
 10
84.4
 20
10.99
 30
0.0
 40
0.5
  1
M12
100
AcDbAttributeDefinition
  3

  2
F
 70
     8
280
     0
  0
ATTDEF
  5
13E
330
12C
100
AcDbEntity
  8
AM_6
100
AcDbText
 10
84.4
 20
10.49
 30
0.0
 40
0.5
  1
23.8
100
AcDbAttributeDefinition
  3

  2
G
 70
     8
280
     0
  0
ATTDEF
  5
13F
330
12C
100
AcDbEntity
  8
AM_6
100
AcDbText
 10
84.4
 20
9.990000000000002
 30
0.0
 40
0.5
  1
15.1
100
AcDbAttributeDefinition
  3

  2
H
 70
     8
280
     0
  0
ATTDEF
  5
140
330
12C
100
AcDbEntity
  8
AM_6
100
AcDbText
 10
84.4
 20
9.490000000000002
 30
0.0
 40
0.5
  1
79.8
100
AcDbAttributeDefinition
  3

  2
J
 70
     8
280
     0
  0
ATTDEF
  5
141
330
12C
100
AcDbEntity
  8
AM_6
100
AcDbText
 10
84.4
 20
8.990000000000002
 30
0.0
 40
0.5
  1
50.8
100
AcDbAttributeDefinition
  3

  2
L
 70
     8
280
     0
  0
ATTDEF
  5
142
330
12C
100
AcDbEntity
  8
AM_6
100
AcDbText
 10
84.4
 20
8.490000000000002
 30
0.0
 40
0.5
  1
42.9
100
AcDbAttributeDefinition
  3

  2
M
 70
     8
280
     0
  0
ATTDEF
  5
143
330
12C
100
AcDbEntity
  8
AM_6
100
AcDbText
 10
84.4
 20
7.990000000000002
 30
0.0
 40
0.5
  1
13.5
100
AcDbAttributeDefinition
  3

  2
R
 70
     8
280
     0
  0
ATTDEF
  5
144
330
12C
100
AcDbEntity
  8
AM_6
100
AcDbText
 10
84.4
 20
7.490000000000002
 30
0.0
 40
0.5
  1
27.4
100
AcDbAttributeDefinition
  3

  2
S
 70
     8
280
     0
  0
ATTDEF
  5
145
330
12C
100
AcDbEntity
  8
AM_6
100
AcDbText
 10
84.4
 20
6.990000000000002
 30
0.0
 40
0.5
  1
26.2
100
AcDbAttributeDefinition
  3

  2
Z
 70
     8
280
     0
  0
ATTDEF
  5
146
330
12C
100
AcDbEntity
  8
AM_6
100
AcDbText
 10
84.4
 20
6.490000000000002
 30
0.0
 40
0.5
  1
baldor
100
AcDbAttributeDefinition
  3

  2
COMPANY
 70
     8
280
     0
  0
LINE
  5
147
330
12C
100
AcDbEntity
  8
AM_9
100
AcDbLine
 10
-49.91283
 20
-13.9
 30
0.0
 11
-49.91283
 21
-15.9
 31
0.0
  0
LINE
  5
148
330
12C
100
AcDbEntity
  8
AM_9
100
AcDbLine
 10
-45.63678
 20
-13.9
 30
0.0
 11
-45.63678
 21
-15.9
 31
0.0
  0
LINE
  5
149
330
12C
100
AcDbEntity
  8
AM_9
100
AcDbLine
 10
-52.40071
 20
-13.9
 30
0.0
 11
-52.40071
 21
-15.9
 31
0.0
  0
LINE
  5
14A
330
12C
100
AcDbEntity
  8
AM_9
100
AcDbLine
 10
-56.13253
 20
-13.9
 30
0.0
 11
-56.13253
 21
-15.9
 31
0.0
  0
LINE
  5
14B
330
12C
100
AcDbEntity
  8
AM_9
100
AcDbLine
 10
-51.77874
 20
-13.9
 30
0.0
 11
-51.77874
 21
-15.9
 31
0.0
  0
LINE
  5
14C
330
12C
100
AcDbEntity
  8
AM_9
100
AcDbLine
 10
-59.24238
 20
-13.9
 30
0.0
 11
-59.24238
 21
-15.9
 31
0.0
  0
LINE
  5
14D
330
12C
100
AcDbEntity
  8
AM_9
100
AcDbLine
 10
-59.86435
 20
-13.9
 30
0.0
 11
-59.86435
 21
-15.9
 31
0.0
  0
LINE
  5
14E
330
12C
100
AcDbEntity
  8
AM_9
100
AcDbLine
 10
-48.74663
 20
-13.9
 30
0.0
 11
-48.74663
 21
-15.9
 31
0.0
  0
LINE
  5
14F
330
12C
100
AcDbEntity
  8
AM_9
100
AcDbLine
 10
-52.86719
 20
-13.9
 30
0.0
 11
-52.86719
 21
-15.9
 31
0.0
  0
LINE
  5
150
330
12C
100
AcDbEntity
  8
AM_9
100
AcDbLine
 10
-56.59901
 20
-13.9
 30
0.0
 11
-56.59901
 21
-15.9
 31
0.0
  0
LINE
  5
151
330
12C
100
AcDbEntity
  8
AM_9
100
AcDbLine
 10
-58.7759
 20
-13.9
 30
0.0
 11
-58.7759
 21
-15.9
 31
0.0
  0
LINE
  5
152
330
12C
100
AcDbEntity
  8
AM_9
100
AcDbLine
 10
-60.33083
 20
-13.9
 30
0.0
 11
-60.33083
 21
-15.9
 31
0.0
  0
LINE
  5
153
330
12C
100
AcDbEntity
  8
AM_9
100
AcDbLine
 10
-51.31225999999999
 20
-13.9
 30
0.0
 11
-51.31225999999999
 21
-15.9
 31
0.0
  0
LINE
  5
154
330
12C
100
AcDbEntity
  8
AM_9
100
AcDbLine
 10
-52.47845
 20
-13.9
 30
0.0
 11
-52.47845
 21
-15.9
 31
0.0
  0
LINE
  5
155
330
12C
100
AcDbEntity
  8
AM_9
100
AcDbLine
 10
-56.21028
 20
-13.9
 30
0.0
 11
-56.21028
 21
-15.9
 31
0.0
  0
LINE
  5
156
330
12C
100
AcDbEntity
  8
AM_9
100
AcDbLine
 10
-59.16464
 20
-13.9
 30
0.0
 11
-59.16464
 21
-15.9
 31
0.0
  0
LINE
  5
157
330
12C
100
AcDbEntity
  8
AM_9
100
AcDbLine
 10
-51.70099
 20
-13.9
 30
0.0
 11
-51.70099
 21
-15.9
 31
0.0
  0
LINE
  5
158
330
12C
100
AcDbEntity
  8
AM_9
100
AcDbLine
 10
-59.9421
 20
-13.9
 30
0.0
 11
-59.9421
 21
-15.9
 31
0.0
  0
LINE
  5
159
330
12C
100
AcDbEntity
  8
AM_9
100
AcDbLine
 10
-49.21311000000001
 20
-13.9
 30
0.0
 11
-49.21311000000001
 21
-15.9
 31
0.0
  0
LINE
  5
15A
330
12C
100
AcDbEntity
  8
AM_9
100
AcDbLine
 10
-60.09759
 20
-13.9
 30
0.0
 11
-60.09759
 21
-15.9
 31
0.0
  0
LINE
  5
15B
330
12C
100
AcDbEntity
  8
AM_9
100
AcDbLine
 10
-59.00914
 20
-13.9
 30
0.0
 11
-59.00914
 21
-15.9
 31
0.0
  0
LINE
  5
15C
330
12C
100
AcDbEntity
  8
AM_9
100
AcDbLine
 10
-53.10043
 20
-13.9
 30
0.0
 11
-53.10043
 21
-15.9
 31
0.0
  0
LINE
  5
15D
330
12C
100
AcDbEntity
  8
AM_9
100
AcDbLine
 10
-52.63395
 20
-13.9
 30
0.0
 11
-52.63395
 21
-15.9
 31
0.0
  0
LINE
  5
15E
330
12C
100
AcDbEntity
  8
AM_9
100
AcDbLine
 10
-60.56407000000001
 20
-13.9
 30
0.0
 11
-60.56407000000001
 21
-15.9
 31
0.0
  0
LINE
  5
15F
330
12C
100
AcDbEntity
  8
AM_9
100
AcDbLine
 10
-51.5455
 20
-13.9
 30
0.0
 11
-51.5455
 21
-15.9
 31
0.0
  0
LINE
  5
160
330
12C
100
AcDbEntity
  8
AM_9
100
AcDbLine
 10
-49.29086
 20
-13.9
 30
0.0
 11
-49.29086
 21
-15.9
 31
0.0
  0
LINE
  5
161
330
12C
100
AcDbEntity
  8
AM_9
100
AcDbLine
 10
-58.54266
 20
-13.9
 30
0.0
 11
-58.54266
 21
-15.9
 31
0.0
  0
LINE
  5
162
330
12C
100
AcDbEntity
  8
AM_9
100
AcDbLine
 10
-48.82438
 20
-13.9
 30
0.0
 11
-48.82438
 21
-15.9
 31
0.0
  0
LINE
  5
163
330
12C
100
AcDbEntity
  8
AM_9
100
AcDbLine
 10
-51.07902
 20
-13.9
 30
0.0
 11
-51.07902
 21
-15.9
 31
0.0
  0
LINE
  5
164
330
12C
100
AcDbEntity
  8
AM_9
100
AcDbLine
 10
-56.83225
 20
-13.9
 30
0.0
 11
-56.83225
 21
-15.9
 31
0.0
  0
LINE
  5
165
330
12C
100
AcDbEntity
  8
AM_9
100
AcDbLine
 10
-56.36577
 20
-13.9
 30
0.0
 11
-56.36577
 21
-15.9
 31
0.0
  0
LINE
  5
166
330
12C
100
AcDbEntity
  8
AM_9
100
AcDbLine
 10
-49.5241
 20
-13.9
 30
0.0
 11
-49.5241
 21
-15.9
 31
0.0
  0
LINE
  5
167
330
12C
100
AcDbEntity
  8
AM_9
100
AcDbLine
 10
-62.50773
 20
-13.9
 30
0.0
 11
-62.50773
 21
-15.9
 31
0.0
  0
LINE
  5
168
330
12C
100
AcDbEntity
  8
AM_9
100
AcDbLine
 10
-58.30943
 20
-13.9
 30
0.0
 11
-58.30943
 21
-15.9
 31
0.0
  0
LINE
  5
169
330
12C
100
AcDbEntity
  8
AM_9
100
AcDbLine
 10
-47.65819
 20
-13.9
 30
0.0
 11
-47.65819
 21
-15.9
 31
0.0
  0
LINE
  5
16A
330
12C
100
AcDbEntity
  8
AM_9
100
AcDbLine
 10
-60.79731
 20
-13.9
 30
0.0
 11
-60.79731
 21
-15.9
 31
0.0
  0
LINE
  5
16B
330
12C
100
AcDbEntity
  8
AM_9
100
AcDbLine
 10
-55.044082
 20
-13.9
 30
0.0
 11
-55.044082
 21
-15.9
 31
0.0
  0
LINE
  5
16C
330
12C
100
AcDbEntity
  8
AM_9
100
AcDbLine
 10
-53.33366400000001
 20
-13.9
 30
0.0
 11
-53.33366400000001
 21
-15.9
 31
0.0
  0
LINE
  5
16D
330
12C
100
AcDbEntity
  8
AM_9
100
AcDbLine
 10
-50.84578
 20
-13.9
 30
0.0
 11
-50.84578
 21
-15.9
 31
0.0
  0
LINE
  5
16E
330
12C
100
AcDbEntity
  8
AM_9
100
AcDbLine
 10
-57.06549
 20
-13.9
 30
0.0
 11
-57.06549
 21
-15.9
 31
0.0
  0
LINE
  5
16F
330
12C
100
AcDbEntity
  8
AM_9
100
AcDbLine
 10
-51.23451000000001
 20
-13.9
 30
0.0
 11
-51.23451000000001
 21
-15.9
 31
0.0
  0
LINE
  5
170
330
12C
100
AcDbEntity
  8
AM_9
100
AcDbLine
 10
-49.13536000000001
 20
-13.9
 30
0.0
 11
-49.13536000000001
 21
-15.9
 31
0.0
  0
LINE
  5
171
330
12C
100
AcDbEntity
  8
AM_9
100
AcDbLine
 10
-52.94493
 20
-13.9
 30
0.0
 11
-52.94493
 21
-15.9
 31
0.0
  0
LINE
  5
172
330
12C
100
AcDbEntity
  8
AM_9
100
AcDbLine
 10
-56.67675
 20
-13.9
 30
0.0
 11
-56.67675
 21
-15.9
 31
0.0
  0
LINE
  5
173
330
12C
100
AcDbEntity
  8
AM_9
100
AcDbLine
 10
-58.69816
 20
-13.9
 30
0.0
 11
-58.69816
 21
-15.9
 31
0.0
  0
LINE
  5
174
330
12C
100
AcDbEntity
  8
AM_9
100
AcDbLine
 10
-60.40858
 20
-13.9
 30
0.0
 11
-60.40858
 21
-15.9
 31
0.0
  0
LINE
  5
175
330
12C
100
AcDbEntity
  8
AM_9
100
AcDbLine
 10
-56.98774
 20
-13.9
 30
0.0
 11
-56.98774
 21
-15.9
 31
0.0
  0
LINE
  5
176
330
12C
100
AcDbEntity
  8
AM_9
100
AcDbLine
 10
-60.71956000000001
 20
-13.9
 30
0.0
 11
-60.71956000000001
 21
-15.9
 31
0.0
  0
LINE
  5
177
330
12C
100
AcDbEntity
  8
AM_9
100
AcDbLine
 10
-50.92353
 20
-13.9
 30
0.0
 11
-50.92353
 21
-15.9
 31
0.0
  0
LINE
  5
178
330
12C
100
AcDbEntity
  8
AM_9
100
AcDbLine
 10
-49.44635
 20
-13.9
 30
0.0
 11
-49.44635
 21
-15.9
 31
0.0
  0
LINE
  5
179
330
12C
100
AcDbEntity
  8
AM_9
100
AcDbLine
 10
-53.255918
 20
-13.9
 30
0.0
 11
-53.255918
 21
-15.9
 31
0.0
  0
LINE
  5
17A
330
12C
100
AcDbEntity
  8
AM_9
100
AcDbLine
 10
-58.38717
 20
-13.9
 30
0.0
 11
-58.38717
 21
-15.9
 31
0.0
  0
LINE
  5
17B
330
12C
100
AcDbEntity
  8
AM_9
100
AcDbLine
 10
-50.5348
 20
-13.9
 30
0.0
 11
-50.5348
 21
-15.9
 31
0.0
  0
LINE
  5
17C
330
12C
100
AcDbEntity
  8
AM_9
100
AcDbLine
 10
-52.40071
 20
-13.9
 30
0.0
 11
-55.51056
 21
-13.9
 31
0.0
  0
LINE
  5
17D
330
12C
100
AcDbEntity
  8
AM_9
100
AcDbLine
 10
-53.644649
 20
-13.9
 30
0.0
 11
-53.644649
 21
-15.9
 31
0.0
  0
LINE
  5
17E
330
12C
100
AcDbEntity
  8
AM_9
100
AcDbLine
 10
-55.51056
 20
-13.9
 30
0.0
 11
-55.51056
 21
-15.9
 31
0.0
  0
LINE
  5
17F
330
12C
100
AcDbEntity
  8
AM_9
100
AcDbLine
 10
-48.74663
 20
-13.9
 30
0.0
 11
-51.77874
 21
-13.9
 31
0.0
  0
LINE
  5
180
330
12C
100
AcDbEntity
  8
AM_9
100
AcDbLine
 10
-49.83508
 20
-13.9
 30
0.0
 11
-49.83508
 21
-15.9
 31
0.0
  0
LINE
  5
181
330
12C
100
AcDbEntity
  8
AM_9
100
AcDbLine
 10
-59.86435
 20
-13.9
 30
0.0
 11
-62.9742
 21
-13.9
 31
0.0
  0
LINE
  5
182
330
12C
100
AcDbEntity
  8
AM_9
100
AcDbLine
 10
-62.9742
 20
-13.9
 30
0.0
 11
-62.9742
 21
-15.9
 31
0.0
  0
LINE
  5
183
330
12C
100
AcDbEntity
  8
AM_9
100
AcDbLine
 10
-61.10829
 20
-13.9
 30
0.0
 11
-61.10829
 21
-15.9
 31
0.0
  0
LINE
  5
184
330
12C
100
AcDbEntity
  8
AM_9
100
AcDbLine
 10
-56.13253
 20
-13.9
 30
0.0
 11
-59.24238
 21
-13.9
 31
0.0
  0
LINE
  5
185
330
12C
100
AcDbEntity
  8
AM_9
100
AcDbLine
 10
-45.3258
 20
-13.9
 30
0.0
 11
-45.3258
 21
-15.9
 31
0.0
  0
LINE
  5
186
330
12C
100
AcDbEntity
  8
AM_9
100
AcDbLine
 10
-57.99844
 20
-13.9
 30
0.0
 11
-57.99844
 21
-15.9
 31
0.0
  0
LINE
  5
187
330
12C
100
AcDbEntity
  8
AM_9
100
AcDbLine
 10
-57.37647
 20
-13.9
 30
0.0
 11
-57.37647
 21
-15.9
 31
0.0
  0
LINE
  5
188
330
12C
100
AcDbEntity
  8
AM_9
100
AcDbLine
 10
-48.12466
 20
-13.9
 30
0.0
 11
-48.12466
 21
-15.9
 31
0.0
  0
LINE
  5
189
330
12C
100
AcDbEntity
  8
AM_9
100
AcDbLine
 10
-45.3258
 20
-13.9
 30
0.0
 11
-48.12466
 21
-13.9
 31
0.0
  0
LWPOLYLINE
  5
18A
330
12C
100
AcDbEntity
  8
AM_9
100
AcDbPolyline
 90
        3
 70
     0
 43
0.0
 10
29.39146437512647
 20
-5.489401076758502
 10
28.60151299550759
 20
-6.064155423673189
 10
27.86000717874997
 20
-6.644101615137752
  0
LWPOLYLINE
  5
18B
330
12C
100
AcDbEntity
  8
AM_9
100
AcDbPolyline
 90
        3
 70
     0
 43
0.0
 10
29.27422074112306
 20
-3.179999999999999
 10
29.30516704115615
 20
-4.33470053837925
 10
29.39146437512647
 20
-5.489401076758502
  0
LWPOLYLINE
  5
18C
330
12C
100
AcDbEntity
  8
AM_9
100
AcDbPolyline
 90
        3
 70
     0
 43
0.0
 10
27.86000717874997
 20
0.2841016151377543
 10
28.59806025996961
 20
-0.2932486540518705
 10
29.39146437512647
 20
-0.870598923241495
  0
LWPOLYLINE
  5
18D
330
12C
100
AcDbEntity
  8
AM_9
100
AcDbPolyline
 90
        3
 70
     0
 43
0.0
 10
29.39146437512647
 20
-0.870598923241495
 10
29.30544043420138
 20
-2.02010761707087
 10
29.27422074112306
 20
-3.179999999999999
  0
LINE
  5
18E
330
12C
100
AcDbEntity
  8
AM_9
100
AcDbLine
 10
31.2782974506793
 20
-5.489401076758502
 30
0.0
 11
29.39146437512647
 21
-5.489401076758502
 31
0.0
  0
LINE
  5
18F
330
12C
100
AcDbEntity
  8
AM_9
100
AcDbLine
 10
31.2782974506793
 20
-0.870598923241495
 30
0.0
 11
29.39146437512647
 21
-0.870598923241495
 31
0.0
  0
LINE
  5
190
330
12C
100
AcDbEntity
  8
AM_9
100
AcDbLine
 10
30.89280449833528
 20
-5.85326315375026
 30
0.0
 11
31.2782974506793
 21
-5.489401076758502
 31
0.0
  0
LWPOLYLINE
  5
191
330
12C
100
AcDbEntity
  8
AM_9
100
AcDbPolyline
 90
        3
 70
     0
 43
0.0
 10
31.2782974506793
 20
-5.489401076758502
 10
31.3643213916044
 20
-4.339892382929126
 10
31.39554108468271
 20
-3.179999999999998
  0
LINE
  5
192
330
12C
100
AcDbEntity
  8
AM_9
100
AcDbLine
 10
31.2782974506793
 20
-0.870598923241495
 30
0.0
 11
30.89147716759384
 21
-0.5055140599459121
 31
0.0
  0
LWPOLYLINE
  5
193
330
12C
100
AcDbEntity
  8
AM_9
100
AcDbPolyline
 90
        3
 70
     0
 43
0.0
 10
31.39554108468271
 20
-3.179999999999998
 10
31.36459478464962
 20
-2.025299461620746
 10
31.2782974506793
 20
-0.870598923241495
  0
LWPOLYLINE
  5
194
330
12C
100
AcDbEntity
  8
AM_9
100
AcDbPolyline
 90
        3
 70
     0
 43
0.0
 10
27.86000717874997
 20
-6.644101615137752
 10
27.18384669759651
 20
-7.221451884327379
 10
26.56303725038028
 20
-7.798802153517005
  0
LWPOLYLINE
  5
195
330
12C
100
AcDbEntity
  8
AM_9
100
AcDbPolyline
 90
        3
 70
     0
 43
0.0
 10
26.56303725038028
 20
1.438802153517007
 10
27.18094074814898
 20
0.864047806602317
 10
27.86000717874997
 20
0.2841016151377543
  0
LINE
  5
196
330
12C
100
AcDbEntity
  8
AM_9
100
AcDbLine
 10
26.09175715915115
 20
-5.98
 30
0.0
 11
26.44579361637687
 21
-5.98
 31
0.0
  0
LINE
  5
197
330
12C
100
AcDbEntity
  8
AM_9
100
AcDbLine
 10
26.44579361637687
 20
-0.3799999999999981
 30
0.0
 11
26.09216387845022
 21
-0.3799999999999981
 31
0.0
  0
LWPOLYLINE
  5
198
330
12C
100
AcDbEntity
  8
AM_9
100
AcDbPolyline
 90
       20
 70
     0
 43
0.0
 10
26.09205354978036
 20
-5.979999987554399
 10
26.31776576239635
 20
-5.961616004250602
 10
26.63891486876322
 20
-5.868457242661735
 10
26.9410104287149
 20
-5.699979746524675
 10
27.21614128004742
 20
-5.45968239506226
 10
27.45762529564294
 20
-5.155448205186296
 10
27.65965880413631
 20
-4.794034615654239
 10
27.8174925102794
 20
-4.387046095893678
 10
27.92695361046484
 20
-3.945380631552815
 10
27.98623767189127
 20
-3.48202002395999
 10
27.99341252056057
 20
-3.011145517638377
 10
27.94920619794437
 20
-2.545040070389864
 10
27.85406686638544
 20
-2.097628735736263
 10
27.71071695851085
 20
-1.680634894205404
 10
27.52131522525944
 20
-1.305596552786333
 10
27.29101215422085
 20
-0.9832626626365205
 10
27.02410982492932
 20
-0.7230477459160047
 10
26.72808787776462
 20
-0.5321582812996187
 10
26.4105067668578
 20
-0.4171624857423412
 10
26.09216082880908
 20
-0.3800000022513483
  0
LWPOLYLINE
  5
199
330
12C
100
AcDbEntity
  8
AM_9
100
AcDbPolyline
 90
       11
 70
     0
 43
0.0
 10
26.09216082880908
 20
-0.3800000022513483
 10
26.07989507794514
 20
-0.3800544043180935
 10
25.74618671673441
 20
-0.422813130568777
 10
25.41826292521268
 20
-0.5429091237853945
 10
25.10604681870494
 20
-0.7379510669340289
 10
24.81885682524879
 20
-1.001399906172333
 10
24.5655445736003
 20
-1.327604978611193
 10
24.35453713601687
 20
-1.705993914137673
 10
24.19332807803336
 20
-2.127072767802623
 10
24.08690116497568
 20
-2.577984903642306
 10
24.03711467681675
 20
-3.179999999999998
  0
ELLIPSE
  5
19A
330
12C
100
AcDbEntity
  8
AM_9
100
AcDbEllipse
 10
28.92066735052979
 20
-3.179999999999997
 30
0.0
 11
-5.143516556418880E-16
 21
-2.799999999999998
 31
0.0
210
0.0
220
0.0
230
1.0
 40
0.7071067811865479
 41
0.611195641911733
 42
2.532097557417853
  0
ELLIPSE
  5
19B
330
12C
100
AcDbEntity
  8
AM_9
100
AcDbEllipse
 10
28.56711395993652
 20
-3.179999999999999
 30
0.0
 11
-5.143516556418886E-16
 21
-2.800000000000002
 31
0.0
210
0.0
220
0.0
230
1.0
 40
0.7071067811865482
 41
0.0
 42
3.141592653589793
  0
LINE
  5
19C
330
12C
100
AcDbEntity
  8
AM_9
100
AcDbLine
 10
-22.57777777777778
 20
-12.72
 30
0.0
 11
22.57777777777778
 21
-12.72
 31
0.0
  0
LINE
  5
19D
330
12C
100
AcDbEntity
  8
AM_9
100
AcDbLine
 10
19.7364950973978
 20
12.72
 30
0.0
 11
-19.7364950973978
 21
12.72
 31
0.0
  0
LINE
  5
19E
330
12C
100
AcDbEntity
  8
AM_9
100
AcDbLine
 10
31.0
 20
-13.46781515397931
 30
0.0
 11
31.0
 21
13.46781515397932
 31
0.0
  0
LINE
  5
19F
330
12C
100
AcDbEntity
  8
AM_9
100
AcDbLine
 10
-31.0
 20
13.46781515397932
 30
0.0
 11
-31.0
 21
-13.46781515397931
 31
0.0
  0
ELLIPSE
  5
1A0
330
12C
100
AcDbEntity
  8
AM_9
100
AcDbEllipse
 10
28.56711395993649
 20
-3.179999999999981
 30
0.0
 11
-7.347880794884194E-16
 21
-4.000000000000041
 31
0.0
210
0.0
220
0.0
230
1.0
 40
0.7071067811865478
 41
0.8511584183120027
 42
2.28970754598675
  0
LINE
  5
1A1
330
12C
100
AcDbEntity
  8
AM_9
100
AcDbLine
 10
29.10290662379896
 20
-3.399545958397503
 30
0.0
 11
29.09840782868215
 21
-3.306969456377505
 31
0.0
  0
LWPOLYLINE
  5
1A2
330
12C
100
AcDbEntity
  8
AM_9
100
AcDbPolyline
 90
       49
 70
     0
 43
0.0
 10
29.41925963567376
 20
-1.751358294618742
 10
29.50466780862454
 20
-1.603488576792181
 10
29.59393894902689
 20
-1.476024434210455
 10
29.68081626509384
 20
-1.373967050519419
 10
29.76141880113263
 20
-1.296679538311541
 10
29.83221336597607
 20
-1.242299862509819
 10
29.89031497959105
 20
-1.207821874070433
 10
29.93398235512023
 20
-1.189188975357471
 10
29.96365093634501
 20
-1.181520492638767
 10
29.9853289525424
 20
-1.18008233370385
 10
30.01041625372707
 20
-1.183852372831478
 10
30.04689683530514
 20
-1.196077274749616
 10
30.09766921603302
 20
-1.221635059917906
 10
30.16081103786468
 20
-1.264049166244903
 10
30.24184885510671
 20
-1.333587344838265
 10
30.32906487144076
 20
-1.426936085253941
 10
30.41897034201276
 20
-1.544721078984255
 10
30.50817133271232
 20
-1.686889544354796
 10
30.59331038658286
 20
-1.852540460714664
 10
30.67111492709975
 20
-2.039717752972741
 10
30.7387633756157
 20
-2.245979429593308
 10
30.7938375838325
 20
-2.468328475833683
 10
30.83436459491173
 20
-2.70324443331551
 10
30.85887975983171
 20
-2.946798755489335
 10
30.86647219161975
 20
-3.194774603149819
 10
30.85681579770123
 20
-3.442787289850153
 10
30.83020256778589
 20
-3.686311133320834
 10
30.78755745008858
 20
-3.920938577754804
 10
30.73040701255815
 20
-4.142571552421213
 10
30.66085780712662
 20
-4.347477385127798
 10
30.58155625719109
 20
-4.532428564588745
 10
30.49562353952226
 20
-4.694847802568137
 10
30.40655868912125
 20
-4.832951205271633
 10
30.31817249492936
 20
-4.945800097984146
 10
30.23444971113703
 20
-5.033443440028115
 10
30.15909271687179
 20
-5.097245708436364
 10
30.09530906168845
 20
-5.139734724292877
 10
30.04540559401701
 20
-5.164537673018652
 10
30.0100685741342
 20
-5.176231353838046
 10
29.98644626584463
 20
-5.179865577568343
 10
29.95879729568188
 20
-5.177597180682207
 10
29.92645414909615
 20
-5.168135987088626
 10
29.87914689724117
 20
-5.146332730212761
 10
29.81893157059465
 20
-5.108486818528907
 10
29.73969781883165
 20
-5.044092801762742
 10
29.65354314485634
 20
-4.956154908822375
 10
29.56394781303264
 20
-4.843886668437681
 10
29.47429253791969
 20
-4.707149125121241
 10
29.41345282078782
 20
-4.597494327184167
  0
LINE
  5
1A3
330
12C
100
AcDbEntity
  8
AM_9
100
AcDbLine
 10
29.09693168664628
 20
-3.254654718634272
 30
0.0
 11
29.09615233641831
 21
-3.179999999999998
 31
0.0
  0
LINE
  5
1A4
330
12C
100
AcDbEntity
  8
AM_9
100
AcDbLine
 10
29.09840782868215
 20
-3.306969456377505
 30
0.0
 11
29.09693168664628
 21
-3.254654718634272
 31
0.0
  0
ELLIPSE
  5
1A5
330
12C
100
AcDbEntity
  8
AM_9
100
AcDbEllipse
 10
30.89764081508811
 20
-3.179999999999998
 30
0.0
 11
-4.680537363507945E-16
 21
-2.547965866167409
 31
0.0
210
0.0
220
0.0
230
1.0
 40
0.7071067811865495
 41
5.187574961674931
 42
10.540676204877
  0
ELLIPSE
  5
1A6
330
12C
100
AcDbEntity
  8
AM_9
100
AcDbEllipse
 10
30.89764081508789
 20
-3.180000000000087
 30
0.0
 11
-4.680537363507346E-16
 21
-2.547965866167083
 31
0.0
210
0.0
220
0.0
230
1.0
 40
0.7071067811865495
 41
4.510856257566907
 42
4.932592606008563
  0
ELLIPSE
  5
1A7
330
12C
100
AcDbEntity
  8
AM_9
100
AcDbEllipse
 10
31.28259798643323
 20
-3.180000000000003
 30
0.0
 11
-4.893487028601626E-16
 21
-2.663890264528332
 31
0.0
210
0.0
220
0.0
230
1.0
 40
0.7071067811865476
 41
0.4115168460674852
 42
2.730075807522308
  0
ELLIPSE
  5
1A8
330
12C
100
AcDbEntity
  8
AM_9
100
AcDbEllipse
 10
32.23395429872897
 20
-3.179999999999996
 30
0.0
 11
-3.904887716277177E-16
 21
-2.125721864729168
 31
0.0
210
0.0
220
0.0
230
1.0
 40
0.7071067811865464
 41
0.4854263408198891
 42
2.73198058049067
  0
ELLIPSE
  5
1A9
330
12C
100
AcDbEntity
  8
AM_9
100
AcDbEllipse
 10
32.23395429872555
 20
-3.179999999989824
 30
0.0
 11
-3.904887716297887E-16
 21
-2.125721864740442
 31
0.0
210
0.0
220
0.0
230
1.0
 40
0.7071067811865465
 41
0.4313584158019612
 42
0.461620662873876
  0
LWPOLYLINE
  5
1AA
330
12C
100
AcDbEntity
  8
AM_9
100
AcDbPolyline
 90
       11
 70
     0
 43
0.0
 10
24.03711467681675
 20
-3.179999999999998
 10
24.06746714158131
 20
-3.649274634287929
 10
24.15657502593468
 20
-4.105303135156752
 10
24.30220261581698
 20
-4.534837725821538
 10
24.4986312592283
 20
-4.926266139602427
 10
24.74048822719184
 20
-5.268544525662362
 10
25.01900538089467
 20
-5.552027910978113
 10
25.32613647384452
 20
-5.768031753241752
 10
25.65169484344565
 20
-5.910981252995228
 10
25.98529322556054
 20
-5.975646337184792
 10
26.09205354978036
 20
-5.979999987554399
  0
ELLIPSE
  5
1AB
330
12C
100
AcDbEntity
  8
AM_9
100
AcDbEllipse
 10
26.44579361637689
 20
-3.18000000000001
 30
0.0
 11
-7.347880794884151E-16
 21
-4.000000000000018
 31
0.0
210
0.0
220
0.0
230
1.0
 40
0.7071067811865501
 41
0.0
 42
6.283185307179586
  0
ELLIPSE
  5
1AC
330
12C
100
AcDbEntity
  8
AM_9
100
AcDbEllipse
 10
26.44579361637688
 20
-3.179999999999994
 30
0.0
 11
-5.143516556418892E-16
 21
-2.800000000000005
 31
0.0
210
0.0
220
0.0
230
1.0
 40
0.7071067811865487
 41
0.0
 42
6.283185307179586
  0
LINE
  5
1AD
330
12C
100
AcDbEntity
  8
AM_7
100
AcDbLine
 10
0.0
 20
17.49
 30
0.0
 11
0.0
 21
-29.445
 31
0.0
  0
LINE
  5
1AE
330
12C
100
AcDbEntity
  8
AM_7
100
AcDbLine
 10
-71.08624999999998
 20
0.0000000000000031
 30
0.0
 11
-46.56375000000001
 21
0.0000000000000089
 31
0.0
  0
LINE
  5
1AF
330
12C
100
AcDbEntity
  8
AM_7
100
AcDbLine
 10
-54.15
 20
-7.586249999999986
 30
0.0
 11
-54.15
 21
7.586250000000003
 31
0.0
  0
LINE
  5
1B0
330
12C
100
AcDbEntity
  8
AM_7
100
AcDbLine
 10
-63.49999999999995
 20
-7.586250000000028
 30
0.0
 11
-63.49999999999995
 21
7.586250000000035
 31
0.0
  0
LINE
  5
1B1
330
12C
100
AcDbEntity
  8
AM_7
100
AcDbLine
 10
46.56375000000001
 20
-0.0000000000000018
 30
0.0
 11
71.08624999999998
 21
-0.0000000000000044
 31
0.0
  0
LINE
  5
1B2
330
12C
100
AcDbEntity
  8
AM_7
100
AcDbLine
 10
54.15
 20
-7.586249999999996
 30
0.0
 11
54.15
 21
7.586249999999993
 31
0.0
  0
LINE
  5
1B3
330
12C
100
AcDbEntity
  8
AM_7
100
AcDbLine
 10
63.49999999999995
 20
-7.586250000000036
 30
0.0
 11
63.49999999999995
 21
7.586250000000027
 31
0.0
  0
LINE
  5
1B4
330
12C
100
AcDbEntity
  8
AM_4
100
AcDbLine
 10
79.4
 20
-11.925
 30
0.0
 11
75.42500000000003
 21
-15.9
 31
0.0
  0
LINE
  5
1B5
330
12C
100
AcDbEntity
  8
AM_4
100
AcDbLine
 10
75.42500000000003
 20
15.9
 30
0.0
 11
79.4
 21
11.925
 31
0.0
  0
LINE
  5
1B6
330
12C
100
AcDbEntity
  8
AM_4
100
AcDbLine
 10
79.4
 20
-11.925
 30
0.0
 11
79.4
 21
11.925
 31
0.0
  0
LINE
  5
1B7
330
12C
100
AcDbEntity
  8
AM_4
100
AcDbLine
 10
54.15000000000001
 20
7.224999999999997
 30
0.0
 11
63.49999999999999
 21
7.224999999999997
 31
0.0
  0
LINE
  5
1B8
330
12C
100
AcDbEntity
  8
AM_4
100
AcDbLine
 10
63.5
 20
-7.225000000000001
 30
0.0
 11
54.15000000000001
 21
-7.225000000000004
 31
0.0
  0
LINE
  5
1B9
330
12C
100
AcDbEntity
  8
AM_4
100
AcDbLine
 10
75.42500000000003
 20
15.9
 30
0.0
 11
28.30264052268968
 21
15.9
 31
0.0
  0
LINE
  5
1BA
330
12C
100
AcDbEntity
  8
AM_4
100
AcDbLine
 10
75.42500000000003
 20
-15.9
 30
0.0
 11
28.30264052268967
 21
-15.89999999999998
 31
0.0
  0
ARC
  5
1BB
330
12C
100
AcDbEntity
  8
AM_4
100
AcDbCircle
 10
63.49999999999998
 20
-0.0000000000000049
 30
0.0
 40
7.224999999999996
100
AcDbArc
 50
270.0
 51
90.0
  0
ARC
  5
1BC
330
12C
100
AcDbEntity
  8
AM_4
100
AcDbCircle
 10
54.15000000000001
 20
-0.0000000000000044
 30
0.0
 40
7.225000000000001
100
AcDbArc
 50
90.0
 51
270.0
  0
LINE
  5
1BD
330
12C
100
AcDbEntity
  8
AM_4
100
AcDbLine
 10
77.90000000000002
 20
-13.42499999999999
 30
0.0
 11
77.90000000000002
 21
13.42499999999999
 31
0.0
  0
LINE
  5
1BE
330
12C
100
AcDbEntity
  8
AM_4
100
AcDbLine
 10
-79.4
 20
11.925
 30
0.0
 11
-75.42500000000003
 21
15.9
 31
0.0
  0
LINE
  5
1BF
330
12C
100
AcDbEntity
  8
AM_4
100
AcDbLine
 10
-28.30264052268969
 20
15.90000000000003
 30
0.0
 11
-75.42500000000003
 21
15.9
 31
0.0
  0
LINE
  5
1C0
330
12C
100
AcDbEntity
  8
AM_4
100
AcDbLine
 10
-75.42500000000003
 20
-15.9
 30
0.0
 11
-79.4
 21
-11.925
 31
0.0
  0
ARC
  5
1C1
330
12C
100
AcDbEntity
  8
AM_4
100
AcDbCircle
 10
-54.15000000000001
 20
0.000000000000008
 30
0.0
 40
7.225000000000003
100
AcDbArc
 50
270.0
 51
90.0
  0
LINE
  5
1C2
330
12C
100
AcDbEntity
  8
AM_4
100
AcDbLine
 10
-54.15
 20
-7.224999999999995
 30
0.0
 11
-63.49999999999999
 21
-7.224999999999995
 31
0.0
  0
ARC
  5
1C3
330
12C
100
AcDbEntity
  8
AM_4
100
AcDbCircle
 10
-63.49999999999998
 20
0.0000000000000067
 30
0.0
 40
7.225
100
AcDbArc
 50
90.0
 51
270.0
  0
LINE
  5
1C4
330
12C
100
AcDbEntity
  8
AM_4
100
AcDbLine
 10
-63.49999999999999
 20
7.225000000000006
 30
0.0
 11
-54.15000000000001
 21
7.225000000000006
 31
0.0
  0
LINE
  5
1C5
330
12C
100
AcDbEntity
  8
AM_4
100
AcDbLine
 10
-28.30264052268968
 20
-15.9
 30
0.0
 11
-75.42500000000003
 21
-15.9
 31
0.0
  0
LINE
  5
1C6
330
12C
100
AcDbEntity
  8
AM_4
100
AcDbLine
 10
-79.4
 20
-11.925
 30
0.0
 11
-79.4
 21
11.925
 31
0.0
  0
LINE
  5
1C7
330
12C
100
AcDbEntity
  8
AM_4
100
AcDbLine
 10
-77.9
 20
-13.425
 30
0.0
 11
-77.9
 21
13.42499999999999
 31
0.0
  0
LINE
  5
1C8
330
12C
100
AcDbEntity
  8
AM_4
100
AcDbLine
 10
38.40000000000001
 20
-15.9
 30
0.0
 11
38.40000000000001
 21
15.9
 31
0.0
  0
LINE
  5
1C9
330
12C
100
AcDbEntity
  8
AM_4
100
AcDbLine
 10
-38.39999999999999
 20
-15.9
 30
0.0
 11
-38.39999999999999
 21
15.9
 31
0.0
  0
LWPOLYLINE
  5
1CA
330
12C
100
AcDbEntity
  8
AM_4
100
AcDbPolyline
 90
        3
 70
     0
 43
0.0
 10
29.98132752230961
 20
-6.644101615137751
 10
30.65748800346307
 20
-6.066751345948129
 10
30.89280449833528
 20
-5.85326315375026
  0
LWPOLYLINE
  5
1CB
330
12C
100
AcDbEntity
  8
AM_4
100
AcDbPolyline
 90
        3
 70
     0
 43
0.0
 10
30.89147716759384
 20
-0.5055140599459121
 10
30.66039395291061
 20
-0.2958445763268075
 10
29.98132752230961
 20
0.2841016151377539
  0
LWPOLYLINE
  5
1CC
330
12C
100
AcDbEntity
  8
AM_4
100
AcDbPolyline
 90
        3
 70
     0
 43
0.0
 10
29.98132752230961
 20
0.2841016151377539
 10
29.24327444108998
 20
0.8614518843273811
 10
28.44987032593312
 20
1.438802153517007
  0
LWPOLYLINE
  5
1CD
330
12C
100
AcDbEntity
  8
AM_4
100
AcDbPolyline
 90
        3
 70
     0
 43
0.0
 10
28.44987032593312
 20
-7.798802153517005
 10
29.23982170555199
 20
-7.224047806602316
 10
29.98132752230961
 20
-6.644101615137751
  0
LINE
  5
1CE
330
12C
100
AcDbEntity
  8
AM_4
100
AcDbLine
 10
28.56711395993652
 20
-5.98
 30
0.0
 11
28.92066735052979
 21
-5.98
 31
0.0
  0
LINE
  5
1CF
330
12C
100
AcDbEntity
  8
AM_4
100
AcDbLine
 10
28.92066735052979
 20
-0.3799999999999979
 30
0.0
 11
28.56711395993652
 21
-0.379999999999998
 31
0.0
  0
ELLIPSE
  5
1D0
330
12C
100
AcDbEntity
  8
AM_4
100
AcDbEllipse
 10
28.9206673505298
 20
-3.180000000000048
 30
0.0
 11
-5.143516556418793E-16
 21
-2.799999999999951
 31
0.0
210
0.0
220
0.0
230
1.0
 40
0.7071067811865471
 41
2.532097557417868
 42
6.894380949091328
  0
ELLIPSE
  5
1D1
330
12C
100
AcDbEntity
  8
AM_4
100
AcDbEllipse
 10
28.56711395993652
 20
-3.179999999999998
 30
0.0
 11
-5.143516556418876E-16
 21
-2.799999999999996
 31
0.0
210
0.0
220
0.0
230
1.0
 40
0.707106781186547
 41
3.141592653589793
 42
6.283185307179586
  0
LINE
  5
1D2
330
12C
100
AcDbEntity
  8
AM_4
100
AcDbLine
 10
22.57777777777778
 20
-12.72
 30
0.0
 11
26.46666666666667
 21
-12.72
 31
0.0
  0
LINE
  5
1D3
330
12C
100
AcDbEntity
  8
AM_4
100
AcDbLine
 10
-26.46666666666667
 20
-12.72
 30
0.0
 11
-22.57777777777778
 21
-12.72
 31
0.0
  0
LINE
  5
1D4
330
12C
100
AcDbEntity
  8
AM_4
100
AcDbLine
 10
26.46666666666668
 20
-12.72000000000002
 30
0.0
 11
28.30264052268967
 21
-15.89999999999998
 31
0.0
  0
LINE
  5
1D5
330
12C
100
AcDbEntity
  8
AM_4
100
AcDbLine
 10
-28.30264052268968
 20
-15.9
 30
0.0
 11
-26.46666666666668
 21
-12.72000000000003
 31
0.0
  0
LINE
  5
1D6
330
12C
100
AcDbEntity
  8
AM_4
100
AcDbLine
 10
-19.7364950973978
 20
12.72
 30
0.0
 11
-26.46666666666667
 21
12.72
 31
0.0
  0
LINE
  5
1D7
330
12C
100
AcDbEntity
  8
AM_4
100
AcDbLine
 10
26.46666666666667
 20
12.72
 30
0.0
 11
19.7364950973978
 21
12.72
 31
0.0
  0
LINE
  5
1D8
330
12C
100
AcDbEntity
  8
AM_4
100
AcDbLine
 10
-26.46666666666667
 20
12.72
 30
0.0
 11
-28.30264052268969
 21
15.90000000000003
 31
0.0
  0
LINE
  5
1D9
330
12C
100
AcDbEntity
  8
AM_4
100
AcDbLine
 10
28.30264052268968
 20
15.9
 30
0.0
 11
26.46666666666667
 21
12.72000000000001
 31
0.0
  0
LWPOLYLINE
  5
1DA
330
12C
100
AcDbEntity
  8
AM_4
100
AcDbPolyline
 90
       37
 70
     0
 43
0.0
 10
-31.00000000000001
 20
-13.46781515397931
 10
-30.88203564084412
 20
-13.23143583097966
 10
-30.52904034337846
 20
-12.99685549735776
 10
-29.94370061496113
 20
-12.76585945109598
 10
-29.13047124436317
 20
-12.54020571158557
 10
-28.09554139813616
 20
-12.32161164003768
 10
-26.84678751731762
 20
-12.11174086932749
 10
-25.39371337295877
 20
-11.91219064274354
 10
-23.74737773668835
 20
-11.72447965800186
 10
-21.920310216783
 20
-11.55003650903932
 10
-19.92641590028275
 20
-11.39018881355117
 10
-17.78086952688247
 20
-11.24615310901877
 10
-15.50000000000004
 20
-11.11902559412474
 10
-13.10116611396173
 20
-11.00977378601911
 10
-10.60262444309578
 20
-10.91922915692962
 10
-8.023390398178197
 20
-10.84808080615598
 10
-5.383093507674897
 20
-10.79687021560812
 10
-2.701828025177463
 20
-10.76598712880191
 10
-0.0000000000000627
 20
-10.75566658467567
 10
2.701828025177338
 20
-10.76598712880191
 10
5.383093507674774
 20
-10.79687021560811
 10
8.023390398178076
 20
-10.84808080615598
 10
10.60262444309566
 20
-10.91922915692962
 10
13.10116611396161
 20
-11.00977378601911
 10
15.49999999999993
 20
-11.11902559412473
 10
17.78086952688236
 20
-11.24615310901877
 10
19.92641590028265
 20
-11.39018881355116
 10
21.92031021678291
 20
-11.55003650903931
 10
23.74737773668826
 20
-11.72447965800185
 10
25.3937133729587
 20
-11.91219064274353
 10
26.84678751731755
 20
-12.11174086932748
 10
28.09554139813611
 20
-12.32161164003767
 10
29.13047124436313
 20
-12.54020571158556
 10
29.94370061496109
 20
-12.76585945109597
 10
30.52904034337844
 20
-12.99685549735775
 10
30.88203564084411
 20
-13.23143583097965
 10
31.00000000000001
 20
-13.4678151539793
  0
LWPOLYLINE
  5
1DB
330
12C
100
AcDbEntity
  8
AM_4
100
AcDbPolyline
 90
        7
 70
     0
 43
0.0
 10
31.00000000000001
 20
-13.46781515397931
 10
30.88203564084412
 20
-13.70419447697897
 10
30.52904034337846
 20
-13.93877481060086
 10
29.94370061496113
 20
-14.16977085686265
 10
29.13047124436317
 20
-14.39542459637305
 10
28.09554139813616
 20
-14.61401866792094
 10
27.61037564952482
 20
-14.70096206738321
  0
LWPOLYLINE
  5
1DC
330
12C
100
AcDbEntity
  8
AM_4
100
AcDbPolyline
 90
       37
 70
     0
 43
0.0
 10
31.0
 20
13.46781515397932
 10
30.88203564084411
 20
13.23143583097966
 10
30.52904034337845
 20
12.99685549735777
 10
29.94370061496112
 20
12.76585945109598
 10
29.13047124436316
 20
12.54020571158558
 10
28.09554139813616
 20
12.32161164003769
 10
26.84678751731761
 20
12.1117408693275
 10
25.39371337295876
 20
11.91219064274355
 10
23.74737773668834
 20
11.72447965800186
 10
21.920310216783
 20
11.55003650903932
 10
19.92641590028274
 20
11.39018881355118
 10
17.78086952688246
 20
11.24615310901877
 10
15.50000000000003
 20
11.11902559412474
 10
13.10116611396172
 20
11.00977378601912
 10
10.60262444309578
 20
10.91922915692962
 10
8.023390398178192
 20
10.84808080615598
 10
5.383093507674893
 20
10.79687021560812
 10
2.701828025177459
 20
10.76598712880191
 10
0.0000000000000589
 20
10.75566658467567
 10
-2.701828025177341
 20
10.76598712880191
 10
-5.383093507674777
 20
10.79687021560812
 10
-8.023390398178078
 20
10.84808080615598
 10
-10.60262444309566
 20
10.91922915692962
 10
-13.10116611396161
 20
11.00977378601911
 10
-15.49999999999993
 20
11.11902559412474
 10
-17.78086952688236
 20
11.24615310901877
 10
-19.92641590028265
 20
11.39018881355117
 10
-21.92031021678291
 20
11.55003650903931
 10
-23.74737773668826
 20
11.72447965800185
 10
-25.39371337295869
 20
11.91219064274354
 10
-26.84678751731755
 20
12.11174086932749
 10
-28.09554139813611
 20
12.32161164003768
 10
-29.13047124436312
 20
12.54020571158557
 10
-29.94370061496109
 20
12.76585945109597
 10
-30.52904034337843
 20
12.99685549735776
 10
-30.8820356408441
 20
13.23143583097965
 10
-31.0
 20
13.46781515397931
  0
LWPOLYLINE
  5
1DD
330
12C
100
AcDbEntity
  8
AM_4
100
AcDbPolyline
 90
        7
 70
     0
 43
0.0
 10
-31.0
 20
13.46781515397932
 10
-30.88203564084411
 20
13.70419447697897
 10
-30.52904034337845
 20
13.93877481060087
 10
-29.94370061496112
 20
14.16977085686265
 10
-29.13047124436316
 20
14.39542459637306
 10
-28.09554139813616
 20
14.61401866792094
 10
-27.61037564952479
 20
14.70096206738321
  0
LWPOLYLINE
  5
1DE
330
12C
100
AcDbEntity
  8
AM_4
100
AcDbPolyline
 90
        3
 70
     0
 43
0.0
 10
28.44987032593312
 20
1.438802153517007
 10
27.83196682816441
 20
0.86404780660232
 10
27.15290039756342
 20
0.2841016151377561
  0
LINE
  5
1DF
330
12C
100
AcDbEntity
  8
AM_4
100
AcDbLine
 10
28.44987032593312
 20
1.438802153517007
 30
0.0
 11
26.56303725038028
 21
1.438802153517007
 31
0.0
  0
LWPOLYLINE
  5
1E0
330
12C
100
AcDbEntity
  8
AM_4
100
AcDbPolyline
 90
        3
 70
     0
 43
0.0
 10
25.03158005400378
 20
0.2841016151377574
 10
25.76963313522342
 20
0.8614518843273837
 10
26.56303725038028
 20
1.438802153517007
  0
LWPOLYLINE
  5
1E1
330
12C
100
AcDbEntity
  8
AM_4
100
AcDbPolyline
 90
        3
 70
     0
 43
0.0
 10
23.73461012563408
 20
-0.8705989232414949
 10
24.35251362340278
 20
-0.2958445763268072
 10
25.03158005400378
 20
0.2841016151377574
  0
LINE
  5
1E2
330
12C
100
AcDbEntity
  8
AM_4
100
AcDbLine
 10
28.44987032593312
 20
-7.798802153517005
 30
0.0
 11
26.56303725038028
 21
-7.798802153517005
 31
0.0
  0
LWPOLYLINE
  5
1E3
330
12C
100
AcDbEntity
  8
AM_4
100
AcDbPolyline
 90
        3
 70
     0
 43
0.0
 10
27.15290039756342
 20
-6.644101615137752
 10
27.82906087871688
 20
-7.221451884327379
 10
28.44987032593312
 20
-7.798802153517005
  0
LWPOLYLINE
  5
1E4
330
12C
100
AcDbEntity
  8
AM_4
100
AcDbPolyline
 90
        3
 70
     0
 43
0.0
 10
25.03158005400378
 20
-6.644101615137754
 10
24.35541957285032
 20
-6.066751345948128
 10
23.73461012563408
 20
-5.489401076758502
  0
LWPOLYLINE
  5
1E5
330
12C
100
AcDbEntity
  8
AM_4
100
AcDbPolyline
 90
        3
 70
     0
 43
0.0
 10
26.56303725038028
 20
-7.798802153517005
 10
25.77308587076141
 20
-7.224047806602318
 10
25.03158005400378
 20
-6.644101615137754
  0
LINE
  5
1E6
330
12C
100
AcDbEntity
  8
AM_4
100
AcDbLine
 10
25.62144320118692
 20
-5.489401076758502
 30
0.0
 11
23.73461012563408
 21
-5.489401076758502
 31
0.0
  0
LINE
  5
1E7
330
12C
100
AcDbEntity
  8
AM_4
100
AcDbLine
 10
25.62144320118692
 20
-0.8705989232414948
 30
0.0
 11
23.73461012563408
 21
-0.8705989232414949
 31
0.0
  0
LWPOLYLINE
  5
1E8
330
12C
100
AcDbEntity
  8
AM_4
100
AcDbPolyline
 90
        3
 70
     0
 43
0.0
 10
23.61736649163068
 20
-3.179999999999998
 10
23.64831279166377
 20
-2.025299461620747
 10
23.73461012563408
 20
-0.8705989232414949
  0
LWPOLYLINE
  5
1E9
330
12C
100
AcDbEntity
  8
AM_4
100
AcDbPolyline
 90
        3
 70
     0
 43
0.0
 10
23.73461012563408
 20
-5.489401076758502
 10
23.648586184709
 20
-4.339892382929126
 10
23.61736649163068
 20
-3.179999999999998
  0
LWPOLYLINE
  5
1EA
330
12C
100
AcDbEntity
  8
AM_4
100
AcDbPolyline
 90
        3
 70
     0
 43
0.0
 10
25.73868683519033
 20
-3.179999999999998
 10
25.70774053515724
 20
-4.33470053837925
 10
25.62144320118692
 20
-5.489401076758502
  0
LWPOLYLINE
  5
1EB
330
12C
100
AcDbEntity
  8
AM_4
100
AcDbPolyline
 90
        3
 70
     0
 43
0.0
 10
25.62144320118692
 20
-5.489401076758502
 10
26.41139458080579
 20
-6.064155423673188
 10
27.15290039756342
 20
-6.644101615137752
  0
ELLIPSE
  5
1EC
330
12C
100
AcDbEntity
  8
AM_4
100
AcDbEllipse
 10
28.5671139599365
 20
-3.179999999999999
 30
0.0
 11
-7.347880794884104E-16
 21
-3.999999999999992
 31
0.0
210
0.0
220
0.0
230
1.0
 40
0.7071067811865458
 41
2.289707545986753
 42
7.13434372549159
  0
LWPOLYLINE
  5
1ED
330
12C
100
AcDbEntity
  8
AM_4
100
AcDbPolyline
 90
        3
 70
     0
 43
0.0
 10
27.15290039756342
 20
0.2841016151377561
 10
26.41484731634378
 20
-0.2932486540518701
 10
25.62144320118692
 20
-0.8705989232414948
  0
LWPOLYLINE
  5
1EE
330
12C
100
AcDbEntity
  8
AM_4
100
AcDbPolyline
 90
        3
 70
     0
 43
0.0
 10
25.62144320118692
 20
-0.8705989232414948
 10
25.70746714211201
 20
-2.02010761707087
 10
25.73868683519033
 20
-3.179999999999998
  0
LWPOLYLINE
  5
1EF
330
12C
100
AcDbEntity
  8
AM_4
100
AcDbPolyline
 90
       20
 70
     0
 43
0.0
 10
29.09667353499636
 20
-3.254599260768229
 10
29.09944223543263
 20
-3.339803501383862
 10
29.12421059886894
 20
-3.63048377370808
 10
29.17252202991562
 20
-3.916476160049289
 10
29.2440793439213
 20
-4.194545464203308
 10
29.33843430766006
 20
-4.461577822307218
 10
29.45496238907992
 20
-4.714459342942967
 10
29.59279260185583
 20
-4.950022800042985
 10
29.75065162359175
 20
-5.164988928831494
 10
29.92681328233321
 20
-5.356174105532274
 10
30.11896943655538
 20
-5.520588966133496
 10
30.32423015334688
 20
-5.655693013662458
 10
30.53928920754501
 20
-5.759657644915516
 10
30.76071767584178
 20
-5.831501117335224
 10
30.98525854827261
 20
-5.871021035242389
 10
31.2100092519374
 20
-5.878574136102837
 10
31.43246473969706
 20
-5.85481715128366
 10
31.65014250230067
 20
-5.800600475195444
 10
31.86107176692241
 20
-5.716805379242452
 10
32.06044202891814
 20
-5.606187704492998
  0
LINE
  5
1F0
330
12C
100
AcDbEntity
  8
AM_4
100
AcDbLine
 10
29.09590276533799
 20
-3.179999999999998
 30
0.0
 11
29.09667353499636
 21
-3.254599260768229
 31
0.0
  0
LWPOLYLINE
  5
1F1
330
12C
100
AcDbEntity
  8
AM_4
100
AcDbPolyline
 90
       21
 70
     0
 43
0.0
 10
31.96887699209501
 20
-0.6989584209466823
 10
31.94896396668108
 20
-0.6879589475869271
 10
31.73281536179831
 20
-0.588420345450913
 10
31.51076607214485
 20
-0.5210738105917758
 10
31.2860314781041
 20
-0.4860287046116967
 10
31.06145856997976
 20
-0.4828715252027301
 10
30.83950029392114
 20
-0.5109221245568393
 10
30.62265417084441
 20
-0.569303847895188
 10
30.41280311065061
 20
-0.6571490529504108
 10
30.21170593656467
 20
-0.7736589434044082
 10
30.02120711845992
 20
-0.9179737360495998
 10
29.84332090985622
 20
-1.08896145644025
 10
29.6801953379858
 20
-1.285011806658819
 10
29.53396686411314
 20
-1.503936344959894
 10
29.4065773674411
 20
-1.743021338908861
 10
29.29963978216061
 20
-1.999189033363819
 10
29.21439612743958
 20
-2.269162465781148
 10
29.1517429343005
 20
-2.549560325969375
 10
29.11225083399849
 20
-2.837128137667837
 10
29.0965153251441
 20
-3.113494842813122
 10
29.09590276533799
 20
-3.179999999999998
  0
LINE
  5
1F2
330
12C
100
AcDbEntity
  8
AM_4
100
AcDbLine
 10
32.83519923691557
 20
-1.231743729691176
 30
0.0
 11
31.99208542889406
 21
-0.712190225479194
 31
0.0
  0
ELLIPSE
  5
1F3
330
12C
100
AcDbEntity
  8
AM_4
100
AcDbEllipse
 10
31.28259798643322
 20
-3.179999999999997
 30
0.0
 11
-4.893487028601617E-16
 21
-2.663890264528327
 31
0.0
210
0.0
220
0.0
230
1.0
 40
0.7071067811865475
 41
2.730075807522302
 42
6.694702153247079
  0
LINE
  5
1F4
330
12C
100
AcDbEntity
  8
AM_4
100
AcDbLine
 10
32.03605993458715
 20
-5.621495756051401
 30
0.0
 11
32.83519923691558
 21
-5.12825627030882
 31
0.0
  0
ELLIPSE
  5
1F5
330
12C
100
AcDbEntity
  8
AM_4
100
AcDbEllipse
 10
32.23395429871449
 20
-3.180000000010963
 30
0.0
 11
-3.904887716255026E-16
 21
-2.125721864717109
 31
0.0
210
0.0
220
0.0
230
1.0
 40
0.7071067811899794
 41
0.4115168460766014
 42
0.4313584158109579
  0
ELLIPSE
  5
1F6
330
12C
100
AcDbEntity
  8
AM_4
100
AcDbEllipse
 10
32.23395429872897
 20
-3.18
 30
0.0
 11
-3.904887716277179E-16
 21
-2.125721864729169
 31
0.0
210
0.0
220
0.0
230
1.0
 40
0.707106781186546
 41
2.731980580490665
 42
6.69470215324708
  0
ELLIPSE
  5
1F7
330
12C
100
AcDbEntity
  8
AM_4
100
AcDbEllipse
 10
32.45620125646253
 20
-3.179999999999998
 30
0.0
 11
1.017365236865176E-16
 21
1.661483519286549
 31
0.0
210
0.0
220
0.0
230
1.0
 40
0.7071067811865465
 41
0.0
 42
6.283185307179586
  0
LWPOLYLINE
  5
1F8
330
12C
100
AcDbEntity
  8
AM_4
100
AcDbPolyline
 90
       20
 70
     0
 43
0.0
 10
32.86682657500762
 20
-5.10820191828951
 10
33.02391357872218
 20
-4.991600181863115
 10
33.18426001469675
 20
-4.838357419420931
 10
33.32963341964215
 20
-4.660315676113889
 10
33.45768195047084
 20
-4.459780290092786
 10
33.5662262893575
 20
-4.23978786592262
 10
33.65348994404721
 20
-4.003886992654927
 10
33.7181775361301
 20
-3.755898601798726
 10
33.75946407419469
 20
-3.499636350606898
 10
33.77688871165089
 20
-3.238735329353302
 10
33.77022994368485
 20
-2.976763360637819
 10
33.7394609611492
 20
-2.717258997988149
 10
33.68473693080681
 20
-2.46375857227229
 10
33.60637198349065
 20
-2.219727749222585
 10
33.50486287720516
 20
-1.988666122689635
 10
33.38099336357968
 20
-1.774202887527284
 10
33.23610562279801
 20
-1.580224391018776
 10
33.07222657328472
 20
-1.41055175349848
 10
32.89225824264359
 20
-1.268713628567973
 10
32.83244114583326
 20
-1.230045408735337
  0
LWPOLYLINE
  5
1F9
330
12C
100
AcDbEntity
  8
AM_4
100
AcDbPolyline
 90
       19
 70
     0
 43
0.0
 10
-38.3999998928048
 20
15.9
 10
-38.26926627909123
 20
15.89950061801523
 10
-38.13952762793294
 20
15.89800627429409
 10
-38.01177132880361
 20
15.89552834169463
 10
-37.88696968428096
 20
15.89208567878013
 10
-37.76607251023712
 20
15.88770448629411
 10
-37.64999990716624
 20
15.88241810775684
 10
-37.53963525766427
 20
15.87626677570097
 10
-37.43581850335391
 20
15.86929730547774
 10
-37.33933975242173
 20
15.86156273896381
 10
-37.25093326641779
 20
15.85312194088062
 10
-37.17127187208187
 20
15.84403915079829
 10
-37.10096184072574
 20
15.83438349423366
 10
-37.04053827414238
 20
15.82422845656345
 10
-36.99046103215822
 20
15.8136513237561
 10
-36.95111123282224
 20
15.80273259417893
 10
-36.92278835186744
 20
15.79155536595692
 10
-36.9057079435197
 20
15.78020470454585
 10
-36.9
 20
15.76876700471112
  0
LWPOLYLINE
  5
1FA
330
12C
100
AcDbEntity
  8
AM_4
100
AcDbPolyline
 90
       19
 70
     0
 43
0.0
 10
36.90000000000001
 20
15.76876700471112
 10
36.90570795286239
 20
15.78020471388852
 10
36.9227883704817
 20
15.79155537519281
 10
36.95111126056641
 20
15.80273260323773
 10
36.99046106882115
 20
15.81365133256888
 10
37.04053831944504
 20
15.82422846506313
 10
37.10096189432335
 20
15.83438350235556
 10
37.17127193356652
 20
15.84403915848059
 10
37.25093333532155
 20
15.85312194806487
 10
37.33933982822019
 20
15.86156274559531
 10
37.4358185854702
 20
15.86929731150603
 10
37.53963534547344
 20
15.87626678108018
 10
37.65000000000001
 20
15.88241811244602
 10
37.76607260738896
 20
15.88770449025758
 10
37.88696978501151
 20
15.89208568198772
 10
38.01177143234623
 20
15.89552834412192
 10
38.13952773349961
 20
15.89800627592263
 10
38.26926638587852
 20
15.89950061883261
 10
38.40000000000001
 20
15.9
  0
LWPOLYLINE
  5
1FB
330
12C
100
AcDbEntity
  8
AM_4
100
AcDbPolyline
 90
        7
 70
     0
 43
0.0
 10
27.61037564952481
 20
14.70096206738321
 10
28.73376425147921
 20
14.48573660644174
 10
29.63847155755864
 20
14.26276414860925
 10
30.31761219888662
 20
14.0337416489243
 10
30.76601750510631
 20
13.80041210689706
 10
30.98027484108287
 20
13.56455130123058
 10
31.0
 20
13.46781515397932
  0
LWPOLYLINE
  5
1FC
330
12C
100
AcDbEntity
  8
AM_4
100
AcDbPolyline
 90
       37
 70
     0
 43
0.0
 10
36.90000000000001
 20
13.46781515397932
 10
36.75958435958542
 20
13.18644750821521
 10
36.33940608615049
 20
12.90722124012979
 10
35.64266299006663
 20
12.63226143022464
 10
34.67465770700003
 20
12.36366068867838
 10
33.4427573416524
 20
12.10346322931976
 10
31.95633739964581
 20
11.85364931192602
 10
30.22671043426382
 20
11.61612017125029
 10
28.26703995109032
 20
11.39268354747712
 10
26.09224022578364
 20
11.18503992822816
 10
23.71886279743334
 20
10.99476960682453
 10
21.16497050135364
 20
10.82332065530048
 10
18.45000000000005
 20
10.67199790370081
 10
15.59461385823186
 20
10.54195300953637
 10
12.62054328871724
 20
10.43417569297501
 10
9.55042276428308
 20
10.34948620447348
 10
6.407617755909799
 20
10.28852908217618
 10
3.21604690738866
 20
10.25176824659073
 10
0.000000000000077
 20
10.23948346987272
 10
-3.216046907388507
 20
10.25176824659073
 10
-6.407617755909646
 20
10.28852908217618
 10
-9.550422764282931
 20
10.34948620447347
 10
-12.62054328871709
 20
10.434175692975
 10
-15.59461385823172
 20
10.54195300953636
 10
-18.44999999999991
 20
10.6719979037008
 10
-21.16497050135352
 20
10.82332065530047
 10
-23.71886279743322
 20
10.99476960682452
 10
-26.09224022578353
 20
11.18503992822815
 10
-28.26703995109022
 20
11.39268354747711
 10
-30.22671043426373
 20
11.61612017125027
 10
-31.95633739964572
 20
11.85364931192601
 10
-33.44275734165232
 20
12.10346322931975
 10
-34.67465770699997
 20
12.36366068867837
 10
-35.64266299006658
 20
12.63226143022462
 10
-36.33940608615045
 20
12.90722124012978
 10
-36.7595843595854
 20
13.1864475082152
 10
-36.9
 20
13.4678151539793
  0
LWPOLYLINE
  5
1FD
330
12C
100
AcDbEntity
  8
AM_4
100
AcDbPolyline
 90
       19
 70
     0
 43
0.0
 10
38.40000000000001
 20
-15.9
 10
38.26926638587852
 20
-15.8995006188326
 10
38.13952773349961
 20
-15.89800627592262
 10
38.01177143234623
 20
-15.89552834412192
 10
37.88696978501151
 20
-15.89208568198771
 10
37.76607260738896
 20
-15.88770449025758
 10
37.65000000000001
 20
-15.88241811244601
 10
37.53963534547344
 20
-15.87626678108017
 10
37.4358185854702
 20
-15.86929731150603
 10
37.33933982822018
 20
-15.86156274559531
 10
37.25093333532154
 20
-15.85312194806486
 10
37.17127193356652
 20
-15.84403915848059
 10
37.10096189432335
 20
-15.83438350235556
 10
37.04053831944504
 20
-15.82422846506313
 10
36.99046106882115
 20
-15.81365133256888
 10
36.95111126056641
 20
-15.80273260323773
 10
36.9227883704817
 20
-15.7915553751928
 10
36.90570795286239
 20
-15.78020471388852
 10
36.90000000000001
 20
-15.76876700471112
  0
LINE
  5
1FE
330
12C
100
AcDbEntity
  8
AM_4
100
AcDbLine
 10
36.90000000000001
 20
15.76876700471113
 30
0.0
 11
36.90000000000001
 21
-15.76876700471112
 31
0.0
  0
LWPOLYLINE
  5
1FF
330
12C
100
AcDbEntity
  8
AM_4
100
AcDbPolyline
 90
       37
 70
     0
 43
0.0
 10
-36.90000000000001
 20
-13.46781515397931
 10
-36.75958435958542
 20
-13.1864475082152
 10
-36.33940608615048
 20
-12.90722124012979
 10
-35.64266299006663
 20
-12.63226143022463
 10
-34.67465770700002
 20
-12.36366068867838
 10
-33.4427573416524
 20
-12.10346322931976
 10
-31.9563373996458
 20
-11.85364931192602
 10
-30.22671043426382
 20
-11.61612017125028
 10
-28.26703995109031
 20
-11.39268354747712
 10
-26.09224022578363
 20
-11.18503992822816
 10
-23.71886279743334
 20
-10.99476960682453
 10
-21.16497050135364
 20
-10.82332065530047
 10
-18.45000000000004
 20
-10.6719979037008
 10
-15.59461385823186
 20
-10.54195300953636
 10
-12.62054328871723
 20
-10.434175692975
 10
-9.550422764283072
 20
-10.34948620447347
 10
-6.407617755909792
 20
-10.28852908217618
 10
-3.216046907388651
 20
-10.25176824659073
 10
-0.0000000000000676
 20
-10.23948346987272
 10
3.216046907388516
 20
-10.25176824659072
 10
6.407617755909659
 20
-10.28852908217618
 10
9.550422764282942
 20
-10.34948620447347
 10
12.6205432887171
 20
-10.434175692975
 10
15.59461385823174
 20
-10.54195300953636
 10
18.44999999999993
 20
-10.6719979037008
 10
21.16497050135353
 20
-10.82332065530047
 10
23.71886279743324
 20
-10.99476960682452
 10
26.09224022578355
 20
-11.18503992822814
 10
28.26703995109024
 20
-11.39268354747711
 10
30.22671043426375
 20
-11.61612017125027
 10
31.95633739964574
 20
-11.85364931192601
 10
33.44275734165235
 20
-12.10346322931975
 10
34.67465770699999
 20
-12.36366068867837
 10
35.6426629900666
 20
-12.63226143022462
 10
36.33940608615048
 20
-12.90722124012978
 10
36.75958435958542
 20
-13.18644750821519
 10
36.90000000000001
 20
-13.4678151539793
  0
LINE
  5
200
330
12C
100
AcDbEntity
  8
AM_4
100
AcDbLine
 10
-36.9
 20
-15.76876700471111
 30
0.0
 11
-36.9
 21
15.76876700471112
 31
0.0
  0
LWPOLYLINE
  5
201
330
12C
100
AcDbEntity
  8
AM_4
100
AcDbPolyline
 90
       19
 70
     0
 43
0.0
 10
-36.9
 20
-15.76876700471111
 10
-36.90570795286237
 20
-15.78020471388851
 10
-36.92278837048168
 20
-15.7915553751928
 10
-36.95111126056639
 20
-15.80273260323772
 10
-36.99046106882113
 20
-15.81365133256887
 10
-37.04053831944502
 20
-15.82422846506313
 10
-37.10096189432333
 20
-15.83438350235555
 10
-37.1712719335665
 20
-15.84403915848058
 10
-37.25093333532152
 20
-15.85312194806486
 10
-37.33933982822017
 20
-15.86156274559531
 10
-37.43581858547017
 20
-15.86929731150602
 10
-37.53963534547341
 20
-15.87626678108017
 10
-37.64999999999998
 20
-15.88241811244601
 10
-37.76607260738893
 20
-15.88770449025757
 10
-37.88696978501148
 20
-15.89208568198771
 10
-38.0117714323462
 20
-15.89552834412192
 10
-38.13952773349958
 20
-15.89800627592262
 10
-38.2692663858785
 20
-15.8995006188326
 10
-38.39999999999998
 20
-15.9
  0
LWPOLYLINE
  5
202
330
12C
100
AcDbEntity
  8
AM_4
100
AcDbPolyline
 90
        7
 70
     0
 43
0.0
 10
-27.61037564952482
 20
-14.70096206738321
 10
-28.73376425147922
 20
-14.48573660644174
 10
-29.63847155755865
 20
-14.26276414860925
 10
-30.31761219888662
 20
-14.0337416489243
 10
-30.76601750510632
 20
-13.80041210689705
 10
-30.98027484108287
 20
-13.56455130123058
 10
-31.00000000000001
 20
-13.46781515397931
  0
ENDBLK
  5
12F
330
12C
100
AcDbEntity
  8
0
100
AcDbBlockEnd
  0
ENDSEC
  0
SECTION
  2
ENTITIES
  0
INSERT
  5
6F
330
1F
100
AcDbEntity
  8
0
100
AcDbBlockReference
  2
1__129267_4
 10
0.0
 20
0.0
 30
0.0
  0
POINT
  5
204
330
1F
100
AcDbEntity
  8
ConnectionPoints
100
AcDbPoint
 10
0.0
 20
0.0
 30
0.0
  0
POINT
  5
205
330
1F
100
AcDbEntity
  8
ConnectionPoints
100
AcDbPoint
 10
0.0
 20
13.5
 30
-0.0000000000000008
  0
POINT
  5
206
330
1F
100
AcDbEntity
  8
ConnectionPoints
100
AcDbPoint
 10
0.0
 20
0.0
 30
0.0
  0
ENDSEC
  0
SECTION
  2
OBJECTS
  0
DICTIONARY
  5
C
330
0
100
AcDbDictionary
281
     1
  3
ACAD_DETAILVIEWSTYLE
350
20E
  3
ACAD_GROUP
350
D
  3
ACAD_LAYOUT
350
1A
  3
ACAD_MATERIAL
350
43
  3
ACAD_MLEADERSTYLE
350
6B
  3
ACAD_MLINESTYLE
350
17
  3
ACAD_PLOTSETTINGS
350
19
  3
ACAD_PLOTSTYLENAME
350
E
  3
ACAD_SCALELIST
350
47
  3
ACAD_SECTIONVIEWSTYLE
350
20F
  3
ACAD_TABLESTYLE
350
69
  3
ACAD_VISUALSTYLE
350
2A
  3
ACDB_RECOMPOSE_DATA
350
20B
  3
AcDbVariableDictionary
350
207
  0
SUN
  5
6D
330
29
100
AcDbSun
 90
        1
290
     0
 63
     7
421
 16777215
 40
1.0
291
     1
 91
  2455826
 92
 54000000
292
     0
 70
     2
 71
   256
280
     1
  0
DICTIONARY
  5
20E
102
{ACAD_REACTORS
330
C
102
}
330
C
100
AcDbDictionary
281
     1
  0
DICTIONARY
  5
D
102
{ACAD_REACTORS
330
C
102
}
330
C
100
AcDbDictionary
281
     1
  0
DICTIONARY
  5
1A
102
{ACAD_REACTORS
330
C
102
}
330
C
100
AcDbDictionary
281
     1
  3
Layout1
350
1E
  3
Layout2
350
26
  3
Model
350
22
  0
DICTIONARY
  5
43
102
{ACAD_REACTORS
330
C
102
}
330
C
100
AcDbDictionary
281
     1
  3
ByBlock
350
45
  3
ByLayer
350
44
  3
Global
350
46
  0
DICTIONARY
  5
6B
102
{ACAD_REACTORS
330
C
102
}
330
C
100
AcDbDictionary
281
     1
  3
Standard
350
6C
  0
DICTIONARY
  5
17
102
{ACAD_REACTORS
330
C
102
}
330
C
100
AcDbDictionary
281
     1
  3
Standard
350
18
  0
DICTIONARY
  5
19
102
{ACAD_REACTORS
330
C
102
}
330
C
100
AcDbDictionary
281
     1
  0
ACDBDICTIONARYWDFLT
  5
E
102
{ACAD_REACTORS
330
C
102
}
330
C
100
AcDbDictionary
281
     1
  3
Normal
350
F
100
AcDbDictionaryWithDefault
340
F
  0
DICTIONARY
  5
47
102
{ACAD_REACTORS
330
C
102
}
330
C
100
AcDbDictionary
281
     1
  3
A0
350
48
  3
A1
350
49
  3
A2
350
4A
  3
A3
350
4B
  3
A4
350
4C
  3
A5
350
4D
  3
A6
350
4E
  3
A7
350
4F
  3
A8
350
50
  3
A9
350
51
  3
B0
350
52
  3
B1
350
53
  3
B2
350
54
  3
B3
350
55
  3
B4
350
56
  3
B5
350
57
  3
B6
350
58
  3
B7
350
59
  3
B8
350
5A
  3
B9
350
5B
  3
C0
350
5C
  3
C1
350
5D
  3
C2
350
5E
  3
C3
350
5F
  3
C4
350
60
  3
C5
350
61
  3
C6
350
62
  3
C7
350
63
  3
C8
350
64
  3
C9
350
65
  3
D0
350
66
  3
D1
350
67
  3
D2
350
68
  0
DICTIONARY
  5
20F
102
{ACAD_REACTORS
330
C
102
}
330
C
100
AcDbDictionary
281
     1
  0
DICTIONARY
  5
69
102
{ACAD_REACTORS
330
C
102
}
330
C
100
AcDbDictionary
281
     1
  3
Standard
350
6A
  0
DICTIONARY
  5
2A
102
{ACAD_REACTORS
330
C
102
}
330
C
100
AcDbDictionary
281
     1
  3
2dWireframe
350
2F
  3
Basic
350
32
  3
Brighten
350
36
  3
ColorChange
350
3A
  3
Conceptual
350
34
  3
Dim
350
35
  3
EdgeColorOff
350
3D
  3
Facepattern
350
39
  3
Flat
350
2B
  3
FlatWithEdges
350
2C
  3
Gouraud
350
2D
  3
GouraudWithEdges
350
2E
  3
Hidden
350
31
  3
JitterOff
350
3B
  3
Linepattern
350
38
  3
OverhangOff
350
3C
  3
Realistic
350
33
  3
Shaded
350
42
  3
Shaded with edges
350
41
  3
Shades of Gray
350
3E
  3
Sketchy
350
3F
  3
Thicken
350
37
  3
Wireframe
350
30
  3
X-Ray
350
40
  0
XRECORD
  5
20B
102
{ACAD_REACTORS
330
C
102
}
330
C
100
AcDbXrecord
280
     1
 90
        1
330
6A
  0
DICTIONARY
  5
207
102
{ACAD_REACTORS
330
C
102
}
330
C
100
AcDbDictionary
281
     1
  3
CANNOSCALE
350
208
  3
CMLEADERSTYLE
350
20D
  3
CTABLESTYLE
350
20C
  0
LAYOUT
  5
1E
102
{ACAD_REACTORS
330
1A
102
}
330
1A
100
AcDbPlotSettings
  1

  2
none_device
  4

  6

 40
0.0
 41
0.0
 42
0.0
 43
0.0
 44
0.0
 45
0.0
 46
0.0
 47
0.0
 48
0.0
 49
0.0
140
0.0
141
0.0
142
1.0
143
1.0
 70
   688
 72
     1
 73
     0
 74
     5
  7

 75
    16
 76
     0
 77
     2
 78
   300
147
1.0
148
0.0
149
0.0
100
AcDbLayout
  1
Layout1
 70
     1
 71
     1
 10
0.0
 20
0.0
 11
420.0
 21
297.0
 12
0.0
 22
0.0
 32
0.0
 14
1.000000000000000E+20
 24
1.000000000000000E+20
 34
1.000000000000000E+20
 15
-1.000000000000000E+20
 25
-1.000000000000000E+20
 35
-1.000000000000000E+20
146
0.0
 13
0.0
 23
0.0
 33
0.0
 16
1.0
 26
0.0
 36
0.0
 17
0.0
 27
1.0
 37
0.0
 76
     0
330
1B
  0
LAYOUT
  5
26
102
{ACAD_REACTORS
330
1A
102
}
330
1A
100
AcDbPlotSettings
  1

  2
none_device
  4

  6

 40
0.0
 41
0.0
 42
0.0
 43
0.0
 44
0.0
 45
0.0
 46
0.0
 47
0.0
 48
0.0
 49
0.0
140
0.0
141
0.0
142
1.0
143
1.0
 70
   688
 72
     1
 73
     0
 74
     5
  7

 75
    16
 76
     0
 77
     2
 78
   300
147
1.0
148
0.0
149
0.0
100
AcDbLayout
  1
Layout2
 70
     1
 71
     2
 10
0.0
 20
0.0
 11
0.0
 21
0.0
 12
0.0
 22
0.0
 32
0.0
 14
0.0
 24
0.0
 34
0.0
 15
0.0
 25
0.0
 35
0.0
146
0.0
 13
0.0
 23
0.0
 33
0.0
 16
1.0
 26
0.0
 36
0.0
 17
0.0
 27
1.0
 37
0.0
 76
     0
330
23
  0
LAYOUT
  5
22
102
{ACAD_REACTORS
330
1A
102
}
330
1A
100
AcDbPlotSettings
  1

  2
none_device
  4
Letter_(8.50_x_11.00_Inches)
  6

 40
6.35
 41
6.35
 42
6.35000508
 43
6.35000508
 44
215.9
 45
279.4
 46
0.0
 47
0.0
 48
0.0
 49
0.0
140
0.0
141
0.0
142
1.0
143
1.0
 70
  1712
 72
     1
 73
     0
 74
     0
  7

 75
     0
 76
     0
 77
     2
 78
   300
147
1.0
148
0.0
149
0.0
100
AcDbLayout
  1
Model
 70
     1
 71
     0
 10
0.0
 20
0.0
 11
420.0
 21
297.0
 12
0.0
 22
0.0
 32
0.0
 14
1.000000000000000E+20
 24
1.000000000000000E+20
 34
1.000000000000000E+20
 15
-1.000000000000000E+20
 25
-1.000000000000000E+20
 35
-1.000000000000000E+20
146
0.0
 13
0.0
 23
0.0
 33
0.0
 16
1.0
 26
0.0
 36
0.0
 17
0.0
 27
1.0
 37
0.0
 76
     0
330
1F
331
29
  0
MATERIAL
  5
45
102
{ACAD_REACTORS
330
43
102
}
330
43
100
AcDbMaterial
  1
ByBlock
 72
     1
 94
      127
  0
MATERIAL
  5
44
102
{ACAD_REACTORS
330
43
102
}
330
43
100
AcDbMaterial
  1
ByLayer
 72
     1
 94
      127
  0
MATERIAL
  5
46
102
{ACAD_REACTORS
330
43
102
}
330
43
100
AcDbMaterial
  1
Global
 72
     1
 94
      127
  0
MLEADERSTYLE
  5
6C
102
{ACAD_REACTORS
330
6B
102
}
330
6B
100
AcDbMLeaderStyle
179
     2
170
     2
171
     1
172
     0
 90
        2
 40
0.0
 41
0.0
173
     1
 91
-1056964608
340
14
 92
       -2
290
     1
 42
2.0
291
     1
 43
8.0
  3
Standard
341
0
 44
4.0
300

342
11
174
     1
178
     6
175
     1
176
     0
 93
-1056964608
 45
4.0
292
     0
297
     0
 46
4.0
343
0
 94
-1056964608
 47
1.0
 49
1.0
140
1.0
293
     1
141
0.0
294
     1
177
     0
142
1.0
295
     0
296
     0
143
3.75
271
     0
272
     9
273
     9
298
     0
  0
MLINESTYLE
  5
18
102
{ACAD_REACTORS
330
17
102
}
330
17
100
AcDbMlineStyle
  2
Standard
 70
     0
  3

 62
   256
 51
90.0
 52
90.0
 71
     2
 49
0.5
 62
   256
  6
BYLAYER
 49
-0.5
 62
   256
  6
BYLAYER
  0
ACDBPLACEHOLDER
  5
F
102
{ACAD_REACTORS
330
E
102
}
330
E
  0
SCALE
  5
48
102
{ACAD_REACTORS
330
47
102
}
330
47
100
AcDbScale
 70
     0
300
1:1
140
1.0
141
1.0
290
     1
  0
SCALE
  5
49
102
{ACAD_REACTORS
330
47
102
}
330
47
100
AcDbScale
 70
     0
300
1:2
140
1.0
141
2.0
290
     0
  0
SCALE
  5
4A
102
{ACAD_REACTORS
330
47
102
}
330
47
100
AcDbScale
 70
     0
300
1:4
140
1.0
141
4.0
290
     0
  0
SCALE
  5
4B
102
{ACAD_REACTORS
330
47
102
}
330
47
100
AcDbScale
 70
     0
300
1:5
140
1.0
141
5.0
290
     0
  0
SCALE
  5
4C
102
{ACAD_REACTORS
330
47
102
}
330
47
100
AcDbScale
 70
     0
300
1:8
140
1.0
141
8.0
290
     0
  0
SCALE
  5
4D
102
{ACAD_REACTORS
330
47
102
}
330
47
100
AcDbScale
 70
     0
300
1:10
140
1.0
141
10.0
290
     0
  0
SCALE
  5
4E
102
{ACAD_REACTORS
330
47
102
}
330
47
100
AcDbScale
 70
     0
300
1:16
140
1.0
141
16.0
290
     0
  0
SCALE
  5
4F
102
{ACAD_REACTORS
330
47
102
}
330
47
100
AcDbScale
 70
     0
300
1:20
140
1.0
141
20.0
290
     0
  0
SCALE
  5
50
102
{ACAD_REACTORS
330
47
102
}
330
47
100
AcDbScale
 70
     0
300
1:30
140
1.0
141
30.0
290
     0
  0
SCALE
  5
51
102
{ACAD_REACTORS
330
47
102
}
330
47
100
AcDbScale
 70
     0
300
1:40
140
1.0
141
40.0
290
     0
  0
SCALE
  5
52
102
{ACAD_REACTORS
330
47
102
}
330
47
100
AcDbScale
 70
     0
300
1:50
140
1.0
141
50.0
290
     0
  0
SCALE
  5
53
102
{ACAD_REACTORS
330
47
102
}
330
47
100
AcDbScale
 70
     0
300
1:100
140
1.0
141
100.0
290
     0
  0
SCALE
  5
54
102
{ACAD_REACTORS
330
47
102
}
330
47
100
AcDbScale
 70
     0
300
2:1
140
2.0
141
1.0
290
     0
  0
SCALE
  5
55
102
{ACAD_REACTORS
330
47
102
}
330
47
100
AcDbScale
 70
     0
300
4:1
140
4.0
141
1.0
290
     0
  0
SCALE
  5
56
102
{ACAD_REACTORS
330
47
102
}
330
47
100
AcDbScale
 70
     0
300
8:1
140
8.0
141
1.0
290
     0
  0
SCALE
  5
57
102
{ACAD_REACTORS
330
47
102
}
330
47
100
AcDbScale
 70
     0
300
10:1
140
10.0
141
1.0
290
     0
  0
SCALE
  5
58
102
{ACAD_REACTORS
330
47
102
}
330
47
100
AcDbScale
 70
     0
300
100:1
140
100.0
141
1.0
290
     0
  0
SCALE
  5
59
102
{ACAD_REACTORS
330
47
102
}
330
47
100
AcDbScale
 70
     0
300
1/128" = 1'-0"
140
0.0078125
141
12.0
290
     0
  0
SCALE
  5
5A
102
{ACAD_REACTORS
330
47
102
}
330
47
100
AcDbScale
 70
     0
300
1/64" = 1'-0"
140
0.015625
141
12.0
290
     0
  0
SCALE
  5
5B
102
{ACAD_REACTORS
330
47
102
}
330
47
100
AcDbScale
 70
     0
300
1/32" = 1'-0"
140
0.03125
141
12.0
290
     0
  0
SCALE
  5
5C
102
{ACAD_REACTORS
330
47
102
}
330
47
100
AcDbScale
 70
     0
300
1/16" = 1'-0"
140
0.0625
141
12.0
290
     0
  0
SCALE
  5
5D
102
{ACAD_REACTORS
330
47
102
}
330
47
100
AcDbScale
 70
     0
300
3/32" = 1'-0"
140
0.09375
141
12.0
290
     0
  0
SCALE
  5
5E
102
{ACAD_REACTORS
330
47
102
}
330
47
100
AcDbScale
 70
     0
300
1/8" = 1'-0"
140
0.125
141
12.0
290
     0
  0
SCALE
  5
5F
102
{ACAD_REACTORS
330
47
102
}
330
47
100
AcDbScale
 70
     0
300
3/16" = 1'-0"
140
0.1875
141
12.0
290
     0
  0
SCALE
  5
60
102
{ACAD_REACTORS
330
47
102
}
330
47
100
AcDbScale
 70
     0
300
1/4" = 1'-0"
140
0.25
141
12.0
290
     0
  0
SCALE
  5
61
102
{ACAD_REACTORS
330
47
102
}
330
47
100
AcDbScale
 70
     0
300
3/8" = 1'-0"
140
0.375
141
12.0
290
     0
  0
SCALE
  5
62
102
{ACAD_REACTORS
330
47
102
}
330
47
100
AcDbScale
 70
     0
300
1/2" = 1'-0"
140
0.5
141
12.0
290
     0
  0
SCALE
  5
63
102
{ACAD_REACTORS
330
47
102
}
330
47
100
AcDbScale
 70
     0
300
3/4" = 1'-0"
140
0.75
141
12.0
290
     0
  0
SCALE
  5
64
102
{ACAD_REACTORS
330
47
102
}
330
47
100
AcDbScale
 70
     0
300
1" = 1'-0"
140
1.0
141
12.0
290
     0
  0
SCALE
  5
65
102
{ACAD_REACTORS
330
47
102
}
330
47
100
AcDbScale
 70
     0
300
1-1/2" = 1'-0"
140
1.5
141
12.0
290
     0
  0
SCALE
  5
66
102
{ACAD_REACTORS
330
47
102
}
330
47
100
AcDbScale
 70
     0
300
3" = 1'-0"
140
3.0
141
12.0
290
     0
  0
SCALE
  5
67
102
{ACAD_REACTORS
330
47
102
}
330
47
100
AcDbScale
 70
     0
300
6" = 1'-0"
140
6.0
141
12.0
290
     0
  0
SCALE
  5
68
102
{ACAD_REACTORS
330
47
102
}
330
47
100
AcDbScale
 70
     0
300
1'-0" = 1'-0"
140
12.0
141
12.0
290
     0
  0
TABLESTYLE
  5
6A
102
{ACAD_REACTORS
330
69
102
}
102
{ACAD_XDICTIONARY
360
209
102
}
330
69
100
AcDbTableStyle
  3
Standard
 70
     0
 71
     0
 40
0.06
 41
0.06
280
     0
281
     0
  7
Standard
140
4.5
170
     2
 62
     0
 63
   257
283
     0
 90
        4
 91
        0
  1

274
    -2
284
     1
 64
     0
275
    -2
285
     1
 65
     0
276
    -2
286
     1
 66
     0
277
    -2
287
     1
 67
     0
278
    -2
288
     1
 68
     0
279
    -2
289
     1
 69
     0
  7
Standard
140
6.0
170
     5
 62
     0
 63
   257
283
     0
 90
        4
 91
        0
  1

274
    -2
284
     1
 64
     0
275
    -2
285
     1
 65
     0
276
    -2
286
     1
 66
     0
277
    -2
287
     1
 67
     0
278
    -2
288
     1
 68
     0
279
    -2
289
     1
 69
     0
  7
Standard
140
4.5
170
     5
 62
     0
 63
   257
283
     0
 90
        4
 91
        0
  1

274
    -2
284
     1
 64
     0
275
    -2
285
     1
 65
     0
276
    -2
286
     1
 66
     0
277
    -2
287
     1
 67
     0
278
    -2
288
     1
 68
     0
279
    -2
289
     1
 69
     0
  0
VISUALSTYLE
  5
2F
102
{ACAD_REACTORS
330
2A
102
}
330
2A
100
AcDbVisualStyle
  2
2dWireframe
 70
     4
177
     3
291
     0
 70
    58
 90
        0
176
     1
 90
        2
176
     1
 90
        0
176
     1
 90
        0
176
     1
 40
0.6
176
     1
 40
30.0
176
     1
 62
     7
420
 16777215
176
     1
 90
        1
176
     1
 90
        4
176
     1
 62
     7
176
     1
 62
   257
176
     1
 90
        1
176
     1
 90
        1
176
     1
 40
1.0
176
     1
 90
        0
176
     1
 62
   257
176
     1
 40
1.0
176
     1
 90
        1
176
     1
 90
        6
176
     1
 90
        2
176
     1
 62
     7
176
     1
 90
        5
176
     1
 90
        0
176
     1
 90
        0
176
     1
290
     0
176
     1
 90
        1
176
     1
 40
0.0
176
     1
 90
        0
176
     1
290
     1
176
     1
290
     1
176
     1
290
     0
176
     1
290
     0
176
     1
290
     0
176
     1
290
     0
176
     1
290
     0
176
     1
290
     0
176
     1
290
     0
176
     1
 90
       50
176
     1
 40
0.0
176
     1
 40
1.0
176
     1
 90
        0
176
     1
 62
    18
420
        0
176
     1
 90
       50
176
     1
 90
        3
176
     1
 62
     5
420
      255
176
     1
290
     0
176
     1
 90
       50
176
     1
 90
       50
176
     1
 90
       50
176
     1
290
     0
176
     1
 90
       50
176
     1
 62
   256
176
     0
 40
1.0
176
     0
 90
        2
176
     1
  1
strokes_ogs.tif
176
     1
290
     0
176
     1
 40
1.0
176
     1
 40
1.0
176
     1
  0
VISUALSTYLE
  5
32
102
{ACAD_REACTORS
330
2A
102
}
330
2A
100
AcDbVisualStyle
  2
Basic
 70
     7
177
     3
291
     1
 70
    58
 90
        1
176
     1
 90
        0
176
     1
 90
        1
176
     1
 90
        0
176
     1
 40
0.6
176
     1
 40
30.0
176
     1
 62
     7
420
 16777215
176
     1
 90
        0
176
     1
 90
        4
176
     1
 62
     7
176
     1
 62
   257
176
     1
 90
        1
176
     1
 90
        1
176
     1
 40
1.0
176
     1
 90
        8
176
     1
 62
     7
176
     1
 40
1.0
176
     1
 90
        1
176
     1
 90
        6
176
     1
 90
        2
176
     1
 62
     7
176
     1
 90
        5
176
     1
 90
        0
176
     1
 90
        0
176
     1
290
     0
176
     1
 90
        1
176
     1
 40
0.0
176
     1
 90
        0
176
     1
290
     0
176
     1
290
     1
176
     1
290
     1
176
     1
290
     0
176
     1
290
     0
176
     1
290
     0
176
     1
290
     0
176
     1
290
     0
176
     1
290
     0
176
     1
 90
       50
176
     1
 40
0.0
176
     1
 40
1.0
176
     1
 90
        0
176
     1
 62
    18
420
        0
176
     1
 90
       50
176
     1
 90
        3
176
     1
 62
     5
420
      255
176
     1
290
     0
176
     1
 90
       50
176
     1
 90
       50
176
     1
 90
       50
176
     1
290
     0
176
     1
 90
       50
176
     1
 62
   256
176
     0
 40
1.0
176
     0
 90
        2
176
     1
  1
strokes_ogs.tif
176
     1
290
     0
176
     1
 40
1.0
176
     1
 40
1.0
176
     1
  0
VISUALSTYLE
  5
36
102
{ACAD_REACTORS
330
2A
102
}
330
2A
100
AcDbVisualStyle
  2
Brighten
 70
    12
177
     3
291
     1
 70
    58
 90
        2
176
     1
 90
        2
176
     1
 90
        0
176
     1
 90
        0
176
     1
 40
0.6
176
     1
 40
30.0
176
     1
 62
     7
420
 16777215
176
     1
 90
        1
176
     1
 90
        4
176
     1
 62
     7
176
     1
 62
   257
176
     1
 90
        1
176
     1
 90
        1
176
     1
 40
1.0
176
     1
 90
        8
176
     1
 62
     7
176
     1
 40
1.0
176
     1
 90
        1
176
     1
 90
        6
176
     1
 90
        2
176
     1
 62
     7
176
     1
 90
        5
176
     1
 90
        0
176
     1
 90
        0
176
     1
290
     0
176
     1
 90
        1
176
     1
 40
50.0
176
     1
 90
        0
176
     1
290
     0
176
     1
290
     1
176
     1
290
     1
176
     1
290
     0
176
     1
290
     0
176
     1
290
     0
176
     1
290
     0
176
     1
290
     0
176
     1
290
     0
176
     1
 90
       50
176
     1
 40
0.0
176
     1
 40
1.0
176
     1
 90
        0
176
     1
 62
    18
420
        0
176
     1
 90
       50
176
     1
 90
        3
176
     1
 62
     5
420
      255
176
     1
290
     0
176
     1
 90
       50
176
     1
 90
       50
176
     1
 90
       50
176
     1
290
     0
176
     1
 90
       50
176
     1
 62
   256
176
     0
 40
1.0
176
     0
 90
        2
176
     1
  1
strokes_ogs.tif
176
     1
290
     0
176
     1
 40
1.0
176
     1
 40
1.0
176
     1
  0
VISUALSTYLE
  5
3A
102
{ACAD_REACTORS
330
2A
102
}
330
2A
100
AcDbVisualStyle
  2
ColorChange
 70
    16
177
     3
291
     1
 70
    58
 90
        2
176
     1
 90
        2
176
     1
 90
        3
176
     1
 90
        0
176
     1
 40
0.6
176
     1
 40
30.0
176
     1
 62
     8
420
  8421504
176
     1
 90
        1
176
     1
 90
        4
176
     1
 62
     7
176
     1
 62
   257
176
     1
 90
        1
176
     1
 90
        1
176
     1
 40
1.0
176
     1
 90
        8
176
     1
 62
     8
420
  8421504
176
     1
 40
1.0
176
     1
 90
        1
176
     1
 90
        6
176
     1
 90
        2
176
     1
 62
     7
176
     1
 90
        5
176
     1
 90
        0
176
     1
 90
        0
176
     1
290
     0
176
     1
 90
        1
176
     1
 40
0.0
176
     1
 90
        0
176
     1
290
     0
176
     1
290
     1
176
     1
290
     1
176
     1
290
     0
176
     1
290
     0
176
     1
290
     0
176
     1
290
     0
176
     1
290
     0
176
     1
290
     0
176
     1
 90
       50
176
     1
 40
0.0
176
     1
 40
1.0
176
     1
 90
        0
176
     1
 62
    18
420
        0
176
     1
 90
       50
176
     1
 90
        3
176
     1
 62
     5
420
      255
176
     1
290
     0
176
     1
 90
       50
176
     1
 90
       50
176
     1
 90
       50
176
     1
290
     0
176
     1
 90
       50
176
     1
 62
   256
176
     0
 40
1.0
176
     0
 90
        2
176
     1
  1
strokes_ogs.tif
176
     1
290
     0
176
     1
 40
1.0
176
     1
 40
1.0
176
     1
  0
VISUALSTYLE
  5
34
102
{ACAD_REACTORS
330
2A
102
}
330
2A
100
AcDbVisualStyle
  2
Conceptual
 70
     9
177
     3
291
     0
 70
    58
 90
        3
176
     1
 90
        2
176
     1
 90
        0
176
     1
 90
        0
176
     1
 40
0.6
176
     1
 40
30.0
176
     1
 62
     7
420
 16777215
176
     1
 90
        2
176
     1
 90
        2
176
     1
 62
     7
176
     1
 62
   257
176
     1
 90
        1
176
     1
 90
        1
176
     1
 40
179.0
176
     1
 90
        8
176
     1
 62
     7
176
     1
 40
1.0
176
     1
 90
        1
176
     1
 90
        6
176
     1
 90
        2
176
     1
 62
     7
176
     1
 90
        3
176
     1
 90
        0
176
     1
 90
        0
176
     1
290
     0
176
     1
 90
        1
176
     1
 40
0.0
176
     1
 90
        0
176
     1
290
     0
176
     1
290
     1
176
     1
290
     1
176
     1
290
     0
176
     1
290
     0
176
     1
290
     0
176
     1
290
     0
176
     1
290
     0
176
     1
290
     0
176
     1
 90
       50
176
     1
 40
0.0
176
     1
 40
1.0
176
     1
 90
        0
176
     1
 62
    18
420
        0
176
     1
 90
       50
176
     1
 90
        3
176
     1
 62
     5
420
      255
176
     1
290
     0
176
     1
 90
       50
176
     1
 90
       50
176
     1
 90
       50
176
     1
290
     0
176
     1
 90
       50
176
     1
 62
   256
176
     0
 40
1.0
176
     0
 90
        2
176
     1
  1
strokes_ogs.tif
176
     1
290
     0
176
     1
 40
1.0
176
     1
 40
1.0
176
     1
  0
VISUALSTYLE
  5
35
102
{ACAD_REACTORS
330
2A
102
}
330
2A
100
AcDbVisualStyle
  2
Dim
 70
    11
177
     3
291
     1
 70
    58
 90
        2
176
     1
 90
        2
176
     1
 90
        0
176
     1
 90
        0
176
     1
 40
0.6
176
     1
 40
30.0
176
     1
 62
     7
420
 16777215
176
     1
 90
        1
176
     1
 90
        4
176
     1
 62
     7
176
     1
 62
   257
176
     1
 90
        1
176
     1
 90
        1
176
     1
 40
1.0
176
     1
 90
        8
176
     1
 62
     7
176
     1
 40
1.0
176
     1
 90
        1
176
     1
 90
        6
176
     1
 90
        2
176
     1
 62
     7
176
     1
 90
        5
176
     1
 90
        0
176
     1
 90
        0
176
     1
290
     0
176
     1
 90
        1
176
     1
 40
-50.0
176
     1
 90
        0
176
     1
290
     0
176
     1
290
     1
176
     1
290
     1
176
     1
290
     0
176
     1
290
     0
176
     1
290
     0
176
     1
290
     0
176
     1
290
     0
176
     1
290
     0
176
     1
 90
       50
176
     1
 40
0.0
176
     1
 40
1.0
176
     1
 90
        0
176
     1
 62
    18
420
        0
176
     1
 90
       50
176
     1
 90
        3
176
     1
 62
     5
420
      255
176
     1
290
     0
176
     1
 90
       50
176
     1
 90
       50
176
     1
 90
       50
176
     1
290
     0
176
     1
 90
       50
176
     1
 62
   256
176
     0
 40
1.0
176
     0
 90
        2
176
     1
  1
strokes_ogs.tif
176
     1
290
     0
176
     1
 40
1.0
176
     1
 40
1.0
176
     1
  0
VISUALSTYLE
  5
3D
102
{ACAD_REACTORS
330
2A
102
}
330
2A
100
AcDbVisualStyle
  2
EdgeColorOff
 70
    22
177
     3
291
     1
 70
    58
 90
        2
176
     0
 90
        2
176
     0
 90
        0
176
     0
 90
        0
176
     0
 40
0.6
176
     0
 40
30.0
176
     0
 62
     7
420
 16777215
176
     0
 90
        1
176
     0
 90
        4
176
     0
 62
     7
176
     0
 62
   257
176
     0
 90
        1
176
     0
 90
        1
176
     0
 40
1.0
176
     0
 90
        8
176
     2
 62
     7
176
     0
 40
1.0
176
     0
 90
        1
176
     0
 90
        6
176
     0
 90
        2
176
     0
 62
     7
176
     0
 90
        5
176
     0
 90
        0
176
     0
 90
        0
176
     0
290
     0
176
     0
 90
        1
176
     0
 40
0.0
176
     0
 90
        0
176
     0
290
     0
176
     0
290
     1
176
     0
290
     1
176
     0
290
     0
176
     0
290
     0
176
     0
290
     0
176
     0
290
     0
176
     0
290
     0
176
     0
290
     0
176
     0
 90
       50
176
     0
 40
0.0
176
     0
 40
1.0
176
     0
 90
        0
176
     0
 62
    18
420
        0
176
     0
 90
       50
176
     0
 90
        3
176
     0
 62
     5
420
      255
176
     0
290
     0
176
     0
 90
       50
176
     0
 90
       50
176
     0
 90
       50
176
     0
290
     0
176
     0
 90
       50
176
     0
 62
   256
176
     0
 40
1.0
176
     0
 90
        2
176
     0
  1
strokes_ogs.tif
176
     0
290
     0
176
     0
 40
1.0
176
     0
 40
1.0
176
     0
  0
VISUALSTYLE
  5
39
102
{ACAD_REACTORS
330
2A
102
}
330
2A
100
AcDbVisualStyle
  2
Facepattern
 70
    15
177
     3
291
     1
 70
    58
 90
        2
176
     1
 90
        2
176
     1
 90
        0
176
     1
 90
        0
176
     1
 40
0.6
176
     1
 40
30.0
176
     1
 62
     7
420
 16777215
176
     1
 90
        1
176
     1
 90
        4
176
     1
 62
     7
176
     1
 62
   257
176
     1
 90
        1
176
     1
 90
        1
176
     1
 40
1.0
176
     1
 90
        8
176
     1
 62
     7
176
     1
 40
1.0
176
     1
 90
        1
176
     1
 90
        6
176
     1
 90
        2
176
     1
 62
     7
176
     1
 90
        5
176
     1
 90
        0
176
     1
 90
        0
176
     1
290
     0
176
     1
 90
        1
176
     1
 40
0.0
176
     1
 90
        0
176
     1
290
     0
176
     1
290
     1
176
     1
290
     1
176
     1
290
     0
176
     1
290
     0
176
     1
290
     0
176
     1
290
     0
176
     1
290
     0
176
     1
290
     0
176
     1
 90
       50
176
     1
 40
0.0
176
     1
 40
1.0
176
     1
 90
        0
176
     1
 62
    18
420
        0
176
     1
 90
       50
176
     1
 90
        3
176
     1
 62
     5
420
      255
176
     1
290
     0
176
     1
 90
       50
176
     1
 90
       50
176
     1
 90
       50
176
     1
290
     0
176
     1
 90
       50
176
     1
 62
   256
176
     0
 40
1.0
176
     0
 90
        2
176
     1
  1
strokes_ogs.tif
176
     1
290
     0
176
     1
 40
1.0
176
     1
 40
1.0
176
     1
  0
VISUALSTYLE
  5
2B
102
{ACAD_REACTORS
330
2A
102
}
330
2A
100
AcDbVisualStyle
  2
Flat
 70
     0
177
     3
291
     1
 70
    58
 90
        2
176
     1
 90
        1
176
     1
 90
        1
176
     1
 90
        2
176
     1
 40
0.6
176
     1
 40
30.0
176
     1
 62
     7
420
 16777215
176
     1
 90
        0
176
     1
 90
        0
176
     1
 62
     7
176
     1
 62
   257
176
     1
 90
        1
176
     1
 90
        1
176
     1
 40
1.0
176
     1
 90
        8
176
     1
 62
     7
176
     1
 40
1.0
176
     1
 90
        1
176
     1
 90
        6
176
     1
 90
        2
176
     1
 62
     7
176
     1
 90
        5
176
     1
 90
        0
176
     1
 90
        0
176
     1
290
     0
176
     1
 90
       13
176
     1
 40
0.0
176
     1
 90
        0
176
     1
290
     0
176
     1
290
     1
176
     1
290
     1
176
     1
290
     0
176
     1
290
     0
176
     1
290
     0
176
     1
290
     0
176
     1
290
     0
176
     1
290
     0
176
     1
 90
       50
176
     1
 40
0.0
176
     1
 40
1.0
176
     1
 90
        0
176
     1
 62
    18
420
        0
176
     1
 90
       50
176
     1
 90
        3
176
     1
 62
     5
420
      255
176
     1
290
     0
176
     1
 90
       50
176
     1
 90
       50
176
     1
 90
       50
176
     1
290
     0
176
     1
 90
       50
176
     1
 62
   256
176
     0
 40
1.0
176
     0
 90
        2
176
     1
  1
strokes_ogs.tif
176
     1
290
     0
176
     1
 40
1.0
176
     1
 40
1.0
176
     1
  0
VISUALSTYLE
  5
2C
102
{ACAD_REACTORS
330
2A
102
}
330
2A
100
AcDbVisualStyle
  2
FlatWithEdges
 70
     1
177
     3
291
     1
 70
    58
 90
        2
176
     1
 90
        1
176
     1
 90
        1
176
     1
 90
        2
176
     1
 40
0.6
176
     1
 40
30.0
176
     1
 62
     7
420
 16777215
176
     1
 90
        1
176
     1
 90
        0
176
     1
 62
     7
176
     1
 62
   257
176
     1
 90
        1
176
     1
 90
        1
176
     1
 40
1.0
176
     1
 90
        0
176
     1
 62
   257
176
     1
 40
1.0
176
     1
 90
        1
176
     1
 90
        6
176
     1
 90
        2
176
     1
 62
     7
176
     1
 90
        5
176
     1
 90
        0
176
     1
 90
        0
176
     1
290
     0
176
     1
 90
       13
176
     1
 40
0.0
176
     1
 90
        0
176
     1
290
     0
176
     1
290
     1
176
     1
290
     1
176
     1
290
     0
176
     1
290
     0
176
     1
290
     0
176
     1
290
     0
176
     1
290
     0
176
     1
290
     0
176
     1
 90
       50
176
     1
 40
0.0
176
     1
 40
1.0
176
     1
 90
        0
176
     1
 62
    18
420
        0
176
     1
 90
       50
176
     1
 90
        3
176
     1
 62
     5
420
      255
176
     1
290
     0
176
     1
 90
       50
176
     1
 90
       50
176
     1
 90
       50
176
     1
290
     0
176
     1
 90
       50
176
     1
 62
   256
176
     0
 40
1.0
176
     0
 90
        2
176
     1
  1
strokes_ogs.tif
176
     1
290
     0
176
     1
 40
1.0
176
     1
 40
1.0
176
     1
  0
VISUALSTYLE
  5
2D
102
{ACAD_REACTORS
330
2A
102
}
330
2A
100
AcDbVisualStyle
  2
Gouraud
 70
     2
177
     3
291
     1
 70
    58
 90
        2
176
     1
 90
        2
176
     1
 90
        1
176
     1
 90
        2
176
     1
 40
0.6
176
     1
 40
30.0
176
     1
 62
     7
420
 16777215
176
     1
 90
        0
176
     1
 90
        0
176
     1
 62
     7
176
     1
 62
   257
176
     1
 90
        1
176
     1
 90
        1
176
     1
 40
1.0
176
     1
 90
        0
176
     1
 62
     7
176
     1
 40
1.0
176
     1
 90
        1
176
     1
 90
        6
176
     1
 90
        2
176
     1
 62
     7
176
     1
 90
        5
176
     1
 90
        0
176
     1
 90
        0
176
     1
290
     0
176
     1
 90
       13
176
     1
 40
0.0
176
     1
 90
        0
176
     1
290
     0
176
     1
290
     1
176
     1
290
     1
176
     1
290
     0
176
     1
290
     0
176
     1
290
     0
176
     1
290
     0
176
     1
290
     0
176
     1
290
     0
176
     1
 90
       50
176
     1
 40
0.0
176
     1
 40
1.0
176
     1
 90
        0
176
     1
 62
    18
420
        0
176
     1
 90
       50
176
     1
 90
        3
176
     1
 62
     5
420
      255
176
     1
290
     0
176
     1
 90
       50
176
     1
 90
       50
176
     1
 90
       50
176
     1
290
     0
176
     1
 90
       50
176
     1
 62
   256
176
     0
 40
1.0
176
     0
 90
        2
176
     1
  1
strokes_ogs.tif
176
     1
290
     0
176
     1
 40
1.0
176
     1
 40
1.0
176
     1
  0
VISUALSTYLE
  5
2E
102
{ACAD_REACTORS
330
2A
102
}
330
2A
100
AcDbVisualStyle
  2
GouraudWithEdges
 70
     3
177
     3
291
     1
 70
    58
 90
        2
176
     1
 90
        2
176
     1
 90
        1
176
     1
 90
        2
176
     1
 40
0.6
176
     1
 40
30.0
176
     1
 62
     7
420
 16777215
176
     1
 90
        1
176
     1
 90
        0
176
     1
 62
     7
176
     1
 62
   257
176
     1
 90
        1
176
     1
 90
        1
176
     1
 40
1.0
176
     1
 90
        0
176
     1
 62
   257
176
     1
 40
1.0
176
     1
 90
        1
176
     1
 90
        6
176
     1
 90
        2
176
     1
 62
     7
176
     1
 90
        5
176
     1
 90
        0
176
     1
 90
        0
176
     1
290
     0
176
     1
 90
       13
176
     1
 40
0.0
176
     1
 90
        0
176
     1
290
     0
176
     1
290
     1
176
     1
290
     1
176
     1
290
     0
176
     1
290
     0
176
     1
290
     0
176
     1
290
     0
176
     1
290
     0
176
     1
290
     0
176
     1
 90
       50
176
     1
 40
0.0
176
     1
 40
1.0
176
     1
 90
        0
176
     1
 62
    18
420
        0
176
     1
 90
       50
176
     1
 90
        3
176
     1
 62
     5
420
      255
176
     1
290
     0
176
     1
 90
       50
176
     1
 90
       50
176
     1
 90
       50
176
     1
290
     0
176
     1
 90
       50
176
     1
 62
   256
176
     0
 40
1.0
176
     0
 90
        2
176
     1
  1
strokes_ogs.tif
176
     1
290
     0
176
     1
 40
1.0
176
     1
 40
1.0
176
     1
  0
VISUALSTYLE
  5
31
102
{ACAD_REACTORS
330
2A
102
}
330
2A
100
AcDbVisualStyle
  2
Hidden
 70
     6
177
     3
291
     0
 70
    58
 90
        1
176
     1
 90
        2
176
     1
 90
        2
176
     1
 90
        0
176
     1
 40
0.6
176
     1
 40
30.0
176
     1
 62
     7
420
 16777215
176
     1
 90
        2
176
     1
 90
        2
176
     1
 62
     7
176
     1
 62
   257
176
     1
 90
        2
176
     1
 90
        1
176
     1
 40
40.0
176
     1
 90
        0
176
     1
 62
   257
176
     1
 40
1.0
176
     1
 90
        1
176
     1
 90
        6
176
     1
 90
        2
176
     1
 62
     7
176
     1
 90
        3
176
     1
 90
        0
176
     1
 90
        0
176
     1
290
     0
176
     1
 90
        1
176
     1
 40
0.0
176
     1
 90
        0
176
     1
290
     0
176
     1
290
     1
176
     1
290
     1
176
     1
290
     0
176
     1
290
     0
176
     1
290
     0
176
     1
290
     0
176
     1
290
     0
176
     1
290
     0
176
     1
 90
       50
176
     1
 40
0.0
176
     1
 40
1.0
176
     1
 90
        0
176
     1
 62
    18
420
        0
176
     1
 90
       50
176
     1
 90
        3
176
     1
 62
     5
420
      255
176
     1
290
     0
176
     1
 90
       50
176
     1
 90
       50
176
     1
 90
       50
176
     1
290
     0
176
     1
 90
       50
176
     1
 62
   256
176
     0
 40
1.0
176
     0
 90
        2
176
     1
  1
strokes_ogs.tif
176
     1
290
     0
176
     1
 40
1.0
176
     1
 40
1.0
176
     1
  0
VISUALSTYLE
  5
3B
102
{ACAD_REACTORS
330
2A
102
}
330
2A
100
AcDbVisualStyle
  2
JitterOff
 70
    20
177
     3
291
     1
 70
    58
 90
        2
176
     0
 90
        2
176
     0
 90
        0
176
     0
 90
        0
176
     0
 40
0.6
176
     0
 40
30.0
176
     0
 62
     7
420
 16777215
176
     0
 90
        1
176
     0
 90
        4
176
     0
 62
     7
176
     0
 62
   257
176
     0
 90
        1
176
     0
 90
        1
176
     0
 40
1.0
176
     0
 90
       10
176
     2
 62
     7
176
     0
 40
1.0
176
     0
 90
        1
176
     0
 90
        6
176
     0
 90
        2
176
     0
 62
     7
176
     0
 90
        5
176
     0
 90
        0
176
     0
 90
        0
176
     0
290
     0
176
     0
 90
        1
176
     0
 40
0.0
176
     0
 90
        0
176
     0
290
     0
176
     0
290
     1
176
     0
290
     1
176
     0
290
     0
176
     0
290
     0
176
     0
290
     0
176
     0
290
     0
176
     0
290
     0
176
     0
290
     0
176
     0
 90
       50
176
     0
 40
0.0
176
     0
 40
1.0
176
     0
 90
        0
176
     0
 62
    18
420
        0
176
     0
 90
       50
176
     0
 90
        3
176
     0
 62
     5
420
      255
176
     0
290
     0
176
     0
 90
       50
176
     0
 90
       50
176
     0
 90
       50
176
     0
290
     0
176
     0
 90
       50
176
     0
 62
   256
176
     0
 40
1.0
176
     0
 90
        2
176
     0
  1
strokes_ogs.tif
176
     0
290
     0
176
     0
 40
1.0
176
     0
 40
1.0
176
     0
  0
VISUALSTYLE
  5
38
102
{ACAD_REACTORS
330
2A
102
}
330
2A
100
AcDbVisualStyle
  2
Linepattern
 70
    14
177
     3
291
     1
 70
    58
 90
        2
176
     1
 90
        2
176
     1
 90
        0
176
     1
 90
        0
176
     1
 40
0.6
176
     1
 40
30.0
176
     1
 62
     7
420
 16777215
176
     1
 90
        1
176
     1
 90
        4
176
     1
 62
     7
176
     1
 62
   257
176
     1
 90
        7
176
     1
 90
        7
176
     1
 40
1.0
176
     1
 90
        8
176
     1
 62
     7
176
     1
 40
1.0
176
     1
 90
        1
176
     1
 90
        6
176
     1
 90
        2
176
     1
 62
     7
176
     1
 90
        5
176
     1
 90
        0
176
     1
 90
        0
176
     1
290
     0
176
     1
 90
        1
176
     1
 40
0.0
176
     1
 90
        0
176
     1
290
     0
176
     1
290
     1
176
     1
290
     1
176
     1
290
     0
176
     1
290
     0
176
     1
290
     0
176
     1
290
     0
176
     1
290
     0
176
     1
290
     0
176
     1
 90
       50
176
     1
 40
0.0
176
     1
 40
1.0
176
     1
 90
        0
176
     1
 62
    18
420
        0
176
     1
 90
       50
176
     1
 90
        3
176
     1
 62
     5
420
      255
176
     1
290
     0
176
     1
 90
       50
176
     1
 90
       50
176
     1
 90
       50
176
     1
290
     0
176
     1
 90
       50
176
     1
 62
   256
176
     0
 40
1.0
176
     0
 90
        2
176
     1
  1
strokes_ogs.tif
176
     1
290
     0
176
     1
 40
1.0
176
     1
 40
1.0
176
     1
  0
VISUALSTYLE
  5
3C
102
{ACAD_REACTORS
330
2A
102
}
330
2A
100
AcDbVisualStyle
  2
OverhangOff
 70
    21
177
     3
291
     1
 70
    58
 90
        2
176
     0
 90
        2
176
     0
 90
        0
176
     0
 90
        0
176
     0
 40
0.6
176
     0
 40
30.0
176
     0
 62
     7
420
 16777215
176
     0
 90
        1
176
     0
 90
        4
176
     0
 62
     7
176
     0
 62
   257
176
     0
 90
        1
176
     0
 90
        1
176
     0
 40
1.0
176
     0
 90
        9
176
     2
 62
     7
176
     0
 40
1.0
176
     0
 90
        1
176
     0
 90
        6
176
     0
 90
        2
176
     0
 62
     7
176
     0
 90
        5
176
     0
 90
        0
176
     0
 90
        0
176
     0
290
     0
176
     0
 90
        1
176
     0
 40
0.0
176
     0
 90
        0
176
     0
290
     0
176
     0
290
     1
176
     0
290
     1
176
     0
290
     0
176
     0
290
     0
176
     0
290
     0
176
     0
290
     0
176
     0
290
     0
176
     0
290
     0
176
     0
 90
       50
176
     0
 40
0.0
176
     0
 40
1.0
176
     0
 90
        0
176
     0
 62
    18
420
        0
176
     0
 90
       50
176
     0
 90
        3
176
     0
 62
     5
420
      255
176
     0
290
     0
176
     0
 90
       50
176
     0
 90
       50
176
     0
 90
       50
176
     0
290
     0
176
     0
 90
       50
176
     0
 62
   256
176
     0
 40
1.0
176
     0
 90
        2
176
     0
  1
strokes_ogs.tif
176
     0
290
     0
176
     0
 40
1.0
176
     0
 40
1.0
176
     0
  0
VISUALSTYLE
  5
33
102
{ACAD_REACTORS
330
2A
102
}
330
2A
100
AcDbVisualStyle
  2
Realistic
 70
     8
177
     3
291
     0
 70
    58
 90
        2
176
     1
 90
        3
176
     1
 90
        0
176
     1
 90
        2
176
     1
 40
0.6
176
     1
 40
30.0
176
     1
 62
     7
420
 16777215
176
     1
 90
        0
176
     1
 90
        0
176
     1
 62
     7
176
     1
 62
   257
176
     1
 90
        1
176
     1
 90
        1
176
     1
 40
1.0
176
     1
 90
        8
176
     1
 62
   257
176
     1
 40
1.0
176
     1
 90
        1
176
     1
 90
        6
176
     1
 90
        2
176
     1
 62
     7
176
     1
 90
        3
176
     1
 90
        0
176
     1
 90
        0
176
     1
290
     0
176
     1
 90
       13
176
     1
 40
0.0
176
     1
 90
        0
176
     1
290
     0
176
     1
290
     1
176
     1
290
     1
176
     1
290
     0
176
     1
290
     0
176
     1
290
     0
176
     1
290
     0
176
     1
290
     0
176
     1
290
     0
176
     1
 90
       50
176
     1
 40
0.0
176
     1
 40
1.0
176
     1
 90
        0
176
     1
 62
    18
420
        0
176
     1
 90
       50
176
     1
 90
        3
176
     1
 62
     5
420
      255
176
     1
290
     0
176
     1
 90
       50
176
     1
 90
       50
176
     1
 90
       50
176
     1
290
     0
176
     1
 90
       50
176
     1
 62
   256
176
     0
 40
1.0
176
     0
 90
        2
176
     1
  1
strokes_ogs.tif
176
     1
290
     0
176
     1
 40
1.0
176
     1
 40
1.0
176
     1
  0
VISUALSTYLE
  5
42
102
{ACAD_REACTORS
330
2A
102
}
330
2A
100
AcDbVisualStyle
  2
Shaded
 70
    27
177
     3
291
     0
 70
    58
 90
        2
176
     1
 90
        2
176
     1
 90
        1
176
     1
 90
        2
176
     1
 40
0.6
176
     1
 40
30.0
176
     1
 62
     7
420
 16777215
176
     1
 90
        0
176
     1
 90
        4
176
     1
 62
     7
176
     1
 62
   257
176
     1
 90
        1
176
     1
 90
        1
176
     1
 40
1.0
176
     1
 90
        8
176
     1
 62
   257
176
     1
 40
1.0
176
     1
 90
        1
176
     1
 90
        6
176
     1
 90
        2
176
     1
 62
     8
420
  7895160
176
     1
 90
        3
176
     1
 90
        0
176
     1
 90
        0
176
     1
290
     0
176
     1
 90
        5
176
     1
 40
0.0
176
     1
 90
        0
176
     1
290
     0
176
     1
290
     1
176
     1
290
     1
176
     1
290
     0
176
     1
290
     0
176
     1
290
     0
176
     1
290
     0
176
     1
290
     0
176
     1
290
     0
176
     1
 90
       50
176
     1
 40
0.0
176
     1
 40
1.0
176
     1
 90
        0
176
     1
 62
    18
420
        0
176
     1
 90
       50
176
     1
 90
        3
176
     1
 62
     5
420
      255
176
     1
290
     0
176
     1
 90
       50
176
     1
 90
       50
176
     1
 90
       50
176
     1
290
     0
176
     1
 90
       50
176
     1
 62
   256
176
     0
 40
1.0
176
     0
 90
        2
176
     1
  1
strokes_ogs.tif
176
     1
290
     0
176
     1
 40
1.0
176
     1
 40
1.0
176
     1
  0
VISUALSTYLE
  5
41
102
{ACAD_REACTORS
330
2A
102
}
330
2A
100
AcDbVisualStyle
  2
Shaded with edges
 70
    26
177
     3
291
     0
 70
    58
 90
        2
176
     1
 90
        2
176
     1
 90
        1
176
     1
 90
        2
176
     1
 40
0.6
176
     1
 40
30.0
176
     1
 62
     7
420
 16777215
176
     1
 90
        1
176
     1
 90
       10
176
     1
 62
     7
176
     1
 62
   257
176
     1
 90
        2
176
     1
 90
        1
176
     1
 40
1.0
176
     1
 90
        8
176
     1
 62
   257
176
     1
 40
1.0
176
     1
 90
        1
176
     1
 90
        6
176
     1
 90
        2
176
     1
 62
     7
176
     1
 90
        3
176
     1
 90
        0
176
     1
 90
        0
176
     1
290
     0
176
     1
 90
        5
176
     1
 40
0.0
176
     1
 90
        0
176
     1
290
     0
176
     1
290
     1
176
     1
290
     1
176
     1
290
     0
176
     1
290
     0
176
     1
290
     0
176
     1
290
     0
176
     1
290
     0
176
     1
290
     0
176
     1
 90
       50
176
     1
 40
0.0
176
     1
 40
1.0
176
     1
 90
        0
176
     1
 62
    18
420
        0
176
     1
 90
       50
176
     1
 90
        3
176
     1
 62
     5
420
      255
176
     1
290
     0
176
     1
 90
       50
176
     1
 90
       50
176
     1
 90
       50
176
     1
290
     0
176
     1
 90
       50
176
     1
 62
   256
176
     0
 40
1.0
176
     0
 90
        2
176
     1
  1
strokes_ogs.tif
176
     1
290
     0
176
     1
 40
1.0
176
     1
 40
1.0
176
     1
  0
VISUALSTYLE
  5
3E
102
{ACAD_REACTORS
330
2A
102
}
330
2A
100
AcDbVisualStyle
  2
Shades of Gray
 70
    23
177
     3
291
     0
 70
    58
 90
        2
176
     1
 90
        2
176
     1
 90
        3
176
     1
 90
        0
176
     1
 40
0.6
176
     1
 40
30.0
176
     1
 62
     7
420
 16777215
176
     1
 90
        2
176
     1
 90
        2
176
     1
 62
     7
176
     1
 62
     7
176
     1
 90
        1
176
     1
 90
        1
176
     1
 40
40.0
176
     1
 90
        8
176
     1
 62
     7
176
     1
 40
1.0
176
     1
 90
        1
176
     1
 90
        6
176
     1
 90
        2
176
     1
 62
     7
176
     1
 90
        3
176
     1
 90
        0
176
     1
 90
        0
176
     1
290
     0
176
     1
 90
        1
176
     1
 40
0.0
176
     1
 90
        0
176
     1
290
     0
176
     1
290
     1
176
     1
290
     1
176
     1
290
     0
176
     1
290
     0
176
     1
290
     0
176
     1
290
     0
176
     1
290
     0
176
     1
290
     0
176
     1
 90
       50
176
     1
 40
0.0
176
     1
 40
1.0
176
     1
 90
        0
176
     1
 62
    18
420
        0
176
     1
 90
       50
176
     1
 90
        3
176
     1
 62
     5
420
      255
176
     1
290
     0
176
     1
 90
       50
176
     1
 90
       50
176
     1
 90
       50
176
     1
290
     0
176
     1
 90
       50
176
     1
 62
   256
176
     0
 40
1.0
176
     0
 90
        2
176
     1
  1
strokes_ogs.tif
176
     1
290
     0
176
     1
 40
1.0
176
     1
 40
1.0
176
     1
  0
VISUALSTYLE
  5
3F
102
{ACAD_REACTORS
330
2A
102
}
330
2A
100
AcDbVisualStyle
  2
Sketchy
 70
    24
177
     3
291
     0
 70
    58
 90
        1
176
     1
 90
        2
176
     1
 90
        2
176
     1
 90
        0
176
     1
 40
0.6
176
     1
 40
30.0
176
     1
 62
     7
420
 16777215
176
     1
 90
        2
176
     1
 90
        2
176
     1
 62
     7
176
     1
 62
     7
176
     1
 90
        1
176
     1
 90
        1
176
     1
 40
40.0
176
     1
 90
       11
176
     1
 62
     7
176
     1
 40
1.0
176
     1
 90
        1
176
     1
 90
        6
176
     1
 90
        2
176
     1
 62
     7
176
     1
 90
        6
176
     1
 90
        0
176
     1
 90
        0
176
     1
290
     0
176
     1
 90
        1
176
     1
 40
0.0
176
     1
 90
        0
176
     1
290
     0
176
     1
290
     1
176
     1
290
     1
176
     1
290
     0
176
     1
290
     0
176
     1
290
     0
176
     1
290
     0
176
     1
290
     0
176
     1
290
     0
176
     1
 90
       50
176
     1
 40
0.0
176
     1
 40
1.0
176
     1
 90
        0
176
     1
 62
    18
420
        0
176
     1
 90
       50
176
     1
 90
        3
176
     1
 62
     5
420
      255
176
     1
290
     0
176
     1
 90
       50
176
     1
 90
       50
176
     1
 90
       50
176
     1
290
     0
176
     1
 90
       50
176
     1
 62
   256
176
     0
 40
1.0
176
     0
 90
        2
176
     1
  1
strokes_ogs.tif
176
     1
290
     0
176
     1
 40
1.0
176
     1
 40
1.0
176
     1
  0
VISUALSTYLE
  5
37
102
{ACAD_REACTORS
330
2A
102
}
330
2A
100
AcDbVisualStyle
  2
Thicken
 70
    13
177
     3
291
     1
 70
    58
 90
        2
176
     1
 90
        2
176
     1
 90
        0
176
     1
 90
        0
176
     1
 40
0.6
176
     1
 40
30.0
176
     1
 62
     7
420
 16777215
176
     1
 90
        1
176
     1
 90
        4
176
     1
 62
     7
176
     1
 62
   257
176
     1
 90
        1
176
     1
 90
        1
176
     1
 40
1.0
176
     1
 90
       12
176
     1
 62
     7
176
     1
 40
1.0
176
     1
 90
        1
176
     1
 90
        6
176
     1
 90
        2
176
     1
 62
     7
176
     1
 90
        5
176
     1
 90
        0
176
     1
 90
        0
176
     1
290
     0
176
     1
 90
        1
176
     1
 40
0.0
176
     1
 90
        0
176
     1
290
     0
176
     1
290
     1
176
     1
290
     1
176
     1
290
     0
176
     1
290
     0
176
     1
290
     0
176
     1
290
     0
176
     1
290
     0
176
     1
290
     0
176
     1
 90
       50
176
     1
 40
0.0
176
     1
 40
1.0
176
     1
 90
        0
176
     1
 62
    18
420
        0
176
     1
 90
       50
176
     1
 90
        3
176
     1
 62
     5
420
      255
176
     1
290
     0
176
     1
 90
       50
176
     1
 90
       50
176
     1
 90
       50
176
     1
290
     0
176
     1
 90
       50
176
     1
 62
   256
176
     0
 40
1.0
176
     0
 90
        2
176
     1
  1
strokes_ogs.tif
176
     1
290
     0
176
     1
 40
1.0
176
     1
 40
1.0
176
     1
  0
VISUALSTYLE
  5
30
102
{ACAD_REACTORS
330
2A
102
}
330
2A
100
AcDbVisualStyle
  2
Wireframe
 70
     5
177
     3
291
     0
 70
    58
 90
        0
176
     1
 90
        2
176
     1
 90
        0
176
     1
 90
        0
176
     1
 40
0.6
176
     1
 40
30.0
176
     1
 62
     7
420
 16777215
176
     1
 90
        1
176
     1
 90
        4
176
     1
 62
     7
176
     1
 62
   257
176
     1
 90
        1
176
     1
 90
        1
176
     1
 40
1.0
176
     1
 90
        0
176
     1
 62
   257
176
     1
 40
1.0
176
     1
 90
        1
176
     1
 90
        6
176
     1
 90
        2
176
     1
 62
     7
176
     1
 90
        3
176
     1
 90
        0
176
     1
 90
        0
176
     1
290
     0
176
     1
 90
        1
176
     1
 40
0.0
176
     1
 90
        0
176
     1
290
     0
176
     1
290
     1
176
     1
290
     1
176
     1
290
     0
176
     1
290
     0
176
     1
290
     0
176
     1
290
     0
176
     1
290
     0
176
     1
290
     0
176
     1
 90
       50
176
     1
 40
0.0
176
     1
 40
1.0
176
     1
 90
        0
176
     1
 62
    18
420
        0
176
     1
 90
       50
176
     1
 90
        3
176
     1
 62
     5
420
      255
176
     1
290
     0
176
     1
 90
       50
176
     1
 90
       50
176
     1
 90
       50
176
     1
290
     0
176
     1
 90
       50
176
     1
 62
   256
176
     0
 40
1.0
176
     0
 90
        2
176
     1
  1
strokes_ogs.tif
176
     1
290
     0
176
     1
 40
1.0
176
     1
 40
1.0
176
     1
  0
VISUALSTYLE
  5
40
102
{ACAD_REACTORS
330
2A
102
}
330
2A
100
AcDbVisualStyle
  2
X-Ray
 70
    25
177
     3
291
     0
 70
    58
 90
        2
176
     1
 90
        2
176
     1
 90
        1
176
     1
 90
        1
176
     1
 40
0.5
176
     1
 40
30.0
176
     1
 62
     7
420
 16777215
176
     1
 90
        1
176
     1
 90
        0
176
     1
 62
     7
176
     1
 62
   257
176
     1
 90
        1
176
     1
 90
        1
176
     1
 40
1.0
176
     1
 90
        8
176
     1
 62
     7
176
     1
 40
1.0
176
     1
 90
        1
176
     1
 90
        6
176
     1
 90
        2
176
     1
 62
     7
176
     1
 90
        3
176
     1
 90
        0
176
     1
 90
        0
176
     1
290
     0
176
     1
 90
       13
176
     1
 40
0.0
176
     1
 90
        0
176
     1
290
     0
176
     1
290
     1
176
     1
290
     1
176
     1
290
     0
176
     1
290
     0
176
     1
290
     0
176
     1
290
     0
176
     1
290
     0
176
     1
290
     0
176
     1
 90
       50
176
     1
 40
0.0
176
     1
 40
1.0
176
     1
 90
        0
176
     1
 62
    18
420
        0
176
     1
 90
       50
176
     1
 90
        3
176
     1
 62
     5
420
      255
176
     1
290
     0
176
     1
 90
       50
176
     1
 90
       50
176
     1
 90
       50
176
     1
290
     0
176
     1
 90
       50
176
     1
 62
   256
176
     0
 40
1.0
176
     0
 90
        2
176
     1
  1
strokes_ogs.tif
176
     1
290
     0
176
     1
 40
1.0
176
     1
 40
1.0
176
     1
  0
DICTIONARYVAR
  5
208
102
{ACAD_REACTORS
330
207
102
}
330
207
100
DictionaryVariables
280
     0
  1
1:1
  0
DICTIONARYVAR
  5
20D
102
{ACAD_REACTORS
330
207
102
}
330
207
100
DictionaryVariables
280
     0
  1
Standard
  0
DICTIONARYVAR
  5
20C
102
{ACAD_REACTORS
330
207
102
}
330
207
100
DictionaryVariables
280
     0
  1
Standard
  0
DICTIONARY
  5
209
330
6A
100
AcDbDictionary
280
     1
281
     1
  3
ACAD_ROUNDTRIP_2008_TABLESTYLE_CELLSTYLEMAP
360
20A
  0
CELLSTYLEMAP
  5
20A
102
{ACAD_REACTORS
330
209
102
}
330
209
100
AcDbCellStyleMap
 90
        3
300
CELLSTYLE
  1
TABLEFORMAT_BEGIN
 90
        5
170
     1
 91
        0
 92
    32768
 62
   257
 93
        1
300
CONTENTFORMAT
  1
CONTENTFORMAT_BEGIN
 90
        0
 91
        0
 92
        4
 93
        0
300

 40
0.0
140
1.0
 94
        5
 62
     0
340
11
144
6.0
309
CONTENTFORMAT_END
171
     1
301
MARGIN
  1
CELLMARGIN_BEGIN
 40
1.5
 40
1.5
 40
1.5
 40
1.5
 40
1.5
 40
1.5
309
CELLMARGIN_END
 94
        6
 95
        1
302
GRIDFORMAT
  1
GRIDFORMAT_BEGIN
 90
        0
 91
        1
 62
     0
 92
       -2
340
14
 93
        0
 40
0.045
309
GRIDFORMAT_END
 95
        2
302
GRIDFORMAT
  1
GRIDFORMAT_BEGIN
 90
        0
 91
        1
 62
     0
 92
       -2
340
14
 93
        0
 40
0.045
309
GRIDFORMAT_END
 95
        4
302
GRIDFORMAT
  1
GRIDFORMAT_BEGIN
 90
        0
 91
        1
 62
     0
 92
       -2
340
14
 93
        0
 40
0.045
309
GRIDFORMAT_END
 95
        8
302
GRIDFORMAT
  1
GRIDFORMAT_BEGIN
 90
        0
 91
        1
 62
     0
 92
       -2
340
14
 93
        0
 40
0.045
309
GRIDFORMAT_END
 95
       16
302
GRIDFORMAT
  1
GRIDFORMAT_BEGIN
 90
        0
 91
        1
 62
     0
 92
       -2
340
14
 93
        0
 40
0.045
309
GRIDFORMAT_END
 95
       32
302
GRIDFORMAT
  1
GRIDFORMAT_BEGIN
 90
        0
 91
        1
 62
     0
 92
       -2
340
14
 93
        0
 40
0.045
309
GRIDFORMAT_END
309
TABLEFORMAT_END
  1
CELLSTYLE_BEGIN
 90
        1
 91
        1
300
_TITLE
309
CELLSTYLE_END
300
CELLSTYLE
  1
TABLEFORMAT_BEGIN
 90
        5
170
     1
 91
        0
 92
        0
 62
   257
 93
        1
300
CONTENTFORMAT
  1
CONTENTFORMAT_BEGIN
 90
        0
 91
        0
 92
        4
 93
        0
300

 40
0.0
140
1.0
 94
        5
 62
     0
340
11
144
4.5
309
CONTENTFORMAT_END
171
     1
301
MARGIN
  1
CELLMARGIN_BEGIN
 40
1.5
 40
1.5
 40
1.5
 40
1.5
 40
1.5
 40
1.5
309
CELLMARGIN_END
 94
        6
 95
        1
302
GRIDFORMAT
  1
GRIDFORMAT_BEGIN
 90
        0
 91
        1
 62
     0
 92
       -2
340
14
 93
        0
 40
0.045
309
GRIDFORMAT_END
 95
        2
302
GRIDFORMAT
  1
GRIDFORMAT_BEGIN
 90
        0
 91
        1
 62
     0
 92
       -2
340
14
 93
        0
 40
0.045
309
GRIDFORMAT_END
 95
        4
302
GRIDFORMAT
  1
GRIDFORMAT_BEGIN
 90
        0
 91
        1
 62
     0
 92
       -2
340
14
 93
        0
 40
0.045
309
GRIDFORMAT_END
 95
        8
302
GRIDFORMAT
  1
GRIDFORMAT_BEGIN
 90
        0
 91
        1
 62
     0
 92
       -2
340
14
 93
        0
 40
0.045
309
GRIDFORMAT_END
 95
       16
302
GRIDFORMAT
  1
GRIDFORMAT_BEGIN
 90
        0
 91
        1
 62
     0
 92
       -2
340
14
 93
        0
 40
0.045
309
GRIDFORMAT_END
 95
       32
302
GRIDFORMAT
  1
GRIDFORMAT_BEGIN
 90
        0
 91
        1
 62
     0
 92
       -2
340
14
 93
        0
 40
0.045
309
GRIDFORMAT_END
309
TABLEFORMAT_END
  1
CELLSTYLE_BEGIN
 90
        2
 91
        1
300
_HEADER
309
CELLSTYLE_END
300
CELLSTYLE
  1
TABLEFORMAT_BEGIN
 90
        5
170
     1
 91
        0
 92
        0
 62
   257
 93
        1
300
CONTENTFORMAT
  1
CONTENTFORMAT_BEGIN
 90
        0
 91
        0
 92
        4
 93
        0
300

 40
0.0
140
1.0
 94
        2
 62
     0
340
11
144
4.5
309
CONTENTFORMAT_END
171
     1
301
MARGIN
  1
CELLMARGIN_BEGIN
 40
1.5
 40
1.5
 40
1.5
 40
1.5
 40
1.5
 40
1.5
309
CELLMARGIN_END
 94
        6
 95
        1
302
GRIDFORMAT
  1
GRIDFORMAT_BEGIN
 90
        0
 91
        1
 62
     0
 92
       -2
340
14
 93
        0
 40
0.045
309
GRIDFORMAT_END
 95
        2
302
GRIDFORMAT
  1
GRIDFORMAT_BEGIN
 90
        0
 91
        1
 62
     0
 92
       -2
340
14
 93
        0
 40
0.045
309
GRIDFORMAT_END
 95
        4
302
GRIDFORMAT
  1
GRIDFORMAT_BEGIN
 90
        0
 91
        1
 62
     0
 92
       -2
340
14
 93
        0
 40
0.045
309
GRIDFORMAT_END
 95
        8
302
GRIDFORMAT
  1
GRIDFORMAT_BEGIN
 90
        0
 91
        1
 62
     0
 92
       -2
340
14
 93
        0
 40
0.045
309
GRIDFORMAT_END
 95
       16
302
GRIDFORMAT
  1
GRIDFORMAT_BEGIN
 90
        0
 91
        1
 62
     0
 92
       -2
340
14
 93
        0
 40
0.045
309
GRIDFORMAT_END
 95
       32
302
GRIDFORMAT
  1
GRIDFORMAT_BEGIN
 90
        0
 91
        1
 62
     0
 92
       -2
340
14
 93
        0
 40
0.045
309
GRIDFORMAT_END
309
TABLEFORMAT_END
  1
CELLSTYLE_BEGIN
 90
        3
 91
        2
300
_DATA
309
CELLSTYLE_END
  0
ENDSEC
  0
EOF