0
SECTION
  2
HEADER
  9
$ACADVER
  1
AC1027
  9
$ACADMAINTVER
 70
     8
  9
$DWGCODEPAGE
  3
ANSI_1252
  9
$REQUIREDVERSIONS
160
                 0
  9
$COMMENTS
  1
File was created by Cadenas
  9
$CUSTOMPROPERTYTAG
  1
NN
  9
$CUSTOMPROPERTY
  1
Grip Tight Two-Bolt Pillow Block - Stainless Housing, Corrision Resistant Insert Metric Bore
  9
$CUSTOMPROPERTYTAG
  1
NT
  9
$CUSTOMPROPERTY
  1
GTEZ Normal Duty Stainless Steel Housed Pillow Blocks
  9
$CUSTOMPROPERTYTAG
  1
NB
  9
$CUSTOMPROPERTY
  1
 129267
  9
$CUSTOMPROPERTYTAG
  1
NBSYN
  9
$CUSTOMPROPERTY
  1
 $PN.$LUBE.
  9
$CUSTOMPROPERTYTAG
  1
LINA
  9
$CUSTOMPROPERTY
  1
 129267
  9
$CUSTOMPROPERTYTAG
  1
SERIES
  9
$CUSTOMPROPERTY
  1
206
  9
$CUSTOMPROPERTYTAG
  1
SS
  9
$CUSTOMPROPERTY
  1
30
  9
$CUSTOMPROPERTYTAG
  1
PN
  9
$CUSTOMPROPERTY
  1
129267
  9
$CUSTOMPROPERTYTAG
  1
DESCRIPTION
  9
$CUSTOMPROPERTY
  1
P2B-GTUEZ-30M-SHCR
  9
$CUSTOMPROPERTYTAG
  1
A
  9
$CUSTOMPROPERTY
  1
40.9
  9
$CUSTOMPROPERTYTAG
  1
B
  9
$CUSTOMPROPERTY
  1
158.8
  9
$CUSTOMPROPERTYTAG
  1
C
  9
$CUSTOMPROPERTY
  1
31.8
  9
$CUSTOMPROPERTYTAG
  1
DMIN
  9
$CUSTOMPROPERTY
  1
108.3
  9
$CUSTOMPROPERTYTAG
  1
DMAX
  9
$CUSTOMPROPERTY
  1
127.0
  9
$CUSTOMPROPERTYTAG
  1
F
  9
$CUSTOMPROPERTY
  1
M12
  9
$CUSTOMPROPERTYTAG
  1
G
  9
$CUSTOMPROPERTY
  1
23.8
  9
$CUSTOMPROPERTYTAG
  1
H
  9
$CUSTOMPROPERTY
  1
15.1
  9
$CUSTOMPROPERTYTAG
  1
J
  9
$CUSTOMPROPERTY
  1
79.8
  9
$CUSTOMPROPERTYTAG
  1
L
  9
$CUSTOMPROPERTY
  1
50.8
  9
$CUSTOMPROPERTYTAG
  1
M
  9
$CUSTOMPROPERTY
  1
42.9
  9
$CUSTOMPROPERTYTAG
  1
R
  9
$CUSTOMPROPERTY
  1
13.5
  9
$CUSTOMPROPERTYTAG
  1
S
  9
$CUSTOMPROPERTY
  1
27.4
  9
$CUSTOMPROPERTYTAG
  1
Z
  9
$CUSTOMPROPERTY
  1
26.2
  9
$CUSTOMPROPERTYTAG
  1
COMPANY
  9
$CUSTOMPROPERTY
  1
baldor
  9
$INSBASE
 10
0.0
 20
0.0
 30
0.0
  9
$EXTMIN
 10
1.000000000000000E+20
 20
1.000000000000000E+20
 30
1.000000000000000E+20
  9
$EXTMAX
 10
-1.000000000000000E+20
 20
-1.000000000000000E+20
 30
-1.000000000000000E+20
  9
$LIMMIN
 10
0.0
 20
0.0
  9
$LIMMAX
 10
420.0
 20
297.0
  9
$ORTHOMODE
 70
     0
  9
$REGENMODE
 70
     1
  9
$FILLMODE
 70
     1
  9
$QTEXTMODE
 70
     0
  9
$MIRRTEXT
 70
     1
  9
$LTSCALE
 40
1.0
  9
$ATTMODE
 70
     1
  9
$TEXTSIZE
 40
2.5
  9
$TRACEWID
 40
1.0
  9
$TEXTSTYLE
  7
Standard
  9
$CLAYER
  8
0
  9
$CELTYPE
  6
ByLayer
  9
$CECOLOR
 62
   256
  9
$CELTSCALE
 40
1.0
  9
$DISPSILH
 70
     0
  9
$DIMSCALE
 40
1.0
  9
$DIMASZ
 40
2.5
  9
$DIMEXO
 40
0.625
  9
$DIMDLI
 40
3.75
  9
$DIMRND
 40
0.0
  9
$DIMDLE
 40
0.0
  9
$DIMEXE
 40
1.25
  9
$DIMTP
 40
0.0
  9
$DIMTM
 40
0.0
  9
$DIMTXT
 40
2.5
  9
$DIMCEN
 40
2.5
  9
$DIMTSZ
 40
0.0
  9
$DIMTOL
 70
     0
  9
$DIMLIM
 70
     0
  9
$DIMTIH
 70
     0
  9
$DIMTOH
 70
     0
  9
$DIMSE1
 70
     0
  9
$DIMSE2
 70
     0
  9
$DIMTAD
 70
     1
  9
$DIMZIN
 70
     8
  9
$DIMBLK
  1

  9
$DIMASO
 70
     1
  9
$DIMSHO
 70
     1
  9
$DIMPOST
  1

  9
$DIMAPOST
  1

  9
$DIMALT
 70
     0
  9
$DIMALTD
 70
     3
  9
$DIMALTF
 40
0.03937007874016
  9
$DIMLFAC
 40
1.0
  9
$DIMTOFL
 70
     1
  9
$DIMTVP
 40
0.0
  9
$DIMTIX
 70
     0
  9
$DIMSOXD
 70
     0
  9
$DIMSAH
 70
     0
  9
$DIMBLK1
  1

  9
$DIMBLK2
  1

  9
$DIMSTYLE
  2
ISO-25
  9
$DIMCLRD
 70
     0
  9
$DIMCLRE
 70
     0
  9
$DIMCLRT
 70
     0
  9
$DIMTFAC
 40
1.0
  9
$DIMGAP
 40
0.625
  9
$DIMJUST
 70
     0
  9
$DIMSD1
 70
     0
  9
$DIMSD2
 70
     0
  9
$DIMTOLJ
 70
     0
  9
$DIMTZIN
 70
     8
  9
$DIMALTZ
 70
     0
  9
$DIMALTTZ
 70
     0
  9
$DIMUPT
 70
     0
  9
$DIMDEC
 70
     2
  9
$DIMTDEC
 70
     2
  9
$DIMALTU
 70
     2
  9
$DIMALTTD
 70
     3
  9
$DIMTXSTY
  7
Standard
  9
$DIMAUNIT
 70
     0
  9
$DIMADEC
 70
     0
  9
$DIMALTRND
 40
0.0
  9
$DIMAZIN
 70
     0
  9
$DIMDSEP
 70
    44
  9
$DIMATFIT
 70
     3
  9
$DIMFRAC
 70
     0
  9
$DIMLDRBLK
  1

  9
$DIMLUNIT
 70
     2
  9
$DIMLWD
 70
    -2
  9
$DIMLWE
 70
    -2
  9
$DIMTMOVE
 70
     0
  9
$DIMFXL
 40
1.0
  9
$DIMFXLON
 70
     0
  9
$DIMJOGANG
 40
0.7853981633974483
  9
$DIMTFILL
 70
     0
  9
$DIMTFILLCLR
 70
     0
  9
$DIMARCSYM
 70
     0
  9
$DIMLTYPE
  6

  9
$DIMLTEX1
  6

  9
$DIMLTEX2
  6

  9
$DIMTXTDIRECTION
 70
     0
  9
$LUNITS
 70
     2
  9
$LUPREC
 70
     4
  9
$SKETCHINC
 40
1.0
  9
$FILLETRAD
 40
10.0
  9
$AUNITS
 70
     0
  9
$AUPREC
 70
     0
  9
$MENU
  1
.
  9
$ELEVATION
 40
0.0
  9
$PELEVATION
 40
0.0
  9
$THICKNESS
 40
0.0
  9
$LIMCHECK
 70
     0
  9
$CHAMFERA
 40
0.0
  9
$CHAMFERB
 40
0.0
  9
$CHAMFERC
 40
0.0
  9
$CHAMFERD
 40
0.0
  9
$SKPOLY
 70
     0
  9
$TDCREATE
 40
2458168.992025486
  9
$TDUCREATE
 40
2458168.950358819
  9
$TDUPDATE
 40
2458168.99202566
  9
$TDUUPDATE
 40
2458168.950358993
  9
$TDINDWG
 40
0.0000000116
  9
$TDUSRTIMER
 40
0.0000000116
  9
$USRTIMER
 70
     1
  9
$ANGBASE
 50
0.0
  9
$ANGDIR
 70
     0
  9
$PDMODE
 70
     0
  9
$PDSIZE
 40
0.0
  9
$PLINEWID
 40
0.0
  9
$SPLFRAME
 70
     0
  9
$SPLINETYPE
 70
     6
  9
$SPLINESEGS
 70
     8
  9
$HANDSEED
  5
1F8
  9
$SURFTAB1
 70
     6
  9
$SURFTAB2
 70
     6
  9
$SURFTYPE
 70
     6
  9
$SURFU
 70
     6
  9
$SURFV
 70
     6
  9
$UCSBASE
  2

  9
$UCSNAME
  2

  9
$UCSORG
 10
0.0
 20
0.0
 30
0.0
  9
$UCSXDIR
 10
1.0
 20
0.0
 30
0.0
  9
$UCSYDIR
 10
0.0
 20
1.0
 30
0.0
  9
$UCSORTHOREF
  2

  9
$UCSORTHOVIEW
 70
     0
  9
$UCSORGTOP
 10
0.0
 20
0.0
 30
0.0
  9
$UCSORGBOTTOM
 10
0.0
 20
0.0
 30
0.0
  9
$UCSORGLEFT
 10
0.0
 20
0.0
 30
0.0
  9
$UCSORGRIGHT
 10
0.0
 20
0.0
 30
0.0
  9
$UCSORGFRONT
 10
0.0
 20
0.0
 30
0.0
  9
$UCSORGBACK
 10
0.0
 20
0.0
 30
0.0
  9
$PUCSBASE
  2

  9
$PUCSNAME
  2

  9
$PUCSORG
 10
0.0
 20
0.0
 30
0.0
  9
$PUCSXDIR
 10
1.0
 20
0.0
 30
0.0
  9
$PUCSYDIR
 10
0.0
 20
1.0
 30
0.0
  9
$PUCSORTHOREF
  2

  9
$PUCSORTHOVIEW
 70
     0
  9
$PUCSORGTOP
 10
0.0
 20
0.0
 30
0.0
  9
$PUCSORGBOTTOM
 10
0.0
 20
0.0
 30
0.0
  9
$PUCSORGLEFT
 10
0.0
 20
0.0
 30
0.0
  9
$PUCSORGRIGHT
 10
0.0
 20
0.0
 30
0.0
  9
$PUCSORGFRONT
 10
0.0
 20
0.0
 30
0.0
  9
$PUCSORGBACK
 10
0.0
 20
0.0
 30
0.0
  9
$USERI1
 70
     0
  9
$USERI2
 70
     0
  9
$USERI3
 70
     0
  9
$USERI4
 70
     0
  9
$USERI5
 70
     0
  9
$USERR1
 40
0.0
  9
$USERR2
 40
0.0
  9
$USERR3
 40
0.0
  9
$USERR4
 40
0.0
  9
$USERR5
 40
0.0
  9
$WORLDVIEW
 70
     1
  9
$SHADEDGE
 70
     3
  9
$SHADEDIF
 70
    70
  9
$TILEMODE
 70
     1
  9
$MAXACTVP
 70
    64
  9
$PINSBASE
 10
0.0
 20
0.0
 30
0.0
  9
$PLIMCHECK
 70
     0
  9
$PEXTMIN
 10
1.000000000000000E+20
 20
1.000000000000000E+20
 30
1.000000000000000E+20
  9
$PEXTMAX
 10
-1.000000000000000E+20
 20
-1.000000000000000E+20
 30
-1.000000000000000E+20
  9
$PLIMMIN
 10
0.0
 20
0.0
  9
$PLIMMAX
 10
420.0
 20
297.0
  9
$UNITMODE
 70
     0
  9
$VISRETAIN
 70
     1
  9
$PLINEGEN
 70
     0
  9
$PSLTSCALE
 70
     1
  9
$TREEDEPTH
 70
  3020
  9
$CMLSTYLE
  2
Standard
  9
$CMLJUST
 70
     0
  9
$CMLSCALE
 40
20.0
  9
$PROXYGRAPHICS
 70
     1
  9
$MEASUREMENT
 70
     1
  9
$CELWEIGHT
370
    -1
  9
$ENDCAPS
280
     0
  9
$JOINSTYLE
280
     0
  9
$LWDISPLAY
290
     0
  9
$INSUNITS
 70
     4
  9
$HYPERLINKBASE
  1

  9
$STYLESHEET
  1

  9
$XEDIT
290
     1
  9
$CEPSNTYPE
380
     0
  9
$PSTYLEMODE
290
     1
  9
$FINGERPRINTGUID
  2
{6A6C9513-E11E-4D16-9A37-2FE741485774}
  9
$VERSIONGUID
  2
{FAEB1C32-E019-11D5-929B-00C0DF256EC4}
  9
$EXTNAMES
290
     1
  9
$PSVPSCALE
 40
0.0
  9
$OLESTARTUP
290
     0
  9
$SORTENTS
280
   127
  9
$INDEXCTL
280
     0
  9
$HIDETEXT
280
     1
  9
$XCLIPFRAME
280
     2
  9
$HALOGAP
280
     0
  9
$OBSCOLOR
 70
   257
  9
$OBSLTYPE
280
     0
  9
$INTERSECTIONDISPLAY
280
     0
  9
$INTERSECTIONCOLOR
 70
   257
  9
$DIMASSOC
280
     2
  9
$PROJECTNAME
  1

  9
$CAMERADISPLAY
290
     0
  9
$LENSLENGTH
 40
50.0
  9
$CAMERAHEIGHT
 40
0.0
  9
$STEPSPERSEC
 40
2.0
  9
$STEPSIZE
 40
6.0
  9
$3DDWFPREC
 40
2.0
  9
$PSOLWIDTH
 40
5.0
  9
$PSOLHEIGHT
 40
80.0
  9
$LOFTANG1
 40
1.570796326794897
  9
$LOFTANG2
 40
1.570796326794897
  9
$LOFTMAG1
 40
0.0
  9
$LOFTMAG2
 40
0.0
  9
$LOFTPARAM
 70
     7
  9
$LOFTNORMALS
280
     1
  9
$LATITUDE
 40
37.795
  9
$LONGITUDE
 40
-122.394
  9
$NORTHDIRECTION
 40
0.0
  9
$TIMEZONE
 70
 -8000
  9
$LIGHTGLYPHDISPLAY
280
     1
  9
$TILEMODELIGHTSYNCH
280
     1
  9
$CMATERIAL
347
44
  9
$SOLIDHIST
280
     0
  9
$SHOWHIST
280
     1
  9
$DWFFRAME
280
     2
  9
$DGNFRAME
280
     2
  9
$REALWORLDSCALE
290
     1
  9
$INTERFERECOLOR
 62
   256
  9
$CSHADOW
280
     0
  9
$SHADOWPLANELOCATION
 40
0.0
  0
ENDSEC
  0
SECTION
  2
CLASSES
  0
CLASS
  1
ACDBDICTIONARYWDFLT
  2
AcDbDictionaryWithDefault
  3
ObjectDBX Classes
 90
        0
 91
        4
280
     0
281
     0
  0
CLASS
  1
VISUALSTYLE
  2
AcDbVisualStyle
  3
ObjectDBX Classes
 90
     4095
 91
        4
280
     0
281
     0
  0
CLASS
  1
MATERIAL
  2
AcDbMaterial
  3
ObjectDBX Classes
 90
     1153
 91
        4
280
     0
281
     0
  0
CLASS
  1
SCALE
  2
AcDbScale
  3
ObjectDBX Classes
 90
     1153
 91
        4
280
     0
281
     0
  0
CLASS
  1
TABLESTYLE
  2
AcDbTableStyle
  3
ObjectDBX Classes
 90
     4095
 91
        4
280
     0
281
     0
  0
CLASS
  1
MLEADERSTYLE
  2
AcDbMLeaderStyle
  3
ACDB_MLEADERSTYLE_CLASS
 90
     4095
 91
        4
280
     0
281
     0
  0
CLASS
  1
SUN
  2
AcDbSun
  3
SCENEOE
 90
     1153
 91
        4
280
     0
281
     0
  0
CLASS
  1
DICTIONARYVAR
  2
AcDbDictionaryVar
  3
ObjectDBX Classes
 90
        0
 91
        4
280
     0
281
     0
  0
CLASS
  1
CELLSTYLEMAP
  2
AcDbCellStyleMap
  3
ObjectDBX Classes
 90
     1152
 91
        4
280
     0
281
     0
  0
ENDSEC
  0
SECTION
  2
TABLES
  0
TABLE
  2
VPORT
  5
8
330
0
100
AcDbSymbolTable
 70
     1
  0
VPORT
  5
29
330
8
100
AcDbSymbolTableRecord
100
AcDbViewportTableRecord
  2
*Active
 70
     0
 10
0.0
 20
0.0
 11
1.0
 21
1.0
 12
0.0
 22
-3.0
 13
0.0
 23
0.0
 14
10.0
 24
10.0
 15
10.0
 25
10.0
 16
0.0
 26
0.0
 36
1.0
 17
0.0
 27
0.0
 37
0.0
 40
81.39600000000002
 41
1.989974937343359
 42
50.0
 43
0.0
 44
0.0
 50
0.0
 51
0.0
 71
     0
 72
   100
 73
     1
 74
     3
 75
     0
 76
     0
 77
     0
 78
     0
281
     0
 65
     1
110
0.0
120
0.0
130
0.0
111
1.0
121
0.0
131
0.0
112
0.0
122
1.0
132
0.0
 79
     0
146
0.0
348
2F
 60
     3
 61
     5
292
     1
282
     1
141
0.0
142
0.0
 63
   250
361
6D
  0
ENDTAB
  0
TABLE
  2
LTYPE
  5
5
330
0
100
AcDbSymbolTable
 70
     3
  0
LTYPE
  5
14
330
5
100
AcDbSymbolTableRecord
100
AcDbLinetypeTableRecord
  2
ByBlock
 70
     0
  3

 72
    65
 73
     0
 40
0.0
  0
LTYPE
  5
15
330
5
100
AcDbSymbolTableRecord
100
AcDbLinetypeTableRecord
  2
ByLayer
 70
     0
  3

 72
    65
 73
     0
 40
0.0
  0
LTYPE
  5
16
330
5
100
AcDbSymbolTableRecord
100
AcDbLinetypeTableRecord
  2
Continuous
 70
     0
  3
Solid line
 72
    65
 73
     0
 40
0.0
  0
LTYPE
  5
A1
330
5
100
AcDbSymbolTableRecord
100
AcDbLinetypeTableRecord
  2
Dashed
 70
     0
  3

 72
    65
 73
     2
 40
2.0
 49
1.0
 74
     0
 49
-1.0
 74
     0
  0
LTYPE
  5
AA
330
5
100
AcDbSymbolTableRecord
100
AcDbLinetypeTableRecord
  2
Center
 70
     0
  3

 72
    65
 73
     4
 40
1.5
 49
0.45
 74
     0
 49
-0.5
 74
     0
 49
0.05
 74
     0
 49
-0.5
 74
     0
  0
ENDTAB
  0
TABLE
  2
LAYER
  5
2
330
0
100
AcDbSymbolTable
 70
     7
  0
LAYER
  5
10
330
2
100
AcDbSymbolTableRecord
100
AcDbLayerTableRecord
  2
0
 70
     0
 62
     7
  6
Continuous
370
    -3
390
F
347
46
348
0
  0
LAYER
  5
72
330
2
100
AcDbSymbolTableRecord
100
AcDbLayerTableRecord
  2
AM_6
 70
     0
 62
    -2
  6
Continuous
370
    35
390
F
347
46
348
0
  0
LAYER
  5
A2
330
2
100
AcDbSymbolTableRecord
100
AcDbLayerTableRecord
  2
AM_9
 70
     0
 62
     6
  6
Dashed
370
    25
390
F
347
46
348
0
  0
LAYER
  5
AB
330
2
100
AcDbSymbolTableRecord
100
AcDbLayerTableRecord
  2
AM_7
 70
     0
 62
     7
  6
Center
370
    25
390
F
347
46
348
0
  0
LAYER
  5
AE
330
2
100
AcDbSymbolTableRecord
100
AcDbLayerTableRecord
  2
AM_4
 70
     0
 62
     3
  6
Continuous
370
    25
390
F
347
46
348
0
  0
LAYER
  5
E0
330
2
100
AcDbSymbolTableRecord
100
AcDbLayerTableRecord
  2
AM_5
 70
     0
 62
     3
  6
Continuous
370
    25
390
F
347
46
348
0
  0
LAYER
  5
1EB
330
2
100
AcDbSymbolTableRecord
100
AcDbLayerTableRecord
  2
ConnectionPoints
 70
     0
 62
     7
  6
Continuous
370
    50
390
F
347
46
348
0
  0
ENDTAB
  0
TABLE
  2
STYLE
  5
3
330
0
100
AcDbSymbolTable
 70
     1
  0
STYLE
  5
11
330
3
100
AcDbSymbolTableRecord
100
AcDbTextStyleTableRecord
  2
Standard
 70
     0
 40
0.0
 41
1.0
 50
0.0
 71
     0
 42
2.5
  3
txt
  4

  0
ENDTAB
  0
TABLE
  2
VIEW
  5
6
330
0
100
AcDbSymbolTable
 70
     0
  0
ENDTAB
  0
TABLE
  2
UCS
  5
7
330
0
100
AcDbSymbolTable
 70
     0
  0
ENDTAB
  0
TABLE
  2
APPID
  5
9
330
0
100
AcDbSymbolTable
 70
     1
  0
APPID
  5
12
330
9
100
AcDbSymbolTableRecord
100
AcDbRegAppTableRecord
  2
ACAD
 70
     0
  0
ENDTAB
  0
TABLE
  2
DIMSTYLE
  5
A
330
0
100
AcDbSymbolTable
 70
     1
100
AcDbDimStyleTable
  0
DIMSTYLE
105
27
330
A
100
AcDbSymbolTableRecord
100
AcDbDimStyleTableRecord
  2
ISO-25
 70
     0
 41
2.5
 42
0.625
 43
3.75
 44
1.25
 73
     0
 74
     0
 77
     1
 78
     8
140
2.5
141
2.5
143
0.03937007874016
147
0.625
171
     3
172
     1
178
     0
271
     2
272
     2
274
     3
278
    44
283
     0
284
     8
340
11
  0
ENDTAB
  0
TABLE
  2
BLOCK_RECORD
  5
1
330
0
100
AcDbSymbolTable
 70
     5
  0
BLOCK_RECORD
  5
1F
330
1
100
AcDbSymbolTableRecord
100
AcDbBlockTableRecord
  2
*Model_Space
340
22
 70
     0
280
     1
281
     0
  0
BLOCK_RECORD
  5
1B
330
1
100
AcDbSymbolTableRecord
100
AcDbBlockTableRecord
  2
*Paper_Space
340
1E
 70
     0
280
     1
281
     0
  0
BLOCK_RECORD
  5
23
330
1
100
AcDbSymbolTableRecord
100
AcDbBlockTableRecord
  2
*Paper_Space0
340
26
 70
     0
280
     1
281
     0
  0
BLOCK_RECORD
  5
6E
330
1
100
AcDbSymbolTableRecord
100
AcDbBlockTableRecord
  2
1__129267_0
340
0
102
{BLKREFS
331
6F
102
}
 70
     0
280
     1
281
     0
  0
BLOCK_RECORD
  5
8B
330
1
100
AcDbSymbolTableRecord
100
AcDbBlockTableRecord
  2
2_INS_GT_06_CR_0_in__129267_0
340
0
102
{BLKREFS
331
8C
102
}
 70
     0
280
     1
281
     0
  0
BLOCK_RECORD
  5
B6
330
1
100
AcDbSymbolTableRecord
100
AcDbBlockTableRecord
  2
3_129982_0_in__129267_0
340
0
102
{BLKREFS
331
B7
102
}
 70
     0
280
     1
281
     0
  0
BLOCK_RECORD
  5
F9
330
1
100
AcDbSymbolTableRecord
100
AcDbBlockTableRecord
  2
4_P2B_GTUEZ_06_SHCR_0_in__129267_0
340
0
102
{BLKREFS
331
FA
102
}
 70
     0
280
     1
281
     0
  0
ENDTAB
  0
ENDSEC
  0
SECTION
  2
BLOCKS
  0
BLOCK
  5
20
330
1F
100
AcDbEntity
  8
0
100
AcDbBlockBegin
  2
*Model_Space
 70
     0
 10
0.0
 20
0.0
 30
0.0
  3
*Model_Space
  1

  0
ENDBLK
  5
21
330
1F
100
AcDbEntity
  8
0
100
AcDbBlockEnd
  0
BLOCK
  5
1C
330
1B
100
AcDbEntity
 67
     1
  8
0
100
AcDbBlockBegin
  2
*Paper_Space
 70
     0
 10
0.0
 20
0.0
 30
0.0
  3
*Paper_Space
  1

  0
ENDBLK
  5
1D
330
1B
100
AcDbEntity
 67
     1
  8
0
100
AcDbBlockEnd
  0
BLOCK
  5
24
330
23
100
AcDbEntity
  8
0
100
AcDbBlockBegin
  2
*Paper_Space0
 70
     0
 10
0.0
 20
0.0
 30
0.0
  3
*Paper_Space0
  1

  0
ENDBLK
  5
25
330
23
100
AcDbEntity
  8
0
100
AcDbBlockEnd
  0
BLOCK
  5
70
330
6E
100
AcDbEntity
  8
0
100
AcDbBlockBegin
  2
1__129267_0
 70
     2
 10
0.0
 20
0.0
 30
0.0
  3
1__129267_0
  1

  0
ATTDEF
  5
73
330
6E
100
AcDbEntity
  8
AM_6
100
AcDbText
 10
84.4
 20
36.90000000000001
 30
0.0
 40
0.5
  1
Grip Tight Two-Bolt Pillow Block - Stainless Housing, Corrision Resistant Insert Metric Bore
100
AcDbAttributeDefinition
  3

  2
NN
 70
     8
280
     0
  0
ATTDEF
  5
74
330
6E
100
AcDbEntity
  8
AM_6
100
AcDbText
 10
84.4
 20
36.40000000000001
 30
0.0
 40
0.5
  1
GTEZ Normal Duty Stainless Steel Housed Pillow Blocks
100
AcDbAttributeDefinition
  3

  2
NT
 70
     8
280
     0
  0
ATTDEF
  5
75
330
6E
100
AcDbEntity
  8
AM_6
100
AcDbText
 10
84.4
 20
35.90000000000001
 30
0.0
 40
0.5
  1
 129267
100
AcDbAttributeDefinition
  3

  2
NB
 70
     8
280
     0
  0
ATTDEF
  5
76
330
6E
100
AcDbEntity
  8
AM_6
100
AcDbText
 10
84.4
 20
35.40000000000001
 30
0.0
 40
0.5
  1
 $PN.$LUBE.
100
AcDbAttributeDefinition
  3

  2
NBSYN
 70
     8
280
     0
  0
ATTDEF
  5
77
330
6E
100
AcDbEntity
  8
AM_6
100
AcDbText
 10
84.4
 20
34.90000000000001
 30
0.0
 40
0.5
  1
 129267
100
AcDbAttributeDefinition
  3

  2
LINA
 70
     8
280
     0
  0
ATTDEF
  5
78
330
6E
100
AcDbEntity
  8
AM_6
100
AcDbText
 10
84.4
 20
34.40000000000001
 30
0.0
 40
0.5
  1
206
100
AcDbAttributeDefinition
  3

  2
SERIES
 70
     8
280
     0
  0
ATTDEF
  5
79
330
6E
100
AcDbEntity
  8
AM_6
100
AcDbText
 10
84.4
 20
33.90000000000001
 30
0.0
 40
0.5
  1
30
100
AcDbAttributeDefinition
  3

  2
SS
 70
     8
280
     0
  0
ATTDEF
  5
7A
330
6E
100
AcDbEntity
  8
AM_6
100
AcDbText
 10
84.4
 20
33.40000000000001
 30
0.0
 40
0.5
  1
129267
100
AcDbAttributeDefinition
  3

  2
PN
 70
     8
280
     0
  0
ATTDEF
  5
7B
330
6E
100
AcDbEntity
  8
AM_6
100
AcDbText
 10
84.4
 20
32.90000000000001
 30
0.0
 40
0.5
  1
P2B-GTUEZ-30M-SHCR
100
AcDbAttributeDefinition
  3

  2
DESCRIPTION
 70
     8
280
     0
  0
ATTDEF
  5
7C
330
6E
100
AcDbEntity
  8
AM_6
100
AcDbText
 10
84.4
 20
32.40000000000001
 30
0.0
 40
0.5
  1
40.9
100
AcDbAttributeDefinition
  3

  2
A
 70
     8
280
     0
  0
ATTDEF
  5
7D
330
6E
100
AcDbEntity
  8
AM_6
100
AcDbText
 10
84.4
 20
31.90000000000001
 30
0.0
 40
0.5
  1
158.8
100
AcDbAttributeDefinition
  3

  2
B
 70
     8
280
     0
  0
ATTDEF
  5
7E
330
6E
100
AcDbEntity
  8
AM_6
100
AcDbText
 10
84.4
 20
31.40000000000001
 30
0.0
 40
0.5
  1
31.8
100
AcDbAttributeDefinition
  3

  2
C
 70
     8
280
     0
  0
ATTDEF
  5
7F
330
6E
100
AcDbEntity
  8
AM_6
100
AcDbText
 10
84.4
 20
30.90000000000001
 30
0.0
 40
0.5
  1
108.3
100
AcDbAttributeDefinition
  3

  2
DMIN
 70
     8
280
     0
  0
ATTDEF
  5
80
330
6E
100
AcDbEntity
  8
AM_6
100
AcDbText
 10
84.4
 20
30.40000000000001
 30
0.0
 40
0.5
  1
127.0
100
AcDbAttributeDefinition
  3

  2
DMAX
 70
     8
280
     0
  0
ATTDEF
  5
81
330
6E
100
AcDbEntity
  8
AM_6
100
AcDbText
 10
84.4
 20
29.90000000000001
 30
0.0
 40
0.5
  1
M12
100
AcDbAttributeDefinition
  3

  2
F
 70
     8
280
     0
  0
ATTDEF
  5
82
330
6E
100
AcDbEntity
  8
AM_6
100
AcDbText
 10
84.4
 20
29.40000000000001
 30
0.0
 40
0.5
  1
23.8
100
AcDbAttributeDefinition
  3

  2
G
 70
     8
280
     0
  0
ATTDEF
  5
83
330
6E
100
AcDbEntity
  8
AM_6
100
AcDbText
 10
84.4
 20
28.90000000000001
 30
0.0
 40
0.5
  1
15.1
100
AcDbAttributeDefinition
  3

  2
H
 70
     8
280
     0
  0
ATTDEF
  5
84
330
6E
100
AcDbEntity
  8
AM_6
100
AcDbText
 10
84.4
 20
28.40000000000001
 30
0.0
 40
0.5
  1
79.8
100
AcDbAttributeDefinition
  3

  2
J
 70
     8
280
     0
  0
ATTDEF
  5
85
330
6E
100
AcDbEntity
  8
AM_6
100
AcDbText
 10
84.4
 20
27.90000000000001
 30
0.0
 40
0.5
  1
50.8
100
AcDbAttributeDefinition
  3

  2
L
 70
     8
280
     0
  0
ATTDEF
  5
86
330
6E
100
AcDbEntity
  8
AM_6
100
AcDbText
 10
84.4
 20
27.40000000000001
 30
0.0
 40
0.5
  1
42.9
100
AcDbAttributeDefinition
  3

  2
M
 70
     8
280
     0
  0
ATTDEF
  5
87
330
6E
100
AcDbEntity
  8
AM_6
100
AcDbText
 10
84.4
 20
26.90000000000001
 30
0.0
 40
0.5
  1
13.5
100
AcDbAttributeDefinition
  3

  2
R
 70
     8
280
     0
  0
ATTDEF
  5
88
330
6E
100
AcDbEntity
  8
AM_6
100
AcDbText
 10
84.4
 20
26.40000000000001
 30
0.0
 40
0.5
  1
27.4
100
AcDbAttributeDefinition
  3

  2
S
 70
     8
280
     0
  0
ATTDEF
  5
89
330
6E
100
AcDbEntity
  8
AM_6
100
AcDbText
 10
84.4
 20
25.90000000000001
 30
0.0
 40
0.5
  1
26.2
100
AcDbAttributeDefinition
  3

  2
Z
 70
     8
280
     0
  0
ATTDEF
  5
8A
330
6E
100
AcDbEntity
  8
AM_6
100
AcDbText
 10
84.4
 20
25.40000000000001
 30
0.0
 40
0.5
  1
baldor
100
AcDbAttributeDefinition
  3

  2
COMPANY
 70
     8
280
     0
  0
INSERT
  5
8C
330
6E
100
AcDbEntity
  8
0
100
AcDbBlockReference
  2
2_INS_GT_06_CR_0_in__129267_0
 10
0.0
 20
0.0
 30
0.0
  0
INSERT
  5
B7
330
6E
100
AcDbEntity
  8
0
100
AcDbBlockReference
  2
3_129982_0_in__129267_0
 10
0.0
 20
0.0
 30
0.0
  0
INSERT
  5
FA
330
6E
100
AcDbEntity
  8
0
100
AcDbBlockReference
  2
4_P2B_GTUEZ_06_SHCR_0_in__129267_0
 10
0.0
 20
0.0
 30
0.0
  0
ENDBLK
  5
71
330
6E
100
AcDbEntity
  8
0
100
AcDbBlockEnd
  0
BLOCK
  5
8D
330
8B
100
AcDbEntity
  8
0
100
AcDbBlockBegin
  2
2_INS_GT_06_CR_0_in__129267_0
 70
     2
 10
0.0
 20
0.0
 30
0.0
  3
2_INS_GT_06_CR_0_in__129267_0
  1

  0
ATTDEF
  5
8F
330
8B
100
AcDbEntity
  8
AM_6
100
AcDbText
 10
37.24286042579437
 20
32.24286042579437
 30
0.0
 40
0.5
  1
INS-GT-CR-M
100
AcDbAttributeDefinition
  3

  2
NN
 70
     8
280
     0
  0
ATTDEF
  5
90
330
8B
100
AcDbEntity
  8
AM_6
100
AcDbText
 10
37.24286042579437
 20
31.74286042579437
 30
0.0
 40
0.5
  1
GT Normal Duty Corrosion Resistant Bearing Inserts
100
AcDbAttributeDefinition
  3

  2
NT
 70
     8
280
     0
  0
ATTDEF
  5
91
330
8B
100
AcDbEntity
  8
AM_6
100
AcDbText
 10
37.24286042579437
 20
31.24286042579437
 30
0.0
 40
0.5
  1
INS-GT-06-CR
100
AcDbAttributeDefinition
  3

  2
NB
 70
     8
280
     0
  0
ATTDEF
  5
92
330
8B
100
AcDbEntity
  8
AM_6
100
AcDbText
 10
37.24286042579437
 20
30.74286042579437
 30
0.0
 40
0.5
  1
$PN.
100
AcDbAttributeDefinition
  3

  2
NBSYN
 70
     8
280
     0
  0
ATTDEF
  5
93
330
8B
100
AcDbEntity
  8
AM_6
100
AcDbText
 10
37.24286042579437
 20
30.24286042579437
 30
0.0
 40
0.5
  1
INS-GT-06-CR
100
AcDbAttributeDefinition
  3

  2
LINA
 70
     8
280
     0
  0
ATTDEF
  5
94
330
8B
100
AcDbEntity
  8
AM_6
100
AcDbText
 10
37.24286042579437
 20
29.74286042579437
 30
0.0
 40
0.5
  1
206
100
AcDbAttributeDefinition
  3

  2
SERIES
 70
     8
280
     0
  0
ATTDEF
  5
95
330
8B
100
AcDbEntity
  8
AM_6
100
AcDbText
 10
37.24286042579437
 20
29.24286042579437
 30
0.0
 40
0.5
  1
INS-GT-06-CR
100
AcDbAttributeDefinition
  3

  2
PN
 70
     8
280
     0
  0
ATTDEF
  5
96
330
8B
100
AcDbEntity
  8
AM_6
100
AcDbText
 10
37.24286042579437
 20
28.74286042579437
 30
0.0
 40
0.5
  1
INS-GT-06-CR
100
AcDbAttributeDefinition
  3

  2
DESCRIPTION
 70
     8
280
     0
  0
ATTDEF
  5
97
330
8B
100
AcDbEntity
  8
AM_6
100
AcDbText
 10
37.24286042579437
 20
28.24286042579437
 30
0.0
 40
0.5
  1
40.9
100
AcDbAttributeDefinition
  3

  2
A
 70
     8
280
     0
  0
ATTDEF
  5
98
330
8B
100
AcDbEntity
  8
AM_6
100
AcDbText
 10
37.24286042579437
 20
27.74286042579437
 30
0.0
 40
0.5
  1
18.0
100
AcDbAttributeDefinition
  3

  2
C
 70
     8
280
     0
  0
ATTDEF
  5
99
330
8B
100
AcDbEntity
  8
AM_6
100
AcDbText
 10
37.24286042579437
 20
27.24286042579437
 30
0.0
 40
0.5
  1
62.0
100
AcDbAttributeDefinition
  3

  2
D
 70
     8
280
     0
  0
ATTDEF
  5
9A
330
8B
100
AcDbEntity
  8
AM_6
100
AcDbText
 10
37.24286042579437
 20
26.74286042579437
 30
0.0
 40
0.5
  1
4.8
100
AcDbAttributeDefinition
  3

  2
J
 70
     8
280
     0
  0
ATTDEF
  5
9B
330
8B
100
AcDbEntity
  8
AM_6
100
AcDbText
 10
37.24286042579437
 20
26.24286042579437
 30
0.0
 40
0.5
  1
50.8
100
AcDbAttributeDefinition
  3

  2
L
 70
     8
280
     0
  0
ATTDEF
  5
9C
330
8B
100
AcDbEntity
  8
AM_6
100
AcDbText
 10
37.24286042579437
 20
25.74286042579437
 30
0.0
 40
0.5
  1
10 - 32 x 1/4
100
AcDbAttributeDefinition
  3

  2
N
 70
     8
280
     0
  0
ATTDEF
  5
9D
330
8B
100
AcDbEntity
  8
AM_6
100
AcDbText
 10
37.24286042579437
 20
25.24286042579437
 30
0.0
 40
0.5
  1
13.5
100
AcDbAttributeDefinition
  3

  2
W
 70
     8
280
     0
  0
ATTDEF
  5
9E
330
8B
100
AcDbEntity
  8
AM_6
100
AcDbText
 10
37.24286042579437
 20
24.74286042579437
 30
0.0
 40
0.5
  1
26.2
100
AcDbAttributeDefinition
  3

  2
X
 70
     8
280
     0
  0
ATTDEF
  5
9F
330
8B
100
AcDbEntity
  8
AM_6
100
AcDbText
 10
37.24286042579437
 20
24.24286042579437
 30
0.0
 40
0.5
  1
27.4
100
AcDbAttributeDefinition
  3

  2
Y
 70
     8
280
     0
  0
ATTDEF
  5
A0
330
8B
100
AcDbEntity
  8
AM_6
100
AcDbText
 10
37.24286042579437
 20
23.74286042579437
 30
0.0
 40
0.5
  1
baldor
100
AcDbAttributeDefinition
  3

  2
COMPANY
 70
     8
280
     0
  0
CIRCLE
  5
A3
330
8B
100
AcDbEntity
  8
AM_9
100
AcDbCircle
 10
0.0
 20
0.0
 30
0.0
 40
19.7165902587875
  0
ARC
  5
A4
330
8B
100
AcDbEntity
  8
AM_9
100
AcDbCircle
 10
0.0000000000000036
 20
-0.0000000000000213
 30
0.0
 40
30.99999999999999
100
AcDbArc
 50
211.3766076182317
 51
328.6233923817682
  0
CIRCLE
  5
A5
330
8B
100
AcDbEntity
  8
AM_9
100
AcDbCircle
 10
0.0
 20
0.0
 30
0.0
 40
29.2
  0
CIRCLE
  5
A6
330
8B
100
AcDbEntity
  8
AM_9
100
AcDbCircle
 10
0.0
 20
0.0
 30
0.0
 40
30.04737846609265
  0
CIRCLE
  5
A7
330
8B
100
AcDbEntity
  8
AM_9
100
AcDbCircle
 10
0.0
 20
0.0
 30
0.0
 40
20.76349206349206
  0
CIRCLE
  5
A8
330
8B
100
AcDbEntity
  8
AM_9
100
AcDbCircle
 10
0.0
 20
0.0
 30
0.0
 40
21.85777777777778
  0
CIRCLE
  5
A9
330
8B
100
AcDbEntity
  8
AM_9
100
AcDbCircle
 10
0.0
 20
0.0
 30
0.0
 40
22.57777777777778
  0
LINE
  5
AC
330
8B
100
AcDbEntity
  8
AM_7
100
AcDbLine
 10
-32.24286042579437
 20
0.0
 30
0.0
 11
32.24286042579437
 21
0.0
 31
0.0
  0
LINE
  5
AD
330
8B
100
AcDbEntity
  8
AM_7
100
AcDbLine
 10
0.0
 20
-32.24286042579437
 30
0.0
 11
0.0
 21
32.24286042579437
 31
0.0
  0
CIRCLE
  5
AF
330
8B
100
AcDbEntity
  8
AM_4
100
AcDbCircle
 10
0.0
 20
0.0
 30
0.0
 40
30.70748611980416
  0
CIRCLE
  5
B0
330
8B
100
AcDbEntity
  8
AM_4
100
AcDbCircle
 10
0.0
 20
0.0
 30
0.0
 40
30.52973615199332
  0
CIRCLE
  5
B1
330
8B
100
AcDbEntity
  8
AM_4
100
AcDbCircle
 10
0.0
 20
0.0
 30
0.0
 40
30.22737846609265
  0
CIRCLE
  5
B2
330
8B
100
AcDbEntity
  8
AM_4
100
AcDbCircle
 10
0.0
 20
0.0
 30
0.0
 40
30.22138915537779
  0
CIRCLE
  5
B3
330
8B
100
AcDbEntity
  8
AM_4
100
AcDbCircle
 10
0.0
 20
0.0
 30
0.0
 40
28.71454475000586
  0
CIRCLE
  5
B4
330
8B
100
AcDbEntity
  8
AM_4
100
AcDbCircle
 10
0.0
 20
0.0
 30
0.0
 40
29.38484775794256
  0
ARC
  5
B5
330
8B
100
AcDbEntity
  8
AM_4
100
AcDbCircle
 10
-0.0000000000000657
 20
-0.0000000000015419
 30
0.0
 40
18.94920634920789
100
AcDbArc
 50
86.25946995151061
 51
93.78230977753348
  0
ENDBLK
  5
8E
330
8B
100
AcDbEntity
  8
0
100
AcDbBlockEnd
  0
BLOCK
  5
B8
330
B6
100
AcDbEntity
  8
0
100
AcDbBlockBegin
  2
3_129982_0_in__129267_0
 70
     2
 10
0.0
 20
0.0
 30
0.0
  3
3_129982_0_in__129267_0
  1

  0
ATTDEF
  5
BA
330
B6
100
AcDbEntity
  8
AM_6
100
AcDbText
 10
30.28635995947222
 20
25.39979515883224
 30
0.0
 40
0.5
  1
Grip Tight Adapter and Nut - Corrosion Resistant Metric Bore
100
AcDbAttributeDefinition
  3

  2
NN
 70
     8
280
     0
  0
ATTDEF
  5
BB
330
B6
100
AcDbEntity
  8
AM_6
100
AcDbText
 10
30.28635995947222
 20
24.89979515883224
 30
0.0
 40
0.5
  1
GT and GTM Adapter & Lock Nut Assemblies
100
AcDbAttributeDefinition
  3

  2
NT
 70
     8
280
     0
  0
ATTDEF
  5
BC
330
B6
100
AcDbEntity
  8
AM_6
100
AcDbText
 10
30.28635995947222
 20
24.39979515883224
 30
0.0
 40
0.5
  1
129982
100
AcDbAttributeDefinition
  3

  2
NB
 70
     8
280
     0
  0
ATTDEF
  5
BD
330
B6
100
AcDbEntity
  8
AM_6
100
AcDbText
 10
30.28635995947222
 20
23.89979515883224
 30
0.0
 40
0.5
  1
$PN.
100
AcDbAttributeDefinition
  3

  2
NBSYN
 70
     8
280
     0
  0
ATTDEF
  5
BE
330
B6
100
AcDbEntity
  8
AM_6
100
AcDbText
 10
30.28635995947222
 20
23.39979515883224
 30
0.0
 40
0.5
  1
129982
100
AcDbAttributeDefinition
  3

  2
LINA
 70
     8
280
     0
  0
ATTDEF
  5
BF
330
B6
100
AcDbEntity
  8
AM_6
100
AcDbText
 10
30.28635995947222
 20
22.89979515883224
 30
0.0
 40
0.5
  1
206
100
AcDbAttributeDefinition
  3

  2
SERIES
 70
     8
280
     0
  0
ATTDEF
  5
C0
330
B6
100
AcDbEntity
  8
AM_6
100
AcDbText
 10
30.28635995947222
 20
22.39979515883224
 30
0.0
 40
0.5
  1
30
100
AcDbAttributeDefinition
  3

  2
SS
 70
     8
280
     0
  0
ATTDEF
  5
C1
330
B6
100
AcDbEntity
  8
AM_6
100
AcDbText
 10
30.28635995947222
 20
21.89979515883224
 30
0.0
 40
0.5
  1
129982
100
AcDbAttributeDefinition
  3

  2
PN
 70
     8
280
     0
  0
ATTDEF
  5
C2
330
B6
100
AcDbEntity
  8
AM_6
100
AcDbText
 10
30.28635995947222
 20
21.39979515883224
 30
0.0
 40
0.5
  1
AN-GT-06-30M-CR
100
AcDbAttributeDefinition
  3

  2
DESCRIPTION
 70
     8
280
     0
  0
ATTDEF
  5
C3
330
B6
100
AcDbEntity
  8
AM_6
100
AcDbText
 10
30.28635995947222
 20
20.89979515883224
 30
0.0
 40
0.5
  1
40.9
100
AcDbAttributeDefinition
  3

  2
A
 70
     8
280
     0
  0
ATTDEF
  5
C4
330
B6
100
AcDbEntity
  8
AM_6
100
AcDbText
 10
30.28635995947222
 20
20.39979515883224
 30
0.0
 40
0.5
  1
18.0
100
AcDbAttributeDefinition
  3

  2
C
 70
     8
280
     0
  0
ATTDEF
  5
C5
330
B6
100
AcDbEntity
  8
AM_6
100
AcDbText
 10
30.28635995947222
 20
19.89979515883224
 30
0.0
 40
0.5
  1
62.0
100
AcDbAttributeDefinition
  3

  2
D
 70
     8
280
     0
  0
ATTDEF
  5
C6
330
B6
100
AcDbEntity
  8
AM_6
100
AcDbText
 10
30.28635995947222
 20
19.39979515883224
 30
0.0
 40
0.5
  1
4.8
100
AcDbAttributeDefinition
  3

  2
J
 70
     8
280
     0
  0
ATTDEF
  5
C7
330
B6
100
AcDbEntity
  8
AM_6
100
AcDbText
 10
30.28635995947222
 20
18.89979515883224
 30
0.0
 40
0.5
  1
50.8
100
AcDbAttributeDefinition
  3

  2
L
 70
     8
280
     0
  0
ATTDEF
  5
C8
330
B6
100
AcDbEntity
  8
AM_6
100
AcDbText
 10
30.28635995947222
 20
18.39979515883224
 30
0.0
 40
0.5
  1
10 - 32 x 1/4
100
AcDbAttributeDefinition
  3

  2
N
 70
     8
280
     0
  0
ATTDEF
  5
C9
330
B6
100
AcDbEntity
  8
AM_6
100
AcDbText
 10
30.28635995947222
 20
17.89979515883224
 30
0.0
 40
0.5
  1
13.5
100
AcDbAttributeDefinition
  3

  2
W
 70
     8
280
     0
  0
ATTDEF
  5
CA
330
B6
100
AcDbEntity
  8
AM_6
100
AcDbText
 10
30.28635995947222
 20
17.39979515883224
 30
0.0
 40
0.5
  1
26.2
100
AcDbAttributeDefinition
  3

  2
X
 70
     8
280
     0
  0
ATTDEF
  5
CB
330
B6
100
AcDbEntity
  8
AM_6
100
AcDbText
 10
30.28635995947222
 20
16.89979515883224
 30
0.0
 40
0.5
  1
27.4
100
AcDbAttributeDefinition
  3

  2
Y
 70
     8
280
     0
  0
ATTDEF
  5
CC
330
B6
100
AcDbEntity
  8
AM_6
100
AcDbText
 10
30.28635995947222
 20
16.39979515883224
 30
0.0
 40
0.5
  1
baldor
100
AcDbAttributeDefinition
  3

  2
COMPANY
 70
     8
280
     0
  0
LINE
  5
CD
330
B6
100
AcDbEntity
  8
AM_9
100
AcDbLine
 10
1.25
 20
18.94943254666444
 30
0.0
 11
1.25
 21
19.72416421191825
 31
0.0
  0
LINE
  5
CE
330
B6
100
AcDbEntity
  8
AM_9
100
AcDbLine
 10
-1.25
 20
18.94943254666444
 30
0.0
 11
-1.25
 21
19.72416421191825
 31
0.0
  0
ARC
  5
CF
330
B6
100
AcDbEntity
  8
AM_9
100
AcDbCircle
 10
0.0
 20
0.0000000000000018
 30
0.0
 40
19.76373329760136
100
AcDbArc
 50
93.62621567386442
 51
86.37378432613559
  0
CIRCLE
  5
D0
330
B6
100
AcDbEntity
  8
AM_9
100
AcDbCircle
 10
0.0
 20
0.0
 30
0.0
 40
20.76349206349208
  0
CIRCLE
  5
D1
330
B6
100
AcDbEntity
  8
AM_9
100
AcDbCircle
 10
0.0
 20
0.0
 30
0.0
 40
22.8317777777778
  0
LINE
  5
D2
330
B6
100
AcDbEntity
  8
AM_9
100
AcDbLine
 10
-24.9682
 20
-1.981199999999999
 30
0.0
 11
-19.4818
 21
-1.981199999999999
 31
0.0
  0
LINE
  5
D3
330
B6
100
AcDbEntity
  8
AM_9
100
AcDbLine
 10
-19.4818
 20
1.981199999999999
 30
0.0
 11
-24.9682
 21
1.981199999999999
 31
0.0
  0
LINE
  5
D4
330
B6
100
AcDbEntity
  8
AM_9
100
AcDbLine
 10
-19.4818
 20
-1.981199999999999
 30
0.0
 11
-19.05
 21
-2.412999999999998
 31
0.0
  0
LINE
  5
D5
330
B6
100
AcDbEntity
  8
AM_9
100
AcDbLine
 10
-19.05
 20
2.412999999999998
 30
0.0
 11
-19.4818
 21
1.981199999999999
 31
0.0
  0
LINE
  5
D6
330
B6
100
AcDbEntity
  8
AM_9
100
AcDbLine
 10
-19.05
 20
2.412999999999998
 30
0.0
 11
-19.05
 21
-2.412999999999998
 31
0.0
  0
LINE
  5
D7
330
B6
100
AcDbEntity
  8
AM_9
100
AcDbLine
 10
-19.4818
 20
1.981199999999999
 30
0.0
 11
-19.4818
 21
-1.981199999999999
 31
0.0
  0
LINE
  5
D8
330
B6
100
AcDbEntity
  8
AM_9
100
AcDbLine
 10
-24.9682
 20
1.981199999999999
 30
0.0
 11
-25.29157987183648
 21
2.304579871836474
 31
0.0
  0
LINE
  5
D9
330
B6
100
AcDbEntity
  8
AM_9
100
AcDbLine
 10
-25.29144652932979
 20
-2.304446529329793
 30
0.0
 11
-24.9682
 21
-1.981199999999999
 31
0.0
  0
LINE
  5
DA
330
B6
100
AcDbEntity
  8
AM_9
100
AcDbLine
 10
-24.9682
 20
1.981199999999999
 30
0.0
 11
-24.9682
 21
-1.981199999999999
 31
0.0
  0
LINE
  5
DB
330
B6
100
AcDbEntity
  8
AM_9
100
AcDbLine
 10
-25.30051430947148
 20
2.245879710988363
 30
0.0
 11
-25.29492955499098
 21
2.307929550060928
 31
0.0
  0
LWPOLYLINE
  5
DC
330
B6
100
AcDbEntity
  8
AM_9
100
AcDbPolyline
 90
        9
 70
     0
 43
0.0
 10
-25.39729179178409
 20
0.3709038190378178
 10
-25.39564476302661
 20
0.4703478182786595
 10
-25.38643016692052
 20
0.830158647529539
 10
-25.37356165741586
 20
1.1586064117362
 10
-25.35777478450607
 20
1.463987014378448
 10
-25.34092970714361
 20
1.731265888766631
 10
-25.32445150031309
 20
1.957589387049899
 10
-25.31030186287101
 20
2.132749307900196
 10
-25.30051430947148
 20
2.245879710988363
  0
LINE
  5
DD
330
B6
100
AcDbEntity
  8
AM_9
100
AcDbLine
 10
-25.39655192460934
 20
-0.4185096661035623
 30
0.0
 11
-25.3972854362039
 21
-0.3713387563743978
 31
0.0
  0
LWPOLYLINE
  5
DE
330
B6
100
AcDbEntity
  8
AM_9
100
AcDbPolyline
 90
        6
 70
     0
 43
0.0
 10
-25.30091505096554
 20
-2.241360654563624
 10
-25.3115839281897
 20
-2.117479408686072
 10
-25.32735971175893
 20
-1.919596319847178
 10
-25.34499083646173
 20
-1.67076015623775
 10
-25.36358383371394
 20
-1.359637859933721
 10
-25.36758912338336
 20
-1.282740062211705
  0
LINE
  5
DF
330
B6
100
AcDbEntity
  8
AM_9
100
AcDbLine
 10
-25.29492955482608
 20
-2.307929551868247
 30
0.0
 11
-25.30091505096554
 21
-2.241360654563624
 31
0.0
  0
LINE
  5
E1
330
B6
100
AcDbEntity
  8
AM_5
100
AcDbLine
 10
-25.28512272068302
 20
-2.412999999999998
 30
0.0
 11
-19.05
 21
-2.412999999999998
 31
0.0
  0
LINE
  5
E2
330
B6
100
AcDbEntity
  8
AM_5
100
AcDbLine
 10
-25.28512272068302
 20
2.413000000000002
 30
0.0
 11
-19.05
 21
2.413000000000002
 31
0.0
  0
LINE
  5
E3
330
B6
100
AcDbEntity
  8
AM_4
100
AcDbLine
 10
-10.56471901065345
 20
-23.09863009414059
 30
0.0
 11
-9.774869542019042
 21
-21.73057068413452
 31
0.0
  0
ARC
  5
E4
330
B6
100
AcDbEntity
  8
AM_4
100
AcDbCircle
 10
0.0000000000000027
 20
-0.0000000000000036
 30
0.0
 40
25.4
100
AcDbArc
 50
245.4218626924052
 51
354.5781373075948
  0
LINE
  5
E5
330
B6
100
AcDbEntity
  8
AM_4
100
AcDbLine
 10
23.70666102220341
 20
-2.4
 30
0.0
 11
25.28635995947222
 21
-2.4
 31
0.0
  0
LINE
  5
E6
330
B6
100
AcDbEntity
  8
AM_4
100
AcDbLine
 10
25.28635995947222
 20
2.4
 30
0.0
 11
23.70666102220341
 21
2.4
 31
0.0
  0
LINE
  5
E7
330
B6
100
AcDbEntity
  8
AM_4
100
AcDbLine
 10
-9.774869542019061
 20
21.73057068413451
 30
0.0
 11
-10.56471901065347
 21
23.09863009414059
 31
0.0
  0
ARC
  5
E8
330
B6
100
AcDbEntity
  8
AM_4
100
AcDbCircle
 10
0.0000000000000036
 20
0.0000000000000036
 30
0.0
 40
25.4
100
AcDbArc
 50
5.421862692405255
 51
114.5781373075949
  0
LINE
  5
E9
330
B6
100
AcDbEntity
  8
AM_4
100
AcDbLine
 10
1.25
 20
14.94782592887675
 30
0.0
 11
1.25
 21
18.94920634920635
 31
0.0
  0
LINE
  5
EA
330
B6
100
AcDbEntity
  8
AM_4
100
AcDbLine
 10
-1.25
 20
14.94782592887675
 30
0.0
 11
-1.250000000000001
 21
18.94920634920635
 31
0.0
  0
LINE
  5
EB
330
B6
100
AcDbEntity
  8
AM_4
100
AcDbLine
 10
23.70666102220341
 20
2.4
 30
0.0
 11
23.70666102220341
 21
-2.4
 31
0.0
  0
LINE
  5
EC
330
B6
100
AcDbEntity
  8
AM_4
100
AcDbLine
 10
-1.250000000000001
 20
18.94920634920635
 30
0.0
 11
1.25
 21
18.94920634920635
 31
0.0
  0
LINE
  5
ED
330
B6
100
AcDbEntity
  8
AM_4
100
AcDbLine
 10
-14.72164094881877
 20
20.69863009414058
 30
0.0
 11
-13.93179148018436
 21
19.3305706841345
 31
0.0
  0
LINE
  5
EE
330
B6
100
AcDbEntity
  8
AM_4
100
AcDbLine
 10
-13.93179148018436
 20
19.3305706841345
 30
0.0
 11
-9.774869542019061
 21
21.73057068413451
 31
0.0
  0
ARC
  5
EF
330
B6
100
AcDbEntity
  8
AM_4
100
AcDbCircle
 10
0.0000000000000071
 20
0.0000000000000142
 30
0.0
 40
24.67999999999999
100
AcDbArc
 50
5.580531856409805
 51
114.4194681435903
  0
LINE
  5
F0
330
B6
100
AcDbEntity
  8
AM_4
100
AcDbLine
 10
-13.93179148018435
 20
-19.33057068413452
 30
0.0
 11
-14.72164094881876
 21
-20.6986300941406
 31
0.0
  0
LINE
  5
F1
330
B6
100
AcDbEntity
  8
AM_4
100
AcDbLine
 10
-9.774869542019042
 20
-21.73057068413452
 30
0.0
 11
-13.93179148018435
 21
-19.33057068413452
 31
0.0
  0
ARC
  5
F2
330
B6
100
AcDbEntity
  8
AM_4
100
AcDbCircle
 10
0.0000000000000073
 20
-0.0000000000000071
 30
0.0
 40
24.67999999999999
100
AcDbArc
 50
245.5805318564098
 51
354.4194681435903
  0
ARC
  5
F3
330
B6
100
AcDbEntity
  8
AM_4
100
AcDbCircle
 10
-0.0000000000000249
 20
0.0000000000000142
 30
0.0
 40
25.39999999999997
100
AcDbArc
 50
125.4218626924051
 51
179.1426289878451
  0
LWPOLYLINE
  5
F4
330
B6
100
AcDbEntity
  8
AM_4
100
AcDbPolyline
 90
        3
 70
     0
 43
0.0
 10
-25.39715627272193
 20
0.3800700710933154
 10
-25.38350055110894
 20
0.0024153053286849
 10
-25.39715627272193
 20
-0.3800700710933208
  0
ARC
  5
F5
330
B6
100
AcDbEntity
  8
AM_4
100
AcDbCircle
 10
-0.0000000000000107
 20
-0.0000000000000098
 30
0.0
 40
25.39999999999999
100
AcDbArc
 50
180.8573710121545
 51
234.5781373075949
  0
ARC
  5
F6
330
B6
100
AcDbEntity
  8
AM_4
100
AcDbCircle
 10
0.0000000000000071
 20
-0.0000000000000018
 30
0.0
 40
24.68000000000001
100
AcDbArc
 50
125.5805318564098
 51
234.4194681435902
  0
ARC
  5
F7
330
B6
100
AcDbEntity
  8
AM_4
100
AcDbCircle
 10
0.0
 20
0.0000000000000011
 30
0.0
 40
15.0
100
AcDbArc
 50
94.78019184719916
 51
85.21980815280085
  0
ARC
  5
F8
330
B6
100
AcDbEntity
  8
AM_4
100
AcDbCircle
 10
0.0
 20
0.0000000000000022
 30
0.0
 40
18.94920634920635
100
AcDbArc
 50
93.78230977753398
 51
86.21769022246603
  0
ENDBLK
  5
B9
330
B6
100
AcDbEntity
  8
0
100
AcDbBlockEnd
  0
BLOCK
  5
FB
330
F9
100
AcDbEntity
  8
0
100
AcDbBlockBegin
  2
4_P2B_GTUEZ_06_SHCR_0_in__129267_0
 70
     2
 10
0.0
 20
0.0
 30
0.0
  3
4_P2B_GTUEZ_06_SHCR_0_in__129267_0
  1

  0
ATTDEF
  5
FD
330
F9
100
AcDbEntity
  8
AM_6
100
AcDbText
 10
84.4
 20
36.90000000000001
 30
0.0
 40
0.5
  1
P2B-GTEZ-SHCR-M-Body
100
AcDbAttributeDefinition
  3

  2
NN
 70
     8
280
     0
  0
ATTDEF
  5
FE
330
F9
100
AcDbEntity
  8
AM_6
100
AcDbText
 10
84.4
 20
36.40000000000001
 30
0.0
 40
0.5
  1
GTEZ Normal Duty Stainless Steel Housed Pillow Blocks
100
AcDbAttributeDefinition
  3

  2
NT
 70
     8
280
     0
  0
ATTDEF
  5
FF
330
F9
100
AcDbEntity
  8
AM_6
100
AcDbText
 10
84.4
 20
35.90000000000001
 30
0.0
 40
0.5
  1
P2B-GTUEZ-06-SHCR
100
AcDbAttributeDefinition
  3

  2
NB
 70
     8
280
     0
  0
ATTDEF
  5
100
330
F9
100
AcDbEntity
  8
AM_6
100
AcDbText
 10
84.4
 20
35.40000000000001
 30
0.0
 40
0.5
  1
$PN.$LUBE.
100
AcDbAttributeDefinition
  3

  2
NBSYN
 70
     8
280
     0
  0
ATTDEF
  5
101
330
F9
100
AcDbEntity
  8
AM_6
100
AcDbText
 10
84.4
 20
34.90000000000001
 30
0.0
 40
0.5
  1
P2B-GTUEZ-06-SHCR
100
AcDbAttributeDefinition
  3

  2
LINA
 70
     8
280
     0
  0
ATTDEF
  5
102
330
F9
100
AcDbEntity
  8
AM_6
100
AcDbText
 10
84.4
 20
34.40000000000001
 30
0.0
 40
0.5
  1
206
100
AcDbAttributeDefinition
  3

  2
SERIES
 70
     8
280
     0
  0
ATTDEF
  5
103
330
F9
100
AcDbEntity
  8
AM_6
100
AcDbText
 10
84.4
 20
33.90000000000001
 30
0.0
 40
0.5
  1
P2B-GTUEZ-06-SHCR
100
AcDbAttributeDefinition
  3

  2
PN
 70
     8
280
     0
  0
ATTDEF
  5
104
330
F9
100
AcDbEntity
  8
AM_6
100
AcDbText
 10
84.4
 20
33.40000000000001
 30
0.0
 40
0.5
  1
P2B-GTUEZ-06-SHCR
100
AcDbAttributeDefinition
  3

  2
DESCRIPTION
 70
     8
280
     0
  0
ATTDEF
  5
105
330
F9
100
AcDbEntity
  8
AM_6
100
AcDbText
 10
84.4
 20
32.90000000000001
 30
0.0
 40
0.5
  1
40.9
100
AcDbAttributeDefinition
  3

  2
A
 70
     8
280
     0
  0
ATTDEF
  5
106
330
F9
100
AcDbEntity
  8
AM_6
100
AcDbText
 10
84.4
 20
32.40000000000001
 30
0.0
 40
0.5
  1
158.8
100
AcDbAttributeDefinition
  3

  2
B
 70
     8
280
     0
  0
ATTDEF
  5
107
330
F9
100
AcDbEntity
  8
AM_6
100
AcDbText
 10
84.4
 20
31.90000000000001
 30
0.0
 40
0.5
  1
31.8
100
AcDbAttributeDefinition
  3

  2
C
 70
     8
280
     0
  0
ATTDEF
  5
108
330
F9
100
AcDbEntity
  8
AM_6
100
AcDbText
 10
84.4
 20
31.40000000000001
 30
0.0
 40
0.5
  1
108.3
100
AcDbAttributeDefinition
  3

  2
DMIN
 70
     8
280
     0
  0
ATTDEF
  5
109
330
F9
100
AcDbEntity
  8
AM_6
100
AcDbText
 10
84.4
 20
30.90000000000001
 30
0.0
 40
0.5
  1
127.0
100
AcDbAttributeDefinition
  3

  2
DMAX
 70
     8
280
     0
  0
ATTDEF
  5
10A
330
F9
100
AcDbEntity
  8
AM_6
100
AcDbText
 10
84.4
 20
30.40000000000001
 30
0.0
 40
0.5
  1
M12
100
AcDbAttributeDefinition
  3

  2
F
 70
     8
280
     0
  0
ATTDEF
  5
10B
330
F9
100
AcDbEntity
  8
AM_6
100
AcDbText
 10
84.4
 20
29.90000000000001
 30
0.0
 40
0.5
  1
23.8
100
AcDbAttributeDefinition
  3

  2
G
 70
     8
280
     0
  0
ATTDEF
  5
10C
330
F9
100
AcDbEntity
  8
AM_6
100
AcDbText
 10
84.4
 20
29.40000000000001
 30
0.0
 40
0.5
  1
15.1
100
AcDbAttributeDefinition
  3

  2
H
 70
     8
280
     0
  0
ATTDEF
  5
10D
330
F9
100
AcDbEntity
  8
AM_6
100
AcDbText
 10
84.4
 20
28.90000000000001
 30
0.0
 40
0.5
  1
79.8
100
AcDbAttributeDefinition
  3

  2
J
 70
     8
280
     0
  0
ATTDEF
  5
10E
330
F9
100
AcDbEntity
  8
AM_6
100
AcDbText
 10
84.4
 20
28.40000000000001
 30
0.0
 40
0.5
  1
50.8
100
AcDbAttributeDefinition
  3

  2
L
 70
     8
280
     0
  0
ATTDEF
  5
10F
330
F9
100
AcDbEntity
  8
AM_6
100
AcDbText
 10
84.4
 20
27.90000000000001
 30
0.0
 40
0.5
  1
42.9
100
AcDbAttributeDefinition
  3

  2
M
 70
     8
280
     0
  0
ATTDEF
  5
110
330
F9
100
AcDbEntity
  8
AM_6
100
AcDbText
 10
84.4
 20
27.40000000000001
 30
0.0
 40
0.5
  1
13.5
100
AcDbAttributeDefinition
  3

  2
R
 70
     8
280
     0
  0
ATTDEF
  5
111
330
F9
100
AcDbEntity
  8
AM_6
100
AcDbText
 10
84.4
 20
26.90000000000001
 30
0.0
 40
0.5
  1
27.4
100
AcDbAttributeDefinition
  3

  2
S
 70
     8
280
     0
  0
ATTDEF
  5
112
330
F9
100
AcDbEntity
  8
AM_6
100
AcDbText
 10
84.4
 20
26.40000000000001
 30
0.0
 40
0.5
  1
26.2
100
AcDbAttributeDefinition
  3

  2
Z
 70
     8
280
     0
  0
ATTDEF
  5
113
330
F9
100
AcDbEntity
  8
AM_6
100
AcDbText
 10
84.4
 20
25.90000000000001
 30
0.0
 40
0.5
  1
baldor
100
AcDbAttributeDefinition
  3

  2
COMPANY
 70
     8
280
     0
  0
LINE
  5
114
330
F9
100
AcDbEntity
  8
AM_9
100
AcDbLine
 10
-54.15
 20
-42.9
 30
0.0
 11
-54.15
 21
-27.8
 31
0.0
  0
LINE
  5
115
330
F9
100
AcDbEntity
  8
AM_9
100
AcDbLine
 10
-46.925
 20
-42.9
 30
0.0
 11
-46.925
 21
-27.8
 31
0.0
  0
LINE
  5
116
330
F9
100
AcDbEntity
  8
AM_9
100
AcDbLine
 10
-63.49999999999999
 20
-42.9
 30
0.0
 11
-63.49999999999999
 21
-27.8
 31
0.0
  0
LINE
  5
117
330
F9
100
AcDbEntity
  8
AM_9
100
AcDbLine
 10
-70.72499999999998
 20
-27.8
 30
0.0
 11
-70.72499999999998
 21
-42.9
 31
0.0
  0
LINE
  5
118
330
F9
100
AcDbEntity
  8
AM_9
100
AcDbLine
 10
63.5
 20
-42.9
 30
0.0
 11
63.5
 21
-27.8
 31
0.0
  0
LINE
  5
119
330
F9
100
AcDbEntity
  8
AM_9
100
AcDbLine
 10
70.72499999999998
 20
-42.9
 30
0.0
 11
70.72499999999998
 21
-27.8
 31
0.0
  0
LINE
  5
11A
330
F9
100
AcDbEntity
  8
AM_9
100
AcDbLine
 10
54.15000000000001
 20
-42.9
 30
0.0
 11
54.15000000000001
 21
-27.8
 31
0.0
  0
LINE
  5
11B
330
F9
100
AcDbEntity
  8
AM_9
100
AcDbLine
 10
46.925
 20
-27.8
 30
0.0
 11
46.925
 21
-42.9
 31
0.0
  0
LINE
  5
11C
330
F9
100
AcDbEntity
  8
AM_7
100
AcDbLine
 10
23.11117385296051
 20
23.11117385296051
 30
0.0
 11
33.59325485760517
 21
33.59325485760518
 31
0.0
  0
LINE
  5
11D
330
F9
100
AcDbEntity
  8
AM_4
100
AcDbLine
 10
31.28135499314532
 20
33.63104751977974
 30
0.0
 11
33.63104748496237
 21
31.28135502796269
 31
0.0
  0
ARC
  5
11E
330
F9
100
AcDbEntity
  8
AM_4
100
AcDbCircle
 10
33.27749412918646
 20
30.92780160255206
 30
0.0
 40
0.4999999999999953
100
AcDbArc
 50
336.801409486351
 51
44.99999999999998
  0
ARC
  5
11F
330
F9
100
AcDbEntity
  8
AM_4
100
AcDbCircle
 10
30.92780160255205
 20
33.27749412918647
 30
0.0
 40
0.4999999999999965
100
AcDbArc
 50
44.99999999999972
 51
113.1985905136487
  0
LINE
  5
120
330
F9
100
AcDbEntity
  8
AM_4
100
AcDbLine
 10
30.73084195326246
 20
33.73706664419549
 30
0.0
 11
33.73706664419549
 21
30.73084195326247
 31
0.0
  0
LINE
  5
121
330
F9
100
AcDbEntity
  8
AM_4
100
AcDbLine
 10
30.73084195326246
 20
33.73706664419549
 30
0.0
 11
29.39894311604842
 21
33.16625285681804
 31
0.0
  0
LINE
  5
122
330
F9
100
AcDbEntity
  8
AM_4
100
AcDbLine
 10
33.16625285681804
 20
29.39894311604843
 30
0.0
 11
33.73706664419549
 21
30.73084195326247
 31
0.0
  0
LINE
  5
123
330
F9
100
AcDbEntity
  8
AM_4
100
AcDbLine
 10
29.39894311604842
 20
33.16625285681805
 30
0.0
 11
33.16625285681804
 21
29.39894311604843
 31
0.0
  0
ARC
  5
124
330
F9
100
AcDbEntity
  8
AM_4
100
AcDbCircle
 10
32.70668034180899
 20
29.59590276533802
 30
0.0
 40
0.5000000000000239
100
AcDbArc
 50
269.1570816963523
 51
336.8014094863511
  0
ARC
  5
125
330
F9
100
AcDbEntity
  8
AM_4
100
AcDbCircle
 10
29.59590276533801
 20
32.706680341809
 30
0.0
 40
0.5000000000000163
100
AcDbArc
 50
113.1985905136485
 51
180.8429183036465
  0
LINE
  5
126
330
F9
100
AcDbEntity
  8
AM_4
100
AcDbLine
 10
30.54701294725885
 20
26.58721497261419
 30
0.0
 11
30.90056633785213
 21
26.94076836320746
 31
0.0
  0
LINE
  5
127
330
F9
100
AcDbEntity
  8
AM_4
100
AcDbLine
 10
26.94076836320745
 20
30.90056633785213
 30
0.0
 11
26.58721497261418
 21
30.54701294725886
 31
0.0
  0
LINE
  5
128
330
F9
100
AcDbEntity
  8
AM_4
100
AcDbLine
 10
29.09595687288928
 20
32.69932475728694
 30
0.0
 11
32.69932475728694
 21
29.09595687288929
 31
0.0
  0
LINE
  5
129
330
F9
100
AcDbEntity
  8
AM_4
100
AcDbLine
 10
26.94076836320745
 20
30.90056633785213
 30
0.0
 11
30.90056633785213
 21
26.94076836320746
 31
0.0
  0
ARC
  5
12A
330
F9
100
AcDbEntity
  8
AM_4
100
AcDbCircle
 10
32.67275270820091
 20
27.28990233641832
 30
0.0
 40
1.806249999999997
100
AcDbArc
 50
89.15708169634945
 51
191.144973871706
  0
ARC
  5
12B
330
F9
100
AcDbEntity
  8
AM_4
100
AcDbCircle
 10
27.28990233641832
 20
32.67275270820091
 30
0.0
 40
1.80625
100
AcDbArc
 50
258.855026128294
 51
0.8429183036503388
  0
LINE
  5
12C
330
F9
100
AcDbEntity
  8
AM_4
100
AcDbLine
 10
27.99742167940337
 20
24.0376237047587
 30
0.0
 11
28.42569260369921
 21
24.46589462905455
 31
0.0
  0
LINE
  5
12D
330
F9
100
AcDbEntity
  8
AM_4
100
AcDbLine
 10
24.46589462905454
 20
28.42569260369921
 30
0.0
 11
24.03711467681676
 21
27.99691265146143
 31
0.0
  0
LINE
  5
12E
330
F9
100
AcDbEntity
  8
AM_4
100
AcDbLine
 10
25.73868683519033
 20
31.39554108468271
 30
0.0
 11
31.39554108468271
 21
25.73868683519033
 31
0.0
  0
LINE
  5
12F
330
F9
100
AcDbEntity
  8
AM_4
100
AcDbLine
 10
29.27422074112306
 20
23.61736649163069
 30
0.0
 11
31.39554108468271
 21
25.73868683519033
 31
0.0
  0
LINE
  5
130
330
F9
100
AcDbEntity
  8
AM_4
100
AcDbLine
 10
23.61736649163068
 20
29.27422074112307
 30
0.0
 11
29.27422074112306
 21
23.61736649163069
 31
0.0
  0
LINE
  5
131
330
F9
100
AcDbEntity
  8
AM_4
100
AcDbLine
 10
25.73868683519033
 20
31.39554108468271
 30
0.0
 11
23.61736649163068
 21
29.27422074112307
 31
0.0
  0
LWPOLYLINE
  5
132
330
F9
100
AcDbEntity
  8
AM_4
100
AcDbPolyline
 90
        3
 70
     0
 43
0.0
 10
25.62144320118692
 20
31.27829745067931
 10
26.41139458080579
 20
30.66039395291061
 10
27.15290039756342
 20
29.98132752230961
  0
LWPOLYLINE
  5
133
330
F9
100
AcDbEntity
  8
AM_4
100
AcDbPolyline
 90
        3
 70
     0
 43
0.0
 10
25.03158005400378
 20
27.86000717874997
 10
24.35541957285032
 20
28.59806025996961
 10
23.73461012563408
 20
29.39146437512647
  0
LWPOLYLINE
  5
134
330
F9
100
AcDbEntity
  8
AM_4
100
AcDbPolyline
 90
        3
 70
     0
 43
0.0
 10
29.98132752230961
 20
27.15290039756343
 10
30.65748800346307
 20
26.41484731634379
 10
31.2782974506793
 20
25.62144320118693
  0
LINE
  5
135
330
F9
100
AcDbEntity
  8
AM_4
100
AcDbLine
 10
28.44987032593312
 20
28.44987032593312
 30
0.0
 11
26.56303725038028
 21
26.56303725038028
 31
0.0
  0
LWPOLYLINE
  5
136
330
F9
100
AcDbEntity
  8
AM_4
100
AcDbPolyline
 90
        3
 70
     0
 43
0.0
 10
29.39146437512647
 20
23.73461012563409
 10
28.60151299550759
 20
24.35251362340279
 10
27.86000717874997
 20
25.03158005400378
  0
LWPOLYLINE
  5
137
330
F9
100
AcDbEntity
  8
AM_4
100
AcDbPolyline
 90
        3
 70
     0
 43
0.0
 10
27.86000717874997
 20
25.03158005400378
 10
27.18384669759651
 20
25.76963313522342
 10
26.56303725038028
 20
26.56303725038028
  0
LWPOLYLINE
  5
138
330
F9
100
AcDbEntity
  8
AM_4
100
AcDbPolyline
 90
        3
 70
     0
 43
0.0
 10
26.56303725038028
 20
26.56303725038028
 10
25.77308587076141
 20
27.18094074814898
 10
25.03158005400378
 20
27.86000717874997
  0
LWPOLYLINE
  5
139
330
F9
100
AcDbEntity
  8
AM_4
100
AcDbPolyline
 90
        3
 70
     0
 43
0.0
 10
27.15290039756342
 20
29.98132752230961
 10
27.82906087871688
 20
29.24327444108998
 10
28.44987032593312
 20
28.44987032593312
  0
LWPOLYLINE
  5
13A
330
F9
100
AcDbEntity
  8
AM_4
100
AcDbPolyline
 90
        3
 70
     0
 43
0.0
 10
28.44987032593312
 20
28.44987032593312
 10
29.23982170555199
 20
27.83196682816442
 10
29.98132752230961
 20
27.15290039756343
  0
ARC
  5
13B
330
F9
100
AcDbEntity
  8
AM_4
100
AcDbCircle
 10
0.0000000000000036
 20
-0.0000000000000071
 30
0.0
 40
30.99999999999999
100
AcDbArc
 50
211.3766076182317
 51
328.6233923817682
  0
LINE
  5
13C
330
F9
100
AcDbEntity
  8
AM_4
100
AcDbLine
 10
-58.54266
 20
-34.27698000000001
 30
0.0
 11
-58.69816
 21
-34.498981
 31
0.0
  0
LINE
  5
13D
330
F9
100
AcDbEntity
  8
AM_4
100
AcDbLine
 10
-58.69816
 20
-34.498981
 30
0.0
 11
-58.7759
 21
-34.794988
 31
0.0
  0
LINE
  5
13E
330
F9
100
AcDbEntity
  8
AM_4
100
AcDbLine
 10
-58.7759
 20
-34.794988
 30
0.0
 11
-58.7759
 21
-35.905012
 31
0.0
  0
LINE
  5
13F
330
F9
100
AcDbEntity
  8
AM_4
100
AcDbLine
 10
-58.7759
 20
-35.905012
 30
0.0
 11
-58.69816
 21
-36.201019
 31
0.0
  0
LINE
  5
140
330
F9
100
AcDbEntity
  8
AM_4
100
AcDbLine
 10
-58.69816
 20
-36.201019
 30
0.0
 11
-58.54266
 21
-36.42302
 31
0.0
  0
LINE
  5
141
330
F9
100
AcDbEntity
  8
AM_4
100
AcDbLine
 10
-58.54266
 20
-36.42302
 30
0.0
 11
-58.30943
 21
-36.57103000000001
 31
0.0
  0
LINE
  5
142
330
F9
100
AcDbEntity
  8
AM_4
100
AcDbLine
 10
-58.30943
 20
-36.57103000000001
 30
0.0
 11
-57.99844
 21
-36.64503000000001
 31
0.0
  0
LINE
  5
143
330
F9
100
AcDbEntity
  8
AM_4
100
AcDbLine
 10
-57.99844
 20
-36.64503000000001
 30
0.0
 11
-57.37647
 21
-36.64503000000001
 31
0.0
  0
LINE
  5
144
330
F9
100
AcDbEntity
  8
AM_4
100
AcDbLine
 10
-57.37647
 20
-36.64503000000001
 30
0.0
 11
-57.06549
 21
-36.57103000000001
 31
0.0
  0
LINE
  5
145
330
F9
100
AcDbEntity
  8
AM_4
100
AcDbLine
 10
-57.06549
 20
-36.57103000000001
 30
0.0
 11
-56.83225
 21
-36.42302
 31
0.0
  0
LINE
  5
146
330
F9
100
AcDbEntity
  8
AM_4
100
AcDbLine
 10
-56.83225
 20
-36.42302
 30
0.0
 11
-56.67675
 21
-36.201019
 31
0.0
  0
LINE
  5
147
330
F9
100
AcDbEntity
  8
AM_4
100
AcDbLine
 10
-56.67675
 20
-36.201019
 30
0.0
 11
-56.59901
 21
-35.905012
 31
0.0
  0
LINE
  5
148
330
F9
100
AcDbEntity
  8
AM_4
100
AcDbLine
 10
-56.59901
 20
-35.905012
 30
0.0
 11
-56.59901
 21
-34.794988
 31
0.0
  0
LINE
  5
149
330
F9
100
AcDbEntity
  8
AM_4
100
AcDbLine
 10
-56.59901
 20
-34.794988
 30
0.0
 11
-56.67675
 21
-34.498981
 31
0.0
  0
LINE
  5
14A
330
F9
100
AcDbEntity
  8
AM_4
100
AcDbLine
 10
-56.67675
 20
-34.498981
 30
0.0
 11
-56.83225
 21
-34.27698000000001
 31
0.0
  0
LINE
  5
14B
330
F9
100
AcDbEntity
  8
AM_4
100
AcDbLine
 10
-56.83225
 20
-34.27698000000001
 30
0.0
 11
-57.06549
 21
-34.12897
 31
0.0
  0
LINE
  5
14C
330
F9
100
AcDbEntity
  8
AM_4
100
AcDbLine
 10
-57.06549
 20
-34.12897
 30
0.0
 11
-57.37647
 21
-34.05497
 31
0.0
  0
LINE
  5
14D
330
F9
100
AcDbEntity
  8
AM_4
100
AcDbLine
 10
-57.37647
 20
-34.05497
 30
0.0
 11
-57.99844
 21
-34.05497
 31
0.0
  0
LINE
  5
14E
330
F9
100
AcDbEntity
  8
AM_4
100
AcDbLine
 10
-57.99844
 20
-34.05497
 30
0.0
 11
-58.30943
 21
-34.12897
 31
0.0
  0
LINE
  5
14F
330
F9
100
AcDbEntity
  8
AM_4
100
AcDbLine
 10
-58.30943
 20
-34.12897
 30
0.0
 11
-58.54266
 21
-34.27698000000001
 31
0.0
  0
LINE
  5
150
330
F9
100
AcDbEntity
  8
AM_4
100
AcDbLine
 10
26.46666666666667
 20
-42.9
 30
0.0
 11
26.46666666666667
 21
-16.14049427853916
 31
0.0
  0
LINE
  5
151
330
F9
100
AcDbEntity
  8
AM_4
100
AcDbLine
 10
28.30264052268968
 20
-42.9
 30
0.0
 11
28.30264052268967
 21
-27.7999999999996
 31
0.0
  0
LINE
  5
152
330
F9
100
AcDbEntity
  8
AM_4
100
AcDbLine
 10
26.46666666666668
 20
-16.14049427853915
 30
0.0
 11
27.61037564952481
 21
-14.09493371719525
 31
0.0
  0
LINE
  5
153
330
F9
100
AcDbEntity
  8
AM_4
100
AcDbLine
 10
-26.46666666666667
 20
-42.9
 30
0.0
 11
-26.46666666666667
 21
-16.14049427853915
 31
0.0
  0
LINE
  5
154
330
F9
100
AcDbEntity
  8
AM_4
100
AcDbLine
 10
-27.61037564952481
 20
-14.09493371719526
 30
0.0
 11
-26.46666666666668
 21
-16.14049427853914
 31
0.0
  0
LINE
  5
155
330
F9
100
AcDbEntity
  8
AM_4
100
AcDbLine
 10
-53.644649
 20
-34.05497
 30
0.0
 11
-55.044082
 21
-34.05497
 31
0.0
  0
LINE
  5
156
330
F9
100
AcDbEntity
  8
AM_4
100
AcDbLine
 10
-55.044082
 20
-34.05497
 30
0.0
 11
-55.044082
 21
-36.64503000000001
 31
0.0
  0
LINE
  5
157
330
F9
100
AcDbEntity
  8
AM_4
100
AcDbLine
 10
-55.044082
 20
-36.64503000000001
 30
0.0
 11
-53.644649
 21
-36.64503000000001
 31
0.0
  0
LINE
  5
158
330
F9
100
AcDbEntity
  8
AM_4
100
AcDbLine
 10
-53.644649
 20
-36.64503000000001
 30
0.0
 11
-53.33366400000001
 21
-36.57103000000001
 31
0.0
  0
LINE
  5
159
330
F9
100
AcDbEntity
  8
AM_4
100
AcDbLine
 10
-53.33366400000001
 20
-36.57103000000001
 30
0.0
 11
-53.10043
 21
-36.42302
 31
0.0
  0
LINE
  5
15A
330
F9
100
AcDbEntity
  8
AM_4
100
AcDbLine
 10
-53.10043
 20
-36.42302
 30
0.0
 11
-52.94493
 21
-36.201019
 31
0.0
  0
LINE
  5
15B
330
F9
100
AcDbEntity
  8
AM_4
100
AcDbLine
 10
-52.94493
 20
-36.201019
 30
0.0
 11
-52.86719
 21
-35.905012
 31
0.0
  0
LINE
  5
15C
330
F9
100
AcDbEntity
  8
AM_4
100
AcDbLine
 10
-52.86719
 20
-35.905012
 30
0.0
 11
-52.86719
 21
-34.794988
 31
0.0
  0
LINE
  5
15D
330
F9
100
AcDbEntity
  8
AM_4
100
AcDbLine
 10
-52.86719
 20
-34.794988
 30
0.0
 11
-52.94493
 21
-34.498981
 31
0.0
  0
LINE
  5
15E
330
F9
100
AcDbEntity
  8
AM_4
100
AcDbLine
 10
-52.94493
 20
-34.498981
 30
0.0
 11
-53.10043
 21
-34.27698000000001
 31
0.0
  0
LINE
  5
15F
330
F9
100
AcDbEntity
  8
AM_4
100
AcDbLine
 10
-53.10043
 20
-34.27698000000001
 30
0.0
 11
-53.33366400000001
 21
-34.12897
 31
0.0
  0
LINE
  5
160
330
F9
100
AcDbEntity
  8
AM_4
100
AcDbLine
 10
-53.33366400000001
 20
-34.12897
 30
0.0
 11
-53.644649
 21
-34.05497
 31
0.0
  0
LINE
  5
161
330
F9
100
AcDbEntity
  8
AM_4
100
AcDbLine
 10
-48.12466
 20
-33.61096000000001
 30
0.0
 11
-48.12466
 21
-37.08904
 31
0.0
  0
LINE
  5
162
330
F9
100
AcDbEntity
  8
AM_4
100
AcDbLine
 10
-45.3258
 20
-33.61096000000001
 30
0.0
 11
-48.12466
 21
-33.61096000000001
 31
0.0
  0
LINE
  5
163
330
F9
100
AcDbEntity
  8
AM_4
100
AcDbLine
 10
-45.3258
 20
-34.05497
 30
0.0
 11
-45.3258
 21
-33.61096000000001
 31
0.0
  0
LINE
  5
164
330
F9
100
AcDbEntity
  8
AM_4
100
AcDbLine
 10
-47.65819
 20
-34.05497
 30
0.0
 11
-45.3258
 21
-34.05497
 31
0.0
  0
LINE
  5
165
330
F9
100
AcDbEntity
  8
AM_4
100
AcDbLine
 10
-47.65819
 20
-35.01699300000001
 30
0.0
 11
-47.65819
 21
-34.05497
 31
0.0
  0
LINE
  5
166
330
F9
100
AcDbEntity
  8
AM_4
100
AcDbLine
 10
-45.63678
 20
-35.01699300000001
 30
0.0
 11
-47.65819
 21
-35.01699300000001
 31
0.0
  0
LINE
  5
167
330
F9
100
AcDbEntity
  8
AM_4
100
AcDbLine
 10
-45.63678
 20
-35.461002
 30
0.0
 11
-45.63678
 21
-35.01699300000001
 31
0.0
  0
LINE
  5
168
330
F9
100
AcDbEntity
  8
AM_4
100
AcDbLine
 10
-47.65819
 20
-35.461002
 30
0.0
 11
-45.63678
 21
-35.461002
 31
0.0
  0
LINE
  5
169
330
F9
100
AcDbEntity
  8
AM_4
100
AcDbLine
 10
-47.65819
 20
-36.64503000000001
 30
0.0
 11
-47.65819
 21
-35.461002
 31
0.0
  0
LINE
  5
16A
330
F9
100
AcDbEntity
  8
AM_4
100
AcDbLine
 10
-45.3258
 20
-36.64503000000001
 30
0.0
 11
-47.65819
 21
-36.64503000000001
 31
0.0
  0
LINE
  5
16B
330
F9
100
AcDbEntity
  8
AM_4
100
AcDbLine
 10
-45.3258
 20
-37.08904
 30
0.0
 11
-45.3258
 21
-36.64503000000001
 31
0.0
  0
LINE
  5
16C
330
F9
100
AcDbEntity
  8
AM_4
100
AcDbLine
 10
-48.12466
 20
-37.08904
 30
0.0
 11
-45.3258
 21
-37.08904
 31
0.0
  0
LINE
  5
16D
330
F9
100
AcDbEntity
  8
AM_4
100
AcDbLine
 10
-51.70099
 20
-34.42498000000001
 30
0.0
 11
-51.77874
 21
-34.794988
 31
0.0
  0
LINE
  5
16E
330
F9
100
AcDbEntity
  8
AM_4
100
AcDbLine
 10
-51.5455
 20
-34.12897
 30
0.0
 11
-51.70099
 21
-34.42498000000001
 31
0.0
  0
LINE
  5
16F
330
F9
100
AcDbEntity
  8
AM_4
100
AcDbLine
 10
-51.23451000000001
 20
-33.83297
 30
0.0
 11
-51.5455
 21
-34.12897
 31
0.0
  0
LINE
  5
170
330
F9
100
AcDbEntity
  8
AM_4
100
AcDbLine
 10
-50.92353
 20
-33.68496
 30
0.0
 11
-51.23451000000001
 21
-33.83297
 31
0.0
  0
LINE
  5
171
330
F9
100
AcDbEntity
  8
AM_4
100
AcDbLine
 10
-50.5348
 20
-33.61096000000001
 30
0.0
 11
-50.92353
 21
-33.68496
 31
0.0
  0
LINE
  5
172
330
F9
100
AcDbEntity
  8
AM_4
100
AcDbLine
 10
-49.83508
 20
-33.61096000000001
 30
0.0
 11
-50.5348
 21
-33.61096000000001
 31
0.0
  0
LINE
  5
173
330
F9
100
AcDbEntity
  8
AM_4
100
AcDbLine
 10
-49.44635
 20
-33.68496
 30
0.0
 11
-49.83508
 21
-33.61096000000001
 31
0.0
  0
LINE
  5
174
330
F9
100
AcDbEntity
  8
AM_4
100
AcDbLine
 10
-49.13536000000001
 20
-33.83297
 30
0.0
 11
-49.44635
 21
-33.68496
 31
0.0
  0
LINE
  5
175
330
F9
100
AcDbEntity
  8
AM_4
100
AcDbLine
 10
-48.82438
 20
-34.12897
 30
0.0
 11
-49.13536000000001
 21
-33.83297
 31
0.0
  0
LINE
  5
176
330
F9
100
AcDbEntity
  8
AM_4
100
AcDbLine
 10
-48.74663
 20
-34.498981
 30
0.0
 11
-48.82438
 21
-34.12897
 31
0.0
  0
LINE
  5
177
330
F9
100
AcDbEntity
  8
AM_4
100
AcDbLine
 10
-49.21311000000001
 20
-34.498981
 30
0.0
 11
-48.74663
 21
-34.498981
 31
0.0
  0
LINE
  5
178
330
F9
100
AcDbEntity
  8
AM_4
100
AcDbLine
 10
-49.29086
 20
-34.27698000000001
 30
0.0
 11
-49.21311000000001
 21
-34.498981
 31
0.0
  0
LINE
  5
179
330
F9
100
AcDbEntity
  8
AM_4
100
AcDbLine
 10
-49.5241
 20
-34.12897
 30
0.0
 11
-49.29086
 21
-34.27698000000001
 31
0.0
  0
LINE
  5
17A
330
F9
100
AcDbEntity
  8
AM_4
100
AcDbLine
 10
-49.83508
 20
-34.05497
 30
0.0
 11
-49.5241
 21
-34.12897
 31
0.0
  0
LINE
  5
17B
330
F9
100
AcDbEntity
  8
AM_4
100
AcDbLine
 10
-50.5348
 20
-34.05497
 30
0.0
 11
-49.83508
 21
-34.05497
 31
0.0
  0
LINE
  5
17C
330
F9
100
AcDbEntity
  8
AM_4
100
AcDbLine
 10
-50.84578
 20
-34.12897
 30
0.0
 11
-50.5348
 21
-34.05497
 31
0.0
  0
LINE
  5
17D
330
F9
100
AcDbEntity
  8
AM_4
100
AcDbLine
 10
-51.07902
 20
-34.27698000000001
 30
0.0
 11
-50.84578
 21
-34.12897
 31
0.0
  0
LINE
  5
17E
330
F9
100
AcDbEntity
  8
AM_4
100
AcDbLine
 10
-51.23451000000001
 20
-34.498981
 30
0.0
 11
-51.07902
 21
-34.27698000000001
 31
0.0
  0
LINE
  5
17F
330
F9
100
AcDbEntity
  8
AM_4
100
AcDbLine
 10
-51.31225999999999
 20
-34.794988
 30
0.0
 11
-51.23451000000001
 21
-34.498981
 31
0.0
  0
LINE
  5
180
330
F9
100
AcDbEntity
  8
AM_4
100
AcDbLine
 10
-51.31225999999999
 20
-35.905012
 30
0.0
 11
-51.31225999999999
 21
-34.794988
 31
0.0
  0
LINE
  5
181
330
F9
100
AcDbEntity
  8
AM_4
100
AcDbLine
 10
-51.23451000000001
 20
-36.201019
 30
0.0
 11
-51.31225999999999
 21
-35.905012
 31
0.0
  0
LINE
  5
182
330
F9
100
AcDbEntity
  8
AM_4
100
AcDbLine
 10
-51.07902
 20
-36.42302
 30
0.0
 11
-51.23451000000001
 21
-36.201019
 31
0.0
  0
LINE
  5
183
330
F9
100
AcDbEntity
  8
AM_4
100
AcDbLine
 10
-50.84578
 20
-36.57103000000001
 30
0.0
 11
-51.07902
 21
-36.42302
 31
0.0
  0
LINE
  5
184
330
F9
100
AcDbEntity
  8
AM_4
100
AcDbLine
 10
-50.5348
 20
-36.64503000000001
 30
0.0
 11
-50.84578
 21
-36.57103000000001
 31
0.0
  0
LINE
  5
185
330
F9
100
AcDbEntity
  8
AM_4
100
AcDbLine
 10
-49.83508
 20
-36.64503000000001
 30
0.0
 11
-50.5348
 21
-36.64503000000001
 31
0.0
  0
LINE
  5
186
330
F9
100
AcDbEntity
  8
AM_4
100
AcDbLine
 10
-49.5241
 20
-36.57103000000001
 30
0.0
 11
-49.83508
 21
-36.64503000000001
 31
0.0
  0
LINE
  5
187
330
F9
100
AcDbEntity
  8
AM_4
100
AcDbLine
 10
-49.29086
 20
-36.42302
 30
0.0
 11
-49.5241
 21
-36.57103000000001
 31
0.0
  0
LINE
  5
188
330
F9
100
AcDbEntity
  8
AM_4
100
AcDbLine
 10
-49.21311000000001
 20
-36.201019
 30
0.0
 11
-49.29086
 21
-36.42302
 31
0.0
  0
LINE
  5
189
330
F9
100
AcDbEntity
  8
AM_4
100
AcDbLine
 10
-49.21311000000001
 20
-35.609006
 30
0.0
 11
-49.21311000000001
 21
-36.201019
 31
0.0
  0
LINE
  5
18A
330
F9
100
AcDbEntity
  8
AM_4
100
AcDbLine
 10
-49.91283
 20
-35.609006
 30
0.0
 11
-49.21311000000001
 21
-35.609006
 31
0.0
  0
LINE
  5
18B
330
F9
100
AcDbEntity
  8
AM_4
100
AcDbLine
 10
-49.91283
 20
-35.164996
 30
0.0
 11
-49.91283
 21
-35.609006
 31
0.0
  0
LINE
  5
18C
330
F9
100
AcDbEntity
  8
AM_4
100
AcDbLine
 10
-48.74663
 20
-35.164996
 30
0.0
 11
-49.91283
 21
-35.164996
 31
0.0
  0
LINE
  5
18D
330
F9
100
AcDbEntity
  8
AM_4
100
AcDbLine
 10
-48.74663
 20
-36.27502
 30
0.0
 11
-48.74663
 21
-35.164996
 31
0.0
  0
LINE
  5
18E
330
F9
100
AcDbEntity
  8
AM_4
100
AcDbLine
 10
-48.82438
 20
-36.57103000000001
 30
0.0
 11
-48.74663
 21
-36.27502
 31
0.0
  0
LINE
  5
18F
330
F9
100
AcDbEntity
  8
AM_4
100
AcDbLine
 10
-49.13536000000001
 20
-36.86703
 30
0.0
 11
-48.82438
 21
-36.57103000000001
 31
0.0
  0
LINE
  5
190
330
F9
100
AcDbEntity
  8
AM_4
100
AcDbLine
 10
-49.44635
 20
-37.01504
 30
0.0
 11
-49.13536000000001
 21
-36.86703
 31
0.0
  0
LINE
  5
191
330
F9
100
AcDbEntity
  8
AM_4
100
AcDbLine
 10
-49.83508
 20
-37.08904
 30
0.0
 11
-49.44635
 21
-37.01504
 31
0.0
  0
LINE
  5
192
330
F9
100
AcDbEntity
  8
AM_4
100
AcDbLine
 10
-50.5348
 20
-37.08904
 30
0.0
 11
-49.83508
 21
-37.08904
 31
0.0
  0
LINE
  5
193
330
F9
100
AcDbEntity
  8
AM_4
100
AcDbLine
 10
-50.92353
 20
-37.01504
 30
0.0
 11
-50.5348
 21
-37.08904
 31
0.0
  0
LINE
  5
194
330
F9
100
AcDbEntity
  8
AM_4
100
AcDbLine
 10
-51.23451000000001
 20
-36.86703
 30
0.0
 11
-50.92353
 21
-37.01504
 31
0.0
  0
LINE
  5
195
330
F9
100
AcDbEntity
  8
AM_4
100
AcDbLine
 10
-51.5455
 20
-36.57103000000001
 30
0.0
 11
-51.23451000000001
 21
-36.86703
 31
0.0
  0
LINE
  5
196
330
F9
100
AcDbEntity
  8
AM_4
100
AcDbLine
 10
-51.70099
 20
-36.27502
 30
0.0
 11
-51.5455
 21
-36.57103000000001
 31
0.0
  0
LINE
  5
197
330
F9
100
AcDbEntity
  8
AM_4
100
AcDbLine
 10
-51.77874
 20
-35.905012
 30
0.0
 11
-51.70099
 21
-36.27502
 31
0.0
  0
LINE
  5
198
330
F9
100
AcDbEntity
  8
AM_4
100
AcDbLine
 10
-51.77874
 20
-34.794988
 30
0.0
 11
-51.77874
 21
-35.905012
 31
0.0
  0
LINE
  5
199
330
F9
100
AcDbEntity
  8
AM_4
100
AcDbLine
 10
-55.51056
 20
-33.61096000000001
 30
0.0
 11
-55.51056
 21
-37.08904
 31
0.0
  0
LINE
  5
19A
330
F9
100
AcDbEntity
  8
AM_4
100
AcDbLine
 10
-53.644649
 20
-33.61096000000001
 30
0.0
 11
-55.51056
 21
-33.61096000000001
 31
0.0
  0
LINE
  5
19B
330
F9
100
AcDbEntity
  8
AM_4
100
AcDbLine
 10
-53.255918
 20
-33.68496
 30
0.0
 11
-53.644649
 21
-33.61096000000001
 31
0.0
  0
LINE
  5
19C
330
F9
100
AcDbEntity
  8
AM_4
100
AcDbLine
 10
-52.94493
 20
-33.83297
 30
0.0
 11
-53.255918
 21
-33.68496
 31
0.0
  0
LINE
  5
19D
330
F9
100
AcDbEntity
  8
AM_4
100
AcDbLine
 10
-52.63395
 20
-34.12897
 30
0.0
 11
-52.94493
 21
-33.83297
 31
0.0
  0
LINE
  5
19E
330
F9
100
AcDbEntity
  8
AM_4
100
AcDbLine
 10
-52.47845
 20
-34.42498000000001
 30
0.0
 11
-52.63395
 21
-34.12897
 31
0.0
  0
LINE
  5
19F
330
F9
100
AcDbEntity
  8
AM_4
100
AcDbLine
 10
-52.40071
 20
-34.794988
 30
0.0
 11
-52.47845
 21
-34.42498000000001
 31
0.0
  0
LINE
  5
1A0
330
F9
100
AcDbEntity
  8
AM_4
100
AcDbLine
 10
-52.40071
 20
-35.905012
 30
0.0
 11
-52.40071
 21
-34.794988
 31
0.0
  0
LINE
  5
1A1
330
F9
100
AcDbEntity
  8
AM_4
100
AcDbLine
 10
-52.47845
 20
-36.27502
 30
0.0
 11
-52.40071
 21
-35.905012
 31
0.0
  0
LINE
  5
1A2
330
F9
100
AcDbEntity
  8
AM_4
100
AcDbLine
 10
-52.63395
 20
-36.57103000000001
 30
0.0
 11
-52.47845
 21
-36.27502
 31
0.0
  0
LINE
  5
1A3
330
F9
100
AcDbEntity
  8
AM_4
100
AcDbLine
 10
-52.94493
 20
-36.86703
 30
0.0
 11
-52.63395
 21
-36.57103000000001
 31
0.0
  0
LINE
  5
1A4
330
F9
100
AcDbEntity
  8
AM_4
100
AcDbLine
 10
-53.255918
 20
-37.01504
 30
0.0
 11
-52.94493
 21
-36.86703
 31
0.0
  0
LINE
  5
1A5
330
F9
100
AcDbEntity
  8
AM_4
100
AcDbLine
 10
-53.644649
 20
-37.08904
 30
0.0
 11
-53.255918
 21
-37.01504
 31
0.0
  0
LINE
  5
1A6
330
F9
100
AcDbEntity
  8
AM_4
100
AcDbLine
 10
-55.51056
 20
-37.08904
 30
0.0
 11
-53.644649
 21
-37.08904
 31
0.0
  0
LINE
  5
1A7
330
F9
100
AcDbEntity
  8
AM_4
100
AcDbLine
 10
-59.16464
 20
-34.42498000000001
 30
0.0
 11
-59.24238
 21
-34.794988
 31
0.0
  0
LINE
  5
1A8
330
F9
100
AcDbEntity
  8
AM_4
100
AcDbLine
 10
-59.00914
 20
-34.12897
 30
0.0
 11
-59.16464
 21
-34.42498000000001
 31
0.0
  0
LINE
  5
1A9
330
F9
100
AcDbEntity
  8
AM_4
100
AcDbLine
 10
-58.69816
 20
-33.83297
 30
0.0
 11
-59.00914
 21
-34.12897
 31
0.0
  0
LINE
  5
1AA
330
F9
100
AcDbEntity
  8
AM_4
100
AcDbLine
 10
-58.38717
 20
-33.68496
 30
0.0
 11
-58.69816
 21
-33.83297
 31
0.0
  0
LINE
  5
1AB
330
F9
100
AcDbEntity
  8
AM_4
100
AcDbLine
 10
-57.99844
 20
-33.61096000000001
 30
0.0
 11
-58.38717
 21
-33.68496
 31
0.0
  0
LINE
  5
1AC
330
F9
100
AcDbEntity
  8
AM_4
100
AcDbLine
 10
-57.37647
 20
-33.61096000000001
 30
0.0
 11
-57.99844
 21
-33.61096000000001
 31
0.0
  0
LINE
  5
1AD
330
F9
100
AcDbEntity
  8
AM_4
100
AcDbLine
 10
-56.98774
 20
-33.68496
 30
0.0
 11
-57.37647
 21
-33.61096000000001
 31
0.0
  0
LINE
  5
1AE
330
F9
100
AcDbEntity
  8
AM_4
100
AcDbLine
 10
-56.67675
 20
-33.83297
 30
0.0
 11
-56.98774
 21
-33.68496
 31
0.0
  0
LINE
  5
1AF
330
F9
100
AcDbEntity
  8
AM_4
100
AcDbLine
 10
-56.36577
 20
-34.12897
 30
0.0
 11
-56.67675
 21
-33.83297
 31
0.0
  0
LINE
  5
1B0
330
F9
100
AcDbEntity
  8
AM_4
100
AcDbLine
 10
-56.21028
 20
-34.42498000000001
 30
0.0
 11
-56.36577
 21
-34.12897
 31
0.0
  0
LINE
  5
1B1
330
F9
100
AcDbEntity
  8
AM_4
100
AcDbLine
 10
-56.13253
 20
-34.794988
 30
0.0
 11
-56.21028
 21
-34.42498000000001
 31
0.0
  0
LINE
  5
1B2
330
F9
100
AcDbEntity
  8
AM_4
100
AcDbLine
 10
-56.13253
 20
-35.905012
 30
0.0
 11
-56.13253
 21
-34.794988
 31
0.0
  0
LINE
  5
1B3
330
F9
100
AcDbEntity
  8
AM_4
100
AcDbLine
 10
-56.21028
 20
-36.27502
 30
0.0
 11
-56.13253
 21
-35.905012
 31
0.0
  0
LINE
  5
1B4
330
F9
100
AcDbEntity
  8
AM_4
100
AcDbLine
 10
-56.36577
 20
-36.57103000000001
 30
0.0
 11
-56.21028
 21
-36.27502
 31
0.0
  0
LINE
  5
1B5
330
F9
100
AcDbEntity
  8
AM_4
100
AcDbLine
 10
-56.67675
 20
-36.86703
 30
0.0
 11
-56.36577
 21
-36.57103000000001
 31
0.0
  0
LINE
  5
1B6
330
F9
100
AcDbEntity
  8
AM_4
100
AcDbLine
 10
-56.98774
 20
-37.01504
 30
0.0
 11
-56.67675
 21
-36.86703
 31
0.0
  0
LINE
  5
1B7
330
F9
100
AcDbEntity
  8
AM_4
100
AcDbLine
 10
-57.37647
 20
-37.08904
 30
0.0
 11
-56.98774
 21
-37.01504
 31
0.0
  0
LINE
  5
1B8
330
F9
100
AcDbEntity
  8
AM_4
100
AcDbLine
 10
-57.99844
 20
-37.08904
 30
0.0
 11
-57.37647
 21
-37.08904
 31
0.0
  0
LINE
  5
1B9
330
F9
100
AcDbEntity
  8
AM_4
100
AcDbLine
 10
-58.38717
 20
-37.01504
 30
0.0
 11
-57.99844
 21
-37.08904
 31
0.0
  0
LINE
  5
1BA
330
F9
100
AcDbEntity
  8
AM_4
100
AcDbLine
 10
-58.69816
 20
-36.86703
 30
0.0
 11
-58.38717
 21
-37.01504
 31
0.0
  0
LINE
  5
1BB
330
F9
100
AcDbEntity
  8
AM_4
100
AcDbLine
 10
-59.00914
 20
-36.57103000000001
 30
0.0
 11
-58.69816
 21
-36.86703
 31
0.0
  0
LINE
  5
1BC
330
F9
100
AcDbEntity
  8
AM_4
100
AcDbLine
 10
-59.16464
 20
-36.27502
 30
0.0
 11
-59.00914
 21
-36.57103000000001
 31
0.0
  0
LINE
  5
1BD
330
F9
100
AcDbEntity
  8
AM_4
100
AcDbLine
 10
-59.24238
 20
-35.905012
 30
0.0
 11
-59.16464
 21
-36.27502
 31
0.0
  0
LINE
  5
1BE
330
F9
100
AcDbEntity
  8
AM_4
100
AcDbLine
 10
-59.24238
 20
-34.794988
 30
0.0
 11
-59.24238
 21
-35.905012
 31
0.0
  0
LINE
  5
1BF
330
F9
100
AcDbEntity
  8
AM_4
100
AcDbLine
 10
-61.10829
 20
-33.61096000000001
 30
0.0
 11
-62.9742
 21
-33.61096000000001
 31
0.0
  0
LINE
  5
1C0
330
F9
100
AcDbEntity
  8
AM_4
100
AcDbLine
 10
-60.71956000000001
 20
-33.68496
 30
0.0
 11
-61.10829
 21
-33.61096000000001
 31
0.0
  0
LINE
  5
1C1
330
F9
100
AcDbEntity
  8
AM_4
100
AcDbLine
 10
-60.40858
 20
-33.83297
 30
0.0
 11
-60.71956000000001
 21
-33.68496
 31
0.0
  0
LINE
  5
1C2
330
F9
100
AcDbEntity
  8
AM_4
100
AcDbLine
 10
-60.09759
 20
-34.12897
 30
0.0
 11
-60.40858
 21
-33.83297
 31
0.0
  0
LINE
  5
1C3
330
F9
100
AcDbEntity
  8
AM_4
100
AcDbLine
 10
-59.9421
 20
-34.42498000000001
 30
0.0
 11
-60.09759
 21
-34.12897
 31
0.0
  0
LINE
  5
1C4
330
F9
100
AcDbEntity
  8
AM_4
100
AcDbLine
 10
-59.86435
 20
-34.794988
 30
0.0
 11
-59.9421
 21
-34.42498000000001
 31
0.0
  0
LINE
  5
1C5
330
F9
100
AcDbEntity
  8
AM_4
100
AcDbLine
 10
-59.86435
 20
-35.905012
 30
0.0
 11
-59.86435
 21
-34.794988
 31
0.0
  0
LINE
  5
1C6
330
F9
100
AcDbEntity
  8
AM_4
100
AcDbLine
 10
-59.9421
 20
-36.27502
 30
0.0
 11
-59.86435
 21
-35.905012
 31
0.0
  0
LINE
  5
1C7
330
F9
100
AcDbEntity
  8
AM_4
100
AcDbLine
 10
-60.09759
 20
-36.57103000000001
 30
0.0
 11
-59.9421
 21
-36.27502
 31
0.0
  0
LINE
  5
1C8
330
F9
100
AcDbEntity
  8
AM_4
100
AcDbLine
 10
-60.40858
 20
-36.86703
 30
0.0
 11
-60.09759
 21
-36.57103000000001
 31
0.0
  0
LINE
  5
1C9
330
F9
100
AcDbEntity
  8
AM_4
100
AcDbLine
 10
-60.71956000000001
 20
-37.01504
 30
0.0
 11
-60.40858
 21
-36.86703
 31
0.0
  0
LINE
  5
1CA
330
F9
100
AcDbEntity
  8
AM_4
100
AcDbLine
 10
-61.10829
 20
-37.08904
 30
0.0
 11
-60.71956000000001
 21
-37.01504
 31
0.0
  0
LINE
  5
1CB
330
F9
100
AcDbEntity
  8
AM_4
100
AcDbLine
 10
-62.9742
 20
-37.08904
 30
0.0
 11
-61.10829
 21
-37.08904
 31
0.0
  0
LINE
  5
1CC
330
F9
100
AcDbEntity
  8
AM_4
100
AcDbLine
 10
-62.9742
 20
-33.61096000000001
 30
0.0
 11
-62.9742
 21
-37.08904
 31
0.0
  0
LINE
  5
1CD
330
F9
100
AcDbEntity
  8
AM_4
100
AcDbLine
 10
-28.30264052268968
 20
-42.9
 30
0.0
 11
-28.30264052268968
 21
-27.80000000000002
 31
0.0
  0
LWPOLYLINE
  5
1CE
330
F9
100
AcDbEntity
  8
AM_4
100
AcDbPolyline
 90
       19
 70
     0
 43
0.0
 10
79.4
 20
-29.3
 10
79.39429204713763
 20
-29.16926638587851
 10
79.37721162951833
 20
-29.03952773349961
 10
79.34888873943362
 20
-28.91177143234622
 10
79.30953893117886
 20
-28.7869697850115
 10
79.25946168055499
 20
-28.66607260738895
 10
79.19903810567668
 20
-28.55
 10
79.12872806643351
 20
-28.43963534547344
 10
79.04906666467848
 20
-28.3358185854702
 10
78.96066017177984
 20
-28.23933982822019
 10
78.86418141452984
 20
-28.15093333532154
 10
78.76036465452658
 20
-28.07127193356652
 10
78.65000000000002
 20
-28.00096189432335
 10
78.53392739261108
 20
-27.94053831944504
 10
78.41303021498852
 20
-27.89046106882115
 10
78.2882285676538
 20
-27.85111126056641
 10
78.16047226650042
 20
-27.8227883704817
 10
78.0307336141215
 20
-27.8057079528624
 10
77.90000000000002
 20
-27.80000000000001
  0
LINE
  5
1CF
330
F9
100
AcDbEntity
  8
AM_4
100
AcDbLine
 10
75.42500000000003
 20
-42.9
 30
0.0
 11
75.42500000000003
 21
-27.8
 31
0.0
  0
LINE
  5
1D0
330
F9
100
AcDbEntity
  8
AM_4
100
AcDbLine
 10
79.4
 20
-42.9
 30
0.0
 11
79.4
 21
-29.3
 31
0.0
  0
LWPOLYLINE
  5
1D1
330
F9
100
AcDbEntity
  8
AM_4
100
AcDbPolyline
 90
       19
 70
     0
 43
0.0
 10
-77.9
 20
-27.8
 10
-78.0307336141215
 20
-27.80570795286238
 10
-78.16047226650042
 20
-27.82278837048169
 10
-78.2882285676538
 20
-27.85111126056639
 10
-78.41303021498852
 20
-27.89046106882113
 10
-78.53392739261108
 20
-27.94053831944502
 10
-78.65
 20
-28.00096189432334
 10
-78.76036465452658
 20
-28.07127193356651
 10
-78.86418141452984
 20
-28.15093333532153
 10
-78.96066017177984
 20
-28.23933982822017
 10
-79.04906666467848
 20
-28.33581858547018
 10
-79.12872806643351
 20
-28.43963534547342
 10
-79.19903810567668
 20
-28.54999999999999
 10
-79.25946168055499
 20
-28.66607260738894
 10
-79.30953893117888
 20
-28.78696978501149
 10
-79.34888873943363
 20
-28.91177143234621
 10
-79.37721162951833
 20
-29.03952773349959
 10
-79.39429204713764
 20
-29.1692663858785
 10
-79.4
 20
-29.29999979883432
  0
LINE
  5
1D2
330
F9
100
AcDbEntity
  8
AM_4
100
AcDbLine
 10
-79.4
 20
-42.9
 30
0.0
 11
-79.4
 21
-29.3
 31
0.0
  0
LINE
  5
1D3
330
F9
100
AcDbEntity
  8
AM_4
100
AcDbLine
 10
-79.4
 20
-42.9
 30
0.0
 11
79.4
 21
-42.9
 31
0.0
  0
LINE
  5
1D4
330
F9
100
AcDbEntity
  8
AM_4
100
AcDbLine
 10
-75.42500000000003
 20
-42.9
 30
0.0
 11
-75.42500000000003
 21
-27.8
 31
0.0
  0
LINE
  5
1D5
330
F9
100
AcDbEntity
  8
AM_4
100
AcDbLine
 10
-28.30264052268968
 20
-27.80000000000002
 30
0.0
 11
-77.9
 21
-27.8
 31
0.0
  0
LINE
  5
1D6
330
F9
100
AcDbEntity
  8
AM_4
100
AcDbLine
 10
28.30264052268967
 20
-27.7999999999996
 30
0.0
 11
27.61037564952481
 21
-14.09493371719524
 31
0.0
  0
LINE
  5
1D7
330
F9
100
AcDbEntity
  8
AM_4
100
AcDbLine
 10
28.30264052268967
 20
-27.7999999999996
 30
0.0
 11
77.90000000000002
 21
-27.8
 31
0.0
  0
LWPOLYLINE
  5
1D8
330
F9
100
AcDbEntity
  8
AM_4
100
AcDbPolyline
 90
       19
 70
     0
 43
0.0
 10
38.40000000000001
 20
-27.8
 10
38.26926638587852
 20
-27.79429204713762
 10
38.13952773349961
 20
-27.77721162951832
 10
38.01177143234623
 20
-27.74888873943361
 10
37.88696978501151
 20
-27.70953893117887
 10
37.76607260738896
 20
-27.65946168055498
 10
37.65000000000001
 20
-27.59903810567667
 10
37.53963534547344
 20
-27.5287280664335
 10
37.4358185854702
 20
-27.44906666467848
 10
37.33933982822018
 20
-27.36066017177983
 10
37.25093333532154
 20
-27.26418141452982
 10
37.17127193356652
 20
-27.16036465452658
 10
37.10096189432335
 20
-27.05000000000001
 10
37.04053831944504
 20
-26.93392739261106
 10
36.99046106882115
 20
-26.81303021498852
 10
36.95111126056641
 20
-26.6882285676538
 10
36.9227883704817
 20
-26.56047226650041
 10
36.90570795286239
 20
-26.4307336141215
 10
36.90000000000001
 20
-26.30000000000002
  0
LINE
  5
1D9
330
F9
100
AcDbEntity
  8
AM_4
100
AcDbLine
 10
36.90000000000001
 20
0.0
 30
0.0
 11
36.90000000000001
 21
-26.30000000000001
 31
0.0
  0
LWPOLYLINE
  5
1DA
330
F9
100
AcDbEntity
  8
AM_4
100
AcDbPolyline
 90
       37
 70
     0
 43
0.0
 10
-36.90000000000001
 20
-0.0000000000000068
 10
-36.75958435958542
 20
3.216046907388576
 10
-36.33940608615048
 20
6.407617755909716
 10
-35.64266299006663
 20
9.550422764282999
 10
-34.67465770700002
 20
12.62054328871715
 10
-33.4427573416524
 20
15.59461385823179
 10
-31.9563373996458
 20
18.44999999999997
 10
-30.22671043426382
 20
21.16497050135358
 10
-28.26703995109031
 20
23.71886279743327
 10
-26.09224022578363
 20
26.09224022578357
 10
-23.71886279743334
 20
28.26703995109026
 10
-21.16497050135364
 20
30.22671043426377
 10
-18.45000000000004
 20
31.95633739964576
 10
-15.59461385823186
 20
33.44275734165235
 10
-12.62054328871723
 20
34.67465770699999
 10
-9.550422764283072
 20
35.6426629900666
 10
-6.407617755909792
 20
36.33940608615047
 10
-3.216046907388651
 20
36.7595843595854
 10
-0.0000000000000676
 20
36.90000000000001
 10
3.216046907388516
 20
36.75958435958542
 10
6.407617755909659
 20
36.3394060861505
 10
9.550422764282942
 20
35.64266299006664
 10
12.6205432887171
 20
34.67465770700004
 10
15.59461385823174
 20
33.44275734165242
 10
18.44999999999993
 20
31.95633739964584
 10
21.16497050135353
 20
30.22671043426385
 10
23.71886279743324
 20
28.26703995109036
 10
26.09224022578355
 20
26.09224022578368
 10
28.26703995109024
 20
23.71886279743339
 10
30.22671043426375
 20
21.1649705013537
 10
31.95633739964574
 20
18.45000000000011
 10
33.44275734165235
 20
15.59461385823192
 10
34.67465770699999
 20
12.6205432887173
 10
35.6426629900666
 20
9.550422764283141
 10
36.33940608615048
 20
6.407617755909863
 10
36.75958435958542
 20
3.216046907388725
 10
36.90000000000001
 20
0.0000000000001424
  0
LINE
  5
1DB
330
F9
100
AcDbEntity
  8
AM_4
100
AcDbLine
 10
-36.9
 20
-26.3
 30
0.0
 11
-36.9
 21
0.0000000000000046
 31
0.0
  0
LWPOLYLINE
  5
1DC
330
F9
100
AcDbEntity
  8
AM_4
100
AcDbPolyline
 90
       19
 70
     0
 43
0.0
 10
-36.9
 20
-26.3
 10
-36.90570795286237
 20
-26.43073361412148
 10
-36.92278837048168
 20
-26.56047226650039
 10
-36.95111126056639
 20
-26.68822856765378
 10
-36.99046106882113
 20
-26.8130302149885
 10
-37.04053831944502
 20
-26.93392739261104
 10
-37.10096189432333
 20
-27.04999999999999
 10
-37.1712719335665
 20
-27.16036465452656
 10
-37.25093333532152
 20
-27.2641814145298
 10
-37.33933982822017
 20
-27.36066017177982
 10
-37.43581858547017
 20
-27.44906666467846
 10
-37.53963534547341
 20
-27.52872806643348
 10
-37.64999999999998
 20
-27.59903810567666
 10
-37.76607260738893
 20
-27.65946168055497
 10
-37.88696978501148
 20
-27.70953893117886
 10
-38.0117714323462
 20
-27.7488887394336
 10
-38.13952773349958
 20
-27.77721162951831
 10
-38.2692663858785
 20
-27.79429204713762
 10
-38.39999999999998
 20
-27.8
  0
LINE
  5
1DD
330
F9
100
AcDbEntity
  8
AM_4
100
AcDbLine
 10
-27.61037564952479
 20
-14.09493371719523
 30
0.0
 11
-28.30264052268968
 21
-27.80000000000002
 31
0.0
  0
LWPOLYLINE
  5
1DE
330
F9
100
AcDbEntity
  8
AM_4
100
AcDbPolyline
 90
       48
 70
     0
 43
0.0
 10
-27.61037564952482
 20
-14.09493371719524
 10
-28.73376425147922
 20
-11.63489544174829
 10
-29.63847155755865
 20
-9.086308586647684
 10
-30.31761219888662
 20
-6.468569436739564
 10
-30.76601750510632
 20
-3.80160056758884
 10
-30.98027484108287
 20
-1.105699222649583
 10
-30.95875357911738
 20
1.598617161013483
 10
-30.70161750900831
 20
4.290767102809804
 10
-30.21082359151218
 20
6.950261716117729
 10
-29.4901070646906
 20
9.556860641083231
 10
-28.54495301649324
 20
12.09072608597987
 10
-27.38255463992648
 20
14.53257380478217
 10
-26.01175848851134
 20
16.86381986192211
 10
-24.44299714866942
 20
19.06672206725998
 10
-22.68820984144092
 20
21.12451500486445
 10
-20.76075155780341
 20
23.021537627951
 10
-18.67529141912647
 20
24.74335244890436
 10
-16.44770103630071
 20
26.27685541727687
 10
-14.09493371719529
 20
27.61037564952479
 10
-11.63489544174834
 20
28.73376425147919
 10
-9.08630858664774
 20
29.63847155755862
 10
-6.468569436739623
 20
30.31761219888661
 10
-3.801600567588897
 20
30.76601750510631
 10
-1.105699222649639
 20
30.98027484108286
 10
1.598617161013427
 20
30.95875357911738
 10
4.290767102809749
 20
30.70161750900831
 10
6.950261716117675
 20
30.21082359151218
 10
9.55686064108318
 20
29.49010706469061
 10
12.09072608597981
 20
28.54495301649326
 10
14.53257380478212
 20
27.3825546399265
 10
16.86381986192206
 20
26.01175848851136
 10
19.06672206725994
 20
24.44299714866946
 10
21.12451500486441
 20
22.68820984144096
 10
23.02153762795097
 20
20.76075155780344
 10
24.74335244890433
 20
18.67529141912651
 10
26.27685541727684
 20
16.44770103630076
 10
27.61037564952477
 20
14.09493371719534
 10
28.73376425147918
 20
11.63489544174839
 10
29.63847155755862
 20
9.086308586647794
 10
30.3176121988866
 20
6.468569436739676
 10
30.76601750510631
 20
3.801600567588954
 10
30.98027484108287
 20
1.105699222649696
 10
30.95875357911739
 20
-1.59861716101337
 10
30.70161750900833
 20
-4.29076710280969
 10
30.2108235915122
 20
-6.950261716117645
 10
29.49010706469063
 20
-9.55686064108315
 10
28.54495301649327
 20
-12.09072608597979
 10
27.61037564952482
 20
-14.09493371719525
  0
LINE
  5
1DF
330
F9
100
AcDbEntity
  8
AM_4
100
AcDbLine
 10
-61.10829
 20
-34.05497
 30
0.0
 11
-62.50773
 21
-34.05497
 31
0.0
  0
LINE
  5
1E0
330
F9
100
AcDbEntity
  8
AM_4
100
AcDbLine
 10
-62.50773
 20
-34.05497
 30
0.0
 11
-62.50773
 21
-36.64503000000001
 31
0.0
  0
LINE
  5
1E1
330
F9
100
AcDbEntity
  8
AM_4
100
AcDbLine
 10
-62.50773
 20
-36.64503000000001
 30
0.0
 11
-61.10829
 21
-36.64503000000001
 31
0.0
  0
LINE
  5
1E2
330
F9
100
AcDbEntity
  8
AM_4
100
AcDbLine
 10
-61.10829
 20
-36.64503000000001
 30
0.0
 11
-60.79731
 21
-36.57103000000001
 31
0.0
  0
LINE
  5
1E3
330
F9
100
AcDbEntity
  8
AM_4
100
AcDbLine
 10
-60.79731
 20
-36.57103000000001
 30
0.0
 11
-60.56407000000001
 21
-36.42302
 31
0.0
  0
LINE
  5
1E4
330
F9
100
AcDbEntity
  8
AM_4
100
AcDbLine
 10
-60.56407000000001
 20
-36.42302
 30
0.0
 11
-60.40858
 21
-36.201019
 31
0.0
  0
LINE
  5
1E5
330
F9
100
AcDbEntity
  8
AM_4
100
AcDbLine
 10
-60.40858
 20
-36.201019
 30
0.0
 11
-60.33083
 21
-35.905012
 31
0.0
  0
LINE
  5
1E6
330
F9
100
AcDbEntity
  8
AM_4
100
AcDbLine
 10
-60.33083
 20
-35.905012
 30
0.0
 11
-60.33083
 21
-34.794988
 31
0.0
  0
LINE
  5
1E7
330
F9
100
AcDbEntity
  8
AM_4
100
AcDbLine
 10
-60.33083
 20
-34.794988
 30
0.0
 11
-60.40858
 21
-34.498981
 31
0.0
  0
LINE
  5
1E8
330
F9
100
AcDbEntity
  8
AM_4
100
AcDbLine
 10
-60.40858
 20
-34.498981
 30
0.0
 11
-60.56407000000001
 21
-34.27698000000001
 31
0.0
  0
LINE
  5
1E9
330
F9
100
AcDbEntity
  8
AM_4
100
AcDbLine
 10
-60.56407000000001
 20
-34.27698000000001
 30
0.0
 11
-60.79731
 21
-34.12897
 31
0.0
  0
LINE
  5
1EA
330
F9
100
AcDbEntity
  8
AM_4
100
AcDbLine
 10
-60.79731
 20
-34.12897
 30
0.0
 11
-61.10829
 21
-34.05497
 31
0.0
  0
ENDBLK
  5
FC
330
F9
100
AcDbEntity
  8
0
100
AcDbBlockEnd
  0
ENDSEC
  0
SECTION
  2
ENTITIES
  0
INSERT
  5
6F
330
1F
100
AcDbEntity
  8
0
100
AcDbBlockReference
  2
1__129267_0
 10
0.0
 20
0.0
 30
0.0
  0
POINT
  5
1EC
330
1F
100
AcDbEntity
  8
ConnectionPoints
100
AcDbPoint
 10
0.0
 20
0.0
 30
0.0
  0
POINT
  5
1ED
330
1F
100
AcDbEntity
  8
ConnectionPoints
100
AcDbPoint
 10
0.0
 20
0.0
 30
-13.5
  0
POINT
  5
1EE
330
1F
100
AcDbEntity
  8
ConnectionPoints
100
AcDbPoint
 10
0.0
 20
0.0
 30
0.0
  0
ENDSEC
  0
SECTION
  2
OBJECTS
  0
DICTIONARY
  5
C
330
0
100
AcDbDictionary
281
     1
  3
ACAD_DETAILVIEWSTYLE
350
1F6
  3
ACAD_GROUP
350
D
  3
ACAD_LAYOUT
350
1A
  3
ACAD_MATERIAL
350
43
  3
ACAD_MLEADERSTYLE
350
6B
  3
ACAD_MLINESTYLE
350
17
  3
ACAD_PLOTSETTINGS
350
19
  3
ACAD_PLOTSTYLENAME
350
E
  3
ACAD_SCALELIST
350
47
  3
ACAD_SECTIONVIEWSTYLE
350
1F7
  3
ACAD_TABLESTYLE
350
69
  3
ACAD_VISUALSTYLE
350
2A
  3
ACDB_RECOMPOSE_DATA
350
1F3
  3
AcDbVariableDictionary
350
1EF
  0
SUN
  5
6D
330
29
100
AcDbSun
 90
        1
290
     0
 63
     7
421
 16777215
 40
1.0
291
     1
 91
  2455826
 92
 54000000
292
     0
 70
     2
 71
   256
280
     1
  0
DICTIONARY
  5
1F6
102
{ACAD_REACTORS
330
C
102
}
330
C
100
AcDbDictionary
281
     1
  0
DICTIONARY
  5
D
102
{ACAD_REACTORS
330
C
102
}
330
C
100
AcDbDictionary
281
     1
  0
DICTIONARY
  5
1A
102
{ACAD_REACTORS
330
C
102
}
330
C
100
AcDbDictionary
281
     1
  3
Layout1
350
1E
  3
Layout2
350
26
  3
Model
350
22
  0
DICTIONARY
  5
43
102
{ACAD_REACTORS
330
C
102
}
330
C
100
AcDbDictionary
281
     1
  3
ByBlock
350
45
  3
ByLayer
350
44
  3
Global
350
46
  0
DICTIONARY
  5
6B
102
{ACAD_REACTORS
330
C
102
}
330
C
100
AcDbDictionary
281
     1
  3
Standard
350
6C
  0
DICTIONARY
  5
17
102
{ACAD_REACTORS
330
C
102
}
330
C
100
AcDbDictionary
281
     1
  3
Standard
350
18
  0
DICTIONARY
  5
19
102
{ACAD_REACTORS
330
C
102
}
330
C
100
AcDbDictionary
281
     1
  0
ACDBDICTIONARYWDFLT
  5
E
102
{ACAD_REACTORS
330
C
102
}
330
C
100
AcDbDictionary
281
     1
  3
Normal
350
F
100
AcDbDictionaryWithDefault
340
F
  0
DICTIONARY
  5
47
102
{ACAD_REACTORS
330
C
102
}
330
C
100
AcDbDictionary
281
     1
  3
A0
350
48
  3
A1
350
49
  3
A2
350
4A
  3
A3
350
4B
  3
A4
350
4C
  3
A5
350
4D
  3
A6
350
4E
  3
A7
350
4F
  3
A8
350
50
  3
A9
350
51
  3
B0
350
52
  3
B1
350
53
  3
B2
350
54
  3
B3
350
55
  3
B4
350
56
  3
B5
350
57
  3
B6
350
58
  3
B7
350
59
  3
B8
350
5A
  3
B9
350
5B
  3
C0
350
5C
  3
C1
350
5D
  3
C2
350
5E
  3
C3
350
5F
  3
C4
350
60
  3
C5
350
61
  3
C6
350
62
  3
C7
350
63
  3
C8
350
64
  3
C9
350
65
  3
D0
350
66
  3
D1
350
67
  3
D2
350
68
  0
DICTIONARY
  5
1F7
102
{ACAD_REACTORS
330
C
102
}
330
C
100
AcDbDictionary
281
     1
  0
DICTIONARY
  5
69
102
{ACAD_REACTORS
330
C
102
}
330
C
100
AcDbDictionary
281
     1
  3
Standard
350
6A
  0
DICTIONARY
  5
2A
102
{ACAD_REACTORS
330
C
102
}
330
C
100
AcDbDictionary
281
     1
  3
2dWireframe
350
2F
  3
Basic
350
32
  3
Brighten
350
36
  3
ColorChange
350
3A
  3
Conceptual
350
34
  3
Dim
350
35
  3
EdgeColorOff
350
3D
  3
Facepattern
350
39
  3
Flat
350
2B
  3
FlatWithEdges
350
2C
  3
Gouraud
350
2D
  3
GouraudWithEdges
350
2E
  3
Hidden
350
31
  3
JitterOff
350
3B
  3
Linepattern
350
38
  3
OverhangOff
350
3C
  3
Realistic
350
33
  3
Shaded
350
42
  3
Shaded with edges
350
41
  3
Shades of Gray
350
3E
  3
Sketchy
350
3F
  3
Thicken
350
37
  3
Wireframe
350
30
  3
X-Ray
350
40
  0
XRECORD
  5
1F3
102
{ACAD_REACTORS
330
C
102
}
330
C
100
AcDbXrecord
280
     1
 90
        1
330
6A
  0
DICTIONARY
  5
1EF
102
{ACAD_REACTORS
330
C
102
}
330
C
100
AcDbDictionary
281
     1
  3
CANNOSCALE
350
1F0
  3
CMLEADERSTYLE
350
1F5
  3
CTABLESTYLE
350
1F4
  0
LAYOUT
  5
1E
102
{ACAD_REACTORS
330
1A
102
}
330
1A
100
AcDbPlotSettings
  1

  2
none_device
  4

  6

 40
0.0
 41
0.0
 42
0.0
 43
0.0
 44
0.0
 45
0.0
 46
0.0
 47
0.0
 48
0.0
 49
0.0
140
0.0
141
0.0
142
1.0
143
1.0
 70
   688
 72
     1
 73
     0
 74
     5
  7

 75
    16
 76
     0
 77
     2
 78
   300
147
1.0
148
0.0
149
0.0
100
AcDbLayout
  1
Layout1
 70
     1
 71
     1
 10
0.0
 20
0.0
 11
420.0
 21
297.0
 12
0.0
 22
0.0
 32
0.0
 14
1.000000000000000E+20
 24
1.000000000000000E+20
 34
1.000000000000000E+20
 15
-1.000000000000000E+20
 25
-1.000000000000000E+20
 35
-1.000000000000000E+20
146
0.0
 13
0.0
 23
0.0
 33
0.0
 16
1.0
 26
0.0
 36
0.0
 17
0.0
 27
1.0
 37
0.0
 76
     0
330
1B
  0
LAYOUT
  5
26
102
{ACAD_REACTORS
330
1A
102
}
330
1A
100
AcDbPlotSettings
  1

  2
none_device
  4

  6

 40
0.0
 41
0.0
 42
0.0
 43
0.0
 44
0.0
 45
0.0
 46
0.0
 47
0.0
 48
0.0
 49
0.0
140
0.0
141
0.0
142
1.0
143
1.0
 70
   688
 72
     1
 73
     0
 74
     5
  7

 75
    16
 76
     0
 77
     2
 78
   300
147
1.0
148
0.0
149
0.0
100
AcDbLayout
  1
Layout2
 70
     1
 71
     2
 10
0.0
 20
0.0
 11
0.0
 21
0.0
 12
0.0
 22
0.0
 32
0.0
 14
0.0
 24
0.0
 34
0.0
 15
0.0
 25
0.0
 35
0.0
146
0.0
 13
0.0
 23
0.0
 33
0.0
 16
1.0
 26
0.0
 36
0.0
 17
0.0
 27
1.0
 37
0.0
 76
     0
330
23
  0
LAYOUT
  5
22
102
{ACAD_REACTORS
330
1A
102
}
330
1A
100
AcDbPlotSettings
  1

  2
none_device
  4
Letter_(8.50_x_11.00_Inches)
  6

 40
6.35
 41
6.35
 42
6.35000508
 43
6.35000508
 44
215.9
 45
279.4
 46
0.0
 47
0.0
 48
0.0
 49
0.0
140
0.0
141
0.0
142
1.0
143
1.0
 70
  1712
 72
     1
 73
     0
 74
     0
  7

 75
     0
 76
     0
 77
     2
 78
   300
147
1.0
148
0.0
149
0.0
100
AcDbLayout
  1
Model
 70
     1
 71
     0
 10
0.0
 20
0.0
 11
420.0
 21
297.0
 12
0.0
 22
0.0
 32
0.0
 14
1.000000000000000E+20
 24
1.000000000000000E+20
 34
1.000000000000000E+20
 15
-1.000000000000000E+20
 25
-1.000000000000000E+20
 35
-1.000000000000000E+20
146
0.0
 13
0.0
 23
0.0
 33
0.0
 16
1.0
 26
0.0
 36
0.0
 17
0.0
 27
1.0
 37
0.0
 76
     0
330
1F
331
29
  0
MATERIAL
  5
45
102
{ACAD_REACTORS
330
43
102
}
330
43
100
AcDbMaterial
  1
ByBlock
 72
     1
 94
      127
  0
MATERIAL
  5
44
102
{ACAD_REACTORS
330
43
102
}
330
43
100
AcDbMaterial
  1
ByLayer
 72
     1
 94
      127
  0
MATERIAL
  5
46
102
{ACAD_REACTORS
330
43
102
}
330
43
100
AcDbMaterial
  1
Global
 72
     1
 94
      127
  0
MLEADERSTYLE
  5
6C
102
{ACAD_REACTORS
330
6B
102
}
330
6B
100
AcDbMLeaderStyle
179
     2
170
     2
171
     1
172
     0
 90
        2
 40
0.0
 41
0.0
173
     1
 91
-1056964608
340
14
 92
       -2
290
     1
 42
2.0
291
     1
 43
8.0
  3
Standard
341
0
 44
4.0
300

342
11
174
     1
178
     6
175
     1
176
     0
 93
-1056964608
 45
4.0
292
     0
297
     0
 46
4.0
343
0
 94
-1056964608
 47
1.0
 49
1.0
140
1.0
293
     1
141
0.0
294
     1
177
     0
142
1.0
295
     0
296
     0
143
3.75
271
     0
272
     9
273
     9
298
     0
  0
MLINESTYLE
  5
18
102
{ACAD_REACTORS
330
17
102
}
330
17
100
AcDbMlineStyle
  2
Standard
 70
     0
  3

 62
   256
 51
90.0
 52
90.0
 71
     2
 49
0.5
 62
   256
  6
BYLAYER
 49
-0.5
 62
   256
  6
BYLAYER
  0
ACDBPLACEHOLDER
  5
F
102
{ACAD_REACTORS
330
E
102
}
330
E
  0
SCALE
  5
48
102
{ACAD_REACTORS
330
47
102
}
330
47
100
AcDbScale
 70
     0
300
1:1
140
1.0
141
1.0
290
     1
  0
SCALE
  5
49
102
{ACAD_REACTORS
330
47
102
}
330
47
100
AcDbScale
 70
     0
300
1:2
140
1.0
141
2.0
290
     0
  0
SCALE
  5
4A
102
{ACAD_REACTORS
330
47
102
}
330
47
100
AcDbScale
 70
     0
300
1:4
140
1.0
141
4.0
290
     0
  0
SCALE
  5
4B
102
{ACAD_REACTORS
330
47
102
}
330
47
100
AcDbScale
 70
     0
300
1:5
140
1.0
141
5.0
290
     0
  0
SCALE
  5
4C
102
{ACAD_REACTORS
330
47
102
}
330
47
100
AcDbScale
 70
     0
300
1:8
140
1.0
141
8.0
290
     0
  0
SCALE
  5
4D
102
{ACAD_REACTORS
330
47
102
}
330
47
100
AcDbScale
 70
     0
300
1:10
140
1.0
141
10.0
290
     0
  0
SCALE
  5
4E
102
{ACAD_REACTORS
330
47
102
}
330
47
100
AcDbScale
 70
     0
300
1:16
140
1.0
141
16.0
290
     0
  0
SCALE
  5
4F
102
{ACAD_REACTORS
330
47
102
}
330
47
100
AcDbScale
 70
     0
300
1:20
140
1.0
141
20.0
290
     0
  0
SCALE
  5
50
102
{ACAD_REACTORS
330
47
102
}
330
47
100
AcDbScale
 70
     0
300
1:30
140
1.0
141
30.0
290
     0
  0
SCALE
  5
51
102
{ACAD_REACTORS
330
47
102
}
330
47
100
AcDbScale
 70
     0
300
1:40
140
1.0
141
40.0
290
     0
  0
SCALE
  5
52
102
{ACAD_REACTORS
330
47
102
}
330
47
100
AcDbScale
 70
     0
300
1:50
140
1.0
141
50.0
290
     0
  0
SCALE
  5
53
102
{ACAD_REACTORS
330
47
102
}
330
47
100
AcDbScale
 70
     0
300
1:100
140
1.0
141
100.0
290
     0
  0
SCALE
  5
54
102
{ACAD_REACTORS
330
47
102
}
330
47
100
AcDbScale
 70
     0
300
2:1
140
2.0
141
1.0
290
     0
  0
SCALE
  5
55
102
{ACAD_REACTORS
330
47
102
}
330
47
100
AcDbScale
 70
     0
300
4:1
140
4.0
141
1.0
290
     0
  0
SCALE
  5
56
102
{ACAD_REACTORS
330
47
102
}
330
47
100
AcDbScale
 70
     0
300
8:1
140
8.0
141
1.0
290
     0
  0
SCALE
  5
57
102
{ACAD_REACTORS
330
47
102
}
330
47
100
AcDbScale
 70
     0
300
10:1
140
10.0
141
1.0
290
     0
  0
SCALE
  5
58
102
{ACAD_REACTORS
330
47
102
}
330
47
100
AcDbScale
 70
     0
300
100:1
140
100.0
141
1.0
290
     0
  0
SCALE
  5
59
102
{ACAD_REACTORS
330
47
102
}
330
47
100
AcDbScale
 70
     0
300
1/128" = 1'-0"
140
0.0078125
141
12.0
290
     0
  0
SCALE
  5
5A
102
{ACAD_REACTORS
330
47
102
}
330
47
100
AcDbScale
 70
     0
300
1/64" = 1'-0"
140
0.015625
141
12.0
290
     0
  0
SCALE
  5
5B
102
{ACAD_REACTORS
330
47
102
}
330
47
100
AcDbScale
 70
     0
300
1/32" = 1'-0"
140
0.03125
141
12.0
290
     0
  0
SCALE
  5
5C
102
{ACAD_REACTORS
330
47
102
}
330
47
100
AcDbScale
 70
     0
300
1/16" = 1'-0"
140
0.0625
141
12.0
290
     0
  0
SCALE
  5
5D
102
{ACAD_REACTORS
330
47
102
}
330
47
100
AcDbScale
 70
     0
300
3/32" = 1'-0"
140
0.09375
141
12.0
290
     0
  0
SCALE
  5
5E
102
{ACAD_REACTORS
330
47
102
}
330
47
100
AcDbScale
 70
     0
300
1/8" = 1'-0"
140
0.125
141
12.0
290
     0
  0
SCALE
  5
5F
102
{ACAD_REACTORS
330
47
102
}
330
47
100
AcDbScale
 70
     0
300
3/16" = 1'-0"
140
0.1875
141
12.0
290
     0
  0
SCALE
  5
60
102
{ACAD_REACTORS
330
47
102
}
330
47
100
AcDbScale
 70
     0
300
1/4" = 1'-0"
140
0.25
141
12.0
290
     0
  0
SCALE
  5
61
102
{ACAD_REACTORS
330
47
102
}
330
47
100
AcDbScale
 70
     0
300
3/8" = 1'-0"
140
0.375
141
12.0
290
     0
  0
SCALE
  5
62
102
{ACAD_REACTORS
330
47
102
}
330
47
100
AcDbScale
 70
     0
300
1/2" = 1'-0"
140
0.5
141
12.0
290
     0
  0
SCALE
  5
63
102
{ACAD_REACTORS
330
47
102
}
330
47
100
AcDbScale
 70
     0
300
3/4" = 1'-0"
140
0.75
141
12.0
290
     0
  0
SCALE
  5
64
102
{ACAD_REACTORS
330
47
102
}
330
47
100
AcDbScale
 70
     0
300
1" = 1'-0"
140
1.0
141
12.0
290
     0
  0
SCALE
  5
65
102
{ACAD_REACTORS
330
47
102
}
330
47
100
AcDbScale
 70
     0
300
1-1/2" = 1'-0"
140
1.5
141
12.0
290
     0
  0
SCALE
  5
66
102
{ACAD_REACTORS
330
47
102
}
330
47
100
AcDbScale
 70
     0
300
3" = 1'-0"
140
3.0
141
12.0
290
     0
  0
SCALE
  5
67
102
{ACAD_REACTORS
330
47
102
}
330
47
100
AcDbScale
 70
     0
300
6" = 1'-0"
140
6.0
141
12.0
290
     0
  0
SCALE
  5
68
102
{ACAD_REACTORS
330
47
102
}
330
47
100
AcDbScale
 70
     0
300
1'-0" = 1'-0"
140
12.0
141
12.0
290
     0
  0
TABLESTYLE
  5
6A
102
{ACAD_REACTORS
330
69
102
}
102
{ACAD_XDICTIONARY
360
1F1
102
}
330
69
100
AcDbTableStyle
  3
Standard
 70
     0
 71
     0
 40
0.06
 41
0.06
280
     0
281
     0
  7
Standard
140
4.5
170
     2
 62
     0
 63
   257
283
     0
 90
        4
 91
        0
  1

274
    -2
284
     1
 64
     0
275
    -2
285
     1
 65
     0
276
    -2
286
     1
 66
     0
277
    -2
287
     1
 67
     0
278
    -2
288
     1
 68
     0
279
    -2
289
     1
 69
     0
  7
Standard
140
6.0
170
     5
 62
     0
 63
   257
283
     0
 90
        4
 91
        0
  1

274
    -2
284
     1
 64
     0
275
    -2
285
     1
 65
     0
276
    -2
286
     1
 66
     0
277
    -2
287
     1
 67
     0
278
    -2
288
     1
 68
     0
279
    -2
289
     1
 69
     0
  7
Standard
140
4.5
170
     5
 62
     0
 63
   257
283
     0
 90
        4
 91
        0
  1

274
    -2
284
     1
 64
     0
275
    -2
285
     1
 65
     0
276
    -2
286
     1
 66
     0
277
    -2
287
     1
 67
     0
278
    -2
288
     1
 68
     0
279
    -2
289
     1
 69
     0
  0
VISUALSTYLE
  5
2F
102
{ACAD_REACTORS
330
2A
102
}
330
2A
100
AcDbVisualStyle
  2
2dWireframe
 70
     4
177
     3
291
     0
 70
    58
 90
        0
176
     1
 90
        2
176
     1
 90
        0
176
     1
 90
        0
176
     1
 40
0.6
176
     1
 40
30.0
176
     1
 62
     7
420
 16777215
176
     1
 90
        1
176
     1
 90
        4
176
     1
 62
     7
176
     1
 62
   257
176
     1
 90
        1
176
     1
 90
        1
176
     1
 40
1.0
176
     1
 90
        0
176
     1
 62
   257
176
     1
 40
1.0
176
     1
 90
        1
176
     1
 90
        6
176
     1
 90
        2
176
     1
 62
     7
176
     1
 90
        5
176
     1
 90
        0
176
     1
 90
        0
176
     1
290
     0
176
     1
 90
        1
176
     1
 40
0.0
176
     1
 90
        0
176
     1
290
     1
176
     1
290
     1
176
     1
290
     0
176
     1
290
     0
176
     1
290
     0
176
     1
290
     0
176
     1
290
     0
176
     1
290
     0
176
     1
290
     0
176
     1
 90
       50
176
     1
 40
0.0
176
     1
 40
1.0
176
     1
 90
        0
176
     1
 62
    18
420
        0
176
     1
 90
       50
176
     1
 90
        3
176
     1
 62
     5
420
      255
176
     1
290
     0
176
     1
 90
       50
176
     1
 90
       50
176
     1
 90
       50
176
     1
290
     0
176
     1
 90
       50
176
     1
 62
   256
176
     0
 40
1.0
176
     0
 90
        2
176
     1
  1
strokes_ogs.tif
176
     1
290
     0
176
     1
 40
1.0
176
     1
 40
1.0
176
     1
  0
VISUALSTYLE
  5
32
102
{ACAD_REACTORS
330
2A
102
}
330
2A
100
AcDbVisualStyle
  2
Basic
 70
     7
177
     3
291
     1
 70
    58
 90
        1
176
     1
 90
        0
176
     1
 90
        1
176
     1
 90
        0
176
     1
 40
0.6
176
     1
 40
30.0
176
     1
 62
     7
420
 16777215
176
     1
 90
        0
176
     1
 90
        4
176
     1
 62
     7
176
     1
 62
   257
176
     1
 90
        1
176
     1
 90
        1
176
     1
 40
1.0
176
     1
 90
        8
176
     1
 62
     7
176
     1
 40
1.0
176
     1
 90
        1
176
     1
 90
        6
176
     1
 90
        2
176
     1
 62
     7
176
     1
 90
        5
176
     1
 90
        0
176
     1
 90
        0
176
     1
290
     0
176
     1
 90
        1
176
     1
 40
0.0
176
     1
 90
        0
176
     1
290
     0
176
     1
290
     1
176
     1
290
     1
176
     1
290
     0
176
     1
290
     0
176
     1
290
     0
176
     1
290
     0
176
     1
290
     0
176
     1
290
     0
176
     1
 90
       50
176
     1
 40
0.0
176
     1
 40
1.0
176
     1
 90
        0
176
     1
 62
    18
420
        0
176
     1
 90
       50
176
     1
 90
        3
176
     1
 62
     5
420
      255
176
     1
290
     0
176
     1
 90
       50
176
     1
 90
       50
176
     1
 90
       50
176
     1
290
     0
176
     1
 90
       50
176
     1
 62
   256
176
     0
 40
1.0
176
     0
 90
        2
176
     1
  1
strokes_ogs.tif
176
     1
290
     0
176
     1
 40
1.0
176
     1
 40
1.0
176
     1
  0
VISUALSTYLE
  5
36
102
{ACAD_REACTORS
330
2A
102
}
330
2A
100
AcDbVisualStyle
  2
Brighten
 70
    12
177
     3
291
     1
 70
    58
 90
        2
176
     1
 90
        2
176
     1
 90
        0
176
     1
 90
        0
176
     1
 40
0.6
176
     1
 40
30.0
176
     1
 62
     7
420
 16777215
176
     1
 90
        1
176
     1
 90
        4
176
     1
 62
     7
176
     1
 62
   257
176
     1
 90
        1
176
     1
 90
        1
176
     1
 40
1.0
176
     1
 90
        8
176
     1
 62
     7
176
     1
 40
1.0
176
     1
 90
        1
176
     1
 90
        6
176
     1
 90
        2
176
     1
 62
     7
176
     1
 90
        5
176
     1
 90
        0
176
     1
 90
        0
176
     1
290
     0
176
     1
 90
        1
176
     1
 40
50.0
176
     1
 90
        0
176
     1
290
     0
176
     1
290
     1
176
     1
290
     1
176
     1
290
     0
176
     1
290
     0
176
     1
290
     0
176
     1
290
     0
176
     1
290
     0
176
     1
290
     0
176
     1
 90
       50
176
     1
 40
0.0
176
     1
 40
1.0
176
     1
 90
        0
176
     1
 62
    18
420
        0
176
     1
 90
       50
176
     1
 90
        3
176
     1
 62
     5
420
      255
176
     1
290
     0
176
     1
 90
       50
176
     1
 90
       50
176
     1
 90
       50
176
     1
290
     0
176
     1
 90
       50
176
     1
 62
   256
176
     0
 40
1.0
176
     0
 90
        2
176
     1
  1
strokes_ogs.tif
176
     1
290
     0
176
     1
 40
1.0
176
     1
 40
1.0
176
     1
  0
VISUALSTYLE
  5
3A
102
{ACAD_REACTORS
330
2A
102
}
330
2A
100
AcDbVisualStyle
  2
ColorChange
 70
    16
177
     3
291
     1
 70
    58
 90
        2
176
     1
 90
        2
176
     1
 90
        3
176
     1
 90
        0
176
     1
 40
0.6
176
     1
 40
30.0
176
     1
 62
     8
420
  8421504
176
     1
 90
        1
176
     1
 90
        4
176
     1
 62
     7
176
     1
 62
   257
176
     1
 90
        1
176
     1
 90
        1
176
     1
 40
1.0
176
     1
 90
        8
176
     1
 62
     8
420
  8421504
176
     1
 40
1.0
176
     1
 90
        1
176
     1
 90
        6
176
     1
 90
        2
176
     1
 62
     7
176
     1
 90
        5
176
     1
 90
        0
176
     1
 90
        0
176
     1
290
     0
176
     1
 90
        1
176
     1
 40
0.0
176
     1
 90
        0
176
     1
290
     0
176
     1
290
     1
176
     1
290
     1
176
     1
290
     0
176
     1
290
     0
176
     1
290
     0
176
     1
290
     0
176
     1
290
     0
176
     1
290
     0
176
     1
 90
       50
176
     1
 40
0.0
176
     1
 40
1.0
176
     1
 90
        0
176
     1
 62
    18
420
        0
176
     1
 90
       50
176
     1
 90
        3
176
     1
 62
     5
420
      255
176
     1
290
     0
176
     1
 90
       50
176
     1
 90
       50
176
     1
 90
       50
176
     1
290
     0
176
     1
 90
       50
176
     1
 62
   256
176
     0
 40
1.0
176
     0
 90
        2
176
     1
  1
strokes_ogs.tif
176
     1
290
     0
176
     1
 40
1.0
176
     1
 40
1.0
176
     1
  0
VISUALSTYLE
  5
34
102
{ACAD_REACTORS
330
2A
102
}
330
2A
100
AcDbVisualStyle
  2
Conceptual
 70
     9
177
     3
291
     0
 70
    58
 90
        3
176
     1
 90
        2
176
     1
 90
        0
176
     1
 90
        0
176
     1
 40
0.6
176
     1
 40
30.0
176
     1
 62
     7
420
 16777215
176
     1
 90
        2
176
     1
 90
        2
176
     1
 62
     7
176
     1
 62
   257
176
     1
 90
        1
176
     1
 90
        1
176
     1
 40
179.0
176
     1
 90
        8
176
     1
 62
     7
176
     1
 40
1.0
176
     1
 90
        1
176
     1
 90
        6
176
     1
 90
        2
176
     1
 62
     7
176
     1
 90
        3
176
     1
 90
        0
176
     1
 90
        0
176
     1
290
     0
176
     1
 90
        1
176
     1
 40
0.0
176
     1
 90
        0
176
     1
290
     0
176
     1
290
     1
176
     1
290
     1
176
     1
290
     0
176
     1
290
     0
176
     1
290
     0
176
     1
290
     0
176
     1
290
     0
176
     1
290
     0
176
     1
 90
       50
176
     1
 40
0.0
176
     1
 40
1.0
176
     1
 90
        0
176
     1
 62
    18
420
        0
176
     1
 90
       50
176
     1
 90
        3
176
     1
 62
     5
420
      255
176
     1
290
     0
176
     1
 90
       50
176
     1
 90
       50
176
     1
 90
       50
176
     1
290
     0
176
     1
 90
       50
176
     1
 62
   256
176
     0
 40
1.0
176
     0
 90
        2
176
     1
  1
strokes_ogs.tif
176
     1
290
     0
176
     1
 40
1.0
176
     1
 40
1.0
176
     1
  0
VISUALSTYLE
  5
35
102
{ACAD_REACTORS
330
2A
102
}
330
2A
100
AcDbVisualStyle
  2
Dim
 70
    11
177
     3
291
     1
 70
    58
 90
        2
176
     1
 90
        2
176
     1
 90
        0
176
     1
 90
        0
176
     1
 40
0.6
176
     1
 40
30.0
176
     1
 62
     7
420
 16777215
176
     1
 90
        1
176
     1
 90
        4
176
     1
 62
     7
176
     1
 62
   257
176
     1
 90
        1
176
     1
 90
        1
176
     1
 40
1.0
176
     1
 90
        8
176
     1
 62
     7
176
     1
 40
1.0
176
     1
 90
        1
176
     1
 90
        6
176
     1
 90
        2
176
     1
 62
     7
176
     1
 90
        5
176
     1
 90
        0
176
     1
 90
        0
176
     1
290
     0
176
     1
 90
        1
176
     1
 40
-50.0
176
     1
 90
        0
176
     1
290
     0
176
     1
290
     1
176
     1
290
     1
176
     1
290
     0
176
     1
290
     0
176
     1
290
     0
176
     1
290
     0
176
     1
290
     0
176
     1
290
     0
176
     1
 90
       50
176
     1
 40
0.0
176
     1
 40
1.0
176
     1
 90
        0
176
     1
 62
    18
420
        0
176
     1
 90
       50
176
     1
 90
        3
176
     1
 62
     5
420
      255
176
     1
290
     0
176
     1
 90
       50
176
     1
 90
       50
176
     1
 90
       50
176
     1
290
     0
176
     1
 90
       50
176
     1
 62
   256
176
     0
 40
1.0
176
     0
 90
        2
176
     1
  1
strokes_ogs.tif
176
     1
290
     0
176
     1
 40
1.0
176
     1
 40
1.0
176
     1
  0
VISUALSTYLE
  5
3D
102
{ACAD_REACTORS
330
2A
102
}
330
2A
100
AcDbVisualStyle
  2
EdgeColorOff
 70
    22
177
     3
291
     1
 70
    58
 90
        2
176
     0
 90
        2
176
     0
 90
        0
176
     0
 90
        0
176
     0
 40
0.6
176
     0
 40
30.0
176
     0
 62
     7
420
 16777215
176
     0
 90
        1
176
     0
 90
        4
176
     0
 62
     7
176
     0
 62
   257
176
     0
 90
        1
176
     0
 90
        1
176
     0
 40
1.0
176
     0
 90
        8
176
     2
 62
     7
176
     0
 40
1.0
176
     0
 90
        1
176
     0
 90
        6
176
     0
 90
        2
176
     0
 62
     7
176
     0
 90
        5
176
     0
 90
        0
176
     0
 90
        0
176
     0
290
     0
176
     0
 90
        1
176
     0
 40
0.0
176
     0
 90
        0
176
     0
290
     0
176
     0
290
     1
176
     0
290
     1
176
     0
290
     0
176
     0
290
     0
176
     0
290
     0
176
     0
290
     0
176
     0
290
     0
176
     0
290
     0
176
     0
 90
       50
176
     0
 40
0.0
176
     0
 40
1.0
176
     0
 90
        0
176
     0
 62
    18
420
        0
176
     0
 90
       50
176
     0
 90
        3
176
     0
 62
     5
420
      255
176
     0
290
     0
176
     0
 90
       50
176
     0
 90
       50
176
     0
 90
       50
176
     0
290
     0
176
     0
 90
       50
176
     0
 62
   256
176
     0
 40
1.0
176
     0
 90
        2
176
     0
  1
strokes_ogs.tif
176
     0
290
     0
176
     0
 40
1.0
176
     0
 40
1.0
176
     0
  0
VISUALSTYLE
  5
39
102
{ACAD_REACTORS
330
2A
102
}
330
2A
100
AcDbVisualStyle
  2
Facepattern
 70
    15
177
     3
291
     1
 70
    58
 90
        2
176
     1
 90
        2
176
     1
 90
        0
176
     1
 90
        0
176
     1
 40
0.6
176
     1
 40
30.0
176
     1
 62
     7
420
 16777215
176
     1
 90
        1
176
     1
 90
        4
176
     1
 62
     7
176
     1
 62
   257
176
     1
 90
        1
176
     1
 90
        1
176
     1
 40
1.0
176
     1
 90
        8
176
     1
 62
     7
176
     1
 40
1.0
176
     1
 90
        1
176
     1
 90
        6
176
     1
 90
        2
176
     1
 62
     7
176
     1
 90
        5
176
     1
 90
        0
176
     1
 90
        0
176
     1
290
     0
176
     1
 90
        1
176
     1
 40
0.0
176
     1
 90
        0
176
     1
290
     0
176
     1
290
     1
176
     1
290
     1
176
     1
290
     0
176
     1
290
     0
176
     1
290
     0
176
     1
290
     0
176
     1
290
     0
176
     1
290
     0
176
     1
 90
       50
176
     1
 40
0.0
176
     1
 40
1.0
176
     1
 90
        0
176
     1
 62
    18
420
        0
176
     1
 90
       50
176
     1
 90
        3
176
     1
 62
     5
420
      255
176
     1
290
     0
176
     1
 90
       50
176
     1
 90
       50
176
     1
 90
       50
176
     1
290
     0
176
     1
 90
       50
176
     1
 62
   256
176
     0
 40
1.0
176
     0
 90
        2
176
     1
  1
strokes_ogs.tif
176
     1
290
     0
176
     1
 40
1.0
176
     1
 40
1.0
176
     1
  0
VISUALSTYLE
  5
2B
102
{ACAD_REACTORS
330
2A
102
}
330
2A
100
AcDbVisualStyle
  2
Flat
 70
     0
177
     3
291
     1
 70
    58
 90
        2
176
     1
 90
        1
176
     1
 90
        1
176
     1
 90
        2
176
     1
 40
0.6
176
     1
 40
30.0
176
     1
 62
     7
420
 16777215
176
     1
 90
        0
176
     1
 90
        0
176
     1
 62
     7
176
     1
 62
   257
176
     1
 90
        1
176
     1
 90
        1
176
     1
 40
1.0
176
     1
 90
        8
176
     1
 62
     7
176
     1
 40
1.0
176
     1
 90
        1
176
     1
 90
        6
176
     1
 90
        2
176
     1
 62
     7
176
     1
 90
        5
176
     1
 90
        0
176
     1
 90
        0
176
     1
290
     0
176
     1
 90
       13
176
     1
 40
0.0
176
     1
 90
        0
176
     1
290
     0
176
     1
290
     1
176
     1
290
     1
176
     1
290
     0
176
     1
290
     0
176
     1
290
     0
176
     1
290
     0
176
     1
290
     0
176
     1
290
     0
176
     1
 90
       50
176
     1
 40
0.0
176
     1
 40
1.0
176
     1
 90
        0
176
     1
 62
    18
420
        0
176
     1
 90
       50
176
     1
 90
        3
176
     1
 62
     5
420
      255
176
     1
290
     0
176
     1
 90
       50
176
     1
 90
       50
176
     1
 90
       50
176
     1
290
     0
176
     1
 90
       50
176
     1
 62
   256
176
     0
 40
1.0
176
     0
 90
        2
176
     1
  1
strokes_ogs.tif
176
     1
290
     0
176
     1
 40
1.0
176
     1
 40
1.0
176
     1
  0
VISUALSTYLE
  5
2C
102
{ACAD_REACTORS
330
2A
102
}
330
2A
100
AcDbVisualStyle
  2
FlatWithEdges
 70
     1
177
     3
291
     1
 70
    58
 90
        2
176
     1
 90
        1
176
     1
 90
        1
176
     1
 90
        2
176
     1
 40
0.6
176
     1
 40
30.0
176
     1
 62
     7
420
 16777215
176
     1
 90
        1
176
     1
 90
        0
176
     1
 62
     7
176
     1
 62
   257
176
     1
 90
        1
176
     1
 90
        1
176
     1
 40
1.0
176
     1
 90
        0
176
     1
 62
   257
176
     1
 40
1.0
176
     1
 90
        1
176
     1
 90
        6
176
     1
 90
        2
176
     1
 62
     7
176
     1
 90
        5
176
     1
 90
        0
176
     1
 90
        0
176
     1
290
     0
176
     1
 90
       13
176
     1
 40
0.0
176
     1
 90
        0
176
     1
290
     0
176
     1
290
     1
176
     1
290
     1
176
     1
290
     0
176
     1
290
     0
176
     1
290
     0
176
     1
290
     0
176
     1
290
     0
176
     1
290
     0
176
     1
 90
       50
176
     1
 40
0.0
176
     1
 40
1.0
176
     1
 90
        0
176
     1
 62
    18
420
        0
176
     1
 90
       50
176
     1
 90
        3
176
     1
 62
     5
420
      255
176
     1
290
     0
176
     1
 90
       50
176
     1
 90
       50
176
     1
 90
       50
176
     1
290
     0
176
     1
 90
       50
176
     1
 62
   256
176
     0
 40
1.0
176
     0
 90
        2
176
     1
  1
strokes_ogs.tif
176
     1
290
     0
176
     1
 40
1.0
176
     1
 40
1.0
176
     1
  0
VISUALSTYLE
  5
2D
102
{ACAD_REACTORS
330
2A
102
}
330
2A
100
AcDbVisualStyle
  2
Gouraud
 70
     2
177
     3
291
     1
 70
    58
 90
        2
176
     1
 90
        2
176
     1
 90
        1
176
     1
 90
        2
176
     1
 40
0.6
176
     1
 40
30.0
176
     1
 62
     7
420
 16777215
176
     1
 90
        0
176
     1
 90
        0
176
     1
 62
     7
176
     1
 62
   257
176
     1
 90
        1
176
     1
 90
        1
176
     1
 40
1.0
176
     1
 90
        0
176
     1
 62
     7
176
     1
 40
1.0
176
     1
 90
        1
176
     1
 90
        6
176
     1
 90
        2
176
     1
 62
     7
176
     1
 90
        5
176
     1
 90
        0
176
     1
 90
        0
176
     1
290
     0
176
     1
 90
       13
176
     1
 40
0.0
176
     1
 90
        0
176
     1
290
     0
176
     1
290
     1
176
     1
290
     1
176
     1
290
     0
176
     1
290
     0
176
     1
290
     0
176
     1
290
     0
176
     1
290
     0
176
     1
290
     0
176
     1
 90
       50
176
     1
 40
0.0
176
     1
 40
1.0
176
     1
 90
        0
176
     1
 62
    18
420
        0
176
     1
 90
       50
176
     1
 90
        3
176
     1
 62
     5
420
      255
176
     1
290
     0
176
     1
 90
       50
176
     1
 90
       50
176
     1
 90
       50
176
     1
290
     0
176
     1
 90
       50
176
     1
 62
   256
176
     0
 40
1.0
176
     0
 90
        2
176
     1
  1
strokes_ogs.tif
176
     1
290
     0
176
     1
 40
1.0
176
     1
 40
1.0
176
     1
  0
VISUALSTYLE
  5
2E
102
{ACAD_REACTORS
330
2A
102
}
330
2A
100
AcDbVisualStyle
  2
GouraudWithEdges
 70
     3
177
     3
291
     1
 70
    58
 90
        2
176
     1
 90
        2
176
     1
 90
        1
176
     1
 90
        2
176
     1
 40
0.6
176
     1
 40
30.0
176
     1
 62
     7
420
 16777215
176
     1
 90
        1
176
     1
 90
        0
176
     1
 62
     7
176
     1
 62
   257
176
     1
 90
        1
176
     1
 90
        1
176
     1
 40
1.0
176
     1
 90
        0
176
     1
 62
   257
176
     1
 40
1.0
176
     1
 90
        1
176
     1
 90
        6
176
     1
 90
        2
176
     1
 62
     7
176
     1
 90
        5
176
     1
 90
        0
176
     1
 90
        0
176
     1
290
     0
176
     1
 90
       13
176
     1
 40
0.0
176
     1
 90
        0
176
     1
290
     0
176
     1
290
     1
176
     1
290
     1
176
     1
290
     0
176
     1
290
     0
176
     1
290
     0
176
     1
290
     0
176
     1
290
     0
176
     1
290
     0
176
     1
 90
       50
176
     1
 40
0.0
176
     1
 40
1.0
176
     1
 90
        0
176
     1
 62
    18
420
        0
176
     1
 90
       50
176
     1
 90
        3
176
     1
 62
     5
420
      255
176
     1
290
     0
176
     1
 90
       50
176
     1
 90
       50
176
     1
 90
       50
176
     1
290
     0
176
     1
 90
       50
176
     1
 62
   256
176
     0
 40
1.0
176
     0
 90
        2
176
     1
  1
strokes_ogs.tif
176
     1
290
     0
176
     1
 40
1.0
176
     1
 40
1.0
176
     1
  0
VISUALSTYLE
  5
31
102
{ACAD_REACTORS
330
2A
102
}
330
2A
100
AcDbVisualStyle
  2
Hidden
 70
     6
177
     3
291
     0
 70
    58
 90
        1
176
     1
 90
        2
176
     1
 90
        2
176
     1
 90
        0
176
     1
 40
0.6
176
     1
 40
30.0
176
     1
 62
     7
420
 16777215
176
     1
 90
        2
176
     1
 90
        2
176
     1
 62
     7
176
     1
 62
   257
176
     1
 90
        2
176
     1
 90
        1
176
     1
 40
40.0
176
     1
 90
        0
176
     1
 62
   257
176
     1
 40
1.0
176
     1
 90
        1
176
     1
 90
        6
176
     1
 90
        2
176
     1
 62
     7
176
     1
 90
        3
176
     1
 90
        0
176
     1
 90
        0
176
     1
290
     0
176
     1
 90
        1
176
     1
 40
0.0
176
     1
 90
        0
176
     1
290
     0
176
     1
290
     1
176
     1
290
     1
176
     1
290
     0
176
     1
290
     0
176
     1
290
     0
176
     1
290
     0
176
     1
290
     0
176
     1
290
     0
176
     1
 90
       50
176
     1
 40
0.0
176
     1
 40
1.0
176
     1
 90
        0
176
     1
 62
    18
420
        0
176
     1
 90
       50
176
     1
 90
        3
176
     1
 62
     5
420
      255
176
     1
290
     0
176
     1
 90
       50
176
     1
 90
       50
176
     1
 90
       50
176
     1
290
     0
176
     1
 90
       50
176
     1
 62
   256
176
     0
 40
1.0
176
     0
 90
        2
176
     1
  1
strokes_ogs.tif
176
     1
290
     0
176
     1
 40
1.0
176
     1
 40
1.0
176
     1
  0
VISUALSTYLE
  5
3B
102
{ACAD_REACTORS
330
2A
102
}
330
2A
100
AcDbVisualStyle
  2
JitterOff
 70
    20
177
     3
291
     1
 70
    58
 90
        2
176
     0
 90
        2
176
     0
 90
        0
176
     0
 90
        0
176
     0
 40
0.6
176
     0
 40
30.0
176
     0
 62
     7
420
 16777215
176
     0
 90
        1
176
     0
 90
        4
176
     0
 62
     7
176
     0
 62
   257
176
     0
 90
        1
176
     0
 90
        1
176
     0
 40
1.0
176
     0
 90
       10
176
     2
 62
     7
176
     0
 40
1.0
176
     0
 90
        1
176
     0
 90
        6
176
     0
 90
        2
176
     0
 62
     7
176
     0
 90
        5
176
     0
 90
        0
176
     0
 90
        0
176
     0
290
     0
176
     0
 90
        1
176
     0
 40
0.0
176
     0
 90
        0
176
     0
290
     0
176
     0
290
     1
176
     0
290
     1
176
     0
290
     0
176
     0
290
     0
176
     0
290
     0
176
     0
290
     0
176
     0
290
     0
176
     0
290
     0
176
     0
 90
       50
176
     0
 40
0.0
176
     0
 40
1.0
176
     0
 90
        0
176
     0
 62
    18
420
        0
176
     0
 90
       50
176
     0
 90
        3
176
     0
 62
     5
420
      255
176
     0
290
     0
176
     0
 90
       50
176
     0
 90
       50
176
     0
 90
       50
176
     0
290
     0
176
     0
 90
       50
176
     0
 62
   256
176
     0
 40
1.0
176
     0
 90
        2
176
     0
  1
strokes_ogs.tif
176
     0
290
     0
176
     0
 40
1.0
176
     0
 40
1.0
176
     0
  0
VISUALSTYLE
  5
38
102
{ACAD_REACTORS
330
2A
102
}
330
2A
100
AcDbVisualStyle
  2
Linepattern
 70
    14
177
     3
291
     1
 70
    58
 90
        2
176
     1
 90
        2
176
     1
 90
        0
176
     1
 90
        0
176
     1
 40
0.6
176
     1
 40
30.0
176
     1
 62
     7
420
 16777215
176
     1
 90
        1
176
     1
 90
        4
176
     1
 62
     7
176
     1
 62
   257
176
     1
 90
        7
176
     1
 90
        7
176
     1
 40
1.0
176
     1
 90
        8
176
     1
 62
     7
176
     1
 40
1.0
176
     1
 90
        1
176
     1
 90
        6
176
     1
 90
        2
176
     1
 62
     7
176
     1
 90
        5
176
     1
 90
        0
176
     1
 90
        0
176
     1
290
     0
176
     1
 90
        1
176
     1
 40
0.0
176
     1
 90
        0
176
     1
290
     0
176
     1
290
     1
176
     1
290
     1
176
     1
290
     0
176
     1
290
     0
176
     1
290
     0
176
     1
290
     0
176
     1
290
     0
176
     1
290
     0
176
     1
 90
       50
176
     1
 40
0.0
176
     1
 40
1.0
176
     1
 90
        0
176
     1
 62
    18
420
        0
176
     1
 90
       50
176
     1
 90
        3
176
     1
 62
     5
420
      255
176
     1
290
     0
176
     1
 90
       50
176
     1
 90
       50
176
     1
 90
       50
176
     1
290
     0
176
     1
 90
       50
176
     1
 62
   256
176
     0
 40
1.0
176
     0
 90
        2
176
     1
  1
strokes_ogs.tif
176
     1
290
     0
176
     1
 40
1.0
176
     1
 40
1.0
176
     1
  0
VISUALSTYLE
  5
3C
102
{ACAD_REACTORS
330
2A
102
}
330
2A
100
AcDbVisualStyle
  2
OverhangOff
 70
    21
177
     3
291
     1
 70
    58
 90
        2
176
     0
 90
        2
176
     0
 90
        0
176
     0
 90
        0
176
     0
 40
0.6
176
     0
 40
30.0
176
     0
 62
     7
420
 16777215
176
     0
 90
        1
176
     0
 90
        4
176
     0
 62
     7
176
     0
 62
   257
176
     0
 90
        1
176
     0
 90
        1
176
     0
 40
1.0
176
     0
 90
        9
176
     2
 62
     7
176
     0
 40
1.0
176
     0
 90
        1
176
     0
 90
        6
176
     0
 90
        2
176
     0
 62
     7
176
     0
 90
        5
176
     0
 90
        0
176
     0
 90
        0
176
     0
290
     0
176
     0
 90
        1
176
     0
 40
0.0
176
     0
 90
        0
176
     0
290
     0
176
     0
290
     1
176
     0
290
     1
176
     0
290
     0
176
     0
290
     0
176
     0
290
     0
176
     0
290
     0
176
     0
290
     0
176
     0
290
     0
176
     0
 90
       50
176
     0
 40
0.0
176
     0
 40
1.0
176
     0
 90
        0
176
     0
 62
    18
420
        0
176
     0
 90
       50
176
     0
 90
        3
176
     0
 62
     5
420
      255
176
     0
290
     0
176
     0
 90
       50
176
     0
 90
       50
176
     0
 90
       50
176
     0
290
     0
176
     0
 90
       50
176
     0
 62
   256
176
     0
 40
1.0
176
     0
 90
        2
176
     0
  1
strokes_ogs.tif
176
     0
290
     0
176
     0
 40
1.0
176
     0
 40
1.0
176
     0
  0
VISUALSTYLE
  5
33
102
{ACAD_REACTORS
330
2A
102
}
330
2A
100
AcDbVisualStyle
  2
Realistic
 70
     8
177
     3
291
     0
 70
    58
 90
        2
176
     1
 90
        3
176
     1
 90
        0
176
     1
 90
        2
176
     1
 40
0.6
176
     1
 40
30.0
176
     1
 62
     7
420
 16777215
176
     1
 90
        0
176
     1
 90
        0
176
     1
 62
     7
176
     1
 62
   257
176
     1
 90
        1
176
     1
 90
        1
176
     1
 40
1.0
176
     1
 90
        8
176
     1
 62
   257
176
     1
 40
1.0
176
     1
 90
        1
176
     1
 90
        6
176
     1
 90
        2
176
     1
 62
     7
176
     1
 90
        3
176
     1
 90
        0
176
     1
 90
        0
176
     1
290
     0
176
     1
 90
       13
176
     1
 40
0.0
176
     1
 90
        0
176
     1
290
     0
176
     1
290
     1
176
     1
290
     1
176
     1
290
     0
176
     1
290
     0
176
     1
290
     0
176
     1
290
     0
176
     1
290
     0
176
     1
290
     0
176
     1
 90
       50
176
     1
 40
0.0
176
     1
 40
1.0
176
     1
 90
        0
176
     1
 62
    18
420
        0
176
     1
 90
       50
176
     1
 90
        3
176
     1
 62
     5
420
      255
176
     1
290
     0
176
     1
 90
       50
176
     1
 90
       50
176
     1
 90
       50
176
     1
290
     0
176
     1
 90
       50
176
     1
 62
   256
176
     0
 40
1.0
176
     0
 90
        2
176
     1
  1
strokes_ogs.tif
176
     1
290
     0
176
     1
 40
1.0
176
     1
 40
1.0
176
     1
  0
VISUALSTYLE
  5
42
102
{ACAD_REACTORS
330
2A
102
}
330
2A
100
AcDbVisualStyle
  2
Shaded
 70
    27
177
     3
291
     0
 70
    58
 90
        2
176
     1
 90
        2
176
     1
 90
        1
176
     1
 90
        2
176
     1
 40
0.6
176
     1
 40
30.0
176
     1
 62
     7
420
 16777215
176
     1
 90
        0
176
     1
 90
        4
176
     1
 62
     7
176
     1
 62
   257
176
     1
 90
        1
176
     1
 90
        1
176
     1
 40
1.0
176
     1
 90
        8
176
     1
 62
   257
176
     1
 40
1.0
176
     1
 90
        1
176
     1
 90
        6
176
     1
 90
        2
176
     1
 62
     8
420
  7895160
176
     1
 90
        3
176
     1
 90
        0
176
     1
 90
        0
176
     1
290
     0
176
     1
 90
        5
176
     1
 40
0.0
176
     1
 90
        0
176
     1
290
     0
176
     1
290
     1
176
     1
290
     1
176
     1
290
     0
176
     1
290
     0
176
     1
290
     0
176
     1
290
     0
176
     1
290
     0
176
     1
290
     0
176
     1
 90
       50
176
     1
 40
0.0
176
     1
 40
1.0
176
     1
 90
        0
176
     1
 62
    18
420
        0
176
     1
 90
       50
176
     1
 90
        3
176
     1
 62
     5
420
      255
176
     1
290
     0
176
     1
 90
       50
176
     1
 90
       50
176
     1
 90
       50
176
     1
290
     0
176
     1
 90
       50
176
     1
 62
   256
176
     0
 40
1.0
176
     0
 90
        2
176
     1
  1
strokes_ogs.tif
176
     1
290
     0
176
     1
 40
1.0
176
     1
 40
1.0
176
     1
  0
VISUALSTYLE
  5
41
102
{ACAD_REACTORS
330
2A
102
}
330
2A
100
AcDbVisualStyle
  2
Shaded with edges
 70
    26
177
     3
291
     0
 70
    58
 90
        2
176
     1
 90
        2
176
     1
 90
        1
176
     1
 90
        2
176
     1
 40
0.6
176
     1
 40
30.0
176
     1
 62
     7
420
 16777215
176
     1
 90
        1
176
     1
 90
       10
176
     1
 62
     7
176
     1
 62
   257
176
     1
 90
        2
176
     1
 90
        1
176
     1
 40
1.0
176
     1
 90
        8
176
     1
 62
   257
176
     1
 40
1.0
176
     1
 90
        1
176
     1
 90
        6
176
     1
 90
        2
176
     1
 62
     7
176
     1
 90
        3
176
     1
 90
        0
176
     1
 90
        0
176
     1
290
     0
176
     1
 90
        5
176
     1
 40
0.0
176
     1
 90
        0
176
     1
290
     0
176
     1
290
     1
176
     1
290
     1
176
     1
290
     0
176
     1
290
     0
176
     1
290
     0
176
     1
290
     0
176
     1
290
     0
176
     1
290
     0
176
     1
 90
       50
176
     1
 40
0.0
176
     1
 40
1.0
176
     1
 90
        0
176
     1
 62
    18
420
        0
176
     1
 90
       50
176
     1
 90
        3
176
     1
 62
     5
420
      255
176
     1
290
     0
176
     1
 90
       50
176
     1
 90
       50
176
     1
 90
       50
176
     1
290
     0
176
     1
 90
       50
176
     1
 62
   256
176
     0
 40
1.0
176
     0
 90
        2
176
     1
  1
strokes_ogs.tif
176
     1
290
     0
176
     1
 40
1.0
176
     1
 40
1.0
176
     1
  0
VISUALSTYLE
  5
3E
102
{ACAD_REACTORS
330
2A
102
}
330
2A
100
AcDbVisualStyle
  2
Shades of Gray
 70
    23
177
     3
291
     0
 70
    58
 90
        2
176
     1
 90
        2
176
     1
 90
        3
176
     1
 90
        0
176
     1
 40
0.6
176
     1
 40
30.0
176
     1
 62
     7
420
 16777215
176
     1
 90
        2
176
     1
 90
        2
176
     1
 62
     7
176
     1
 62
     7
176
     1
 90
        1
176
     1
 90
        1
176
     1
 40
40.0
176
     1
 90
        8
176
     1
 62
     7
176
     1
 40
1.0
176
     1
 90
        1
176
     1
 90
        6
176
     1
 90
        2
176
     1
 62
     7
176
     1
 90
        3
176
     1
 90
        0
176
     1
 90
        0
176
     1
290
     0
176
     1
 90
        1
176
     1
 40
0.0
176
     1
 90
        0
176
     1
290
     0
176
     1
290
     1
176
     1
290
     1
176
     1
290
     0
176
     1
290
     0
176
     1
290
     0
176
     1
290
     0
176
     1
290
     0
176
     1
290
     0
176
     1
 90
       50
176
     1
 40
0.0
176
     1
 40
1.0
176
     1
 90
        0
176
     1
 62
    18
420
        0
176
     1
 90
       50
176
     1
 90
        3
176
     1
 62
     5
420
      255
176
     1
290
     0
176
     1
 90
       50
176
     1
 90
       50
176
     1
 90
       50
176
     1
290
     0
176
     1
 90
       50
176
     1
 62
   256
176
     0
 40
1.0
176
     0
 90
        2
176
     1
  1
strokes_ogs.tif
176
     1
290
     0
176
     1
 40
1.0
176
     1
 40
1.0
176
     1
  0
VISUALSTYLE
  5
3F
102
{ACAD_REACTORS
330
2A
102
}
330
2A
100
AcDbVisualStyle
  2
Sketchy
 70
    24
177
     3
291
     0
 70
    58
 90
        1
176
     1
 90
        2
176
     1
 90
        2
176
     1
 90
        0
176
     1
 40
0.6
176
     1
 40
30.0
176
     1
 62
     7
420
 16777215
176
     1
 90
        2
176
     1
 90
        2
176
     1
 62
     7
176
     1
 62
     7
176
     1
 90
        1
176
     1
 90
        1
176
     1
 40
40.0
176
     1
 90
       11
176
     1
 62
     7
176
     1
 40
1.0
176
     1
 90
        1
176
     1
 90
        6
176
     1
 90
        2
176
     1
 62
     7
176
     1
 90
        6
176
     1
 90
        0
176
     1
 90
        0
176
     1
290
     0
176
     1
 90
        1
176
     1
 40
0.0
176
     1
 90
        0
176
     1
290
     0
176
     1
290
     1
176
     1
290
     1
176
     1
290
     0
176
     1
290
     0
176
     1
290
     0
176
     1
290
     0
176
     1
290
     0
176
     1
290
     0
176
     1
 90
       50
176
     1
 40
0.0
176
     1
 40
1.0
176
     1
 90
        0
176
     1
 62
    18
420
        0
176
     1
 90
       50
176
     1
 90
        3
176
     1
 62
     5
420
      255
176
     1
290
     0
176
     1
 90
       50
176
     1
 90
       50
176
     1
 90
       50
176
     1
290
     0
176
     1
 90
       50
176
     1
 62
   256
176
     0
 40
1.0
176
     0
 90
        2
176
     1
  1
strokes_ogs.tif
176
     1
290
     0
176
     1
 40
1.0
176
     1
 40
1.0
176
     1
  0
VISUALSTYLE
  5
37
102
{ACAD_REACTORS
330
2A
102
}
330
2A
100
AcDbVisualStyle
  2
Thicken
 70
    13
177
     3
291
     1
 70
    58
 90
        2
176
     1
 90
        2
176
     1
 90
        0
176
     1
 90
        0
176
     1
 40
0.6
176
     1
 40
30.0
176
     1
 62
     7
420
 16777215
176
     1
 90
        1
176
     1
 90
        4
176
     1
 62
     7
176
     1
 62
   257
176
     1
 90
        1
176
     1
 90
        1
176
     1
 40
1.0
176
     1
 90
       12
176
     1
 62
     7
176
     1
 40
1.0
176
     1
 90
        1
176
     1
 90
        6
176
     1
 90
        2
176
     1
 62
     7
176
     1
 90
        5
176
     1
 90
        0
176
     1
 90
        0
176
     1
290
     0
176
     1
 90
        1
176
     1
 40
0.0
176
     1
 90
        0
176
     1
290
     0
176
     1
290
     1
176
     1
290
     1
176
     1
290
     0
176
     1
290
     0
176
     1
290
     0
176
     1
290
     0
176
     1
290
     0
176
     1
290
     0
176
     1
 90
       50
176
     1
 40
0.0
176
     1
 40
1.0
176
     1
 90
        0
176
     1
 62
    18
420
        0
176
     1
 90
       50
176
     1
 90
        3
176
     1
 62
     5
420
      255
176
     1
290
     0
176
     1
 90
       50
176
     1
 90
       50
176
     1
 90
       50
176
     1
290
     0
176
     1
 90
       50
176
     1
 62
   256
176
     0
 40
1.0
176
     0
 90
        2
176
     1
  1
strokes_ogs.tif
176
     1
290
     0
176
     1
 40
1.0
176
     1
 40
1.0
176
     1
  0
VISUALSTYLE
  5
30
102
{ACAD_REACTORS
330
2A
102
}
330
2A
100
AcDbVisualStyle
  2
Wireframe
 70
     5
177
     3
291
     0
 70
    58
 90
        0
176
     1
 90
        2
176
     1
 90
        0
176
     1
 90
        0
176
     1
 40
0.6
176
     1
 40
30.0
176
     1
 62
     7
420
 16777215
176
     1
 90
        1
176
     1
 90
        4
176
     1
 62
     7
176
     1
 62
   257
176
     1
 90
        1
176
     1
 90
        1
176
     1
 40
1.0
176
     1
 90
        0
176
     1
 62
   257
176
     1
 40
1.0
176
     1
 90
        1
176
     1
 90
        6
176
     1
 90
        2
176
     1
 62
     7
176
     1
 90
        3
176
     1
 90
        0
176
     1
 90
        0
176
     1
290
     0
176
     1
 90
        1
176
     1
 40
0.0
176
     1
 90
        0
176
     1
290
     0
176
     1
290
     1
176
     1
290
     1
176
     1
290
     0
176
     1
290
     0
176
     1
290
     0
176
     1
290
     0
176
     1
290
     0
176
     1
290
     0
176
     1
 90
       50
176
     1
 40
0.0
176
     1
 40
1.0
176
     1
 90
        0
176
     1
 62
    18
420
        0
176
     1
 90
       50
176
     1
 90
        3
176
     1
 62
     5
420
      255
176
     1
290
     0
176
     1
 90
       50
176
     1
 90
       50
176
     1
 90
       50
176
     1
290
     0
176
     1
 90
       50
176
     1
 62
   256
176
     0
 40
1.0
176
     0
 90
        2
176
     1
  1
strokes_ogs.tif
176
     1
290
     0
176
     1
 40
1.0
176
     1
 40
1.0
176
     1
  0
VISUALSTYLE
  5
40
102
{ACAD_REACTORS
330
2A
102
}
330
2A
100
AcDbVisualStyle
  2
X-Ray
 70
    25
177
     3
291
     0
 70
    58
 90
        2
176
     1
 90
        2
176
     1
 90
        1
176
     1
 90
        1
176
     1
 40
0.5
176
     1
 40
30.0
176
     1
 62
     7
420
 16777215
176
     1
 90
        1
176
     1
 90
        0
176
     1
 62
     7
176
     1
 62
   257
176
     1
 90
        1
176
     1
 90
        1
176
     1
 40
1.0
176
     1
 90
        8
176
     1
 62
     7
176
     1
 40
1.0
176
     1
 90
        1
176
     1
 90
        6
176
     1
 90
        2
176
     1
 62
     7
176
     1
 90
        3
176
     1
 90
        0
176
     1
 90
        0
176
     1
290
     0
176
     1
 90
       13
176
     1
 40
0.0
176
     1
 90
        0
176
     1
290
     0
176
     1
290
     1
176
     1
290
     1
176
     1
290
     0
176
     1
290
     0
176
     1
290
     0
176
     1
290
     0
176
     1
290
     0
176
     1
290
     0
176
     1
 90
       50
176
     1
 40
0.0
176
     1
 40
1.0
176
     1
 90
        0
176
     1
 62
    18
420
        0
176
     1
 90
       50
176
     1
 90
        3
176
     1
 62
     5
420
      255
176
     1
290
     0
176
     1
 90
       50
176
     1
 90
       50
176
     1
 90
       50
176
     1
290
     0
176
     1
 90
       50
176
     1
 62
   256
176
     0
 40
1.0
176
     0
 90
        2
176
     1
  1
strokes_ogs.tif
176
     1
290
     0
176
     1
 40
1.0
176
     1
 40
1.0
176
     1
  0
DICTIONARYVAR
  5
1F0
102
{ACAD_REACTORS
330
1EF
102
}
330
1EF
100
DictionaryVariables
280
     0
  1
1:1
  0
DICTIONARYVAR
  5
1F5
102
{ACAD_REACTORS
330
1EF
102
}
330
1EF
100
DictionaryVariables
280
     0
  1
Standard
  0
DICTIONARYVAR
  5
1F4
102
{ACAD_REACTORS
330
1EF
102
}
330
1EF
100
DictionaryVariables
280
     0
  1
Standard
  0
DICTIONARY
  5
1F1
330
6A
100
AcDbDictionary
280
     1
281
     1
  3
ACAD_ROUNDTRIP_2008_TABLESTYLE_CELLSTYLEMAP
360
1F2
  0
CELLSTYLEMAP
  5
1F2
102
{ACAD_REACTORS
330
1F1
102
}
330
1F1
100
AcDbCellStyleMap
 90
        3
300
CELLSTYLE
  1
TABLEFORMAT_BEGIN
 90
        5
170
     1
 91
        0
 92
    32768
 62
   257
 93
        1
300
CONTENTFORMAT
  1
CONTENTFORMAT_BEGIN
 90
        0
 91
        0
 92
        4
 93
        0
300

 40
0.0
140
1.0
 94
        5
 62
     0
340
11
144
6.0
309
CONTENTFORMAT_END
171
     1
301
MARGIN
  1
CELLMARGIN_BEGIN
 40
1.5
 40
1.5
 40
1.5
 40
1.5
 40
1.5
 40
1.5
309
CELLMARGIN_END
 94
        6
 95
        1
302
GRIDFORMAT
  1
GRIDFORMAT_BEGIN
 90
        0
 91
        1
 62
     0
 92
       -2
340
14
 93
        0
 40
0.045
309
GRIDFORMAT_END
 95
        2
302
GRIDFORMAT
  1
GRIDFORMAT_BEGIN
 90
        0
 91
        1
 62
     0
 92
       -2
340
14
 93
        0
 40
0.045
309
GRIDFORMAT_END
 95
        4
302
GRIDFORMAT
  1
GRIDFORMAT_BEGIN
 90
        0
 91
        1
 62
     0
 92
       -2
340
14
 93
        0
 40
0.045
309
GRIDFORMAT_END
 95
        8
302
GRIDFORMAT
  1
GRIDFORMAT_BEGIN
 90
        0
 91
        1
 62
     0
 92
       -2
340
14
 93
        0
 40
0.045
309
GRIDFORMAT_END
 95
       16
302
GRIDFORMAT
  1
GRIDFORMAT_BEGIN
 90
        0
 91
        1
 62
     0
 92
       -2
340
14
 93
        0
 40
0.045
309
GRIDFORMAT_END
 95
       32
302
GRIDFORMAT
  1
GRIDFORMAT_BEGIN
 90
        0
 91
        1
 62
     0
 92
       -2
340
14
 93
        0
 40
0.045
309
GRIDFORMAT_END
309
TABLEFORMAT_END
  1
CELLSTYLE_BEGIN
 90
        1
 91
        1
300
_TITLE
309
CELLSTYLE_END
300
CELLSTYLE
  1
TABLEFORMAT_BEGIN
 90
        5
170
     1
 91
        0
 92
        0
 62
   257
 93
        1
300
CONTENTFORMAT
  1
CONTENTFORMAT_BEGIN
 90
        0
 91
        0
 92
        4
 93
        0
300

 40
0.0
140
1.0
 94
        5
 62
     0
340
11
144
4.5
309
CONTENTFORMAT_END
171
     1
301
MARGIN
  1
CELLMARGIN_BEGIN
 40
1.5
 40
1.5
 40
1.5
 40
1.5
 40
1.5
 40
1.5
309
CELLMARGIN_END
 94
        6
 95
        1
302
GRIDFORMAT
  1
GRIDFORMAT_BEGIN
 90
        0
 91
        1
 62
     0
 92
       -2
340
14
 93
        0
 40
0.045
309
GRIDFORMAT_END
 95
        2
302
GRIDFORMAT
  1
GRIDFORMAT_BEGIN
 90
        0
 91
        1
 62
     0
 92
       -2
340
14
 93
        0
 40
0.045
309
GRIDFORMAT_END
 95
        4
302
GRIDFORMAT
  1
GRIDFORMAT_BEGIN
 90
        0
 91
        1
 62
     0
 92
       -2
340
14
 93
        0
 40
0.045
309
GRIDFORMAT_END
 95
        8
302
GRIDFORMAT
  1
GRIDFORMAT_BEGIN
 90
        0
 91
        1
 62
     0
 92
       -2
340
14
 93
        0
 40
0.045
309
GRIDFORMAT_END
 95
       16
302
GRIDFORMAT
  1
GRIDFORMAT_BEGIN
 90
        0
 91
        1
 62
     0
 92
       -2
340
14
 93
        0
 40
0.045
309
GRIDFORMAT_END
 95
       32
302
GRIDFORMAT
  1
GRIDFORMAT_BEGIN
 90
        0
 91
        1
 62
     0
 92
       -2
340
14
 93
        0
 40
0.045
309
GRIDFORMAT_END
309
TABLEFORMAT_END
  1
CELLSTYLE_BEGIN
 90
        2
 91
        1
300
_HEADER
309
CELLSTYLE_END
300
CELLSTYLE
  1
TABLEFORMAT_BEGIN
 90
        5
170
     1
 91
        0
 92
        0
 62
   257
 93
        1
300
CONTENTFORMAT
  1
CONTENTFORMAT_BEGIN
 90
        0
 91
        0
 92
        4
 93
        0
300

 40
0.0
140
1.0
 94
        2
 62
     0
340
11
144
4.5
309
CONTENTFORMAT_END
171
     1
301
MARGIN
  1
CELLMARGIN_BEGIN
 40
1.5
 40
1.5
 40
1.5
 40
1.5
 40
1.5
 40
1.5
309
CELLMARGIN_END
 94
        6
 95
        1
302
GRIDFORMAT
  1
GRIDFORMAT_BEGIN
 90
        0
 91
        1
 62
     0
 92
       -2
340
14
 93
        0
 40
0.045
309
GRIDFORMAT_END
 95
        2
302
GRIDFORMAT
  1
GRIDFORMAT_BEGIN
 90
        0
 91
        1
 62
     0
 92
       -2
340
14
 93
        0
 40
0.045
309
GRIDFORMAT_END
 95
        4
302
GRIDFORMAT
  1
GRIDFORMAT_BEGIN
 90
        0
 91
        1
 62
     0
 92
       -2
340
14
 93
        0
 40
0.045
309
GRIDFORMAT_END
 95
        8
302
GRIDFORMAT
  1
GRIDFORMAT_BEGIN
 90
        0
 91
        1
 62
     0
 92
       -2
340
14
 93
        0
 40
0.045
309
GRIDFORMAT_END
 95
       16
302
GRIDFORMAT
  1
GRIDFORMAT_BEGIN
 90
        0
 91
        1
 62
     0
 92
       -2
340
14
 93
        0
 40
0.045
309
GRIDFORMAT_END
 95
       32
302
GRIDFORMAT
  1
GRIDFORMAT_BEGIN
 90
        0
 91
        1
 62
     0
 92
       -2
340
14
 93
        0
 40
0.045
309
GRIDFORMAT_END
309
TABLEFORMAT_END
  1
CELLSTYLE_BEGIN
 90
        3
 91
        2
300
_DATA
309
CELLSTYLE_END
  0
ENDSEC
  0
EOF