0
SECTION
  2
HEADER
  9
$ACADVER
  1
AC1027
  9
$ACADMAINTVER
 70
     8
  9
$DWGCODEPAGE
  3
ANSI_1252
  9
$REQUIREDVERSIONS
160
                 0
  9
$COMMENTS
  1
File was created by Cadenas
  9
$CUSTOMPROPERTYTAG
  1
NN
  9
$CUSTOMPROPERTY
  1
Grip Tight Two-Bolt Pillow Block - Stainless Housing, Corrision Resistant Insert Inch Bore
  9
$CUSTOMPROPERTYTAG
  1
NT
  9
$CUSTOMPROPERTY
  1
GTEZ Normal Duty Stainless Steel Housed Pillow Blocks
  9
$CUSTOMPROPERTYTAG
  1
NB
  9
$CUSTOMPROPERTY
  1
 129265
  9
$CUSTOMPROPERTYTAG
  1
NBSYN
  9
$CUSTOMPROPERTY
  1
 $PN.$LUBE.
  9
$CUSTOMPROPERTYTAG
  1
LINA
  9
$CUSTOMPROPERTY
  1
129265
  9
$CUSTOMPROPERTYTAG
  1
SERIES
  9
$CUSTOMPROPERTY
  1
206
  9
$CUSTOMPROPERTYTAG
  1
SS
  9
$CUSTOMPROPERTY
  1
1-3/16
  9
$CUSTOMPROPERTYTAG
  1
PN
  9
$CUSTOMPROPERTY
  1
129265
  9
$CUSTOMPROPERTYTAG
  1
DESCRIPTION
  9
$CUSTOMPROPERTY
  1
P2B-GTUEZ-102-SHCR
  9
$CUSTOMPROPERTYTAG
  1
A
  9
$CUSTOMPROPERTY
  1
1-39/64
  9
$CUSTOMPROPERTYTAG
  1
B
  9
$CUSTOMPROPERTY
  1
6-1/4
  9
$CUSTOMPROPERTYTAG
  1
C
  9
$CUSTOMPROPERTY
  1
1-1/4
  9
$CUSTOMPROPERTYTAG
  1
DMIN
  9
$CUSTOMPROPERTY
  1
4-17/64
  9
$CUSTOMPROPERTYTAG
  1
DMAX
  9
$CUSTOMPROPERTY
  1
5
  9
$CUSTOMPROPERTYTAG
  1
F
  9
$CUSTOMPROPERTY
  1
1/2
  9
$CUSTOMPROPERTYTAG
  1
G
  9
$CUSTOMPROPERTY
  1
15/16
  9
$CUSTOMPROPERTYTAG
  1
H
  9
$CUSTOMPROPERTY
  1
19/32
  9
$CUSTOMPROPERTYTAG
  1
J
  9
$CUSTOMPROPERTY
  1
3-3/16
  9
$CUSTOMPROPERTYTAG
  1
L
  9
$CUSTOMPROPERTY
  1
2
  9
$CUSTOMPROPERTYTAG
  1
M
  9
$CUSTOMPROPERTY
  1
1-11/16
  9
$CUSTOMPROPERTYTAG
  1
R
  9
$CUSTOMPROPERTY
  1
17/32
  9
$CUSTOMPROPERTYTAG
  1
S
  9
$CUSTOMPROPERTY
  1
1-5/64
  9
$CUSTOMPROPERTYTAG
  1
Z
  9
$CUSTOMPROPERTY
  1
1-1/32
  9
$CUSTOMPROPERTYTAG
  1
COMPANY
  9
$CUSTOMPROPERTY
  1
baldor
  9
$INSBASE
 10
0.0
 20
0.0
 30
0.0
  9
$EXTMIN
 10
1.000000000000000E+20
 20
1.000000000000000E+20
 30
1.000000000000000E+20
  9
$EXTMAX
 10
-1.000000000000000E+20
 20
-1.000000000000000E+20
 30
-1.000000000000000E+20
  9
$LIMMIN
 10
0.0
 20
0.0
  9
$LIMMAX
 10
12.0
 20
9.0
  9
$ORTHOMODE
 70
     0
  9
$REGENMODE
 70
     1
  9
$FILLMODE
 70
     1
  9
$QTEXTMODE
 70
     0
  9
$MIRRTEXT
 70
     1
  9
$LTSCALE
 40
1.0
  9
$ATTMODE
 70
     1
  9
$TEXTSIZE
 40
0.2
  9
$TRACEWID
 40
0.05
  9
$TEXTSTYLE
  7
Standard
  9
$CLAYER
  8
0
  9
$CELTYPE
  6
ByLayer
  9
$CECOLOR
 62
   256
  9
$CELTSCALE
 40
1.0
  9
$DISPSILH
 70
     0
  9
$DIMSCALE
 40
1.0
  9
$DIMASZ
 40
0.18
  9
$DIMEXO
 40
0.0625
  9
$DIMDLI
 40
0.38
  9
$DIMRND
 40
0.0
  9
$DIMDLE
 40
0.0
  9
$DIMEXE
 40
0.18
  9
$DIMTP
 40
0.0
  9
$DIMTM
 40
0.0
  9
$DIMTXT
 40
0.18
  9
$DIMCEN
 40
0.09
  9
$DIMTSZ
 40
0.0
  9
$DIMTOL
 70
     0
  9
$DIMLIM
 70
     0
  9
$DIMTIH
 70
     1
  9
$DIMTOH
 70
     1
  9
$DIMSE1
 70
     0
  9
$DIMSE2
 70
     0
  9
$DIMTAD
 70
     0
  9
$DIMZIN
 70
     0
  9
$DIMBLK
  1

  9
$DIMASO
 70
     1
  9
$DIMSHO
 70
     1
  9
$DIMPOST
  1

  9
$DIMAPOST
  1

  9
$DIMALT
 70
     0
  9
$DIMALTD
 70
     2
  9
$DIMALTF
 40
25.4
  9
$DIMLFAC
 40
1.0
  9
$DIMTOFL
 70
     0
  9
$DIMTVP
 40
0.0
  9
$DIMTIX
 70
     0
  9
$DIMSOXD
 70
     0
  9
$DIMSAH
 70
     0
  9
$DIMBLK1
  1

  9
$DIMBLK2
  1

  9
$DIMSTYLE
  2
Standard
  9
$DIMCLRD
 70
     0
  9
$DIMCLRE
 70
     0
  9
$DIMCLRT
 70
     0
  9
$DIMTFAC
 40
1.0
  9
$DIMGAP
 40
0.09
  9
$DIMJUST
 70
     0
  9
$DIMSD1
 70
     0
  9
$DIMSD2
 70
     0
  9
$DIMTOLJ
 70
     1
  9
$DIMTZIN
 70
     0
  9
$DIMALTZ
 70
     0
  9
$DIMALTTZ
 70
     0
  9
$DIMUPT
 70
     0
  9
$DIMDEC
 70
     4
  9
$DIMTDEC
 70
     4
  9
$DIMALTU
 70
     2
  9
$DIMALTTD
 70
     2
  9
$DIMTXSTY
  7
Standard
  9
$DIMAUNIT
 70
     0
  9
$DIMADEC
 70
     0
  9
$DIMALTRND
 40
0.0
  9
$DIMAZIN
 70
     0
  9
$DIMDSEP
 70
    46
  9
$DIMATFIT
 70
     3
  9
$DIMFRAC
 70
     0
  9
$DIMLDRBLK
  1

  9
$DIMLUNIT
 70
     2
  9
$DIMLWD
 70
    -2
  9
$DIMLWE
 70
    -2
  9
$DIMTMOVE
 70
     0
  9
$DIMFXL
 40
1.0
  9
$DIMFXLON
 70
     0
  9
$DIMJOGANG
 40
0.7853981633974483
  9
$DIMTFILL
 70
     0
  9
$DIMTFILLCLR
 70
     0
  9
$DIMARCSYM
 70
     0
  9
$DIMLTYPE
  6

  9
$DIMLTEX1
  6

  9
$DIMLTEX2
  6

  9
$DIMTXTDIRECTION
 70
     0
  9
$LUNITS
 70
     2
  9
$LUPREC
 70
     4
  9
$SKETCHINC
 40
0.1
  9
$FILLETRAD
 40
0.5
  9
$AUNITS
 70
     0
  9
$AUPREC
 70
     0
  9
$MENU
  1
.
  9
$ELEVATION
 40
0.0
  9
$PELEVATION
 40
0.0
  9
$THICKNESS
 40
0.0
  9
$LIMCHECK
 70
     0
  9
$CHAMFERA
 40
0.0
  9
$CHAMFERB
 40
0.0
  9
$CHAMFERC
 40
0.0
  9
$CHAMFERD
 40
0.0
  9
$SKPOLY
 70
     0
  9
$TDCREATE
 40
2458168.992042708
  9
$TDUCREATE
 40
2458168.950376042
  9
$TDUPDATE
 40
2458168.992042882
  9
$TDUUPDATE
 40
2458168.950376215
  9
$TDINDWG
 40
0.0000000116
  9
$TDUSRTIMER
 40
0.0000000116
  9
$USRTIMER
 70
     1
  9
$ANGBASE
 50
0.0
  9
$ANGDIR
 70
     0
  9
$PDMODE
 70
     0
  9
$PDSIZE
 40
0.0
  9
$PLINEWID
 40
0.0
  9
$SPLFRAME
 70
     0
  9
$SPLINETYPE
 70
     6
  9
$SPLINESEGS
 70
     8
  9
$HANDSEED
  5
20C
  9
$SURFTAB1
 70
     6
  9
$SURFTAB2
 70
     6
  9
$SURFTYPE
 70
     6
  9
$SURFU
 70
     6
  9
$SURFV
 70
     6
  9
$UCSBASE
  2

  9
$UCSNAME
  2

  9
$UCSORG
 10
0.0
 20
0.0
 30
0.0
  9
$UCSXDIR
 10
1.0
 20
0.0
 30
0.0
  9
$UCSYDIR
 10
0.0
 20
1.0
 30
0.0
  9
$UCSORTHOREF
  2

  9
$UCSORTHOVIEW
 70
     0
  9
$UCSORGTOP
 10
0.0
 20
0.0
 30
0.0
  9
$UCSORGBOTTOM
 10
0.0
 20
0.0
 30
0.0
  9
$UCSORGLEFT
 10
0.0
 20
0.0
 30
0.0
  9
$UCSORGRIGHT
 10
0.0
 20
0.0
 30
0.0
  9
$UCSORGFRONT
 10
0.0
 20
0.0
 30
0.0
  9
$UCSORGBACK
 10
0.0
 20
0.0
 30
0.0
  9
$PUCSBASE
  2

  9
$PUCSNAME
  2

  9
$PUCSORG
 10
0.0
 20
0.0
 30
0.0
  9
$PUCSXDIR
 10
1.0
 20
0.0
 30
0.0
  9
$PUCSYDIR
 10
0.0
 20
1.0
 30
0.0
  9
$PUCSORTHOREF
  2

  9
$PUCSORTHOVIEW
 70
     0
  9
$PUCSORGTOP
 10
0.0
 20
0.0
 30
0.0
  9
$PUCSORGBOTTOM
 10
0.0
 20
0.0
 30
0.0
  9
$PUCSORGLEFT
 10
0.0
 20
0.0
 30
0.0
  9
$PUCSORGRIGHT
 10
0.0
 20
0.0
 30
0.0
  9
$PUCSORGFRONT
 10
0.0
 20
0.0
 30
0.0
  9
$PUCSORGBACK
 10
0.0
 20
0.0
 30
0.0
  9
$USERI1
 70
     0
  9
$USERI2
 70
     0
  9
$USERI3
 70
     0
  9
$USERI4
 70
     0
  9
$USERI5
 70
     0
  9
$USERR1
 40
0.0
  9
$USERR2
 40
0.0
  9
$USERR3
 40
0.0
  9
$USERR4
 40
0.0
  9
$USERR5
 40
0.0
  9
$WORLDVIEW
 70
     1
  9
$SHADEDGE
 70
     3
  9
$SHADEDIF
 70
    70
  9
$TILEMODE
 70
     1
  9
$MAXACTVP
 70
    64
  9
$PINSBASE
 10
0.0
 20
0.0
 30
0.0
  9
$PLIMCHECK
 70
     0
  9
$PEXTMIN
 10
1.000000000000000E+20
 20
1.000000000000000E+20
 30
1.000000000000000E+20
  9
$PEXTMAX
 10
-1.000000000000000E+20
 20
-1.000000000000000E+20
 30
-1.000000000000000E+20
  9
$PLIMMIN
 10
0.0
 20
0.0
  9
$PLIMMAX
 10
12.0
 20
9.0
  9
$UNITMODE
 70
     0
  9
$VISRETAIN
 70
     1
  9
$PLINEGEN
 70
     0
  9
$PSLTSCALE
 70
     1
  9
$TREEDEPTH
 70
  3020
  9
$CMLSTYLE
  2
Standard
  9
$CMLJUST
 70
     0
  9
$CMLSCALE
 40
1.0
  9
$PROXYGRAPHICS
 70
     1
  9
$MEASUREMENT
 70
     0
  9
$CELWEIGHT
370
    -1
  9
$ENDCAPS
280
     0
  9
$JOINSTYLE
280
     0
  9
$LWDISPLAY
290
     0
  9
$INSUNITS
 70
     1
  9
$HYPERLINKBASE
  1

  9
$STYLESHEET
  1

  9
$XEDIT
290
     1
  9
$CEPSNTYPE
380
     0
  9
$PSTYLEMODE
290
     1
  9
$FINGERPRINTGUID
  2
{236D9239-D957-4F2D-B989-0A1B88BA950A}
  9
$VERSIONGUID
  2
{FAEB1C32-E019-11D5-929B-00C0DF256EC4}
  9
$EXTNAMES
290
     1
  9
$PSVPSCALE
 40
0.0
  9
$OLESTARTUP
290
     0
  9
$SORTENTS
280
   127
  9
$INDEXCTL
280
     0
  9
$HIDETEXT
280
     1
  9
$XCLIPFRAME
280
     2
  9
$HALOGAP
280
     0
  9
$OBSCOLOR
 70
   257
  9
$OBSLTYPE
280
     0
  9
$INTERSECTIONDISPLAY
280
     0
  9
$INTERSECTIONCOLOR
 70
   257
  9
$DIMASSOC
280
     2
  9
$PROJECTNAME
  1

  9
$CAMERADISPLAY
290
     0
  9
$LENSLENGTH
 40
50.0
  9
$CAMERAHEIGHT
 40
0.0
  9
$STEPSPERSEC
 40
2.0
  9
$STEPSIZE
 40
6.0
  9
$3DDWFPREC
 40
2.0
  9
$PSOLWIDTH
 40
0.25
  9
$PSOLHEIGHT
 40
4.0
  9
$LOFTANG1
 40
1.570796326794897
  9
$LOFTANG2
 40
1.570796326794897
  9
$LOFTMAG1
 40
0.0
  9
$LOFTMAG2
 40
0.0
  9
$LOFTPARAM
 70
     7
  9
$LOFTNORMALS
280
     1
  9
$LATITUDE
 40
37.795
  9
$LONGITUDE
 40
-122.394
  9
$NORTHDIRECTION
 40
0.0
  9
$TIMEZONE
 70
 -8000
  9
$LIGHTGLYPHDISPLAY
280
     1
  9
$TILEMODELIGHTSYNCH
280
     1
  9
$CMATERIAL
347
44
  9
$SOLIDHIST
280
     0
  9
$SHOWHIST
280
     1
  9
$DWFFRAME
280
     2
  9
$DGNFRAME
280
     2
  9
$REALWORLDSCALE
290
     1
  9
$INTERFERECOLOR
 62
   256
  9
$CSHADOW
280
     0
  9
$SHADOWPLANELOCATION
 40
0.0
  0
ENDSEC
  0
SECTION
  2
CLASSES
  0
CLASS
  1
ACDBDICTIONARYWDFLT
  2
AcDbDictionaryWithDefault
  3
ObjectDBX Classes
 90
        0
 91
        4
280
     0
281
     0
  0
CLASS
  1
VISUALSTYLE
  2
AcDbVisualStyle
  3
ObjectDBX Classes
 90
     4095
 91
        4
280
     0
281
     0
  0
CLASS
  1
MATERIAL
  2
AcDbMaterial
  3
ObjectDBX Classes
 90
     1153
 91
        4
280
     0
281
     0
  0
CLASS
  1
SCALE
  2
AcDbScale
  3
ObjectDBX Classes
 90
     1153
 91
        4
280
     0
281
     0
  0
CLASS
  1
TABLESTYLE
  2
AcDbTableStyle
  3
ObjectDBX Classes
 90
     4095
 91
        4
280
     0
281
     0
  0
CLASS
  1
MLEADERSTYLE
  2
AcDbMLeaderStyle
  3
ACDB_MLEADERSTYLE_CLASS
 90
     4095
 91
        4
280
     0
281
     0
  0
CLASS
  1
SUN
  2
AcDbSun
  3
SCENEOE
 90
     1153
 91
        4
280
     0
281
     0
  0
CLASS
  1
DICTIONARYVAR
  2
AcDbDictionaryVar
  3
ObjectDBX Classes
 90
        0
 91
        4
280
     0
281
     0
  0
CLASS
  1
CELLSTYLEMAP
  2
AcDbCellStyleMap
  3
ObjectDBX Classes
 90
     1152
 91
        4
280
     0
281
     0
  0
ENDSEC
  0
SECTION
  2
TABLES
  0
TABLE
  2
VPORT
  5
8
330
0
100
AcDbSymbolTable
 70
     1
  0
VPORT
  5
29
330
8
100
AcDbSymbolTableRecord
100
AcDbViewportTableRecord
  2
*Active
 70
     0
 10
0.0
 20
0.0
 11
1.0
 21
1.0
 12
0.0
 22
-0.2355468749999998
 13
0.0
 23
0.0
 14
0.5
 24
0.5
 15
0.5
 25
0.5
 16
0.0
 26
0.0
 36
1.0
 17
0.0
 27
0.0
 37
0.0
 40
1.883015625
 41
3.385526872619553
 42
50.0
 43
0.0
 44
0.0
 50
0.0
 51
0.0
 71
     0
 72
   100
 73
     1
 74
     3
 75
     0
 76
     0
 77
     0
 78
     0
281
     0
 65
     1
110
0.0
120
0.0
130
0.0
111
1.0
121
0.0
131
0.0
112
0.0
122
1.0
132
0.0
 79
     0
146
0.0
348
2F
 60
     3
 61
     5
292
     1
282
     1
141
0.0
142
0.0
 63
   250
361
6D
  0
ENDTAB
  0
TABLE
  2
LTYPE
  5
5
330
0
100
AcDbSymbolTable
 70
     3
  0
LTYPE
  5
14
330
5
100
AcDbSymbolTableRecord
100
AcDbLinetypeTableRecord
  2
ByBlock
 70
     0
  3

 72
    65
 73
     0
 40
0.0
  0
LTYPE
  5
15
330
5
100
AcDbSymbolTableRecord
100
AcDbLinetypeTableRecord
  2
ByLayer
 70
     0
  3

 72
    65
 73
     0
 40
0.0
  0
LTYPE
  5
16
330
5
100
AcDbSymbolTableRecord
100
AcDbLinetypeTableRecord
  2
Continuous
 70
     0
  3
Solid line
 72
    65
 73
     0
 40
0.0
  0
LTYPE
  5
A1
330
5
100
AcDbSymbolTableRecord
100
AcDbLinetypeTableRecord
  2
Dashed
 70
     0
  3

 72
    65
 73
     2
 40
2.0
 49
1.0
 74
     0
 49
-1.0
 74
     0
  0
LTYPE
  5
10B
330
5
100
AcDbSymbolTableRecord
100
AcDbLinetypeTableRecord
  2
Center
 70
     0
  3

 72
    65
 73
     4
 40
1.5
 49
0.45
 74
     0
 49
-0.5
 74
     0
 49
0.05
 74
     0
 49
-0.5
 74
     0
  0
ENDTAB
  0
TABLE
  2
LAYER
  5
2
330
0
100
AcDbSymbolTable
 70
     7
  0
LAYER
  5
10
330
2
100
AcDbSymbolTableRecord
100
AcDbLayerTableRecord
  2
0
 70
     0
 62
     7
  6
Continuous
370
    -3
390
F
347
46
348
0
  0
LAYER
  5
72
330
2
100
AcDbSymbolTableRecord
100
AcDbLayerTableRecord
  2
AM_6
 70
     0
 62
    -2
  6
Continuous
370
    35
390
F
347
46
348
0
  0
LAYER
  5
A2
330
2
100
AcDbSymbolTableRecord
100
AcDbLayerTableRecord
  2
AM_9
 70
     0
 62
     6
  6
Dashed
370
    25
390
F
347
46
348
0
  0
LAYER
  5
CF
330
2
100
AcDbSymbolTableRecord
100
AcDbLayerTableRecord
  2
AM_4
 70
     0
 62
     7
  6
Continuous
370
    50
390
F
347
46
348
0
  0
LAYER
  5
108
330
2
100
AcDbSymbolTableRecord
100
AcDbLayerTableRecord
  2
AM_5
 70
     0
 62
     3
  6
Continuous
370
    25
390
F
347
46
348
0
  0
LAYER
  5
10C
330
2
100
AcDbSymbolTableRecord
100
AcDbLayerTableRecord
  2
AM_7
 70
     0
 62
     7
  6
Center
370
    25
390
F
347
46
348
0
  0
LAYER
  5
1FF
330
2
100
AcDbSymbolTableRecord
100
AcDbLayerTableRecord
  2
ConnectionPoints
 70
     0
 62
     7
  6
Continuous
370
    50
390
F
347
46
348
0
  0
ENDTAB
  0
TABLE
  2
STYLE
  5
3
330
0
100
AcDbSymbolTable
 70
     1
  0
STYLE
  5
11
330
3
100
AcDbSymbolTableRecord
100
AcDbTextStyleTableRecord
  2
Standard
 70
     0
 40
0.0
 41
1.0
 50
0.0
 71
     0
 42
0.2
  3
txt
  4

  0
ENDTAB
  0
TABLE
  2
VIEW
  5
6
330
0
100
AcDbSymbolTable
 70
     0
  0
ENDTAB
  0
TABLE
  2
UCS
  5
7
330
0
100
AcDbSymbolTable
 70
     0
  0
ENDTAB
  0
TABLE
  2
APPID
  5
9
330
0
100
AcDbSymbolTable
 70
     1
  0
APPID
  5
12
330
9
100
AcDbSymbolTableRecord
100
AcDbRegAppTableRecord
  2
ACAD
 70
     0
  0
ENDTAB
  0
TABLE
  2
DIMSTYLE
  5
A
330
0
100
AcDbSymbolTable
 70
     1
100
AcDbDimStyleTable
  0
DIMSTYLE
105
27
330
A
100
AcDbSymbolTableRecord
100
AcDbDimStyleTableRecord
  2
Standard
 70
     0
178
     0
340
11
  0
ENDTAB
  0
TABLE
  2
BLOCK_RECORD
  5
1
330
0
100
AcDbSymbolTable
 70
     5
  0
BLOCK_RECORD
  5
1F
330
1
100
AcDbSymbolTableRecord
100
AcDbBlockTableRecord
  2
*Model_Space
340
22
 70
     0
280
     1
281
     0
  0
BLOCK_RECORD
  5
1B
330
1
100
AcDbSymbolTableRecord
100
AcDbBlockTableRecord
  2
*Paper_Space
340
1E
 70
     0
280
     1
281
     0
  0
BLOCK_RECORD
  5
23
330
1
100
AcDbSymbolTableRecord
100
AcDbBlockTableRecord
  2
*Paper_Space0
340
26
 70
     0
280
     1
281
     0
  0
BLOCK_RECORD
  5
6E
330
1
100
AcDbSymbolTableRecord
100
AcDbBlockTableRecord
  2
1__129265_4
340
0
102
{BLKREFS
331
6F
102
}
 70
     0
280
     1
281
     0
  0
BLOCK_RECORD
  5
8B
330
1
100
AcDbSymbolTableRecord
100
AcDbBlockTableRecord
  2
2_INS_GT_06_CRI_0_in__129265_4
340
0
102
{BLKREFS
331
8C
102
}
 70
     0
280
     1
281
     0
  0
BLOCK_RECORD
  5
D7
330
1
100
AcDbSymbolTableRecord
100
AcDbBlockTableRecord
  2
3_129971_0_in__129265_4
340
0
102
{BLKREFS
331
D8
102
}
 70
     0
280
     1
281
     0
  0
BLOCK_RECORD
  5
12C
330
1
100
AcDbSymbolTableRecord
100
AcDbBlockTableRecord
  2
4_P2B_GTUEZ_06_SHCRI_0_in__129265_4
340
0
102
{BLKREFS
331
12D
102
}
 70
     0
280
     1
281
     0
  0
ENDTAB
  0
ENDSEC
  0
SECTION
  2
BLOCKS
  0
BLOCK
  5
20
330
1F
100
AcDbEntity
  8
0
100
AcDbBlockBegin
  2
*Model_Space
 70
     0
 10
0.0
 20
0.0
 30
0.0
  3
*Model_Space
  1

  0
ENDBLK
  5
21
330
1F
100
AcDbEntity
  8
0
100
AcDbBlockEnd
  0
BLOCK
  5
1C
330
1B
100
AcDbEntity
 67
     1
  8
0
100
AcDbBlockBegin
  2
*Paper_Space
 70
     0
 10
0.0
 20
0.0
 30
0.0
  3
*Paper_Space
  1

  0
ENDBLK
  5
1D
330
1B
100
AcDbEntity
 67
     1
  8
0
100
AcDbBlockEnd
  0
BLOCK
  5
24
330
23
100
AcDbEntity
  8
0
100
AcDbBlockBegin
  2
*Paper_Space0
 70
     0
 10
0.0
 20
0.0
 30
0.0
  3
*Paper_Space0
  1

  0
ENDBLK
  5
25
330
23
100
AcDbEntity
  8
0
100
AcDbBlockEnd
  0
BLOCK
  5
70
330
6E
100
AcDbEntity
  8
0
100
AcDbBlockBegin
  2
1__129265_4
 70
     2
 10
0.0
 20
0.0
 30
0.0
  3
1__129265_4
  1

  0
ATTDEF
  5
73
330
6E
100
AcDbEntity
  8
AM_6
100
AcDbText
 10
8.125000000000002
 20
0.6875
 30
0.0
 40
0.5
  1
Grip Tight Two-Bolt Pillow Block - Stainless Housing, Corrision Resistant Insert Inch Bore
100
AcDbAttributeDefinition
  3

  2
NN
 70
     8
280
     0
  0
ATTDEF
  5
74
330
6E
100
AcDbEntity
  8
AM_6
100
AcDbText
 10
8.125000000000002
 20
0.1875
 30
0.0
 40
0.5
  1
GTEZ Normal Duty Stainless Steel Housed Pillow Blocks
100
AcDbAttributeDefinition
  3

  2
NT
 70
     8
280
     0
  0
ATTDEF
  5
75
330
6E
100
AcDbEntity
  8
AM_6
100
AcDbText
 10
8.125000000000002
 20
-0.3125
 30
0.0
 40
0.5
  1
 129265
100
AcDbAttributeDefinition
  3

  2
NB
 70
     8
280
     0
  0
ATTDEF
  5
76
330
6E
100
AcDbEntity
  8
AM_6
100
AcDbText
 10
8.125000000000002
 20
-0.8125
 30
0.0
 40
0.5
  1
 $PN.$LUBE.
100
AcDbAttributeDefinition
  3

  2
NBSYN
 70
     8
280
     0
  0
ATTDEF
  5
77
330
6E
100
AcDbEntity
  8
AM_6
100
AcDbText
 10
8.125000000000002
 20
-1.3125
 30
0.0
 40
0.5
  1
129265
100
AcDbAttributeDefinition
  3

  2
LINA
 70
     8
280
     0
  0
ATTDEF
  5
78
330
6E
100
AcDbEntity
  8
AM_6
100
AcDbText
 10
8.125000000000002
 20
-1.8125
 30
0.0
 40
0.5
  1
206
100
AcDbAttributeDefinition
  3

  2
SERIES
 70
     8
280
     0
  0
ATTDEF
  5
79
330
6E
100
AcDbEntity
  8
AM_6
100
AcDbText
 10
8.125000000000002
 20
-2.3125
 30
0.0
 40
0.5
  1
1-3/16
100
AcDbAttributeDefinition
  3

  2
SS
 70
     8
280
     0
  0
ATTDEF
  5
7A
330
6E
100
AcDbEntity
  8
AM_6
100
AcDbText
 10
8.125000000000002
 20
-2.8125
 30
0.0
 40
0.5
  1
129265
100
AcDbAttributeDefinition
  3

  2
PN
 70
     8
280
     0
  0
ATTDEF
  5
7B
330
6E
100
AcDbEntity
  8
AM_6
100
AcDbText
 10
8.125000000000002
 20
-3.3125
 30
0.0
 40
0.5
  1
P2B-GTUEZ-102-SHCR
100
AcDbAttributeDefinition
  3

  2
DESCRIPTION
 70
     8
280
     0
  0
ATTDEF
  5
7C
330
6E
100
AcDbEntity
  8
AM_6
100
AcDbText
 10
8.125000000000002
 20
-3.8125
 30
0.0
 40
0.5
  1
1-39/64
100
AcDbAttributeDefinition
  3

  2
A
 70
     8
280
     0
  0
ATTDEF
  5
7D
330
6E
100
AcDbEntity
  8
AM_6
100
AcDbText
 10
8.125000000000002
 20
-4.3125
 30
0.0
 40
0.5
  1
6-1/4
100
AcDbAttributeDefinition
  3

  2
B
 70
     8
280
     0
  0
ATTDEF
  5
7E
330
6E
100
AcDbEntity
  8
AM_6
100
AcDbText
 10
8.125000000000002
 20
-4.8125
 30
0.0
 40
0.5
  1
1-1/4
100
AcDbAttributeDefinition
  3

  2
C
 70
     8
280
     0
  0
ATTDEF
  5
7F
330
6E
100
AcDbEntity
  8
AM_6
100
AcDbText
 10
8.125000000000002
 20
-5.3125
 30
0.0
 40
0.5
  1
4-17/64
100
AcDbAttributeDefinition
  3

  2
DMIN
 70
     8
280
     0
  0
ATTDEF
  5
80
330
6E
100
AcDbEntity
  8
AM_6
100
AcDbText
 10
8.125000000000002
 20
-5.8125
 30
0.0
 40
0.5
  1
5
100
AcDbAttributeDefinition
  3

  2
DMAX
 70
     8
280
     0
  0
ATTDEF
  5
81
330
6E
100
AcDbEntity
  8
AM_6
100
AcDbText
 10
8.125000000000002
 20
-6.3125
 30
0.0
 40
0.5
  1
1/2
100
AcDbAttributeDefinition
  3

  2
F
 70
     8
280
     0
  0
ATTDEF
  5
82
330
6E
100
AcDbEntity
  8
AM_6
100
AcDbText
 10
8.125000000000002
 20
-6.8125
 30
0.0
 40
0.5
  1
15/16
100
AcDbAttributeDefinition
  3

  2
G
 70
     8
280
     0
  0
ATTDEF
  5
83
330
6E
100
AcDbEntity
  8
AM_6
100
AcDbText
 10
8.125000000000002
 20
-7.3125
 30
0.0
 40
0.5
  1
19/32
100
AcDbAttributeDefinition
  3

  2
H
 70
     8
280
     0
  0
ATTDEF
  5
84
330
6E
100
AcDbEntity
  8
AM_6
100
AcDbText
 10
8.125000000000002
 20
-7.8125
 30
0.0
 40
0.5
  1
3-3/16
100
AcDbAttributeDefinition
  3

  2
J
 70
     8
280
     0
  0
ATTDEF
  5
85
330
6E
100
AcDbEntity
  8
AM_6
100
AcDbText
 10
8.125000000000002
 20
-8.3125
 30
0.0
 40
0.5
  1
2
100
AcDbAttributeDefinition
  3

  2
L
 70
     8
280
     0
  0
ATTDEF
  5
86
330
6E
100
AcDbEntity
  8
AM_6
100
AcDbText
 10
8.125000000000002
 20
-8.8125
 30
0.0
 40
0.5
  1
1-11/16
100
AcDbAttributeDefinition
  3

  2
M
 70
     8
280
     0
  0
ATTDEF
  5
87
330
6E
100
AcDbEntity
  8
AM_6
100
AcDbText
 10
8.125000000000002
 20
-9.3125
 30
0.0
 40
0.5
  1
17/32
100
AcDbAttributeDefinition
  3

  2
R
 70
     8
280
     0
  0
ATTDEF
  5
88
330
6E
100
AcDbEntity
  8
AM_6
100
AcDbText
 10
8.125000000000002
 20
-9.8125
 30
0.0
 40
0.5
  1
1-5/64
100
AcDbAttributeDefinition
  3

  2
S
 70
     8
280
     0
  0
ATTDEF
  5
89
330
6E
100
AcDbEntity
  8
AM_6
100
AcDbText
 10
8.125000000000002
 20
-10.3125
 30
0.0
 40
0.5
  1
1-1/32
100
AcDbAttributeDefinition
  3

  2
Z
 70
     8
280
     0
  0
ATTDEF
  5
8A
330
6E
100
AcDbEntity
  8
AM_6
100
AcDbText
 10
8.125000000000002
 20
-10.8125
 30
0.0
 40
0.5
  1
baldor
100
AcDbAttributeDefinition
  3

  2
COMPANY
 70
     8
280
     0
  0
INSERT
  5
8C
330
6E
100
AcDbEntity
  8
0
100
AcDbBlockReference
  2
2_INS_GT_06_CRI_0_in__129265_4
 10
0.0
 20
0.0
 30
0.0
  0
INSERT
  5
D8
330
6E
100
AcDbEntity
  8
0
100
AcDbBlockReference
  2
3_129971_0_in__129265_4
 10
0.0
 20
0.0
 30
0.0
  0
INSERT
  5
12D
330
6E
100
AcDbEntity
  8
0
100
AcDbBlockReference
  2
4_P2B_GTUEZ_06_SHCRI_0_in__129265_4
 10
0.0
 20
0.0
 30
0.0
  0
ENDBLK
  5
71
330
6E
100
AcDbEntity
  8
0
100
AcDbBlockEnd
  0
BLOCK
  5
8D
330
8B
100
AcDbEntity
  8
0
100
AcDbBlockBegin
  2
2_INS_GT_06_CRI_0_in__129265_4
 70
     2
 10
0.0
 20
0.0
 30
0.0
  3
2_INS_GT_06_CRI_0_in__129265_4
  1

  0
ATTDEF
  5
8F
330
8B
100
AcDbEntity
  8
AM_6
100
AcDbText
 10
6.220427915332193
 20
0.478125
 30
0.0
 40
0.5
  1
INS-GT-CR-I
100
AcDbAttributeDefinition
  3

  2
NN
 70
     8
280
     0
  0
ATTDEF
  5
90
330
8B
100
AcDbEntity
  8
AM_6
100
AcDbText
 10
6.220427915332193
 20
-0.021875
 30
0.0
 40
0.5
  1
GT Normal Duty Corrosion Resistant Bearing Inserts
100
AcDbAttributeDefinition
  3

  2
NT
 70
     8
280
     0
  0
ATTDEF
  5
91
330
8B
100
AcDbEntity
  8
AM_6
100
AcDbText
 10
6.220427915332193
 20
-0.521875
 30
0.0
 40
0.5
  1
INS-GT-06-CRI
100
AcDbAttributeDefinition
  3

  2
NB
 70
     8
280
     0
  0
ATTDEF
  5
92
330
8B
100
AcDbEntity
  8
AM_6
100
AcDbText
 10
6.220427915332193
 20
-1.021875
 30
0.0
 40
0.5
  1
$PN.I
100
AcDbAttributeDefinition
  3

  2
NBSYN
 70
     8
280
     0
  0
ATTDEF
  5
93
330
8B
100
AcDbEntity
  8
AM_6
100
AcDbText
 10
6.220427915332193
 20
-1.521875
 30
0.0
 40
0.5
  1
INS-GT-06-CR
100
AcDbAttributeDefinition
  3

  2
LINA
 70
     8
280
     0
  0
ATTDEF
  5
94
330
8B
100
AcDbEntity
  8
AM_6
100
AcDbText
 10
6.220427915332193
 20
-2.021875
 30
0.0
 40
0.5
  1
206
100
AcDbAttributeDefinition
  3

  2
SERIES
 70
     8
280
     0
  0
ATTDEF
  5
95
330
8B
100
AcDbEntity
  8
AM_6
100
AcDbText
 10
6.220427915332193
 20
-2.521875
 30
0.0
 40
0.5
  1
INS-GT-06-CR
100
AcDbAttributeDefinition
  3

  2
PN
 70
     8
280
     0
  0
ATTDEF
  5
96
330
8B
100
AcDbEntity
  8
AM_6
100
AcDbText
 10
6.220427915332193
 20
-3.021875
 30
0.0
 40
0.5
  1
INS-GT-06-CR
100
AcDbAttributeDefinition
  3

  2
DESCRIPTION
 70
     8
280
     0
  0
ATTDEF
  5
97
330
8B
100
AcDbEntity
  8
AM_6
100
AcDbText
 10
6.220427915332193
 20
-3.521875
 30
0.0
 40
0.5
  1
1-39/64
100
AcDbAttributeDefinition
  3

  2
A
 70
     8
280
     0
  0
ATTDEF
  5
98
330
8B
100
AcDbEntity
  8
AM_6
100
AcDbText
 10
6.220427915332193
 20
-4.021875
 30
0.0
 40
0.5
  1
0.7087
100
AcDbAttributeDefinition
  3

  2
C
 70
     8
280
     0
  0
ATTDEF
  5
99
330
8B
100
AcDbEntity
  8
AM_6
100
AcDbText
 10
6.220427915332193
 20
-4.521875
 30
0.0
 40
0.5
  1
2.4409
100
AcDbAttributeDefinition
  3

  2
D
 70
     8
280
     0
  0
ATTDEF
  5
9A
330
8B
100
AcDbEntity
  8
AM_6
100
AcDbText
 10
6.220427915332193
 20
-5.021875
 30
0.0
 40
0.5
  1
0.190
100
AcDbAttributeDefinition
  3

  2
J
 70
     8
280
     0
  0
ATTDEF
  5
9B
330
8B
100
AcDbEntity
  8
AM_6
100
AcDbText
 10
6.220427915332193
 20
-5.521875
 30
0.0
 40
0.5
  1
2
100
AcDbAttributeDefinition
  3

  2
L
 70
     8
280
     0
  0
ATTDEF
  5
9C
330
8B
100
AcDbEntity
  8
AM_6
100
AcDbText
 10
6.220427915332193
 20
-6.021875
 30
0.0
 40
0.5
  1
10 - 32 x 1/4
100
AcDbAttributeDefinition
  3

  2
N
 70
     8
280
     0
  0
ATTDEF
  5
9D
330
8B
100
AcDbEntity
  8
AM_6
100
AcDbText
 10
6.220427915332193
 20
-6.521875
 30
0.0
 40
0.5
  1
17/32
100
AcDbAttributeDefinition
  3

  2
W
 70
     8
280
     0
  0
ATTDEF
  5
9E
330
8B
100
AcDbEntity
  8
AM_6
100
AcDbText
 10
6.220427915332193
 20
-7.021875
 30
0.0
 40
0.5
  1
1-1/32
100
AcDbAttributeDefinition
  3

  2
X
 70
     8
280
     0
  0
ATTDEF
  5
9F
330
8B
100
AcDbEntity
  8
AM_6
100
AcDbText
 10
6.220427915332193
 20
-7.521875
 30
0.0
 40
0.5
  1
1-5/64
100
AcDbAttributeDefinition
  3

  2
Y
 70
     8
280
     0
  0
ATTDEF
  5
A0
330
8B
100
AcDbEntity
  8
AM_6
100
AcDbText
 10
6.220427915332193
 20
-8.021875
 30
0.0
 40
0.5
  1
baldor
100
AcDbAttributeDefinition
  3

  2
COMPANY
 70
     8
280
     0
  0
LINE
  5
A3
330
8B
100
AcDbEntity
  8
AM_9
100
AcDbLine
 10
0.7460316888888887
 20
-0.7734368451549405
 30
0.0
 11
0.7460316888888887
 21
-0.3867180951549427
 31
0.0
  0
LINE
  5
A4
330
8B
100
AcDbEntity
  8
AM_9
100
AcDbLine
 10
-0.7460316888888887
 20
-0.3867180951549427
 30
0.0
 11
-0.7460316888888887
 21
-0.7734368451549405
 31
0.0
  0
LINE
  5
A5
330
8B
100
AcDbEntity
  8
AM_9
100
AcDbLine
 10
-0.7460316888888887
 20
-0.3867180951549427
 30
0.0
 11
0.7460316888888887
 21
-0.3867180951549427
 31
0.0
  0
LINE
  5
A6
330
8B
100
AcDbEntity
  8
AM_9
100
AcDbLine
 10
0.7460316888888887
 20
-0.3867180951549427
 30
0.0
 11
0.7762326752613241
 21
0.478125
 31
0.0
  0
LINE
  5
A7
330
8B
100
AcDbEntity
  8
AM_9
100
AcDbLine
 10
-0.7762326752613241
 20
0.478125
 30
0.0
 11
-0.7460316888888887
 21
-0.3867180951549427
 31
0.0
  0
LINE
  5
A8
330
8B
100
AcDbEntity
  8
AM_9
100
AcDbLine
 10
0.817460288888889
 20
-0.6445305951549405
 30
0.0
 11
0.817460288888889
 21
-0.515625
 31
0.0
  0
LINE
  5
A9
330
8B
100
AcDbEntity
  8
AM_9
100
AcDbLine
 10
-0.817460288888889
 20
-0.515625
 30
0.0
 11
-0.817460288888889
 21
-0.6445305951549405
 31
0.0
  0
LINE
  5
AA
330
8B
100
AcDbEntity
  8
AM_9
100
AcDbLine
 10
0.8888888888888888
 20
-0.7450888451549404
 30
0.0
 11
0.8888888888888888
 21
-0.6445305951549405
 31
0.0
  0
LINE
  5
AB
330
8B
100
AcDbEntity
  8
AM_9
100
AcDbLine
 10
-0.8888888888888888
 20
-0.6445305951549405
 30
0.0
 11
-0.8888888888888888
 21
-0.7450888451549404
 31
0.0
  0
LINE
  5
AC
330
8B
100
AcDbEntity
  8
AM_9
100
AcDbLine
 10
-0.8888888888888888
 20
-0.6445305951549405
 30
0.0
 11
0.8888888888888888
 21
-0.6445305951549405
 31
0.0
  0
LINE
  5
AD
330
8B
100
AcDbEntity
  8
AM_9
100
AcDbLine
 10
0.8888888888888888
 20
-0.456121832952397
 30
0.0
 11
0.8888888888888888
 21
-0.3543499999999999
 31
0.0
  0
LINE
  5
AE
330
8B
100
AcDbEntity
  8
AM_9
100
AcDbLine
 10
-0.8888888888888888
 20
-0.3543499999999999
 30
0.0
 11
-0.8888888888888888
 21
-0.456121832952397
 31
0.0
  0
LINE
  5
AF
330
8B
100
AcDbEntity
  8
AM_9
100
AcDbLine
 10
-0.8830804606311771
 20
0.4555854282577119
 30
0.0
 11
-0.8888888888888888
 21
0.449777
 31
0.0
  0
LINE
  5
B0
330
8B
100
AcDbEntity
  8
AM_9
100
AcDbLine
 10
0.8888888888888888
 20
0.449777
 30
0.0
 11
0.8830804606311771
 21
0.4555854282577119
 31
0.0
  0
LINE
  5
B1
330
8B
100
AcDbEntity
  8
AM_9
100
AcDbLine
 10
0.8605408888888888
 20
-0.7734368451549405
 30
0.0
 11
0.8888888888888888
 21
-0.7450888451549404
 31
0.0
  0
LINE
  5
B2
330
8B
100
AcDbEntity
  8
AM_9
100
AcDbLine
 10
-0.8888888888888888
 20
-0.7450888451549404
 30
0.0
 11
-0.8605408888888888
 21
-0.7734368451549405
 31
0.0
  0
LINE
  5
B3
330
8B
100
AcDbEntity
  8
AM_9
100
AcDbLine
 10
-0.8605408888888888
 20
-0.7734368451549405
 30
0.0
 11
0.8605408888888888
 21
-0.7734368451549405
 31
0.0
  0
LINE
  5
B4
330
8B
100
AcDbEntity
  8
AM_9
100
AcDbLine
 10
-0.8888888888888888
 20
-0.7450888451549404
 30
0.0
 11
0.8888888888888888
 21
-0.7450888451549404
 31
0.0
  0
LINE
  5
B5
330
8B
100
AcDbEntity
  8
AM_9
100
AcDbLine
 10
0.8145956802667159
 20
0.449777
 30
0.0
 11
0.8888888888888886
 21
0.449777
 31
0.0
  0
LINE
  5
B6
330
8B
100
AcDbEntity
  8
AM_9
100
AcDbLine
 10
0.8888888888888886
 20
0.35435
 30
0.0
 11
0.8888888888888886
 21
0.449777
 31
0.0
  0
LINE
  5
B7
330
8B
100
AcDbEntity
  8
AM_9
100
AcDbLine
 10
-0.8888888888888886
 20
0.449777
 30
0.0
 11
-0.8888888888888886
 21
0.35435
 31
0.0
  0
LINE
  5
B8
330
8B
100
AcDbEntity
  8
AM_9
100
AcDbLine
 10
-0.8888888888888886
 20
0.449777
 30
0.0
 11
-0.8145956802667159
 21
0.449777
 31
0.0
  0
LINE
  5
B9
330
8B
100
AcDbEntity
  8
AM_9
100
AcDbLine
 10
1.14958
 20
-0.2280000000000001
 30
0.0
 11
1.14958
 21
-0.152
 31
0.0
  0
LINE
  5
BA
330
8B
100
AcDbEntity
  8
AM_9
100
AcDbLine
 10
-1.14958
 20
-0.152
 30
0.0
 11
-1.14958
 21
-0.2280000000000001
 31
0.0
  0
LINE
  5
BB
330
8B
100
AcDbEntity
  8
AM_9
100
AcDbLine
 10
-1.130466548018286
 20
-0.3543499999999999
 30
0.0
 11
1.130466548018286
 21
-0.3543499999999999
 31
0.0
  0
ARC
  5
BC
330
8B
100
AcDbEntity
  8
AM_9
100
AcDbCircle
 10
1.130466548018286
 20
-0.326002
 30
0.0
 40
0.028348
100
AcDbArc
 50
270.0
 51
338.5875329531165
  0
ARC
  5
BD
330
8B
100
AcDbEntity
  8
AM_9
100
AcDbCircle
 10
-1.130466548018286
 20
-0.326002
 30
0.0
 40
0.0283480000000002
100
AcDbArc
 50
201.4124670468835
 51
270.0
  0
LINE
  5
BE
330
8B
100
AcDbEntity
  8
AM_9
100
AcDbLine
 10
-1.130466548018286
 20
0.35435
 30
0.0
 11
1.130466548018286
 21
0.35435
 31
0.0
  0
ARC
  5
BF
330
8B
100
AcDbEntity
  8
AM_9
100
AcDbCircle
 10
1.130466548018287
 20
0.3260020000000005
 30
0.0
 40
0.0283479999999993
100
AcDbArc
 50
21.41246704688384
 51
90.0
  0
ARC
  5
C0
330
8B
100
AcDbEntity
  8
AM_9
100
AcDbCircle
 10
-1.130466548018287
 20
0.3260020000000005
 30
0.0
 40
0.0283479999999995
100
AcDbArc
 50
90.0
 51
158.5875329531162
  0
LINE
  5
C1
330
8B
100
AcDbEntity
  8
AM_9
100
AcDbLine
 10
-1.156857867002994
 20
-0.3363512698412697
 30
0.0
 11
1.156857867002994
 21
-0.3363512698412697
 31
0.0
  0
ARC
  5
C2
330
8B
100
AcDbEntity
  8
AM_9
100
AcDbCircle
 10
0.2991400000001613
 20
-0.0000000000000523
 30
0.0
 40
0.9213099999998308
100
AcDbArc
 50
338.5875329531153
 51
345.0993329992737
  0
ARC
  5
C3
330
8B
100
AcDbEntity
  8
AM_9
100
AcDbCircle
 10
-0.2991399999997495
 20
0.0000000000000827
 30
0.0
 40
0.9213100000002634
100
AcDbArc
 50
194.9006670007279
 51
201.4124670468832
  0
LINE
  5
C4
330
8B
100
AcDbEntity
  8
AM_9
100
AcDbLine
 10
-1.18262050129021
 20
-0.2280000000000001
 30
0.0
 11
1.18262050129021
 21
-0.2280000000000001
 31
0.0
  0
ARC
  5
C5
330
8B
100
AcDbEntity
  8
AM_9
100
AcDbCircle
 10
1.182620501290211
 20
-0.2350869999999992
 30
0.0
 40
0.007086999999999
100
AcDbArc
 50
345.0993456677753
 51
90.0
  0
ARC
  5
C6
330
8B
100
AcDbEntity
  8
AM_9
100
AcDbCircle
 10
-1.18262050129021
 20
-0.2350870000000001
 30
0.0
 40
0.007087
100
AcDbArc
 50
90.0
 51
194.9006543322148
  0
LINE
  5
C7
330
8B
100
AcDbEntity
  8
AM_9
100
AcDbLine
 10
-1.189469187752788
 20
-0.2369093783189285
 30
0.0
 11
1.189469187752788
 21
-0.2369093783189285
 31
0.0
  0
LINE
  5
C8
330
8B
100
AcDbEntity
  8
AM_9
100
AcDbLine
 10
-1.201804896935735
 20
-0.152
 30
0.0
 11
1.201804896935735
 21
-0.152
 31
0.0
  0
ARC
  5
C9
330
8B
100
AcDbEntity
  8
AM_9
100
AcDbCircle
 10
1.201804896935735
 20
-0.1449130000000002
 30
0.0
 40
0.0070869999999998
100
AcDbArc
 50
270.0
 51
350.8796090875511
  0
ARC
  5
CA
330
8B
100
AcDbEntity
  8
AM_9
100
AcDbCircle
 10
-1.201804896935735
 20
-0.1449130000000002
 30
0.0
 40
0.0070869999999997
100
AcDbArc
 50
189.120390912449
 51
270.0
  0
LINE
  5
CB
330
8B
100
AcDbEntity
  8
AM_9
100
AcDbLine
 10
-1.156857867002994
 20
0.3363512698412699
 30
0.0
 11
1.156857867002994
 21
0.3363512698412699
 31
0.0
  0
ARC
  5
CC
330
8B
100
AcDbEntity
  8
AM_9
100
AcDbCircle
 10
0.2991399999999853
 20
-0.0000000000000018
 30
0.0
 40
0.9213100000000144
100
AcDbArc
 50
350.8796090875509
 51
21.41246704688382
  0
ARC
  5
CD
330
8B
100
AcDbEntity
  8
AM_9
100
AcDbCircle
 10
-0.2991399999999995
 20
-0.0000000000000002
 30
0.0
 40
0.9213100000000006
100
AcDbArc
 50
158.587532953116
 51
189.1203909124493
  0
LINE
  5
CE
330
8B
100
AcDbEntity
  8
AM_9
100
AcDbLine
 10
-1.208802299237562
 20
-0.1460363565891474
 30
0.0
 11
1.208802299237562
 21
-0.1460363565891474
 31
0.0
  0
LINE
  5
D0
330
8B
100
AcDbEntity
  8
AM_4
100
AcDbLine
 10
0.8888888888888888
 20
-0.5156243451549403
 30
0.0
 11
0.8888888888888888
 21
-0.456121832952397
 31
0.0
  0
LINE
  5
D1
330
8B
100
AcDbEntity
  8
AM_4
100
AcDbLine
 10
-0.8888888888888888
 20
-0.456121832952397
 30
0.0
 11
-0.8888888888888888
 21
-0.5156243451549403
 31
0.0
  0
LINE
  5
D2
330
8B
100
AcDbEntity
  8
AM_4
100
AcDbLine
 10
-0.8888888888888888
 20
-0.5156243451549403
 30
0.0
 11
0.8888888888888888
 21
-0.5156243451549403
 31
0.0
  0
LINE
  5
D3
330
8B
100
AcDbEntity
  8
AM_4
100
AcDbLine
 10
-0.8605408888888888
 20
0.478125
 30
0.0
 11
0.8605408888888888
 21
0.478125
 31
0.0
  0
LINE
  5
D4
330
8B
100
AcDbEntity
  8
AM_4
100
AcDbLine
 10
-0.8605408888888888
 20
0.478125
 30
0.0
 11
-0.8830804606311771
 21
0.4555854282577119
 31
0.0
  0
LINE
  5
D5
330
8B
100
AcDbEntity
  8
AM_4
100
AcDbLine
 10
0.8830804606311771
 20
0.4555854282577119
 30
0.0
 11
0.8605408888888888
 21
0.478125
 31
0.0
  0
LINE
  5
D6
330
8B
100
AcDbEntity
  8
AM_4
100
AcDbLine
 10
-0.8145956802667159
 20
0.449777
 30
0.0
 11
0.8145956802667159
 21
0.449777
 31
0.0
  0
ENDBLK
  5
8E
330
8B
100
AcDbEntity
  8
0
100
AcDbBlockEnd
  0
BLOCK
  5
D9
330
D7
100
AcDbEntity
  8
0
100
AcDbBlockBegin
  2
3_129971_0_in__129265_4
 70
     2
 10
0.0
 20
0.0
 30
0.0
  3
3_129971_0_in__129265_4
  1

  0
ATTDEF
  5
DB
330
D7
100
AcDbEntity
  8
AM_6
100
AcDbText
 10
5.995477272467835
 20
0.53125
 30
0.0
 40
0.5
  1
Grip Tight Adapter and Nut - Corrosion Resistant Inch Bore
100
AcDbAttributeDefinition
  3

  2
NN
 70
     8
280
     0
  0
ATTDEF
  5
DC
330
D7
100
AcDbEntity
  8
AM_6
100
AcDbText
 10
5.995477272467835
 20
0.03125
 30
0.0
 40
0.5
  1
GT and GTM Adapter & Lock Nut Assemblies
100
AcDbAttributeDefinition
  3

  2
NT
 70
     8
280
     0
  0
ATTDEF
  5
DD
330
D7
100
AcDbEntity
  8
AM_6
100
AcDbText
 10
5.995477272467835
 20
-0.46875
 30
0.0
 40
0.5
  1
129971
100
AcDbAttributeDefinition
  3

  2
NB
 70
     8
280
     0
  0
ATTDEF
  5
DE
330
D7
100
AcDbEntity
  8
AM_6
100
AcDbText
 10
5.995477272467835
 20
-0.96875
 30
0.0
 40
0.5
  1
$PN.
100
AcDbAttributeDefinition
  3

  2
NBSYN
 70
     8
280
     0
  0
ATTDEF
  5
DF
330
D7
100
AcDbEntity
  8
AM_6
100
AcDbText
 10
5.995477272467835
 20
-1.46875
 30
0.0
 40
0.5
  1
129971
100
AcDbAttributeDefinition
  3

  2
LINA
 70
     8
280
     0
  0
ATTDEF
  5
E0
330
D7
100
AcDbEntity
  8
AM_6
100
AcDbText
 10
5.995477272467835
 20
-1.96875
 30
0.0
 40
0.5
  1
206
100
AcDbAttributeDefinition
  3

  2
SERIES
 70
     8
280
     0
  0
ATTDEF
  5
E1
330
D7
100
AcDbEntity
  8
AM_6
100
AcDbText
 10
5.995477272467835
 20
-2.46875
 30
0.0
 40
0.5
  1
1-3/16
100
AcDbAttributeDefinition
  3

  2
SS
 70
     8
280
     0
  0
ATTDEF
  5
E2
330
D7
100
AcDbEntity
  8
AM_6
100
AcDbText
 10
5.995477272467835
 20
-2.96875
 30
0.0
 40
0.5
  1
129971
100
AcDbAttributeDefinition
  3

  2
PN
 70
     8
280
     0
  0
ATTDEF
  5
E3
330
D7
100
AcDbEntity
  8
AM_6
100
AcDbText
 10
5.995477272467835
 20
-3.46875
 30
0.0
 40
0.5
  1
AN-GT-06-103-CR
100
AcDbAttributeDefinition
  3

  2
DESCRIPTION
 70
     8
280
     0
  0
ATTDEF
  5
E4
330
D7
100
AcDbEntity
  8
AM_6
100
AcDbText
 10
5.995477272467835
 20
-3.96875
 30
0.0
 40
0.5
  1
1-39/64
100
AcDbAttributeDefinition
  3

  2
A
 70
     8
280
     0
  0
ATTDEF
  5
E5
330
D7
100
AcDbEntity
  8
AM_6
100
AcDbText
 10
5.995477272467835
 20
-4.46875
 30
0.0
 40
0.5
  1
0.7087
100
AcDbAttributeDefinition
  3

  2
C
 70
     8
280
     0
  0
ATTDEF
  5
E6
330
D7
100
AcDbEntity
  8
AM_6
100
AcDbText
 10
5.995477272467835
 20
-4.96875
 30
0.0
 40
0.5
  1
2.4409
100
AcDbAttributeDefinition
  3

  2
D
 70
     8
280
     0
  0
ATTDEF
  5
E7
330
D7
100
AcDbEntity
  8
AM_6
100
AcDbText
 10
5.995477272467835
 20
-5.46875
 30
0.0
 40
0.5
  1
0.190
100
AcDbAttributeDefinition
  3

  2
J
 70
     8
280
     0
  0
ATTDEF
  5
E8
330
D7
100
AcDbEntity
  8
AM_6
100
AcDbText
 10
5.995477272467835
 20
-5.96875
 30
0.0
 40
0.5
  1
2
100
AcDbAttributeDefinition
  3

  2
L
 70
     8
280
     0
  0
ATTDEF
  5
E9
330
D7
100
AcDbEntity
  8
AM_6
100
AcDbText
 10
5.995477272467835
 20
-6.46875
 30
0.0
 40
0.5
  1
10 - 32 x 1/4
100
AcDbAttributeDefinition
  3

  2
N
 70
     8
280
     0
  0
ATTDEF
  5
EA
330
D7
100
AcDbEntity
  8
AM_6
100
AcDbText
 10
5.995477272467835
 20
-6.96875
 30
0.0
 40
0.5
  1
17/32
100
AcDbAttributeDefinition
  3

  2
W
 70
     8
280
     0
  0
ATTDEF
  5
EB
330
D7
100
AcDbEntity
  8
AM_6
100
AcDbText
 10
5.995477272467835
 20
-7.46875
 30
0.0
 40
0.5
  1
1-1/32
100
AcDbAttributeDefinition
  3

  2
X
 70
     8
280
     0
  0
ATTDEF
  5
EC
330
D7
100
AcDbEntity
  8
AM_6
100
AcDbText
 10
5.995477272467835
 20
-7.96875
 30
0.0
 40
0.5
  1
1-5/64
100
AcDbAttributeDefinition
  3

  2
Y
 70
     8
280
     0
  0
ATTDEF
  5
ED
330
D7
100
AcDbEntity
  8
AM_6
100
AcDbText
 10
5.995477272467835
 20
-8.46875
 30
0.0
 40
0.5
  1
baldor
100
AcDbAttributeDefinition
  3

  2
COMPANY
 70
     8
280
     0
  0
LINE
  5
EE
330
D7
100
AcDbEntity
  8
AM_9
100
AcDbLine
 10
-0.983
 20
-0.9873647333418
 30
0.0
 11
-0.767
 21
-0.9873647333418
 31
0.0
  0
LINE
  5
EF
330
D7
100
AcDbEntity
  8
AM_9
100
AcDbLine
 10
-0.767
 20
-0.8313647333418
 30
0.0
 11
-0.983
 21
-0.8313647333418
 31
0.0
  0
LINE
  5
F0
330
D7
100
AcDbEntity
  8
AM_9
100
AcDbLine
 10
-0.767
 20
-0.9873647333418
 30
0.0
 11
-0.7499999999999999
 21
-1.0043647333418
 31
0.0
  0
LINE
  5
F1
330
D7
100
AcDbEntity
  8
AM_9
100
AcDbLine
 10
-0.7499999999999999
 20
-0.8143647333418002
 30
0.0
 11
-0.767
 21
-0.8313647333418
 31
0.0
  0
LINE
  5
F2
330
D7
100
AcDbEntity
  8
AM_9
100
AcDbLine
 10
-0.7499999999999999
 20
-0.8143647333418002
 30
0.0
 11
-0.7499999999999999
 21
-1.0043647333418
 31
0.0
  0
LINE
  5
F3
330
D7
100
AcDbEntity
  8
AM_9
100
AcDbLine
 10
-0.767
 20
-0.8313647333418
 30
0.0
 11
-0.767
 21
-0.9873647333418
 31
0.0
  0
LINE
  5
F4
330
D7
100
AcDbEntity
  8
AM_9
100
AcDbLine
 10
0.9333331639996614
 20
-0.515625
 30
0.0
 11
0.9333331639996614
 21
-1.03125
 31
0.0
  0
LINE
  5
F5
330
D7
100
AcDbEntity
  8
AM_9
100
AcDbLine
 10
-0.983
 20
-0.8313647333418
 30
0.0
 11
-0.9998551573481288
 21
-0.8145095759936714
 31
0.0
  0
LINE
  5
F6
330
D7
100
AcDbEntity
  8
AM_9
100
AcDbLine
 10
-0.9992681838790302
 20
-1.00363291722083
 30
0.0
 11
-0.983
 21
-0.9873647333418
 31
0.0
  0
LINE
  5
F7
330
D7
100
AcDbEntity
  8
AM_9
100
AcDbLine
 10
-0.983
 20
-0.8313647333418
 30
0.0
 11
-0.983
 21
-0.9873647333418
 31
0.0
  0
LINE
  5
F8
330
D7
100
AcDbEntity
  8
AM_9
100
AcDbLine
 10
0.5937499999999999
 20
-1.078125
 30
0.0
 11
0.5937499999999999
 21
0.5312499999999998
 31
0.0
  0
LINE
  5
F9
330
D7
100
AcDbEntity
  8
AM_9
100
AcDbLine
 10
-0.5937499999999999
 20
0.5312499999999998
 30
0.0
 11
-0.5937499999999999
 21
-1.078125
 31
0.0
  0
LINE
  5
FA
330
D7
100
AcDbEntity
  8
AM_9
100
AcDbLine
 10
0.7460317460317463
 20
-0.7734368451549405
 30
0.0
 11
0.7460317460317463
 21
-0.3867187500000001
 31
0.0
  0
LINE
  5
FB
330
D7
100
AcDbEntity
  8
AM_9
100
AcDbLine
 10
-0.7460317460317463
 20
-0.3867187500000001
 30
0.0
 11
-0.7460317460317463
 21
-0.7734368451549405
 31
0.0
  0
LINE
  5
FC
330
D7
100
AcDbEntity
  8
AM_9
100
AcDbLine
 10
-0.05
 20
0.478124995268198
 30
0.0
 11
-0.05
 21
-1.03125
 31
0.0
  0
LINE
  5
FD
330
D7
100
AcDbEntity
  8
AM_9
100
AcDbLine
 10
0.05
 20
0.478124995268198
 30
0.0
 11
0.05
 21
-1.03125
 31
0.0
  0
LINE
  5
FE
330
D7
100
AcDbEntity
  8
AM_9
100
AcDbLine
 10
-0.7460317460317459
 20
-0.3867187500000001
 30
0.0
 11
0.7460317460317459
 21
-0.3867187500000001
 31
0.0
  0
LINE
  5
FF
330
D7
100
AcDbEntity
  8
AM_9
100
AcDbLine
 10
0.7460317460317459
 20
-0.3867187500000001
 30
0.0
 11
0.7762327552718747
 21
0.478125
 31
0.0
  0
LINE
  5
100
330
D7
100
AcDbEntity
  8
AM_9
100
AcDbLine
 10
-0.7762327552718747
 20
0.478125
 30
0.0
 11
-0.7460317460317459
 21
-0.3867187500000001
 31
0.0
  0
LINE
  5
101
330
D7
100
AcDbEntity
  8
AM_9
100
AcDbLine
 10
0.8174603174603172
 20
-0.64453125
 30
0.0
 11
0.8174603174603172
 21
-0.515625
 31
0.0
  0
LINE
  5
102
330
D7
100
AcDbEntity
  8
AM_9
100
AcDbLine
 10
-0.8174603174603172
 20
-0.515625
 30
0.0
 11
-0.8174603174603172
 21
-0.64453125
 31
0.0
  0
LINE
  5
103
330
D7
100
AcDbEntity
  8
AM_9
100
AcDbLine
 10
-0.3843941686403093
 20
-0.5156249999999999
 30
0.0
 11
-0.3843941686403093
 21
-1.03125
 31
0.0
  0
LINE
  5
104
330
D7
100
AcDbEntity
  8
AM_9
100
AcDbLine
 10
-0.8888888888888888
 20
-0.64453125
 30
0.0
 11
0.8888888888888888
 21
-0.64453125
 31
0.0
  0
LINE
  5
105
330
D7
100
AcDbEntity
  8
AM_9
100
AcDbLine
 10
-0.8888888888888888
 20
-0.7734374999999999
 30
0.0
 11
0.8888888888888888
 21
-0.7734374999999999
 31
0.0
  0
LINE
  5
106
330
D7
100
AcDbEntity
  8
AM_9
100
AcDbLine
 10
0.8888888888888888
 20
-0.7734374999999999
 30
0.0
 11
0.8888888888888888
 21
-0.64453125
 31
0.0
  0
LINE
  5
107
330
D7
100
AcDbEntity
  8
AM_9
100
AcDbLine
 10
-0.8888888888888888
 20
-0.64453125
 30
0.0
 11
-0.8888888888888888
 21
-0.7734374999999999
 31
0.0
  0
LINE
  5
109
330
D7
100
AcDbEntity
  8
AM_5
100
AcDbLine
 10
-0.9985372666581999
 20
-1.0043647333418
 30
0.0
 11
-0.7499999999999999
 21
-1.0043647333418
 31
0.0
  0
LINE
  5
10A
330
D7
100
AcDbEntity
  8
AM_5
100
AcDbLine
 10
-1.0
 20
-0.8143647333417999
 30
0.0
 11
-0.7499999999999999
 21
-0.8143647333417999
 31
0.0
  0
LINE
  5
10D
330
D7
100
AcDbEntity
  8
AM_7
100
AcDbLine
 10
-0.7374999999999999
 20
-0.9093647333418
 30
0.0
 11
-1.0125
 21
-0.9093647333418
 31
0.0
  0
LINE
  5
10E
330
D7
100
AcDbEntity
  8
AM_4
100
AcDbLine
 10
-0.05
 20
-1.078125
 30
0.0
 11
-0.05
 21
-1.03125
 31
0.0
  0
LINE
  5
10F
330
D7
100
AcDbEntity
  8
AM_4
100
AcDbLine
 10
0.05
 20
-1.078125
 30
0.0
 11
0.05
 21
-1.03125
 31
0.0
  0
LINE
  5
110
330
D7
100
AcDbEntity
  8
AM_4
100
AcDbLine
 10
0.7460317460317459
 20
-1.078125
 30
0.0
 11
0.7460317460317459
 21
-1.03125
 31
0.0
  0
LINE
  5
111
330
D7
100
AcDbEntity
  8
AM_4
100
AcDbLine
 10
-0.7460317460317459
 20
-1.03125
 30
0.0
 11
-0.7460317460317459
 21
-1.078125
 31
0.0
  0
LINE
  5
112
330
D7
100
AcDbEntity
  8
AM_4
100
AcDbLine
 10
-0.7460317460317459
 20
-1.078125
 30
0.0
 11
0.7460317460317459
 21
-1.078125
 31
0.0
  0
LINE
  5
113
330
D7
100
AcDbEntity
  8
AM_4
100
AcDbLine
 10
0.05
 20
0.478124995268198
 30
0.0
 11
0.05
 21
0.53125
 31
0.0
  0
LINE
  5
114
330
D7
100
AcDbEntity
  8
AM_4
100
AcDbLine
 10
-0.05
 20
0.478124995268198
 30
0.0
 11
-0.05
 21
0.53125
 31
0.0
  0
LINE
  5
115
330
D7
100
AcDbEntity
  8
AM_4
100
AcDbLine
 10
0.7762327552718747
 20
0.478125
 30
0.0
 11
0.7780879211511239
 21
0.53125
 31
0.0
  0
LINE
  5
116
330
D7
100
AcDbEntity
  8
AM_4
100
AcDbLine
 10
-0.7780879211511239
 20
0.53125
 30
0.0
 11
-0.7762327552718747
 21
0.478125
 31
0.0
  0
LINE
  5
117
330
D7
100
AcDbEntity
  8
AM_4
100
AcDbLine
 10
-0.7780879211511239
 20
0.53125
 30
0.0
 11
0.7780879211511239
 21
0.53125
 31
0.0
  0
LINE
  5
118
330
D7
100
AcDbEntity
  8
AM_4
100
AcDbLine
 10
-0.9992686333291
 20
-1.0036333666709
 30
0.0
 11
-0.971652
 21
-1.03125
 31
0.0
  0
LINE
  5
119
330
D7
100
AcDbEntity
  8
AM_4
100
AcDbLine
 10
-0.5800110495934396
 20
-1.002902
 30
0.0
 11
-0.5657707611085089
 21
-1.03125
 31
0.0
  0
LINE
  5
11A
330
D7
100
AcDbEntity
  8
AM_4
100
AcDbLine
 10
-0.5657707611085088
 20
-0.515625
 30
0.0
 11
-0.5800110495934394
 21
-0.543973
 31
0.0
  0
LINE
  5
11B
330
D7
100
AcDbEntity
  8
AM_4
100
AcDbLine
 10
-0.971652
 20
-0.515625
 30
0.0
 11
-1.0
 21
-0.5439730000000002
 31
0.0
  0
LINE
  5
11C
330
D7
100
AcDbEntity
  8
AM_4
100
AcDbLine
 10
-0.9998740586901644
 20
-1.002902
 30
0.0
 11
-0.5800110495934396
 21
-1.002902
 31
0.0
  0
LINE
  5
11D
330
D7
100
AcDbEntity
  8
AM_4
100
AcDbLine
 10
-0.5800110495934394
 20
-0.543973
 30
0.0
 11
-0.5800110495934396
 21
-1.002902
 31
0.0
  0
LINE
  5
11E
330
D7
100
AcDbEntity
  8
AM_4
100
AcDbLine
 10
-1.0
 20
-0.5439730000000002
 30
0.0
 11
-1.0
 21
-0.8146315339945556
 31
0.0
  0
LWPOLYLINE
  5
11F
330
D7
100
AcDbEntity
  8
AM_4
100
AcDbPolyline
 90
       21
 70
     0
 43
0.0
 10
-0.9999999999999966
 20
-0.8143647333418382
 10
-0.9999914443652305
 20
-0.8144633987555435
 10
-0.999830212438795
 20
-0.8163420323672886
 10
-0.9994685472898437
 20
-0.8206985986074821
 10
-0.9989627533566973
 20
-0.827172388124226
 10
-0.9983417104400577
 20
-0.8358878954113632
 10
-0.9976786283390863
 20
-0.8465000087709003
 10
-0.9970295411275498
 20
-0.8589926942609746
 10
-0.9964716861551616
 20
-0.872993169215696
 10
-0.9960667540252567
 20
-0.8883377943561084
 10
-0.9958749490821849
 20
-0.9043477043271361
 10
-0.9959250700617132
 20
-0.9209454735234762
 10
-0.996214541225367
 20
-0.9369963217837015
 10
-0.9967271719858117
 20
-0.9527113532255763
 10
-0.9972334072795445
 20
-0.9639675722127253
 10
-0.9978069390634098
 20
-0.9744171382190506
 10
-0.9984098503536707
 20
-0.9838471435225543
 10
-0.9989871233028029
 20
-0.9918805007535243
 10
-0.9995107352554197
 20
-0.9985498720665321
 10
-0.9998697676437873
 20
-1.002851764853274
 10
-0.9998740586901644
 20
-1.002902
  0
LINE
  5
120
330
D7
100
AcDbEntity
  8
AM_4
100
AcDbLine
 10
-1.0
 20
-0.5439730000000002
 30
0.0
 11
-0.5800110495934394
 21
-0.543973
 31
0.0
  0
LINE
  5
121
330
D7
100
AcDbEntity
  8
AM_4
100
AcDbLine
 10
-0.5489389953593525
 20
-0.5156249999999999
 30
0.0
 11
-0.5489389953593525
 21
-1.03125
 31
0.0
  0
LINE
  5
122
330
D7
100
AcDbEntity
  8
AM_4
100
AcDbLine
 10
0.9669966954979732
 20
-0.515625
 30
0.0
 11
0.9954772724678349
 21
-0.5439730000000002
 31
0.0
  0
LINE
  5
123
330
D7
100
AcDbEntity
  8
AM_4
100
AcDbLine
 10
-0.971652
 20
-0.515625
 30
0.0
 11
0.9669966954979732
 21
-0.515625
 31
0.0
  0
LINE
  5
124
330
D7
100
AcDbEntity
  8
AM_4
100
AcDbLine
 10
-0.4154662228743963
 20
-0.543973
 30
0.0
 11
-0.4012259343894655
 21
-0.515625
 31
0.0
  0
LINE
  5
125
330
D7
100
AcDbEntity
  8
AM_4
100
AcDbLine
 10
0.9954772724678349
 20
-0.5439730000000002
 30
0.0
 11
0.9954772724678349
 21
-1.002902
 31
0.0
  0
LINE
  5
126
330
D7
100
AcDbEntity
  8
AM_4
100
AcDbLine
 10
-0.4154662228743963
 20
-0.543973
 30
0.0
 11
0.9954772724678349
 21
-0.5439730000000002
 31
0.0
  0
LINE
  5
127
330
D7
100
AcDbEntity
  8
AM_4
100
AcDbLine
 10
-0.4154662228743962
 20
-1.002902
 30
0.0
 11
-0.4154662228743963
 21
-0.543973
 31
0.0
  0
LINE
  5
128
330
D7
100
AcDbEntity
  8
AM_4
100
AcDbLine
 10
0.9954772724678349
 20
-1.002902
 30
0.0
 11
0.9669966954979732
 21
-1.03125
 31
0.0
  0
LINE
  5
129
330
D7
100
AcDbEntity
  8
AM_4
100
AcDbLine
 10
-0.4154662228743962
 20
-1.002902
 30
0.0
 11
0.9954772724678349
 21
-1.002902
 31
0.0
  0
LINE
  5
12A
330
D7
100
AcDbEntity
  8
AM_4
100
AcDbLine
 10
-0.4012259343894653
 20
-1.03125
 30
0.0
 11
-0.4154662228743962
 21
-1.002902
 31
0.0
  0
LINE
  5
12B
330
D7
100
AcDbEntity
  8
AM_4
100
AcDbLine
 10
-0.971652
 20
-1.03125
 30
0.0
 11
0.9669966954979732
 21
-1.03125
 31
0.0
  0
ENDBLK
  5
DA
330
D7
100
AcDbEntity
  8
0
100
AcDbBlockEnd
  0
BLOCK
  5
12E
330
12C
100
AcDbEntity
  8
0
100
AcDbBlockBegin
  2
4_P2B_GTUEZ_06_SHCRI_0_in__129265_4
 70
     2
 10
0.0
 20
0.0
 30
0.0
  3
4_P2B_GTUEZ_06_SHCRI_0_in__129265_4
  1

  0
ATTDEF
  5
130
330
12C
100
AcDbEntity
  8
AM_6
100
AcDbText
 10
8.125000000000002
 20
0.6875
 30
0.0
 40
0.5
  1
P2B-GTEZ-SHCR-I
100
AcDbAttributeDefinition
  3

  2
NN
 70
     8
280
     0
  0
ATTDEF
  5
131
330
12C
100
AcDbEntity
  8
AM_6
100
AcDbText
 10
8.125000000000002
 20
0.1875
 30
0.0
 40
0.5
  1
GTEZ Normal Duty Stainless Steel Housed Pillow Blocks
100
AcDbAttributeDefinition
  3

  2
NT
 70
     8
280
     0
  0
ATTDEF
  5
132
330
12C
100
AcDbEntity
  8
AM_6
100
AcDbText
 10
8.125000000000002
 20
-0.3125
 30
0.0
 40
0.5
  1
P2B-GTUEZ-06-SHCRI
100
AcDbAttributeDefinition
  3

  2
NB
 70
     8
280
     0
  0
ATTDEF
  5
133
330
12C
100
AcDbEntity
  8
AM_6
100
AcDbText
 10
8.125000000000002
 20
-0.8125
 30
0.0
 40
0.5
  1
$PN.$LUBE.I
100
AcDbAttributeDefinition
  3

  2
NBSYN
 70
     8
280
     0
  0
ATTDEF
  5
134
330
12C
100
AcDbEntity
  8
AM_6
100
AcDbText
 10
8.125000000000002
 20
-1.3125
 30
0.0
 40
0.5
  1
P2B-GTUEZ-06-SHCR
100
AcDbAttributeDefinition
  3

  2
LINA
 70
     8
280
     0
  0
ATTDEF
  5
135
330
12C
100
AcDbEntity
  8
AM_6
100
AcDbText
 10
8.125000000000002
 20
-1.8125
 30
0.0
 40
0.5
  1
206
100
AcDbAttributeDefinition
  3

  2
SERIES
 70
     8
280
     0
  0
ATTDEF
  5
136
330
12C
100
AcDbEntity
  8
AM_6
100
AcDbText
 10
8.125000000000002
 20
-2.3125
 30
0.0
 40
0.5
  1
P2B-GTUEZ-06-SHCR
100
AcDbAttributeDefinition
  3

  2
PN
 70
     8
280
     0
  0
ATTDEF
  5
137
330
12C
100
AcDbEntity
  8
AM_6
100
AcDbText
 10
8.125000000000002
 20
-2.8125
 30
0.0
 40
0.5
  1
P2B-GTUEZ-06-SHCR
100
AcDbAttributeDefinition
  3

  2
DESCRIPTION
 70
     8
280
     0
  0
ATTDEF
  5
138
330
12C
100
AcDbEntity
  8
AM_6
100
AcDbText
 10
8.125000000000002
 20
-3.3125
 30
0.0
 40
0.5
  1
1-39/64
100
AcDbAttributeDefinition
  3

  2
A
 70
     8
280
     0
  0
ATTDEF
  5
139
330
12C
100
AcDbEntity
  8
AM_6
100
AcDbText
 10
8.125000000000002
 20
-3.8125
 30
0.0
 40
0.5
  1
6-1/4
100
AcDbAttributeDefinition
  3

  2
B
 70
     8
280
     0
  0
ATTDEF
  5
13A
330
12C
100
AcDbEntity
  8
AM_6
100
AcDbText
 10
8.125000000000002
 20
-4.3125
 30
0.0
 40
0.5
  1
1-1/4
100
AcDbAttributeDefinition
  3

  2
C
 70
     8
280
     0
  0
ATTDEF
  5
13B
330
12C
100
AcDbEntity
  8
AM_6
100
AcDbText
 10
8.125000000000002
 20
-4.8125
 30
0.0
 40
0.5
  1
4-17/64
100
AcDbAttributeDefinition
  3

  2
DMIN
 70
     8
280
     0
  0
ATTDEF
  5
13C
330
12C
100
AcDbEntity
  8
AM_6
100
AcDbText
 10
8.125000000000002
 20
-5.3125
 30
0.0
 40
0.5
  1
5
100
AcDbAttributeDefinition
  3

  2
DMAX
 70
     8
280
     0
  0
ATTDEF
  5
13D
330
12C
100
AcDbEntity
  8
AM_6
100
AcDbText
 10
8.125000000000002
 20
-5.8125
 30
0.0
 40
0.5
  1
5.000
100
AcDbAttributeDefinition
  3

  2
DMAX1
 70
     8
280
     0
  0
ATTDEF
  5
13E
330
12C
100
AcDbEntity
  8
AM_6
100
AcDbText
 10
8.125000000000002
 20
-6.3125
 30
0.0
 40
0.5
  1
1/2
100
AcDbAttributeDefinition
  3

  2
F
 70
     8
280
     0
  0
ATTDEF
  5
13F
330
12C
100
AcDbEntity
  8
AM_6
100
AcDbText
 10
8.125000000000002
 20
-6.8125
 30
0.0
 40
0.5
  1
15/16
100
AcDbAttributeDefinition
  3

  2
G
 70
     8
280
     0
  0
ATTDEF
  5
140
330
12C
100
AcDbEntity
  8
AM_6
100
AcDbText
 10
8.125000000000002
 20
-7.3125
 30
0.0
 40
0.5
  1
19/32
100
AcDbAttributeDefinition
  3

  2
H
 70
     8
280
     0
  0
ATTDEF
  5
141
330
12C
100
AcDbEntity
  8
AM_6
100
AcDbText
 10
8.125000000000002
 20
-7.8125
 30
0.0
 40
0.5
  1
3-3/16
100
AcDbAttributeDefinition
  3

  2
J
 70
     8
280
     0
  0
ATTDEF
  5
142
330
12C
100
AcDbEntity
  8
AM_6
100
AcDbText
 10
8.125000000000002
 20
-8.3125
 30
0.0
 40
0.5
  1
2
100
AcDbAttributeDefinition
  3

  2
L
 70
     8
280
     0
  0
ATTDEF
  5
143
330
12C
100
AcDbEntity
  8
AM_6
100
AcDbText
 10
8.125000000000002
 20
-8.8125
 30
0.0
 40
0.5
  1
1-11/16
100
AcDbAttributeDefinition
  3

  2
M
 70
     8
280
     0
  0
ATTDEF
  5
144
330
12C
100
AcDbEntity
  8
AM_6
100
AcDbText
 10
8.125000000000002
 20
-9.3125
 30
0.0
 40
0.5
  1
17/32
100
AcDbAttributeDefinition
  3

  2
R
 70
     8
280
     0
  0
ATTDEF
  5
145
330
12C
100
AcDbEntity
  8
AM_6
100
AcDbText
 10
8.125000000000002
 20
-9.8125
 30
0.0
 40
0.5
  1
1-5/64
100
AcDbAttributeDefinition
  3

  2
S
 70
     8
280
     0
  0
ATTDEF
  5
146
330
12C
100
AcDbEntity
  8
AM_6
100
AcDbText
 10
8.125000000000002
 20
-10.3125
 30
0.0
 40
0.5
  1
1-1/32
100
AcDbAttributeDefinition
  3

  2
Z
 70
     8
280
     0
  0
ATTDEF
  5
147
330
12C
100
AcDbEntity
  8
AM_6
100
AcDbText
 10
8.125000000000002
 20
-10.8125
 30
0.0
 40
0.5
  1
baldor
100
AcDbAttributeDefinition
  3

  2
COMPANY
 70
     8
280
     0
  0
LINE
  5
148
330
12C
100
AcDbEntity
  8
AM_9
100
AcDbLine
 10
-1.966182
 20
-0.5462598000000003
 30
0.0
 11
-1.966182
 21
-0.6250000000000003
 31
0.0
  0
LINE
  5
149
330
12C
100
AcDbEntity
  8
AM_9
100
AcDbLine
 10
-1.797834
 20
-0.5462598000000003
 30
0.0
 11
-1.797834
 21
-0.6250000000000003
 31
0.0
  0
LINE
  5
14A
330
12C
100
AcDbEntity
  8
AM_9
100
AcDbLine
 10
-2.357974530935
 20
-0.5462598000000003
 30
0.0
 11
-2.357974530935
 21
-0.6250000000000003
 31
0.0
  0
LINE
  5
14B
330
12C
100
AcDbEntity
  8
AM_9
100
AcDbLine
 10
-2.0641302
 20
-0.5462598000000003
 30
0.0
 11
-2.0641302
 21
-0.6250000000000003
 31
0.0
  0
LINE
  5
14C
330
12C
100
AcDbEntity
  8
AM_9
100
AcDbLine
 10
-2.0396432
 20
-0.5462598000000003
 30
0.0
 11
-2.0396432
 21
-0.6250000000000003
 31
0.0
  0
LINE
  5
14D
330
12C
100
AcDbEntity
  8
AM_9
100
AcDbLine
 10
-2.211052404353
 20
-0.5462598000000003
 30
0.0
 11
-2.211052404353
 21
-0.6250000000000003
 31
0.0
  0
LINE
  5
14E
330
12C
100
AcDbEntity
  8
AM_9
100
AcDbLine
 10
-2.333487509838
 20
-0.5462598000000003
 30
0.0
 11
-2.333487509838
 21
-0.6250000000000003
 31
0.0
  0
LINE
  5
14F
330
12C
100
AcDbEntity
  8
AM_9
100
AcDbLine
 10
-2.376339895183
 20
-0.5462598000000003
 30
0.0
 11
-2.376339895183
 21
-0.6250000000000003
 31
0.0
  0
LINE
  5
150
330
12C
100
AcDbEntity
  8
AM_9
100
AcDbLine
 10
-2.229417768601
 20
-0.5462598000000003
 30
0.0
 11
-2.229417768601
 21
-0.6250000000000003
 31
0.0
  0
LINE
  5
151
330
12C
100
AcDbEntity
  8
AM_9
100
AcDbLine
 10
-2.0824955
 20
-0.5462598000000003
 30
0.0
 11
-2.0824955
 21
-0.6250000000000003
 31
0.0
  0
LINE
  5
152
330
12C
100
AcDbEntity
  8
AM_9
100
AcDbLine
 10
-2.31512214559
 20
-0.5462598000000003
 30
0.0
 11
-2.31512214559
 21
-0.6250000000000003
 31
0.0
  0
LINE
  5
153
330
12C
100
AcDbEntity
  8
AM_9
100
AcDbLine
 10
-1.920269
 20
-0.5462598000000003
 30
0.0
 11
-1.920269
 21
-0.6250000000000003
 31
0.0
  0
LINE
  5
154
330
12C
100
AcDbEntity
  8
AM_9
100
AcDbLine
 10
-2.021278
 20
-0.5462598000000003
 30
0.0
 11
-2.021278
 21
-0.6250000000000003
 31
0.0
  0
LINE
  5
155
330
12C
100
AcDbEntity
  8
AM_9
100
AcDbLine
 10
-2.0671911
 20
-0.5462598000000003
 30
0.0
 11
-2.0671911
 21
-0.6250000000000003
 31
0.0
  0
LINE
  5
156
330
12C
100
AcDbEntity
  8
AM_9
100
AcDbLine
 10
-2.0365823
 20
-0.5462598000000003
 30
0.0
 11
-2.0365823
 21
-0.6250000000000003
 31
0.0
  0
LINE
  5
157
330
12C
100
AcDbEntity
  8
AM_9
100
AcDbLine
 10
-2.330426878264
 20
-0.5462598000000003
 30
0.0
 11
-2.330426878264
 21
-0.6250000000000003
 31
0.0
  0
LINE
  5
158
330
12C
100
AcDbEntity
  8
AM_9
100
AcDbLine
 10
-2.36103555621
 20
-0.5462598000000003
 30
0.0
 11
-2.36103555621
 21
-0.6250000000000003
 31
0.0
  0
LINE
  5
159
330
12C
100
AcDbEntity
  8
AM_9
100
AcDbLine
 10
-2.214113429628
 20
-0.5462598000000003
 30
0.0
 11
-2.214113429628
 21
-0.6250000000000003
 31
0.0
  0
LINE
  5
15A
330
12C
100
AcDbEntity
  8
AM_9
100
AcDbLine
 10
-1.938634
 20
-0.5462598000000003
 30
0.0
 11
-1.938634
 21
-0.6250000000000003
 31
0.0
  0
LINE
  5
15B
330
12C
100
AcDbEntity
  8
AM_9
100
AcDbLine
 10
-2.324304827714
 20
-0.5462598000000003
 30
0.0
 11
-2.324304827714
 21
-0.6250000000000001
 31
0.0
  0
LINE
  5
15C
330
12C
100
AcDbEntity
  8
AM_9
100
AcDbLine
 10
-2.012095
 20
-0.5462598000000003
 30
0.0
 11
-2.012095
 21
-0.6250000000000003
 31
0.0
  0
LINE
  5
15D
330
12C
100
AcDbEntity
  8
AM_9
100
AcDbLine
 10
-2.305939463466
 20
-0.5462598000000003
 30
0.0
 11
-2.305939463466
 21
-0.6250000000000003
 31
0.0
  0
LINE
  5
15E
330
12C
100
AcDbEntity
  8
AM_9
100
AcDbLine
 10
-2.0916781
 20
-0.5462598000000003
 30
0.0
 11
-2.0916781
 21
-0.6250000000000003
 31
0.0
  0
LINE
  5
15F
330
12C
100
AcDbEntity
  8
AM_9
100
AcDbLine
 10
-1.92333
 20
-0.5462598000000003
 30
0.0
 11
-1.92333
 21
-0.6250000000000003
 31
0.0
  0
LINE
  5
160
330
12C
100
AcDbEntity
  8
AM_9
100
AcDbLine
 10
-2.0733129
 20
-0.5462598000000003
 30
0.0
 11
-2.0733129
 21
-0.6250000000000003
 31
0.0
  0
LINE
  5
161
330
12C
100
AcDbEntity
  8
AM_9
100
AcDbLine
 10
-1.941695
 20
-0.5462598000000003
 30
0.0
 11
-1.941695
 21
-0.6250000000000003
 31
0.0
  0
LINE
  5
162
330
12C
100
AcDbEntity
  8
AM_9
100
AcDbLine
 10
-2.030461
 20
-0.5462598000000003
 30
0.0
 11
-2.030461
 21
-0.6250000000000001
 31
0.0
  0
LINE
  5
163
330
12C
100
AcDbEntity
  8
AM_9
100
AcDbLine
 10
-2.220235086477
 20
-0.5462598000000003
 30
0.0
 11
-2.220235086477
 21
-0.6250000000000003
 31
0.0
  0
LINE
  5
164
330
12C
100
AcDbEntity
  8
AM_9
100
AcDbLine
 10
-2.385522577307
 20
-0.5462598000000003
 30
0.0
 11
-2.385522577307
 21
-0.6250000000000003
 31
0.0
  0
LINE
  5
165
330
12C
100
AcDbEntity
  8
AM_9
100
AcDbLine
 10
-2.238600450725
 20
-0.5462598000000003
 30
0.0
 11
-2.238600450725
 21
-0.6250000000000003
 31
0.0
  0
LINE
  5
166
330
12C
100
AcDbEntity
  8
AM_9
100
AcDbLine
 10
-2.367157213059
 20
-0.5462598000000003
 30
0.0
 11
-2.367157213059
 21
-0.6250000000000003
 31
0.0
  0
LINE
  5
167
330
12C
100
AcDbEntity
  8
AM_9
100
AcDbLine
 10
-2.394705259431
 20
-0.5462598000000003
 30
0.0
 11
-2.394705259431
 21
-0.6250000000000003
 31
0.0
  0
LINE
  5
168
330
12C
100
AcDbEntity
  8
AM_9
100
AcDbLine
 10
-2.1008608
 20
-0.5462598000000003
 30
0.0
 11
-2.1008608
 21
-0.6250000000000003
 31
0.0
  0
LINE
  5
169
330
12C
100
AcDbEntity
  8
AM_9
100
AcDbLine
 10
-2.1682000977482
 20
-0.5462598000000003
 30
0.0
 11
-2.1682000977482
 21
-0.6250000000000003
 31
0.0
  0
LINE
  5
16A
330
12C
100
AcDbEntity
  8
AM_9
100
AcDbLine
 10
-2.296757175043
 20
-0.5462598000000003
 30
0.0
 11
-2.296757175043
 21
-0.6250000000000003
 31
0.0
  0
LINE
  5
16B
330
12C
100
AcDbEntity
  8
AM_9
100
AcDbLine
 10
-1.950878
 20
-0.5462598000000003
 30
0.0
 11
-1.950878
 21
-0.6250000000000003
 31
0.0
  0
LINE
  5
16C
330
12C
100
AcDbEntity
  8
AM_9
100
AcDbLine
 10
-2.002913
 20
-0.5462598000000003
 30
0.0
 11
-2.002913
 21
-0.6250000000000003
 31
0.0
  0
LINE
  5
16D
330
12C
100
AcDbEntity
  8
AM_9
100
AcDbLine
 10
-1.877417
 20
-0.5462598000000003
 30
0.0
 11
-1.877417
 21
-0.6250000000000003
 31
0.0
  0
LINE
  5
16E
330
12C
100
AcDbEntity
  8
AM_9
100
AcDbLine
 10
-2.462044665873
 20
-0.5462598000000003
 30
0.0
 11
-2.462044665873
 21
-0.6250000000000003
 31
0.0
  0
LINE
  5
16F
330
12C
100
AcDbEntity
  8
AM_9
100
AcDbLine
 10
-2.247783132849
 20
-0.5462598000000003
 30
0.0
 11
-2.247783132849
 21
-0.6250000000000003
 31
0.0
  0
LINE
  5
170
330
12C
100
AcDbEntity
  8
AM_9
100
AcDbLine
 10
-1.935573
 20
-0.5462598000000003
 30
0.0
 11
-1.935573
 21
-0.6250000000000003
 31
0.0
  0
LINE
  5
171
330
12C
100
AcDbEntity
  8
AM_9
100
AcDbLine
 10
-2.379400920458
 20
-0.5462598000000003
 30
0.0
 11
-2.379400920458
 21
-0.6250000000000003
 31
0.0
  0
LINE
  5
172
330
12C
100
AcDbEntity
  8
AM_9
100
AcDbLine
 10
-2.232478400175
 20
-0.5462598000000003
 30
0.0
 11
-2.232478400175
 21
-0.6250000000000003
 31
0.0
  0
LINE
  5
173
330
12C
100
AcDbEntity
  8
AM_9
100
AcDbLine
 10
-2.018217
 20
-0.5462598000000003
 30
0.0
 11
-2.018217
 21
-0.6250000000000003
 31
0.0
  0
LINE
  5
174
330
12C
100
AcDbEntity
  8
AM_9
100
AcDbLine
 10
-2.0855564
 20
-0.5462598000000003
 30
0.0
 11
-2.0855564
 21
-0.6250000000000003
 31
0.0
  0
LINE
  5
175
330
12C
100
AcDbEntity
  8
AM_9
100
AcDbLine
 10
-2.312061514016
 20
-0.5462598000000003
 30
0.0
 11
-2.312061514016
 21
-0.6250000000000003
 31
0.0
  0
LINE
  5
176
330
12C
100
AcDbEntity
  8
AM_9
100
AcDbLine
 10
-2.005974
 20
-0.5462598000000003
 30
0.0
 11
-2.005974
 21
-0.6250000000000003
 31
0.0
  0
LINE
  5
177
330
12C
100
AcDbEntity
  8
AM_9
100
AcDbLine
 10
-1.947817
 20
-0.5462598000000003
 30
0.0
 11
-1.947817
 21
-0.6250000000000003
 31
0.0
  0
LINE
  5
178
330
12C
100
AcDbEntity
  8
AM_9
100
AcDbLine
 10
-2.391644234156
 20
-0.5462598000000003
 30
0.0
 11
-2.391644234156
 21
-0.6250000000000001
 31
0.0
  0
LINE
  5
179
330
12C
100
AcDbEntity
  8
AM_9
100
AcDbLine
 10
-2.244722107574
 20
-0.5462598000000003
 30
0.0
 11
-2.244722107574
 21
-0.6250000000000003
 31
0.0
  0
LINE
  5
17A
330
12C
100
AcDbEntity
  8
AM_9
100
AcDbLine
 10
-2.299817806617
 20
-0.5462598000000003
 30
0.0
 11
-2.299817806617
 21
-0.6250000000000003
 31
0.0
  0
LINE
  5
17B
330
12C
100
AcDbEntity
  8
AM_9
100
AcDbLine
 10
-2.0977999
 20
-0.5462598000000003
 30
0.0
 11
-2.0977999
 21
-0.6250000000000003
 31
0.0
  0
LINE
  5
17C
330
12C
100
AcDbEntity
  8
AM_9
100
AcDbLine
 10
-1.963121
 20
-0.5462598000000003
 30
0.0
 11
-1.963121
 21
-0.6250000000000003
 31
0.0
  0
LINE
  5
17D
330
12C
100
AcDbEntity
  8
AM_9
100
AcDbLine
 10
-2.406948573129
 20
-0.5462598000000003
 30
0.0
 11
-2.406948573129
 21
-0.6250000000000003
 31
0.0
  0
LINE
  5
17E
330
12C
100
AcDbEntity
  8
AM_9
100
AcDbLine
 10
-1.920269
 20
-0.5462598000000003
 30
0.0
 11
-2.0396432
 21
-0.5462598000000003
 31
0.0
  0
LINE
  5
17F
330
12C
100
AcDbEntity
  8
AM_9
100
AcDbLine
 10
-1.990669
 20
-0.5462598000000003
 30
0.0
 11
-1.990669
 21
-0.6250000000000003
 31
0.0
  0
LINE
  5
180
330
12C
100
AcDbEntity
  8
AM_9
100
AcDbLine
 10
-2.186565383256
 20
-0.5462598000000003
 30
0.0
 11
-2.186565383256
 21
-0.6250000000000003
 31
0.0
  0
LINE
  5
181
330
12C
100
AcDbEntity
  8
AM_9
100
AcDbLine
 10
-1.895782
 20
-0.5462598000000003
 30
0.0
 11
-1.895782
 21
-0.6250000000000003
 31
0.0
  0
LINE
  5
182
330
12C
100
AcDbEntity
  8
AM_9
100
AcDbLine
 10
-2.211052404353
 20
-0.5462598000000003
 30
0.0
 11
-2.333487509838
 21
-0.5462598000000003
 31
0.0
  0
LINE
  5
183
330
12C
100
AcDbEntity
  8
AM_9
100
AcDbLine
 10
-2.357974530935
 20
-0.5462598000000003
 30
0.0
 11
-2.480409636420001
 21
-0.5462598000000003
 31
0.0
  0
LINE
  5
184
330
12C
100
AcDbEntity
  8
AM_9
100
AcDbLine
 10
-2.480409636420001
 20
-0.5462598000000003
 30
0.0
 11
-2.480409636420001
 21
-0.6250000000000003
 31
0.0
  0
LINE
  5
185
330
12C
100
AcDbEntity
  8
AM_9
100
AcDbLine
 10
-1.78559
 20
-0.5462598000000003
 30
0.0
 11
-1.78559
 21
-0.6250000000000001
 31
0.0
  0
LINE
  5
186
330
12C
100
AcDbEntity
  8
AM_9
100
AcDbLine
 10
-2.1131043
 20
-0.5462598000000003
 30
0.0
 11
-2.1131043
 21
-0.6250000000000001
 31
0.0
  0
LINE
  5
187
330
12C
100
AcDbEntity
  8
AM_9
100
AcDbLine
 10
-2.0641302
 20
-0.5462598000000003
 30
0.0
 11
-2.186565383256
 21
-0.5462598000000003
 31
0.0
  0
LINE
  5
188
330
12C
100
AcDbEntity
  8
AM_9
100
AcDbLine
 10
-2.284513467644
 20
-0.5462598000000003
 30
0.0
 11
-2.284513467644
 21
-0.6250000000000003
 31
0.0
  0
LINE
  5
189
330
12C
100
AcDbEntity
  8
AM_9
100
AcDbLine
 10
-2.260026446547
 20
-0.5462598000000003
 30
0.0
 11
-2.260026446547
 21
-0.6250000000000003
 31
0.0
  0
LINE
  5
18A
330
12C
100
AcDbEntity
  8
AM_9
100
AcDbLine
 10
-1.78559
 20
-0.5462598000000003
 30
0.0
 11
-1.895782
 21
-0.5462598000000003
 31
0.0
  0
LINE
  5
18B
330
12C
100
AcDbEntity
  8
AM_9
100
AcDbLine
 10
1.255624103364387
 20
-0.1397877849083808
 30
0.0
 11
1.255624103364387
 21
-0.110212215091619
 31
0.0
  0
LWPOLYLINE
  5
18C
330
12C
100
AcDbEntity
  8
AM_9
100
AcDbPolyline
 90
        5
 70
     0
 43
0.0
 10
1.176854360420379
 20
-0.0340785909328831
 10
1.173490531763999
 20
-0.0789019552542312
 10
1.172238923915358
 20
-0.1241255192870854
 10
1.173433827100498
 20
-0.1700211226067939
 10
1.176854360420379
 20
-0.2159214090671168
  0
LINE
  5
18D
330
12C
100
AcDbEntity
  8
AM_9
100
AcDbLine
 10
1.251139466932076
 20
-0.2159214090671168
 30
0.0
 11
1.176854360420379
 21
-0.2159214090671168
 31
0.0
  0
LINE
  5
18E
330
12C
100
AcDbEntity
  8
AM_9
100
AcDbLine
 10
1.251139466932076
 20
-0.0340785909328831
 30
0.0
 11
1.176854360420379
 21
-0.0340785909328831
 31
0.0
  0
LINE
  5
18F
330
12C
100
AcDbEntity
  8
AM_9
100
AcDbLine
 10
1.209001970499954
 20
0.0039882211464842
 30
0.0
 11
1.190890706774171
 21
0.0187760060548669
 31
0.0
  0
LINE
  5
190
330
12C
100
AcDbEntity
  8
AM_9
100
AcDbLine
 10
1.190890706774171
 20
-0.2687760060548668
 30
0.0
 11
1.209001970499955
 21
-0.2539882211464838
 31
0.0
  0
LWPOLYLINE
  5
191
330
12C
100
AcDbEntity
  8
AM_9
100
AcDbPolyline
 90
        5
 70
     0
 43
0.0
 10
1.065498830965731
 20
0.0568428181342338
 10
1.089583595094895
 20
0.0344311359735597
 10
1.116025651303898
 20
0.0118193539571326
 10
1.145325756881656
 20
-0.0111284477027216
 10
1.176854360420379
 20
-0.0340785909328831
  0
LWPOLYLINE
  5
192
330
12C
100
AcDbEntity
  8
AM_9
100
AcDbPolyline
 90
        5
 70
     0
 43
0.0
 10
1.176854360420379
 20
-0.2159214090671168
 10
1.146041938978456
 20
-0.2383330912277908
 10
1.11709666707217
 20
-0.2609448732442179
 10
1.090186367864693
 20
-0.2838926749040722
 10
1.065498830965731
 20
-0.3068428181342336
  0
LWPOLYLINE
  5
193
330
12C
100
AcDbEntity
  8
AM_9
100
AcDbPolyline
 90
       20
 70
     0
 43
0.0
 10
1.060652821916525
 20
-0.2352359995079699
 10
1.069546971129063
 20
-0.2345111335787591
 10
1.082198522530697
 20
-0.2308410037845154
 10
1.094103949616761
 20
-0.2242045486575921
 10
1.104949939725469
 20
-0.2147402107483229
 10
1.114472422300028
 20
-0.2027581919641758
 10
1.122439951771766
 20
-0.1885271702675737
 10
1.128665417442207
 20
-0.1725025372809021
 10
1.132982964160329
 20
-0.1551136685431843
 10
1.135320667283261
 20
-0.1368715060518689
 10
1.135601678548125
 20
-0.1183313376058136
 10
1.133854265614049
 20
-0.0999794926947904
 10
1.130096111327057
 20
-0.0823629065147432
 10
1.124435640894407
 20
-0.0659447603409598
 10
1.116960259083205
 20
-0.0511813148393281
 10
1.107874095471881
 20
-0.0384938285098818
 10
1.097349915891866
 20
-0.0282542344422715
 10
1.085682855802859
 20
-0.020744260575458
 10
1.07317123965707
 20
-0.0162220230521185
 10
1.060656937046185
 20
-0.0147640000957945
  0
LWPOLYLINE
  5
194
330
12C
100
AcDbEntity
  8
AM_9
100
AcDbPolyline
 90
       11
 70
     0
 43
0.0
 10
1.060656937046185
 20
-0.0147640000957945
 10
1.060152222783279
 20
-0.0147663395856777
 10
1.047015176614602
 20
-0.0164554004546205
 10
1.03411136299168
 20
-0.0211899865130849
 10
1.021830769805601
 20
-0.0288759215478742
 10
1.010539142522191
 20
-0.039255545554738
 10
1.000585109116926
 20
-0.0521039852400794
 10
0.9922968290078786
 20
-0.0670060757949198
 10
0.985967952690749
 20
-0.0835863950096364
 10
0.9817923426560393
 20
-0.1013397421595923
 10
0.9798434386656291
 20
-0.1249999999999999
  0
ELLIPSE
  5
195
330
12C
100
AcDbEntity
  8
AM_9
100
AcDbEllipse
 10
1.060882839705217
 20
-0.1249999999999999
 30
0.0
 11
9.642868896486262E-18
 21
0.15748
 31
0.0
210
0.0
220
0.0
230
1.0
 40
0.7071067811865482
 41
0.0
 42
6.283185307179586
  0
LINE
  5
196
330
12C
100
AcDbEntity
  8
AM_9
100
AcDbLine
 10
-0.8888888888888888
 20
-0.5000000000000001
 30
0.0
 11
0.8888888888888888
 21
-0.5000000000000001
 31
0.0
  0
LINE
  5
197
330
12C
100
AcDbEntity
  8
AM_9
100
AcDbLine
 10
0.7769966471045066
 20
0.4999999999999999
 30
0.0
 11
-0.7769966471045066
 21
0.4999999999999999
 31
0.0
  0
LINE
  5
198
330
12C
100
AcDbEntity
  8
AM_9
100
AcDbLine
 10
1.22045
 20
-0.5292874021026391
 30
0.0
 11
1.22045
 21
0.529287402102639
 31
0.0
  0
LINE
  5
199
330
12C
100
AcDbEntity
  8
AM_9
100
AcDbLine
 10
-1.22045
 20
0.529287402102639
 30
0.0
 11
-1.22045
 21
-0.5292874021026391
 31
0.0
  0
ELLIPSE
  5
19A
330
12C
100
AcDbEntity
  8
AM_9
100
AcDbEllipse
 10
1.158319325725599
 20
-0.1249999999999999
 30
0.0
 11
-2.025002468262113E-17
 21
-0.1102359999999999
 31
0.0
210
0.0
220
0.0
230
1.0
 40
0.7071067811865448
 41
0.6112167818130372
 42
2.532211069177249
  0
ELLIPSE
  5
19B
330
12C
100
AcDbEntity
  8
AM_9
100
AcDbEllipse
 10
1.144399928737942
 20
-0.1249999999999999
 30
0.0
 11
-2.025002468262111E-17
 21
-0.1102359999999998
 31
0.0
210
0.0
220
0.0
230
1.0
 40
0.7071067811865475
 41
0.0
 42
3.141592653589793
  0
LINE
  5
19C
330
12C
100
AcDbEntity
  8
AM_9
100
AcDbLine
 10
1.097646441045309
 20
0.0187760060548691
 30
0.0
 11
1.079535177319519
 21
0.0039882211464812
 31
0.0
  0
LINE
  5
19D
330
12C
100
AcDbEntity
  8
AM_9
100
AcDbLine
 10
1.07953517731952
 20
-0.2539882211464817
 30
0.0
 11
1.097646441045309
 21
-0.2687760060548685
 31
0.0
  0
LINE
  5
19E
330
12C
100
AcDbEntity
  8
AM_9
100
AcDbLine
 10
1.03291304445509
 20
-0.1102122150916107
 30
0.0
 11
1.03291304445509
 21
-0.1397877849083891
 31
0.0
  0
ELLIPSE
  5
19F
330
12C
100
AcDbEntity
  8
AM_9
100
AcDbEllipse
 10
1.144399928737941
 20
-0.1249999999999998
 30
0.0
 11
-2.892860668945888E-17
 21
-0.1574800000000006
 31
0.0
210
0.0
220
0.0
230
1.0
 40
0.7071067811865474
 41
0.8527657724488931
 42
2.290442907109855
  0
LWPOLYLINE
  5
1A0
330
12C
100
AcDbEntity
  8
AM_9
100
AcDbPolyline
 90
        3
 70
     0
 43
0.0
 10
1.255624103364387
 20
-0.110212215091619
 10
1.253924634466135
 20
-0.0689941700979897
 10
1.251139466932076
 20
-0.0340785909328831
  0
LINE
  5
1A1
330
12C
100
AcDbEntity
  8
AM_9
100
AcDbLine
 10
1.251139466932076
 20
-0.0340785909328831
 30
0.0
 11
1.235883492092989
 21
-0.0196804572830265
 31
0.0
  0
LINE
  5
1A2
330
12C
100
AcDbEntity
  8
AM_9
100
AcDbLine
 10
1.23593798725258
 20
-0.2302693439930399
 30
0.0
 11
1.251139466932076
 21
-0.2159214090671168
 31
0.0
  0
LWPOLYLINE
  5
1A3
330
12C
100
AcDbEntity
  8
AM_9
100
AcDbPolyline
 90
        3
 70
     0
 43
0.0
 10
1.251139466932076
 20
-0.2159214090671168
 10
1.254111325235462
 20
-0.1779928219930949
 10
1.255624103364387
 20
-0.1397877849083808
  0
LWPOLYLINE
  5
1A4
330
12C
100
AcDbEntity
  8
AM_9
100
AcDbPolyline
 90
       49
 70
     0
 43
0.0
 10
1.177974435479446
 20
-0.0687052980923369
 10
1.181299077463378
 20
-0.0629517647567092
 10
1.184812114560684
 20
-0.0579321386749172
 10
1.188231627325798
 20
-0.0539118307261603
 10
1.191404989116015
 20
-0.0508660271805671
 10
1.194193205660527
 20
-0.0487217397364974
 10
1.196482675606381
 20
-0.0473610104500639
 10
1.198204596231919
 20
-0.0466245721210215
 10
1.199375328985104
 20
-0.0463206779249722
 10
1.200228628219492
 20
-0.0462627860793661
 10
1.201218054055768
 20
-0.0464103512599296
 10
1.202650976501415
 20
-0.0468894650939012
 10
1.204646460637472
 20
-0.0478923342562483
 10
1.207128909210889
 20
-0.0495576160997876
 10
1.210316280746573
 20
-0.0522893487994859
 10
1.213747391599897
 20
-0.0559574056197377
 10
1.217285081512088
 20
-0.0605865522565422
 10
1.220795918358496
 20
-0.0661749175440852
 10
1.224147869840385
 20
-0.0726872927500465
 10
1.227212222572831
 20
-0.0800470559052286
 10
1.229877895744103
 20
-0.0881583060299942
 10
1.232049688494942
 20
-0.0969033905191046
 10
1.23364987294685
 20
-0.1061440516832817
 10
1.234620679195262
 20
-0.1157259555624213
 10
1.234926085959854
 20
-0.125483396911809
 10
1.234553043839989
 20
-0.1352440302654456
 10
1.233512774764533
 20
-0.1448299849774105
 10
1.231841385246703
 20
-0.1540678376765173
 10
1.229598631743679
 20
-0.162796340952556
 10
1.22686707554188
 20
-0.1708685457310665
 10
1.223750516899204
 20
-0.1781572875718369
 10
1.220371450796461
 20
-0.1845608831726364
 10
1.216867278102182
 20
-0.1900087572346535
 10
1.21338762560544
 20
-0.1944635987879922
 10
1.210089242376086
 20
-0.1979265909343951
 10
1.207117875827084
 20
-0.2004507080436067
 10
1.204600027571157
 20
-0.2021346558901761
 10
1.202627109356168
 20
-0.2031203994523623
 10
1.201227496430055
 20
-0.2035873647093409
 10
1.20029263941606
 20
-0.2037341706164862
 10
1.199221942886574
 20
-0.2036517925951813
 10
1.197968615688505
 20
-0.2032921364871089
 10
1.196124931877941
 20
-0.2024525898803381
 10
1.193770909189564
 20
-0.2009863673041939
 10
1.190998517183414
 20
-0.1987795633199121
 10
1.187641418453386
 20
-0.195450399915651
 10
1.184126342036606
 20
-0.1911631192286057
 10
1.180590708802335
 20
-0.1859120991529181
 10
1.177862993979617
 20
-0.1810818540669762
  0
LINE
  5
1A5
330
12C
100
AcDbEntity
  8
AM_9
100
AcDbLine
 10
1.165227976251842
 20
-0.1249999999999999
 30
0.0
 11
1.165274298427585
 21
-0.1213889095512935
 31
0.0
  0
ELLIPSE
  5
1A6
330
12C
100
AcDbEntity
  8
AM_9
100
AcDbEllipse
 10
1.236152643661812
 20
-0.1249999999999987
 30
0.0
 11
-1.842729205746445E-17
 21
-0.1003135057405626
 31
0.0
210
0.0
220
0.0
230
1.0
 40
0.7071067811865475
 41
4.506755607855297
 42
4.932483243211804
  0
ELLIPSE
  5
1A7
330
12C
100
AcDbEntity
  8
AM_9
100
AcDbEllipse
 10
1.236152643661826
 20
-0.1250000000000002
 30
0.0
 11
-1.842729205746791E-17
 21
-0.1003135057405815
 31
0.0
210
0.0
220
0.0
230
1.0
 40
0.7071067811865474
 41
5.187357870453831
 42
10.53801511193586
  0
ELLIPSE
  5
1A8
330
12C
100
AcDbEntity
  8
AM_9
100
AcDbEllipse
 10
1.25130834320057
 20
-0.1249999999999999
 30
0.0
 11
-1.926567240316126E-17
 21
-0.1048774357720924
 31
0.0
210
0.0
220
0.0
230
1.0
 40
0.7071067811865481
 41
0.4240713423966014
 42
2.730079687431015
  0
ELLIPSE
  5
1A9
330
12C
100
AcDbEntity
  8
AM_9
100
AcDbEllipse
 10
1.288763393257908
 20
-0.1249999999999999
 30
0.0
 11
-1.537357571213914E-17
 21
-0.08368984822313842
 31
0.0
210
0.0
220
0.0
230
1.0
 40
0.7071067811865478
 41
0.4845417771513869
 42
2.731650198017535
  0
ELLIPSE
  5
1AA
330
12C
100
AcDbEntity
  8
AM_9
100
AcDbEllipse
 10
1.28876339325871
 20
-0.1249999999993882
 30
0.0
 11
-1.537357571226386E-17
 21
-0.08368984822381738
 31
0.0
210
0.0
220
0.0
230
1.0
 40
0.7071067811813417
 41
0.4309752500501309
 42
0.4606196894106506
  0
LWPOLYLINE
  5
1AB
330
12C
100
AcDbEntity
  8
AM_9
100
AcDbPolyline
 90
       11
 70
     0
 43
0.0
 10
0.9798434386656291
 20
-0.1249999999999999
 10
0.9810359786623145
 20
-0.143477193900717
 10
0.9845373171461915
 20
-0.1614328795437685
 10
0.9902602676404634
 20
-0.1783455008916832
 10
0.9979810582125298
 20
-0.1937575202480696
 10
1.007488457260795
 20
-0.2072324283526112
 10
1.018439666861082
 20
-0.2183922055502077
 10
1.030518507757238
 20
-0.2268943539704751
 10
1.043326074153739
 20
-0.2325205017727733
 10
1.056456224132416
 20
-0.235065075496159
 10
1.060652821916525
 20
-0.2352359995079699
  0
ELLIPSE
  5
1AC
330
12C
100
AcDbEntity
  8
AM_9
100
AcDbEllipse
 10
1.060882839705217
 20
-0.1250000000000001
 30
0.0
 11
-2.025002468262105E-17
 21
-0.1102359999999995
 31
0.0
210
0.0
220
0.0
230
1.0
 40
0.7071067811865478
 41
0.0
 42
6.283185307179586
  0
LINE
  5
1AD
330
12C
100
AcDbEntity
  8
AM_7
100
AcDbLine
 10
0.0
 20
0.6875
 30
0.0
 11
0.0
 21
-1.15859375
 31
0.0
  0
LINE
  5
1AE
330
12C
100
AcDbEntity
  8
AM_7
100
AcDbLine
 10
-2.799774999999999
 20
0.0000000000000002
 30
0.0
 11
-1.833225
 21
0.0000000000000002
 31
0.0
  0
LINE
  5
1AF
330
12C
100
AcDbEntity
  8
AM_7
100
AcDbLine
 10
-2.133
 20
-0.299775
 30
0.0
 11
-2.133
 21
0.2997750000000003
 31
0.0
  0
LINE
  5
1B0
330
12C
100
AcDbEntity
  8
AM_7
100
AcDbLine
 10
-2.5
 20
-0.2997749999999996
 30
0.0
 11
-2.5
 21
0.2997750000000001
 31
0.0
  0
LINE
  5
1B1
330
12C
100
AcDbEntity
  8
AM_7
100
AcDbLine
 10
1.833225
 20
0.0
 30
0.0
 11
2.799774999999999
 21
-0.0000000000000002
 31
0.0
  0
LINE
  5
1B2
330
12C
100
AcDbEntity
  8
AM_7
100
AcDbLine
 10
2.5
 20
-0.2997750000000001
 30
0.0
 11
2.5
 21
0.2997749999999996
 31
0.0
  0
LINE
  5
1B3
330
12C
100
AcDbEntity
  8
AM_7
100
AcDbLine
 10
2.133
 20
-0.2997750000000001
 30
0.0
 11
2.133
 21
0.2997750000000001
 31
0.0
  0
LINE
  5
1B4
330
12C
100
AcDbEntity
  8
AM_4
100
AcDbLine
 10
-3.125
 20
0.4687500000000002
 30
0.0
 11
-2.96875
 21
0.625
 31
0.0
  0
LINE
  5
1B5
330
12C
100
AcDbEntity
  8
AM_4
100
AcDbLine
 10
-3.125
 20
-0.4687500000000001
 30
0.0
 11
-3.125
 21
0.4687499999999999
 31
0.0
  0
LINE
  5
1B6
330
12C
100
AcDbEntity
  8
AM_4
100
AcDbLine
 10
-2.968749999999999
 20
-0.625
 30
0.0
 11
-3.125
 21
-0.4687500000000002
 31
0.0
  0
ARC
  5
1B7
330
12C
100
AcDbEntity
  8
AM_4
100
AcDbCircle
 10
-2.5
 20
0.0000000000000003
 30
0.0
 40
0.2855
100
AcDbArc
 50
90.0
 51
270.0
  0
LINE
  5
1B8
330
12C
100
AcDbEntity
  8
AM_4
100
AcDbLine
 10
-2.5
 20
0.2855000000000003
 30
0.0
 11
-2.133
 21
0.2855000000000001
 31
0.0
  0
ARC
  5
1B9
330
12C
100
AcDbEntity
  8
AM_4
100
AcDbCircle
 10
-2.133
 20
0.0000000000000001
 30
0.0
 40
0.2854999999999999
100
AcDbArc
 50
270.0
 51
90.0
  0
LINE
  5
1BA
330
12C
100
AcDbEntity
  8
AM_4
100
AcDbLine
 10
-2.133
 20
-0.2854999999999998
 30
0.0
 11
-2.5
 21
-0.2854999999999997
 31
0.0
  0
LINE
  5
1BB
330
12C
100
AcDbEntity
  8
AM_4
100
AcDbLine
 10
-3.0659449
 20
-0.5278051
 30
0.0
 11
-3.0659449
 21
0.5278051000000005
 31
0.0
  0
LINE
  5
1BC
330
12C
100
AcDbEntity
  8
AM_4
100
AcDbLine
 10
-1.113838096153995
 20
-0.625
 30
0.0
 11
-2.96875
 21
-0.625
 31
0.0
  0
LINE
  5
1BD
330
12C
100
AcDbEntity
  8
AM_4
100
AcDbLine
 10
-1.113838096153995
 20
0.625
 30
0.0
 11
-2.96875
 21
0.625
 31
0.0
  0
LINE
  5
1BE
330
12C
100
AcDbEntity
  8
AM_4
100
AcDbLine
 10
2.96875
 20
0.625
 30
0.0
 11
3.125000000000002
 21
0.4687499999999984
 31
0.0
  0
LINE
  5
1BF
330
12C
100
AcDbEntity
  8
AM_4
100
AcDbLine
 10
3.125000000000002
 20
-0.4687499999999984
 30
0.0
 11
2.96875
 21
-0.625
 31
0.0
  0
ARC
  5
1C0
330
12C
100
AcDbEntity
  8
AM_4
100
AcDbCircle
 10
2.133
 20
0.0
 30
0.0
 40
0.2854999999999999
100
AcDbArc
 50
90.0
 51
270.0
  0
LINE
  5
1C1
330
12C
100
AcDbEntity
  8
AM_4
100
AcDbLine
 10
2.133
 20
0.2854999999999999
 30
0.0
 11
2.5
 21
0.2854999999999998
 31
0.0
  0
ARC
  5
1C2
330
12C
100
AcDbEntity
  8
AM_4
100
AcDbCircle
 10
2.5
 20
-0.0000000000000003
 30
0.0
 40
0.2854999999999998
100
AcDbArc
 50
270.0
 51
90.0
  0
LINE
  5
1C3
330
12C
100
AcDbEntity
  8
AM_4
100
AcDbLine
 10
2.5
 20
-0.2855
 30
0.0
 11
2.133
 21
-0.2855
 31
0.0
  0
LINE
  5
1C4
330
12C
100
AcDbEntity
  8
AM_4
100
AcDbLine
 10
2.968750000000001
 20
0.625
 30
0.0
 11
1.113830721143412
 21
0.625
 31
0.0
  0
LINE
  5
1C5
330
12C
100
AcDbEntity
  8
AM_4
100
AcDbLine
 10
2.96875
 20
-0.625
 30
0.0
 11
1.113830721143412
 21
-0.625
 31
0.0
  0
LINE
  5
1C6
330
12C
100
AcDbEntity
  8
AM_4
100
AcDbLine
 10
3.065944900000001
 20
-0.5278050999999991
 30
0.0
 11
3.065944900000001
 21
0.5278050999999991
 31
0.0
  0
LINE
  5
1C7
330
12C
100
AcDbEntity
  8
AM_4
100
AcDbLine
 10
3.125000000000002
 20
-0.4687499999999984
 30
0.0
 11
3.125000000000002
 21
0.4687499999999999
 31
0.0
  0
LINE
  5
1C8
330
12C
100
AcDbEntity
  8
AM_4
100
AcDbLine
 10
-1.5590551
 20
-0.625
 30
0.0
 11
-1.5590551
 21
0.625
 31
0.0
  0
LINE
  5
1C9
330
12C
100
AcDbEntity
  8
AM_4
100
AcDbLine
 10
1.5590551
 20
-0.625
 30
0.0
 11
1.5590551
 21
0.625
 31
0.0
  0
LINE
  5
1CA
330
12C
100
AcDbEntity
  8
AM_4
100
AcDbLine
 10
0.8888888888888888
 20
-0.5000000000000001
 30
0.0
 11
1.041661937494708
 21
-0.5000000000000001
 31
0.0
  0
LINE
  5
1CB
330
12C
100
AcDbEntity
  8
AM_4
100
AcDbLine
 10
-1.041669312505292
 20
-0.5000000000000001
 30
0.0
 11
-0.8888888888888888
 21
-0.5000000000000001
 31
0.0
  0
LINE
  5
1CC
330
12C
100
AcDbEntity
  8
AM_4
100
AcDbLine
 10
1.041661937494709
 20
-0.5000000000000008
 30
0.0
 11
1.113830721143413
 21
-0.6250000000000028
 31
0.0
  0
LINE
  5
1CD
330
12C
100
AcDbEntity
  8
AM_4
100
AcDbLine
 10
-1.113838096153995
 20
-0.625
 30
0.0
 11
-1.041669312505292
 21
-0.5000000000000016
 31
0.0
  0
LINE
  5
1CE
330
12C
100
AcDbEntity
  8
AM_4
100
AcDbLine
 10
-0.7769966471045066
 20
0.4999999999999999
 30
0.0
 11
-1.041669312505292
 21
0.4999999999999999
 31
0.0
  0
LINE
  5
1CF
330
12C
100
AcDbEntity
  8
AM_4
100
AcDbLine
 10
1.041661937494708
 20
0.4999999999999999
 30
0.0
 11
0.7769966471045066
 21
0.4999999999999999
 31
0.0
  0
LINE
  5
1D0
330
12C
100
AcDbEntity
  8
AM_4
100
AcDbLine
 10
-1.041669312505292
 20
0.5000000000000006
 30
0.0
 11
-1.113838096153995
 21
0.625
 31
0.0
  0
LINE
  5
1D1
330
12C
100
AcDbEntity
  8
AM_4
100
AcDbLine
 10
1.113830721143412
 20
0.625
 30
0.0
 11
1.041661937494709
 21
0.5000000000000006
 31
0.0
  0
LWPOLYLINE
  5
1D2
330
12C
100
AcDbEntity
  8
AM_4
100
AcDbPolyline
 90
       37
 70
     0
 43
0.0
 10
-1.22045
 20
-0.5292874021026391
 10
-1.215805819286071
 20
-0.5199813006589317
 10
-1.201908622163749
 20
-0.5107460242663885
 10
-1.178864174694493
 20
-0.5016518589547693
 10
-1.146847859038162
 20
-0.4927680168133024
 10
-1.10610333868888
 20
-0.4841621092448952
 10
-1.056940704048719
 20
-0.4758996324025322
 10
-0.9997341124525008
 20
-0.4680434687240037
 10
-0.9349189406045575
 20
-0.4606534083585848
 10
-0.8629884710991228
 20
-0.4537856941278965
 10
-0.784490138241938
 20
-0.4474925934840738
 10
-0.7000213617446355
 20
-0.4418220007228941
 10
-0.6102250000000015
 20
-0.4368170724792675
 10
-0.5157844575414383
 20
-0.4325158992791866
 10
-0.4174184839218143
 20
-0.428951215647823
 10
-0.3158757035953735
 20
-0.4261501509800265
 10
-0.2119289184336073
 20
-0.4241340230692479
 10
-0.1063692262363817
 20
-0.4229181758662596
 10
-0.0000000000000025
 20
-0.422511862702425
 10
0.1063692262363768
 20
-0.4229181758662596
 10
0.2119289184336025
 20
-0.4241340230692478
 10
0.3158757035953687
 20
-0.4261501509800263
 10
0.4174184839218096
 20
-0.4289512156478228
 10
0.5157844575414339
 20
-0.4325158992791864
 10
0.6102249999999971
 20
-0.4368170724792674
 10
0.7000213617446314
 20
-0.4418220007228938
 10
0.7844901382419341
 20
-0.4474925934840735
 10
0.8629884710991195
 20
-0.4537856941278962
 10
0.9349189406045544
 20
-0.4606534083585844
 10
0.9997341124524979
 20
-0.4680434687240034
 10
1.056940704048716
 20
-0.4758996324025318
 10
1.106103338688878
 20
-0.4841621092448948
 10
1.14684785903816
 20
-0.492768016813302
 10
1.178864174694492
 20
-0.5016518589547688
 10
1.201908622163748
 20
-0.510746024266388
 10
1.21580581928607
 20
-0.5199813006589313
 10
1.22045
 20
-0.5292874021026387
  0
LWPOLYLINE
  5
1D3
330
12C
100
AcDbEntity
  8
AM_4
100
AcDbPolyline
 90
        7
 70
     0
 43
0.0
 10
1.22045
 20
-0.5292874021026391
 10
1.215805819286071
 20
-0.5385935035463466
 10
1.201908622163749
 20
-0.5478287799388898
 10
1.178864174694493
 20
-0.5569229452505091
 10
1.146847859038162
 20
-0.5658067873919759
 10
1.10610333868888
 20
-0.5744126949603832
 10
1.086636540742554
 20
-0.5778982978755193
  0
LWPOLYLINE
  5
1D4
330
12C
100
AcDbEntity
  8
AM_4
100
AcDbPolyline
 90
       37
 70
     0
 43
0.0
 10
1.22045
 20
0.529287402102639
 10
1.215805819286071
 20
0.5199813006589316
 10
1.201908622163749
 20
0.5107460242663884
 10
1.178864174694493
 20
0.5016518589547692
 10
1.146847859038162
 20
0.4927680168133023
 10
1.10610333868888
 20
0.4841621092448951
 10
1.056940704048719
 20
0.4758996324025321
 10
0.9997341124525007
 20
0.4680434687240037
 10
0.9349189406045574
 20
0.4606534083585846
 10
0.8629884710991227
 20
0.4537856941278964
 10
0.7844901382419378
 20
0.4474925934840736
 10
0.7000213617446354
 20
0.441822000722894
 10
0.6102250000000013
 20
0.4368170724792675
 10
0.5157844575414382
 20
0.4325158992791865
 10
0.4174184839218141
 20
0.428951215647823
 10
0.3158757035953734
 20
0.4261501509800264
 10
0.2119289184336072
 20
0.4241340230692478
 10
0.1063692262363816
 20
0.4229181758662596
 10
0.0000000000000023
 20
0.422511862702425
 10
-0.106369226236377
 20
0.4229181758662595
 10
-0.2119289184336026
 20
0.4241340230692477
 10
-0.3158757035953688
 20
0.4261501509800263
 10
-0.4174184839218097
 20
0.4289512156478228
 10
-0.515784457541434
 20
0.4325158992791863
 10
-0.6102249999999974
 20
0.4368170724792673
 10
-0.7000213617446316
 20
0.4418220007228938
 10
-0.7844901382419343
 20
0.4474925934840734
 10
-0.8629884710991196
 20
0.4537856941278961
 10
-0.9349189406045544
 20
0.4606534083585843
 10
-0.9997341124524979
 20
0.4680434687240033
 10
-1.056940704048716
 20
0.4758996324025317
 10
-1.106103338688878
 20
0.4841621092448947
 10
-1.14684785903816
 20
0.4927680168133019
 10
-1.178864174694492
 20
0.5016518589547687
 10
-1.201908622163748
 20
0.5107460242663879
 10
-1.21580581928607
 20
0.5199813006589311
 10
-1.22045
 20
0.5292874021026386
  0
LWPOLYLINE
  5
1D5
330
12C
100
AcDbEntity
  8
AM_4
100
AcDbPolyline
 90
        7
 70
     0
 43
0.0
 10
-1.22045
 20
0.529287402102639
 10
-1.215805819286071
 20
0.5385935035463465
 10
-1.201908622163749
 20
0.5478287799388897
 10
-1.178864174694493
 20
0.5569229452505089
 10
-1.146847859038162
 20
0.5658067873919758
 10
-1.10610333868888
 20
0.5744126949603829
 10
-1.086643252698679
 20
0.5778971494315113
  0
LINE
  5
1D6
330
12C
100
AcDbEntity
  8
AM_4
100
AcDbLine
 10
1.144399928737941
 20
-0.2352359999999999
 30
0.0
 11
1.158319325725599
 21
-0.2352359999999999
 31
0.0
  0
LINE
  5
1D7
330
12C
100
AcDbEntity
  8
AM_4
100
AcDbLine
 10
1.158319325725599
 20
-0.014764
 30
0.0
 11
1.144399928737941
 21
-0.014764
 31
0.0
  0
ELLIPSE
  5
1D8
330
12C
100
AcDbEntity
  8
AM_4
100
AcDbEllipse
 10
1.1583193257256
 20
-0.1249999999999974
 30
0.0
 11
-2.025002468262160E-17
 21
-0.1102360000000025
 31
0.0
210
0.0
220
0.0
230
1.0
 40
0.7071067811865407
 41
2.532211069177249
 42
6.894402088992598
  0
ELLIPSE
  5
1D9
330
12C
100
AcDbEntity
  8
AM_4
100
AcDbEllipse
 10
1.144399928737941
 20
-0.1249999999999995
 30
0.0
 11
-2.025002468262106E-17
 21
-0.1102359999999996
 31
0.0
210
0.0
220
0.0
230
1.0
 40
0.7071067811865452
 41
3.141592653589793
 42
6.283185307179586
  0
LINE
  5
1DA
330
12C
100
AcDbEntity
  8
AM_4
100
AcDbLine
 10
1.139783937477428
 20
0.0568428181342338
 30
0.0
 11
1.065498830965731
 21
0.0568428181342338
 31
0.0
  0
LWPOLYLINE
  5
1DB
330
12C
100
AcDbEntity
  8
AM_4
100
AcDbPolyline
 90
        5
 70
     0
 43
0.0
 10
0.9541433015110827
 20
-0.0340785909328831
 10
0.978228065640247
 20
-0.0116669087722091
 10
1.004670121849249
 20
0.010944873244218
 10
1.033970227427008
 20
0.0338926749040723
 10
1.065498830965731
 20
0.0568428181342338
  0
LINE
  5
1DC
330
12C
100
AcDbEntity
  8
AM_4
100
AcDbLine
 10
1.139783937477428
 20
-0.3068428181342336
 30
0.0
 11
1.065498830965731
 21
-0.3068428181342336
 31
0.0
  0
LWPOLYLINE
  5
1DD
330
12C
100
AcDbEntity
  8
AM_4
100
AcDbPolyline
 90
        5
 70
     0
 43
0.0
 10
1.065498830965731
 20
-0.3068428181342336
 10
1.034686409523807
 20
-0.2844311359735597
 10
1.005741137617522
 20
-0.2618193539571326
 10
0.9788308384100447
 20
-0.2388715522972782
 10
0.9541433015110827
 20
-0.2159214090671168
  0
LINE
  5
1DE
330
12C
100
AcDbEntity
  8
AM_4
100
AcDbLine
 10
1.02842840802278
 20
-0.2159214090671168
 30
0.0
 11
0.9541433015110827
 21
-0.2159214090671168
 31
0.0
  0
LINE
  5
1DF
330
12C
100
AcDbEntity
  8
AM_4
100
AcDbLine
 10
1.02842840802278
 20
-0.0340785909328831
 30
0.0
 11
0.9541433015110827
 21
-0.0340785909328831
 31
0.0
  0
LWPOLYLINE
  5
1E0
330
12C
100
AcDbEntity
  8
AM_4
100
AcDbPolyline
 90
        5
 70
     0
 43
0.0
 10
0.9541433015110827
 20
-0.2159214090671168
 10
0.9507794728547031
 20
-0.1710980447457687
 10
0.9495278650060618
 20
-0.1258744807129145
 10
0.9507227681912022
 20
-0.079978877393206
 10
0.9541433015110827
 20
-0.0340785909328831
  0
ELLIPSE
  5
1E1
330
12C
100
AcDbEntity
  8
AM_4
100
AcDbEllipse
 10
1.144399928737941
 20
-0.125
 30
0.0
 11
-2.892860668945878E-17
 21
-0.15748
 31
0.0
210
0.0
220
0.0
230
1.0
 40
0.7071067811865485
 41
2.290442907109862
 42
7.135951079628478
  0
LWPOLYLINE
  5
1E2
330
12C
100
AcDbEntity
  8
AM_4
100
AcDbPolyline
 90
        3
 70
     0
 43
0.0
 10
1.235883492092989
 20
-0.0196804572830265
 10
1.230884903986443
 20
-0.0151142973958724
 10
1.209001970499954
 20
0.0039882211464842
  0
LWPOLYLINE
  5
1E3
330
12C
100
AcDbEntity
  8
AM_4
100
AcDbPolyline
 90
        3
 70
     0
 43
0.0
 10
1.190890706774171
 20
0.0187760060548669
 10
1.166057658076815
 20
0.0378224548133526
 10
1.139783937477428
 20
0.0568428181342338
  0
LWPOLYLINE
  5
1E4
330
12C
100
AcDbEntity
  8
AM_4
100
AcDbPolyline
 90
        3
 70
     0
 43
0.0
 10
1.139783937477428
 20
0.0568428181342338
 10
1.119529374531796
 20
0.0378785245972244
 10
1.097646441045309
 20
0.0187760060548691
  0
LWPOLYLINE
  5
1E5
330
12C
100
AcDbEntity
  8
AM_4
100
AcDbPolyline
 90
        3
 70
     0
 43
0.0
 10
1.079535177319519
 20
0.0039882211464812
 10
1.054702128622165
 20
-0.0150582276120032
 10
1.02842840802278
 20
-0.0340785909328831
  0
LWPOLYLINE
  5
1E6
330
12C
100
AcDbEntity
  8
AM_4
100
AcDbPolyline
 90
        3
 70
     0
 43
0.0
 10
1.02842840802278
 20
-0.0340785909328831
 10
1.031400266326165
 20
-0.0720071780069009
 10
1.03291304445509
 20
-0.1102122150916107
  0
LWPOLYLINE
  5
1E7
330
12C
100
AcDbEntity
  8
AM_4
100
AcDbPolyline
 90
        3
 70
     0
 43
0.0
 10
1.03291304445509
 20
-0.1397877849083891
 10
1.031213575556839
 20
-0.1810058299020099
 10
1.02842840802278
 20
-0.2159214090671168
  0
LWPOLYLINE
  5
1E8
330
12C
100
AcDbEntity
  8
AM_4
100
AcDbPolyline
 90
        3
 70
     0
 43
0.0
 10
1.02842840802278
 20
-0.2159214090671168
 10
1.054626687575182
 20
-0.2348857026041262
 10
1.07953517731952
 20
-0.2539882211464817
  0
LWPOLYLINE
  5
1E9
330
12C
100
AcDbEntity
  8
AM_4
100
AcDbPolyline
 90
        3
 70
     0
 43
0.0
 10
1.097646441045309
 20
-0.2687760060548685
 10
1.119467473218308
 20
-0.2878224548133534
 10
1.139783937477428
 20
-0.3068428181342336
  0
LWPOLYLINE
  5
1EA
330
12C
100
AcDbEntity
  8
AM_4
100
AcDbPolyline
 90
        3
 70
     0
 43
0.0
 10
1.139783937477428
 20
-0.3068428181342336
 10
1.165982217029832
 20
-0.2878785245972232
 10
1.190890706774171
 20
-0.2687760060548668
  0
LWPOLYLINE
  5
1EB
330
12C
100
AcDbEntity
  8
AM_4
100
AcDbPolyline
 90
        3
 70
     0
 43
0.0
 10
1.209001970499955
 20
-0.2539882211464838
 10
1.230823002672955
 20
-0.234941772387998
 10
1.23593798725258
 20
-0.2302693439930399
  0
LWPOLYLINE
  5
1EC
330
12C
100
AcDbEntity
  8
AM_4
100
AcDbPolyline
 90
       20
 70
     0
 43
0.0
 10
1.165218154030737
 20
-0.1249999999999999
 10
1.165357374628759
 20
-0.1312885703040278
 10
1.166331605144922
 20
-0.1427274271093162
 10
1.168231874166254
 20
-0.1539819771855228
 10
1.171046502787598
 20
-0.1649250261756061
 10
1.174757876310129
 20
-0.1754341497788287
 10
1.179341453358203
 20
-0.1853869237687297
 10
1.184763018936464
 20
-0.1946588391650437
 10
1.19097255175739
 20
-0.2031209660568151
 10
1.19790225210218
 20
-0.2106481291110145
 10
1.205461461207135
 20
-0.2171227603196096
 10
1.213536649284876
 20
-0.2224448901243471
 10
1.221997890635001
 20
-0.2265424867244628
 10
1.230710381839337
 20
-0.2293767874678879
 10
1.239546023689971
 20
-0.2309396832885057
 10
1.248390616849296
 20
-0.2312450900355377
 10
1.257145581967243
 20
-0.2303187686634311
 10
1.265713340208708
 20
-0.2281940886400804
 10
1.274016226414749
 20
-0.2249057101055859
 10
1.281925354104529
 20
-0.2205233775496879
  0
LWPOLYLINE
  5
1ED
330
12C
100
AcDbEntity
  8
AM_4
100
AcDbPolyline
 90
       21
 70
     0
 43
0.0
 10
1.278465425307518
 20
-0.0273990214400547
 10
1.277696298674766
 20
-0.0269718473968403
 10
1.269196120436651
 20
-0.0230315467003413
 10
1.260461358819251
 20
-0.0203571078348206
 10
1.251618645109253
 20
-0.0189533218789708
 10
1.242780206994496
 20
-0.0188042407470722
 10
1.234042769298781
 20
-0.01988325871287
 10
1.225504442892942
 20
-0.0221560720954148
 10
1.217239758050574
 20
-0.025588495170489
 10
1.209317867057508
 20
-0.0301491104738136
 10
1.201811176475102
 20
-0.0358042497438561
 10
1.19479873890011
 20
-0.0425097381242989
 10
1.188364946080218
 20
-0.050202748525959
 10
1.182593891600436
 20
-0.0587977559446643
 10
1.177562174825149
 20
-0.0681884850640973
 10
1.173333551493429
 20
-0.0782541865221368
 10
1.169957178169918
 20
-0.0888662357438552
 10
1.167468678950601
 20
-0.0998915501873377
 10
1.165890730805031
 20
-0.1112021614679531
 10
1.165248235875386
 20
-0.1220757961222853
 10
1.165218154030737
 20
-0.1249999999999999
  0
LINE
  5
1EE
330
12C
100
AcDbEntity
  8
AM_4
100
AcDbLine
 10
1.312434246500287
 20
-0.0482968572406096
 30
0.0
 11
1.279377961030234
 21
-0.0279219348813455
 31
0.0
  0
ELLIPSE
  5
1EF
330
12C
100
AcDbEntity
  8
AM_4
100
AcDbEllipse
 10
1.25130834320057
 20
-0.125
 30
0.0
 11
-1.926567240316124E-17
 21
-0.1048774357720923
 31
0.0
210
0.0
220
0.0
230
1.0
 40
0.7071067811865467
 41
2.730079687431017
 42
6.694698273338364
  0
LINE
  5
1F0
330
12C
100
AcDbEntity
  8
AM_4
100
AcDbLine
 10
1.280971897900528
 20
-0.2211219203889235
 30
0.0
 11
1.312434246500287
 21
-0.2017031427593903
 31
0.0
  0
ELLIPSE
  5
1F1
330
12C
100
AcDbEntity
  8
AM_4
100
AcDbEllipse
 10
1.288763393258517
 20
-0.1249999999982253
 30
0.0
 11
-1.537357571249640E-17
 21
-0.08368984822508324
 31
0.0
210
0.0
220
0.0
230
1.0
 40
0.7071067811808823
 41
0.4115129661437971
 42
0.4309752500475245
  0
ELLIPSE
  5
1F2
330
12C
100
AcDbEntity
  8
AM_4
100
AcDbEllipse
 10
1.288763393257908
 20
-0.1249999999999998
 30
0.0
 11
-1.537357571213911E-17
 21
-0.08368984822313824
 31
0.0
210
0.0
220
0.0
230
1.0
 40
0.7071067811865466
 41
2.731650198017534
 42
6.69469827333837
  0
ELLIPSE
  5
1F3
330
12C
100
AcDbEntity
  8
AM_4
100
AcDbEllipse
 10
1.29751329560217
 20
-0.1249999999999999
 30
0.0
 11
4.005376489621533E-18
 21
0.06541276215167072
 31
0.0
210
0.0
220
0.0
230
1.0
 40
0.7071067811865493
 41
0.0
 42
6.283185307179586
  0
LWPOLYLINE
  5
1F4
330
12C
100
AcDbEntity
  8
AM_4
100
AcDbPolyline
 90
       20
 70
     0
 43
0.0
 10
1.313656275116756
 20
-0.2009286708047491
 10
1.319810340449872
 20
-0.19636799332492
 10
1.326124922484762
 20
-0.1903460304814678
 10
1.331851334452245
 20
-0.1833479646471119
 10
1.336897094065737
 20
-0.1754641788550571
 10
1.341176409330427
 20
-0.1668138349007025
 10
1.344619261271573
 20
-0.1575363139783283
 10
1.347174541649131
 20
-0.1477817510454549
 10
1.348809628180065
 20
-0.1377001808514383
 10
1.349506286138038
 20
-0.127434547679437
 10
1.349255712763859
 20
-0.1171251476866868
 10
1.348056765512088
 20
-0.1069110836448317
 10
1.345915464873562
 20
-0.0969314384185238
 10
1.342844079541179
 20
-0.0873224642898917
 10
1.338862030710606
 20
-0.0782217164921343
 10
1.333999897591847
 20
-0.0697717287692866
 10
1.328310125880064
 20
-0.0621252755074678
 10
1.321871930897504
 20
-0.0554326389172607
 10
1.314798874916374
 20
-0.0498328451553687
 10
1.312346456535135
 20
-0.0482427758773816
  0
LWPOLYLINE
  5
1F5
330
12C
100
AcDbEntity
  8
AM_4
100
AcDbPolyline
 90
       19
 70
     0
 43
0.0
 10
1.559055100000001
 20
-0.6249999999999999
 10
1.553908108896463
 20
-0.6249803393301474
 10
1.548800289503062
 20
-0.6249215069501587
 10
1.543770515409566
 20
-0.6248239506099695
 10
1.538857066233889
 20
-0.624688412772235
 10
1.534097336291077
 20
-0.62451592496174
 10
1.52952755
 20
-0.6243077999148736
 10
1.525182486193645
 20
-0.6240656215889118
 10
1.521095213431201
 20
-0.6237912331071461
 10
1.51729683832635
 20
-0.6234867227316037
 10
1.513816268807164
 20
-0.62315440797011
 10
1.510679994109309
 20
-0.6227968179386578
 10
1.50791188317697
 20
-0.622416674113305
 10
1.505533003005772
 20
-0.6220168696180995
 10
1.503561458310226
 20
-0.6216004472066587
 10
1.502012253735916
 20
-0.6211705761049762
 10
1.500897179665089
 20
-0.6207305278916989
 10
1.500224722484722
 20
-0.6202836515994383
 10
1.5
 20
-0.6198333482266101
  0
LWPOLYLINE
  5
1F6
330
12C
100
AcDbEntity
  8
AM_4
100
AcDbPolyline
 90
       19
 70
     0
 43
0.0
 10
-1.5
 20
-0.6198333482266102
 10
-1.500224722484722
 20
-0.6202836515994384
 10
-1.500897179665089
 20
-0.620730527891699
 10
-1.502012253735916
 20
-0.6211705761049763
 10
-1.503561458310226
 20
-0.6216004472066589
 10
-1.505533003005772
 20
-0.6220168696180998
 10
-1.50791188317697
 20
-0.6224166741133051
 10
-1.510679994109309
 20
-0.6227968179386579
 10
-1.513816268807164
 20
-0.6231544079701101
 10
-1.51729683832635
 20
-0.6234867227316037
 10
-1.5210952134312
 20
-0.6237912331071462
 10
-1.525182486193645
 20
-0.6240656215889119
 10
-1.52952755
 20
-0.6243077999148737
 10
-1.534097336291077
 20
-0.6245159249617401
 10
-1.538857066233888
 20
-0.6246884127722351
 10
-1.543770515409566
 20
-0.6248239506099696
 10
-1.548800289503062
 20
-0.6249215069501588
 10
-1.553908108896463
 20
-0.6249803393301474
 10
-1.5590551
 20
-0.625
  0
LWPOLYLINE
  5
1F7
330
12C
100
AcDbEntity
  8
AM_4
100
AcDbPolyline
 90
        7
 70
     0
 43
0.0
 10
-1.086643252698679
 20
-0.5778971494315114
 10
-1.130933019620195
 20
-0.5694263683312714
 10
-1.166615703386373
 20
-0.560650105461461
 10
-1.19341973722796
 20
-0.5516351534817721
 10
-1.211141126262703
 20
-0.5424501216201465
 10
-1.219645000019579
 20
-0.5331649135151255
 10
-1.22045
 20
-0.5292874021026391
  0
LWPOLYLINE
  5
1F8
330
12C
100
AcDbEntity
  8
AM_4
100
AcDbPolyline
 90
       19
 70
     0
 43
0.0
 10
-1.5590551
 20
0.625
 10
-1.553908108896463
 20
0.6249803393301474
 10
-1.548800289503062
 20
0.6249215069501588
 10
-1.543770515409566
 20
0.6248239506099696
 10
-1.538857066233888
 20
0.6246884127722351
 10
-1.534097336291077
 20
0.6245159249617401
 10
-1.52952755
 20
0.6243077999148737
 10
-1.525182486193645
 20
0.6240656215889119
 10
-1.5210952134312
 20
0.6237912331071462
 10
-1.51729683832635
 20
0.6234867227316037
 10
-1.513816268807164
 20
0.6231544079701101
 10
-1.510679994109309
 20
0.6227968179386579
 10
-1.50791188317697
 20
0.6224166741133051
 10
-1.505533003005772
 20
0.6220168696180998
 10
-1.503561458310226
 20
0.6216004472066589
 10
-1.502012253735916
 20
0.6211705761049762
 10
-1.500897179665089
 20
0.620730527891699
 10
-1.500224722484722
 20
0.6202836515994384
 10
-1.5
 20
0.6198333482266102
  0
LINE
  5
1F9
330
12C
100
AcDbEntity
  8
AM_4
100
AcDbLine
 10
-1.5
 20
-0.6198333482266102
 30
0.0
 11
-1.5
 21
0.6198333482266105
 31
0.0
  0
LINE
  5
1FA
330
12C
100
AcDbEntity
  8
AM_4
100
AcDbLine
 10
1.5
 20
0.6198333482266103
 30
0.0
 11
1.5
 21
-0.6198333482266101
 31
0.0
  0
LWPOLYLINE
  5
1FB
330
12C
100
AcDbEntity
  8
AM_4
100
AcDbPolyline
 90
       19
 70
     0
 43
0.0
 10
1.5
 20
0.6198333482266102
 10
1.500224722484722
 20
0.6202836515994384
 10
1.500897179665089
 20
0.620730527891699
 10
1.502012253735916
 20
0.6211705761049763
 10
1.503561458310226
 20
0.6216004472066589
 10
1.505533003005772
 20
0.6220168696180998
 10
1.50791188317697
 20
0.6224166741133051
 10
1.510679994109309
 20
0.6227968179386579
 10
1.513816268807164
 20
0.6231544079701101
 10
1.51729683832635
 20
0.6234867227316037
 10
1.5210952134312
 20
0.6237912331071462
 10
1.525182486193645
 20
0.6240656215889119
 10
1.52952755
 20
0.6243077999148737
 10
1.534097336291077
 20
0.6245159249617401
 10
1.538857066233889
 20
0.6246884127722351
 10
1.543770515409566
 20
0.6248239506099696
 10
1.548800289503062
 20
0.6249215069501588
 10
1.553908108896463
 20
0.6249803393301475
 10
1.559055100000001
 20
0.625
  0
LWPOLYLINE
  5
1FC
330
12C
100
AcDbEntity
  8
AM_4
100
AcDbPolyline
 90
        7
 70
     0
 43
0.0
 10
1.086636540742553
 20
0.5778982978755192
 10
1.13092747727892
 20
0.5694275635847044
 10
1.166611372840513
 20
0.5606513384277191
 10
1.193416651435584
 20
0.5516364147772372
 10
1.211139308708553
 20
0.542451401645599
 10
1.219644464536341
 20
0.5331662025287985
 10
1.22045
 20
0.529287402102639
  0
LWPOLYLINE
  5
1FD
330
12C
100
AcDbEntity
  8
AM_4
100
AcDbPolyline
 90
       37
 70
     0
 43
0.0
 10
1.5
 20
0.529287402102639
 10
1.494292049735062
 20
0.5178496929153145
 10
1.477211634693431
 20
0.5064990315813394
 10
1.448888747147011
 20
0.4953218034871821
 10
1.409538941371857
 20
0.4844030740876341
 10
1.35946169314998
 20
0.4738259415063348
 10
1.299038120577819
 20
0.4636709041088753
 10
1.228728083527397
 20
0.4540152478616294
 10
1.149066683835031
 20
0.4449324581388835
 10
1.060660192853246
 20
0.4364916604547658
 10
0.9641814373597128
 20
0.4287570943763457
 10
0.8603646789392029
 20
0.4217876246217384
 10
0.7500000258095689
 20
0.4156362930640575
 10
0.6339274196211268
 20
0.4103499150507325
 10
0.5130302429935265
 20
0.4059687231104471
 10
0.3882285964406152
 20
0.4025260607593029
 10
0.2604722958499551
 20
0.4000481287365283
 10
0.1307336438104044
 20
0.3985537856010333
 10
0.0000000298023241
 20
0.3980544042063877
 10
-0.1307335844325698
 20
0.3985537851465396
 10
-0.2604722371508353
 20
0.4000481278309999
 10
-0.3882285388669461
 20
0.4025260594096312
 10
-0.5130301869834784
 20
0.405968721326904
 10
-0.63392736560097
 20
0.4103499128468919
 10
-0.7499999741904293
 20
0.415636290456692
 10
-0.8603646301139334
 20
0.4217876216306916
 10
-0.9641813916999032
 20
0.4287570910243812
 10
-1.060660150706395
 20
0.4364916567673942
 10
-1.149066645521902
 20
0.4449324541441678
 10
-1.228728049339576
 20
0.4540152435899719
 10
-1.299038090775495
 20
0.4636708995927858
 10
-1.359461667959968
 20
0.4738259367801835
 10
-1.409538920985867
 20
0.4844030691873898
 10
-1.448888731720193
 20
0.4953217984501388
 10
-1.477211624343193
 20
0.5064990264458319
 10
-1.494292044540174
 20
0.517849687720427
 10
-1.5
 20
0.529287396887908
  0
LWPOLYLINE
  5
1FE
330
12C
100
AcDbEntity
  8
AM_4
100
AcDbPolyline
 90
       37
 70
     0
 43
0.0
 10
-1.5
 20
-0.5292874022608023
 10
-1.494292049892623
 20
-0.5178496930728759
 10
-1.477211635007355
 20
-0.5064990317370999
 10
-1.448888747614907
 20
-0.4953218036399561
 10
-1.409538941990166
 20
-0.4844030742362589
 10
-1.359461693913996
 20
-0.4738259416496794
 10
-1.299038121481726
 20
-0.4636709042458487
 10
-1.228728084564317
 20
-0.4540152479911893
 10
-1.149066684997072
 20
-0.4449324582600436
 10
-1.060660194131564
 20
-0.4364916605666042
 10
-0.9641814387445792
 20
-0.4287570944780111
 10
-0.860364680420078
 20
-0.4217876247124571
 10
-0.7500000273751823
 20
-0.4156362931431392
 10
-0.6339274212595634
 20
-0.4103499151175752
 10
-0.5130302446923166
 20
-0.4059687231645421
 10
-0.3882285981868301
 20
-0.4025260608002385
 10
-0.260472297630305
 20
-0.4000481287639931
 10
-0.1307336456113398
 20
-0.3985537856148181
 10
-0.0000000316101389
 20
-0.3980544042063876
 10
0.1307335826316343
 20
-0.3985537851327546
 10
0.2604722353704853
 20
-0.400048127803535
 10
0.3882285371207312
 20
-0.4025260593686955
 10
0.5130301852846882
 20
-0.405968721272809
 10
0.6339273639625334
 20
-0.4103499127800493
 10
0.7499999726248159
 20
-0.4156362903776104
 10
0.8603646286330583
 20
-0.4217876215399728
 10
0.9641813903150367
 20
-0.4287570909227157
 10
1.060660149428077
 20
-0.4364916566555559
 10
1.14906664435986
 20
-0.4449324540230077
 10
1.228728048302656
 20
-0.4540152434604121
 10
1.299038089871587
 20
-0.4636708994558123
 10
1.359461667195952
 20
-0.4738259366368389
 10
1.409538920367557
 20
-0.484403069038765
 10
1.448888731252296
 20
-0.4953217982973648
 10
1.477211624029268
 20
-0.5064990262900714
 10
1.494292044382613
 20
-0.5178496875628655
 10
1.5
 20
-0.5292873967297448
  0
ENDBLK
  5
12F
330
12C
100
AcDbEntity
  8
0
100
AcDbBlockEnd
  0
ENDSEC
  0
SECTION
  2
ENTITIES
  0
INSERT
  5
6F
330
1F
100
AcDbEntity
  8
0
100
AcDbBlockReference
  2
1__129265_4
 10
0.0
 20
0.0
 30
0.0
  0
POINT
  5
200
330
1F
100
AcDbEntity
  8
ConnectionPoints
100
AcDbPoint
 10
0.0
 20
0.0
 30
0.0
  0
POINT
  5
201
330
1F
100
AcDbEntity
  8
ConnectionPoints
100
AcDbPoint
 10
0.0
 20
0.53125
 30
0.0
  0
POINT
  5
202
330
1F
100
AcDbEntity
  8
ConnectionPoints
100
AcDbPoint
 10
0.0
 20
0.0
 30
0.0
  0
ENDSEC
  0
SECTION
  2
OBJECTS
  0
DICTIONARY
  5
C
330
0
100
AcDbDictionary
281
     1
  3
ACAD_DETAILVIEWSTYLE
350
20A
  3
ACAD_GROUP
350
D
  3
ACAD_LAYOUT
350
1A
  3
ACAD_MATERIAL
350
43
  3
ACAD_MLEADERSTYLE
350
6B
  3
ACAD_MLINESTYLE
350
17
  3
ACAD_PLOTSETTINGS
350
19
  3
ACAD_PLOTSTYLENAME
350
E
  3
ACAD_SCALELIST
350
47
  3
ACAD_SECTIONVIEWSTYLE
350
20B
  3
ACAD_TABLESTYLE
350
69
  3
ACAD_VISUALSTYLE
350
2A
  3
ACDB_RECOMPOSE_DATA
350
207
  3
AcDbVariableDictionary
350
203
  0
SUN
  5
6D
330
29
100
AcDbSun
 90
        1
290
     0
 63
     7
421
 16777215
 40
1.0
291
     1
 91
  2455826
 92
 54000000
292
     0
 70
     2
 71
   256
280
     1
  0
DICTIONARY
  5
20A
102
{ACAD_REACTORS
330
C
102
}
330
C
100
AcDbDictionary
281
     1
  0
DICTIONARY
  5
D
102
{ACAD_REACTORS
330
C
102
}
330
C
100
AcDbDictionary
281
     1
  0
DICTIONARY
  5
1A
102
{ACAD_REACTORS
330
C
102
}
330
C
100
AcDbDictionary
281
     1
  3
Layout1
350
1E
  3
Layout2
350
26
  3
Model
350
22
  0
DICTIONARY
  5
43
102
{ACAD_REACTORS
330
C
102
}
330
C
100
AcDbDictionary
281
     1
  3
ByBlock
350
45
  3
ByLayer
350
44
  3
Global
350
46
  0
DICTIONARY
  5
6B
102
{ACAD_REACTORS
330
C
102
}
330
C
100
AcDbDictionary
281
     1
  3
Standard
350
6C
  0
DICTIONARY
  5
17
102
{ACAD_REACTORS
330
C
102
}
330
C
100
AcDbDictionary
281
     1
  3
Standard
350
18
  0
DICTIONARY
  5
19
102
{ACAD_REACTORS
330
C
102
}
330
C
100
AcDbDictionary
281
     1
  0
ACDBDICTIONARYWDFLT
  5
E
102
{ACAD_REACTORS
330
C
102
}
330
C
100
AcDbDictionary
281
     1
  3
Normal
350
F
100
AcDbDictionaryWithDefault
340
F
  0
DICTIONARY
  5
47
102
{ACAD_REACTORS
330
C
102
}
330
C
100
AcDbDictionary
281
     1
  3
A0
350
48
  3
A1
350
49
  3
A2
350
4A
  3
A3
350
4B
  3
A4
350
4C
  3
A5
350
4D
  3
A6
350
4E
  3
A7
350
4F
  3
A8
350
50
  3
A9
350
51
  3
B0
350
52
  3
B1
350
53
  3
B2
350
54
  3
B3
350
55
  3
B4
350
56
  3
B5
350
57
  3
B6
350
58
  3
B7
350
59
  3
B8
350
5A
  3
B9
350
5B
  3
C0
350
5C
  3
C1
350
5D
  3
C2
350
5E
  3
C3
350
5F
  3
C4
350
60
  3
C5
350
61
  3
C6
350
62
  3
C7
350
63
  3
C8
350
64
  3
C9
350
65
  3
D0
350
66
  3
D1
350
67
  3
D2
350
68
  0
DICTIONARY
  5
20B
102
{ACAD_REACTORS
330
C
102
}
330
C
100
AcDbDictionary
281
     1
  0
DICTIONARY
  5
69
102
{ACAD_REACTORS
330
C
102
}
330
C
100
AcDbDictionary
281
     1
  3
Standard
350
6A
  0
DICTIONARY
  5
2A
102
{ACAD_REACTORS
330
C
102
}
330
C
100
AcDbDictionary
281
     1
  3
2dWireframe
350
2F
  3
Basic
350
32
  3
Brighten
350
36
  3
ColorChange
350
3A
  3
Conceptual
350
34
  3
Dim
350
35
  3
EdgeColorOff
350
3D
  3
Facepattern
350
39
  3
Flat
350
2B
  3
FlatWithEdges
350
2C
  3
Gouraud
350
2D
  3
GouraudWithEdges
350
2E
  3
Hidden
350
31
  3
JitterOff
350
3B
  3
Linepattern
350
38
  3
OverhangOff
350
3C
  3
Realistic
350
33
  3
Shaded
350
42
  3
Shaded with edges
350
41
  3
Shades of Gray
350
3E
  3
Sketchy
350
3F
  3
Thicken
350
37
  3
Wireframe
350
30
  3
X-Ray
350
40
  0
XRECORD
  5
207
102
{ACAD_REACTORS
330
C
102
}
330
C
100
AcDbXrecord
280
     1
 90
        1
330
6A
  0
DICTIONARY
  5
203
102
{ACAD_REACTORS
330
C
102
}
330
C
100
AcDbDictionary
281
     1
  3
CANNOSCALE
350
204
  3
CMLEADERSTYLE
350
209
  3
CTABLESTYLE
350
208
  0
LAYOUT
  5
1E
102
{ACAD_REACTORS
330
1A
102
}
330
1A
100
AcDbPlotSettings
  1

  2
none_device
  4

  6

 40
0.0
 41
0.0
 42
0.0
 43
0.0
 44
0.0
 45
0.0
 46
0.0
 47
0.0
 48
0.0
 49
0.0
140
0.0
141
0.0
142
1.0
143
1.0
 70
   688
 72
     0
 73
     0
 74
     5
  7

 75
    16
 76
     0
 77
     2
 78
   300
147
1.0
148
0.0
149
0.0
100
AcDbLayout
  1
Layout1
 70
     1
 71
     1
 10
0.0
 20
0.0
 11
12.0
 21
9.0
 12
0.0
 22
0.0
 32
0.0
 14
1.000000000000000E+20
 24
1.000000000000000E+20
 34
1.000000000000000E+20
 15
-1.000000000000000E+20
 25
-1.000000000000000E+20
 35
-1.000000000000000E+20
146
0.0
 13
0.0
 23
0.0
 33
0.0
 16
1.0
 26
0.0
 36
0.0
 17
0.0
 27
1.0
 37
0.0
 76
     0
330
1B
  0
LAYOUT
  5
26
102
{ACAD_REACTORS
330
1A
102
}
330
1A
100
AcDbPlotSettings
  1

  2
none_device
  4

  6

 40
0.0
 41
0.0
 42
0.0
 43
0.0
 44
0.0
 45
0.0
 46
0.0
 47
0.0
 48
0.0
 49
0.0
140
0.0
141
0.0
142
1.0
143
1.0
 70
   688
 72
     0
 73
     0
 74
     5
  7

 75
    16
 76
     0
 77
     2
 78
   300
147
1.0
148
0.0
149
0.0
100
AcDbLayout
  1
Layout2
 70
     1
 71
     2
 10
0.0
 20
0.0
 11
0.0
 21
0.0
 12
0.0
 22
0.0
 32
0.0
 14
0.0
 24
0.0
 34
0.0
 15
0.0
 25
0.0
 35
0.0
146
0.0
 13
0.0
 23
0.0
 33
0.0
 16
1.0
 26
0.0
 36
0.0
 17
0.0
 27
1.0
 37
0.0
 76
     0
330
23
  0
LAYOUT
  5
22
102
{ACAD_REACTORS
330
1A
102
}
330
1A
100
AcDbPlotSettings
  1

  2
none_device
  4
Letter_(8.50_x_11.00_Inches)
  6

 40
6.35
 41
6.35
 42
6.35000508
 43
6.35000508
 44
215.9
 45
279.4
 46
0.0
 47
0.0
 48
0.0
 49
0.0
140
0.0
141
0.0
142
1.0
143
1.0
 70
  1712
 72
     0
 73
     0
 74
     0
  7

 75
     0
 76
     0
 77
     2
 78
   300
147
1.0
148
0.0
149
0.0
100
AcDbLayout
  1
Model
 70
     1
 71
     0
 10
0.0
 20
0.0
 11
12.0
 21
9.0
 12
0.0
 22
0.0
 32
0.0
 14
1.000000000000000E+20
 24
1.000000000000000E+20
 34
1.000000000000000E+20
 15
-1.000000000000000E+20
 25
-1.000000000000000E+20
 35
-1.000000000000000E+20
146
0.0
 13
0.0
 23
0.0
 33
0.0
 16
1.0
 26
0.0
 36
0.0
 17
0.0
 27
1.0
 37
0.0
 76
     0
330
1F
331
29
  0
MATERIAL
  5
45
102
{ACAD_REACTORS
330
43
102
}
330
43
100
AcDbMaterial
  1
ByBlock
 72
     1
 94
      127
  0
MATERIAL
  5
44
102
{ACAD_REACTORS
330
43
102
}
330
43
100
AcDbMaterial
  1
ByLayer
 72
     1
 94
      127
  0
MATERIAL
  5
46
102
{ACAD_REACTORS
330
43
102
}
330
43
100
AcDbMaterial
  1
Global
 72
     1
 94
      127
  0
MLEADERSTYLE
  5
6C
102
{ACAD_REACTORS
330
6B
102
}
330
6B
100
AcDbMLeaderStyle
179
     2
170
     2
171
     1
172
     0
 90
        2
 40
0.0
 41
0.0
173
     1
 91
-1056964608
340
14
 92
       -2
290
     1
 42
0.09
291
     1
 43
0.36
  3
Standard
341
0
 44
0.18
300

342
11
174
     1
178
     6
175
     1
176
     0
 93
-1056964608
 45
0.18
292
     0
297
     0
 46
0.18
343
0
 94
-1056964608
 47
1.0
 49
1.0
140
1.0
293
     1
141
0.0
294
     1
177
     0
142
1.0
295
     0
296
     0
143
0.125
271
     0
272
     9
273
     9
298
     0
  0
MLINESTYLE
  5
18
102
{ACAD_REACTORS
330
17
102
}
330
17
100
AcDbMlineStyle
  2
Standard
 70
     0
  3

 62
   256
 51
90.0
 52
90.0
 71
     2
 49
0.5
 62
   256
  6
BYLAYER
 49
-0.5
 62
   256
  6
BYLAYER
  0
ACDBPLACEHOLDER
  5
F
102
{ACAD_REACTORS
330
E
102
}
330
E
  0
SCALE
  5
48
102
{ACAD_REACTORS
330
47
102
}
330
47
100
AcDbScale
 70
     0
300
1:1
140
1.0
141
1.0
290
     1
  0
SCALE
  5
49
102
{ACAD_REACTORS
330
47
102
}
330
47
100
AcDbScale
 70
     0
300
1:2
140
1.0
141
2.0
290
     0
  0
SCALE
  5
4A
102
{ACAD_REACTORS
330
47
102
}
330
47
100
AcDbScale
 70
     0
300
1:4
140
1.0
141
4.0
290
     0
  0
SCALE
  5
4B
102
{ACAD_REACTORS
330
47
102
}
330
47
100
AcDbScale
 70
     0
300
1:5
140
1.0
141
5.0
290
     0
  0
SCALE
  5
4C
102
{ACAD_REACTORS
330
47
102
}
330
47
100
AcDbScale
 70
     0
300
1:8
140
1.0
141
8.0
290
     0
  0
SCALE
  5
4D
102
{ACAD_REACTORS
330
47
102
}
330
47
100
AcDbScale
 70
     0
300
1:10
140
1.0
141
10.0
290
     0
  0
SCALE
  5
4E
102
{ACAD_REACTORS
330
47
102
}
330
47
100
AcDbScale
 70
     0
300
1:16
140
1.0
141
16.0
290
     0
  0
SCALE
  5
4F
102
{ACAD_REACTORS
330
47
102
}
330
47
100
AcDbScale
 70
     0
300
1:20
140
1.0
141
20.0
290
     0
  0
SCALE
  5
50
102
{ACAD_REACTORS
330
47
102
}
330
47
100
AcDbScale
 70
     0
300
1:30
140
1.0
141
30.0
290
     0
  0
SCALE
  5
51
102
{ACAD_REACTORS
330
47
102
}
330
47
100
AcDbScale
 70
     0
300
1:40
140
1.0
141
40.0
290
     0
  0
SCALE
  5
52
102
{ACAD_REACTORS
330
47
102
}
330
47
100
AcDbScale
 70
     0
300
1:50
140
1.0
141
50.0
290
     0
  0
SCALE
  5
53
102
{ACAD_REACTORS
330
47
102
}
330
47
100
AcDbScale
 70
     0
300
1:100
140
1.0
141
100.0
290
     0
  0
SCALE
  5
54
102
{ACAD_REACTORS
330
47
102
}
330
47
100
AcDbScale
 70
     0
300
2:1
140
2.0
141
1.0
290
     0
  0
SCALE
  5
55
102
{ACAD_REACTORS
330
47
102
}
330
47
100
AcDbScale
 70
     0
300
4:1
140
4.0
141
1.0
290
     0
  0
SCALE
  5
56
102
{ACAD_REACTORS
330
47
102
}
330
47
100
AcDbScale
 70
     0
300
8:1
140
8.0
141
1.0
290
     0
  0
SCALE
  5
57
102
{ACAD_REACTORS
330
47
102
}
330
47
100
AcDbScale
 70
     0
300
10:1
140
10.0
141
1.0
290
     0
  0
SCALE
  5
58
102
{ACAD_REACTORS
330
47
102
}
330
47
100
AcDbScale
 70
     0
300
100:1
140
100.0
141
1.0
290
     0
  0
SCALE
  5
59
102
{ACAD_REACTORS
330
47
102
}
330
47
100
AcDbScale
 70
     0
300
1/128" = 1'-0"
140
0.0078125
141
12.0
290
     0
  0
SCALE
  5
5A
102
{ACAD_REACTORS
330
47
102
}
330
47
100
AcDbScale
 70
     0
300
1/64" = 1'-0"
140
0.015625
141
12.0
290
     0
  0
SCALE
  5
5B
102
{ACAD_REACTORS
330
47
102
}
330
47
100
AcDbScale
 70
     0
300
1/32" = 1'-0"
140
0.03125
141
12.0
290
     0
  0
SCALE
  5
5C
102
{ACAD_REACTORS
330
47
102
}
330
47
100
AcDbScale
 70
     0
300
1/16" = 1'-0"
140
0.0625
141
12.0
290
     0
  0
SCALE
  5
5D
102
{ACAD_REACTORS
330
47
102
}
330
47
100
AcDbScale
 70
     0
300
3/32" = 1'-0"
140
0.09375
141
12.0
290
     0
  0
SCALE
  5
5E
102
{ACAD_REACTORS
330
47
102
}
330
47
100
AcDbScale
 70
     0
300
1/8" = 1'-0"
140
0.125
141
12.0
290
     0
  0
SCALE
  5
5F
102
{ACAD_REACTORS
330
47
102
}
330
47
100
AcDbScale
 70
     0
300
3/16" = 1'-0"
140
0.1875
141
12.0
290
     0
  0
SCALE
  5
60
102
{ACAD_REACTORS
330
47
102
}
330
47
100
AcDbScale
 70
     0
300
1/4" = 1'-0"
140
0.25
141
12.0
290
     0
  0
SCALE
  5
61
102
{ACAD_REACTORS
330
47
102
}
330
47
100
AcDbScale
 70
     0
300
3/8" = 1'-0"
140
0.375
141
12.0
290
     0
  0
SCALE
  5
62
102
{ACAD_REACTORS
330
47
102
}
330
47
100
AcDbScale
 70
     0
300
1/2" = 1'-0"
140
0.5
141
12.0
290
     0
  0
SCALE
  5
63
102
{ACAD_REACTORS
330
47
102
}
330
47
100
AcDbScale
 70
     0
300
3/4" = 1'-0"
140
0.75
141
12.0
290
     0
  0
SCALE
  5
64
102
{ACAD_REACTORS
330
47
102
}
330
47
100
AcDbScale
 70
     0
300
1" = 1'-0"
140
1.0
141
12.0
290
     0
  0
SCALE
  5
65
102
{ACAD_REACTORS
330
47
102
}
330
47
100
AcDbScale
 70
     0
300
1-1/2" = 1'-0"
140
1.5
141
12.0
290
     0
  0
SCALE
  5
66
102
{ACAD_REACTORS
330
47
102
}
330
47
100
AcDbScale
 70
     0
300
3" = 1'-0"
140
3.0
141
12.0
290
     0
  0
SCALE
  5
67
102
{ACAD_REACTORS
330
47
102
}
330
47
100
AcDbScale
 70
     0
300
6" = 1'-0"
140
6.0
141
12.0
290
     0
  0
SCALE
  5
68
102
{ACAD_REACTORS
330
47
102
}
330
47
100
AcDbScale
 70
     0
300
1'-0" = 1'-0"
140
12.0
141
12.0
290
     0
  0
TABLESTYLE
  5
6A
102
{ACAD_REACTORS
330
69
102
}
102
{ACAD_XDICTIONARY
360
205
102
}
330
69
100
AcDbTableStyle
  3
Standard
 70
     0
 71
     0
 40
0.06
 41
0.06
280
     0
281
     0
  7
Standard
140
0.18
170
     2
 62
     0
 63
   257
283
     0
 90
        4
 91
        0
  1

274
    -2
284
     1
 64
     0
275
    -2
285
     1
 65
     0
276
    -2
286
     1
 66
     0
277
    -2
287
     1
 67
     0
278
    -2
288
     1
 68
     0
279
    -2
289
     1
 69
     0
  7
Standard
140
0.25
170
     5
 62
     0
 63
   257
283
     0
 90
        4
 91
        0
  1

274
    -2
284
     1
 64
     0
275
    -2
285
     1
 65
     0
276
    -2
286
     1
 66
     0
277
    -2
287
     1
 67
     0
278
    -2
288
     1
 68
     0
279
    -2
289
     1
 69
     0
  7
Standard
140
0.18
170
     5
 62
     0
 63
   257
283
     0
 90
        4
 91
        0
  1

274
    -2
284
     1
 64
     0
275
    -2
285
     1
 65
     0
276
    -2
286
     1
 66
     0
277
    -2
287
     1
 67
     0
278
    -2
288
     1
 68
     0
279
    -2
289
     1
 69
     0
  0
VISUALSTYLE
  5
2F
102
{ACAD_REACTORS
330
2A
102
}
330
2A
100
AcDbVisualStyle
  2
2dWireframe
 70
     4
177
     3
291
     0
 70
    58
 90
        0
176
     1
 90
        2
176
     1
 90
        0
176
     1
 90
        0
176
     1
 40
0.6
176
     1
 40
30.0
176
     1
 62
     7
420
 16777215
176
     1
 90
        1
176
     1
 90
        4
176
     1
 62
     7
176
     1
 62
   257
176
     1
 90
        1
176
     1
 90
        1
176
     1
 40
1.0
176
     1
 90
        0
176
     1
 62
   257
176
     1
 40
1.0
176
     1
 90
        1
176
     1
 90
        6
176
     1
 90
        2
176
     1
 62
     7
176
     1
 90
        5
176
     1
 90
        0
176
     1
 90
        0
176
     1
290
     0
176
     1
 90
        1
176
     1
 40
0.0
176
     1
 90
        0
176
     1
290
     1
176
     1
290
     1
176
     1
290
     0
176
     1
290
     0
176
     1
290
     0
176
     1
290
     0
176
     1
290
     0
176
     1
290
     0
176
     1
290
     0
176
     1
 90
       50
176
     1
 40
0.0
176
     1
 40
1.0
176
     1
 90
        0
176
     1
 62
    18
420
        0
176
     1
 90
       50
176
     1
 90
        3
176
     1
 62
     5
420
      255
176
     1
290
     0
176
     1
 90
       50
176
     1
 90
       50
176
     1
 90
       50
176
     1
290
     0
176
     1
 90
       50
176
     1
 62
   256
176
     0
 40
1.0
176
     0
 90
        2
176
     1
  1
strokes_ogs.tif
176
     1
290
     0
176
     1
 40
1.0
176
     1
 40
1.0
176
     1
  0
VISUALSTYLE
  5
32
102
{ACAD_REACTORS
330
2A
102
}
330
2A
100
AcDbVisualStyle
  2
Basic
 70
     7
177
     3
291
     1
 70
    58
 90
        1
176
     1
 90
        0
176
     1
 90
        1
176
     1
 90
        0
176
     1
 40
0.6
176
     1
 40
30.0
176
     1
 62
     7
420
 16777215
176
     1
 90
        0
176
     1
 90
        4
176
     1
 62
     7
176
     1
 62
   257
176
     1
 90
        1
176
     1
 90
        1
176
     1
 40
1.0
176
     1
 90
        8
176
     1
 62
     7
176
     1
 40
1.0
176
     1
 90
        1
176
     1
 90
        6
176
     1
 90
        2
176
     1
 62
     7
176
     1
 90
        5
176
     1
 90
        0
176
     1
 90
        0
176
     1
290
     0
176
     1
 90
        1
176
     1
 40
0.0
176
     1
 90
        0
176
     1
290
     0
176
     1
290
     1
176
     1
290
     1
176
     1
290
     0
176
     1
290
     0
176
     1
290
     0
176
     1
290
     0
176
     1
290
     0
176
     1
290
     0
176
     1
 90
       50
176
     1
 40
0.0
176
     1
 40
1.0
176
     1
 90
        0
176
     1
 62
    18
420
        0
176
     1
 90
       50
176
     1
 90
        3
176
     1
 62
     5
420
      255
176
     1
290
     0
176
     1
 90
       50
176
     1
 90
       50
176
     1
 90
       50
176
     1
290
     0
176
     1
 90
       50
176
     1
 62
   256
176
     0
 40
1.0
176
     0
 90
        2
176
     1
  1
strokes_ogs.tif
176
     1
290
     0
176
     1
 40
1.0
176
     1
 40
1.0
176
     1
  0
VISUALSTYLE
  5
36
102
{ACAD_REACTORS
330
2A
102
}
330
2A
100
AcDbVisualStyle
  2
Brighten
 70
    12
177
     3
291
     1
 70
    58
 90
        2
176
     1
 90
        2
176
     1
 90
        0
176
     1
 90
        0
176
     1
 40
0.6
176
     1
 40
30.0
176
     1
 62
     7
420
 16777215
176
     1
 90
        1
176
     1
 90
        4
176
     1
 62
     7
176
     1
 62
   257
176
     1
 90
        1
176
     1
 90
        1
176
     1
 40
1.0
176
     1
 90
        8
176
     1
 62
     7
176
     1
 40
1.0
176
     1
 90
        1
176
     1
 90
        6
176
     1
 90
        2
176
     1
 62
     7
176
     1
 90
        5
176
     1
 90
        0
176
     1
 90
        0
176
     1
290
     0
176
     1
 90
        1
176
     1
 40
50.0
176
     1
 90
        0
176
     1
290
     0
176
     1
290
     1
176
     1
290
     1
176
     1
290
     0
176
     1
290
     0
176
     1
290
     0
176
     1
290
     0
176
     1
290
     0
176
     1
290
     0
176
     1
 90
       50
176
     1
 40
0.0
176
     1
 40
1.0
176
     1
 90
        0
176
     1
 62
    18
420
        0
176
     1
 90
       50
176
     1
 90
        3
176
     1
 62
     5
420
      255
176
     1
290
     0
176
     1
 90
       50
176
     1
 90
       50
176
     1
 90
       50
176
     1
290
     0
176
     1
 90
       50
176
     1
 62
   256
176
     0
 40
1.0
176
     0
 90
        2
176
     1
  1
strokes_ogs.tif
176
     1
290
     0
176
     1
 40
1.0
176
     1
 40
1.0
176
     1
  0
VISUALSTYLE
  5
3A
102
{ACAD_REACTORS
330
2A
102
}
330
2A
100
AcDbVisualStyle
  2
ColorChange
 70
    16
177
     3
291
     1
 70
    58
 90
        2
176
     1
 90
        2
176
     1
 90
        3
176
     1
 90
        0
176
     1
 40
0.6
176
     1
 40
30.0
176
     1
 62
     8
420
  8421504
176
     1
 90
        1
176
     1
 90
        4
176
     1
 62
     7
176
     1
 62
   257
176
     1
 90
        1
176
     1
 90
        1
176
     1
 40
1.0
176
     1
 90
        8
176
     1
 62
     8
420
  8421504
176
     1
 40
1.0
176
     1
 90
        1
176
     1
 90
        6
176
     1
 90
        2
176
     1
 62
     7
176
     1
 90
        5
176
     1
 90
        0
176
     1
 90
        0
176
     1
290
     0
176
     1
 90
        1
176
     1
 40
0.0
176
     1
 90
        0
176
     1
290
     0
176
     1
290
     1
176
     1
290
     1
176
     1
290
     0
176
     1
290
     0
176
     1
290
     0
176
     1
290
     0
176
     1
290
     0
176
     1
290
     0
176
     1
 90
       50
176
     1
 40
0.0
176
     1
 40
1.0
176
     1
 90
        0
176
     1
 62
    18
420
        0
176
     1
 90
       50
176
     1
 90
        3
176
     1
 62
     5
420
      255
176
     1
290
     0
176
     1
 90
       50
176
     1
 90
       50
176
     1
 90
       50
176
     1
290
     0
176
     1
 90
       50
176
     1
 62
   256
176
     0
 40
1.0
176
     0
 90
        2
176
     1
  1
strokes_ogs.tif
176
     1
290
     0
176
     1
 40
1.0
176
     1
 40
1.0
176
     1
  0
VISUALSTYLE
  5
34
102
{ACAD_REACTORS
330
2A
102
}
330
2A
100
AcDbVisualStyle
  2
Conceptual
 70
     9
177
     3
291
     0
 70
    58
 90
        3
176
     1
 90
        2
176
     1
 90
        0
176
     1
 90
        0
176
     1
 40
0.6
176
     1
 40
30.0
176
     1
 62
     7
420
 16777215
176
     1
 90
        2
176
     1
 90
        2
176
     1
 62
     7
176
     1
 62
   257
176
     1
 90
        1
176
     1
 90
        1
176
     1
 40
179.0
176
     1
 90
        8
176
     1
 62
     7
176
     1
 40
1.0
176
     1
 90
        1
176
     1
 90
        6
176
     1
 90
        2
176
     1
 62
     7
176
     1
 90
        3
176
     1
 90
        0
176
     1
 90
        0
176
     1
290
     0
176
     1
 90
        1
176
     1
 40
0.0
176
     1
 90
        0
176
     1
290
     0
176
     1
290
     1
176
     1
290
     1
176
     1
290
     0
176
     1
290
     0
176
     1
290
     0
176
     1
290
     0
176
     1
290
     0
176
     1
290
     0
176
     1
 90
       50
176
     1
 40
0.0
176
     1
 40
1.0
176
     1
 90
        0
176
     1
 62
    18
420
        0
176
     1
 90
       50
176
     1
 90
        3
176
     1
 62
     5
420
      255
176
     1
290
     0
176
     1
 90
       50
176
     1
 90
       50
176
     1
 90
       50
176
     1
290
     0
176
     1
 90
       50
176
     1
 62
   256
176
     0
 40
1.0
176
     0
 90
        2
176
     1
  1
strokes_ogs.tif
176
     1
290
     0
176
     1
 40
1.0
176
     1
 40
1.0
176
     1
  0
VISUALSTYLE
  5
35
102
{ACAD_REACTORS
330
2A
102
}
330
2A
100
AcDbVisualStyle
  2
Dim
 70
    11
177
     3
291
     1
 70
    58
 90
        2
176
     1
 90
        2
176
     1
 90
        0
176
     1
 90
        0
176
     1
 40
0.6
176
     1
 40
30.0
176
     1
 62
     7
420
 16777215
176
     1
 90
        1
176
     1
 90
        4
176
     1
 62
     7
176
     1
 62
   257
176
     1
 90
        1
176
     1
 90
        1
176
     1
 40
1.0
176
     1
 90
        8
176
     1
 62
     7
176
     1
 40
1.0
176
     1
 90
        1
176
     1
 90
        6
176
     1
 90
        2
176
     1
 62
     7
176
     1
 90
        5
176
     1
 90
        0
176
     1
 90
        0
176
     1
290
     0
176
     1
 90
        1
176
     1
 40
-50.0
176
     1
 90
        0
176
     1
290
     0
176
     1
290
     1
176
     1
290
     1
176
     1
290
     0
176
     1
290
     0
176
     1
290
     0
176
     1
290
     0
176
     1
290
     0
176
     1
290
     0
176
     1
 90
       50
176
     1
 40
0.0
176
     1
 40
1.0
176
     1
 90
        0
176
     1
 62
    18
420
        0
176
     1
 90
       50
176
     1
 90
        3
176
     1
 62
     5
420
      255
176
     1
290
     0
176
     1
 90
       50
176
     1
 90
       50
176
     1
 90
       50
176
     1
290
     0
176
     1
 90
       50
176
     1
 62
   256
176
     0
 40
1.0
176
     0
 90
        2
176
     1
  1
strokes_ogs.tif
176
     1
290
     0
176
     1
 40
1.0
176
     1
 40
1.0
176
     1
  0
VISUALSTYLE
  5
3D
102
{ACAD_REACTORS
330
2A
102
}
330
2A
100
AcDbVisualStyle
  2
EdgeColorOff
 70
    22
177
     3
291
     1
 70
    58
 90
        2
176
     0
 90
        2
176
     0
 90
        0
176
     0
 90
        0
176
     0
 40
0.6
176
     0
 40
30.0
176
     0
 62
     7
420
 16777215
176
     0
 90
        1
176
     0
 90
        4
176
     0
 62
     7
176
     0
 62
   257
176
     0
 90
        1
176
     0
 90
        1
176
     0
 40
1.0
176
     0
 90
        8
176
     2
 62
     7
176
     0
 40
1.0
176
     0
 90
        1
176
     0
 90
        6
176
     0
 90
        2
176
     0
 62
     7
176
     0
 90
        5
176
     0
 90
        0
176
     0
 90
        0
176
     0
290
     0
176
     0
 90
        1
176
     0
 40
0.0
176
     0
 90
        0
176
     0
290
     0
176
     0
290
     1
176
     0
290
     1
176
     0
290
     0
176
     0
290
     0
176
     0
290
     0
176
     0
290
     0
176
     0
290
     0
176
     0
290
     0
176
     0
 90
       50
176
     0
 40
0.0
176
     0
 40
1.0
176
     0
 90
        0
176
     0
 62
    18
420
        0
176
     0
 90
       50
176
     0
 90
        3
176
     0
 62
     5
420
      255
176
     0
290
     0
176
     0
 90
       50
176
     0
 90
       50
176
     0
 90
       50
176
     0
290
     0
176
     0
 90
       50
176
     0
 62
   256
176
     0
 40
1.0
176
     0
 90
        2
176
     0
  1
strokes_ogs.tif
176
     0
290
     0
176
     0
 40
1.0
176
     0
 40
1.0
176
     0
  0
VISUALSTYLE
  5
39
102
{ACAD_REACTORS
330
2A
102
}
330
2A
100
AcDbVisualStyle
  2
Facepattern
 70
    15
177
     3
291
     1
 70
    58
 90
        2
176
     1
 90
        2
176
     1
 90
        0
176
     1
 90
        0
176
     1
 40
0.6
176
     1
 40
30.0
176
     1
 62
     7
420
 16777215
176
     1
 90
        1
176
     1
 90
        4
176
     1
 62
     7
176
     1
 62
   257
176
     1
 90
        1
176
     1
 90
        1
176
     1
 40
1.0
176
     1
 90
        8
176
     1
 62
     7
176
     1
 40
1.0
176
     1
 90
        1
176
     1
 90
        6
176
     1
 90
        2
176
     1
 62
     7
176
     1
 90
        5
176
     1
 90
        0
176
     1
 90
        0
176
     1
290
     0
176
     1
 90
        1
176
     1
 40
0.0
176
     1
 90
        0
176
     1
290
     0
176
     1
290
     1
176
     1
290
     1
176
     1
290
     0
176
     1
290
     0
176
     1
290
     0
176
     1
290
     0
176
     1
290
     0
176
     1
290
     0
176
     1
 90
       50
176
     1
 40
0.0
176
     1
 40
1.0
176
     1
 90
        0
176
     1
 62
    18
420
        0
176
     1
 90
       50
176
     1
 90
        3
176
     1
 62
     5
420
      255
176
     1
290
     0
176
     1
 90
       50
176
     1
 90
       50
176
     1
 90
       50
176
     1
290
     0
176
     1
 90
       50
176
     1
 62
   256
176
     0
 40
1.0
176
     0
 90
        2
176
     1
  1
strokes_ogs.tif
176
     1
290
     0
176
     1
 40
1.0
176
     1
 40
1.0
176
     1
  0
VISUALSTYLE
  5
2B
102
{ACAD_REACTORS
330
2A
102
}
330
2A
100
AcDbVisualStyle
  2
Flat
 70
     0
177
     3
291
     1
 70
    58
 90
        2
176
     1
 90
        1
176
     1
 90
        1
176
     1
 90
        2
176
     1
 40
0.6
176
     1
 40
30.0
176
     1
 62
     7
420
 16777215
176
     1
 90
        0
176
     1
 90
        0
176
     1
 62
     7
176
     1
 62
   257
176
     1
 90
        1
176
     1
 90
        1
176
     1
 40
1.0
176
     1
 90
        8
176
     1
 62
     7
176
     1
 40
1.0
176
     1
 90
        1
176
     1
 90
        6
176
     1
 90
        2
176
     1
 62
     7
176
     1
 90
        5
176
     1
 90
        0
176
     1
 90
        0
176
     1
290
     0
176
     1
 90
       13
176
     1
 40
0.0
176
     1
 90
        0
176
     1
290
     0
176
     1
290
     1
176
     1
290
     1
176
     1
290
     0
176
     1
290
     0
176
     1
290
     0
176
     1
290
     0
176
     1
290
     0
176
     1
290
     0
176
     1
 90
       50
176
     1
 40
0.0
176
     1
 40
1.0
176
     1
 90
        0
176
     1
 62
    18
420
        0
176
     1
 90
       50
176
     1
 90
        3
176
     1
 62
     5
420
      255
176
     1
290
     0
176
     1
 90
       50
176
     1
 90
       50
176
     1
 90
       50
176
     1
290
     0
176
     1
 90
       50
176
     1
 62
   256
176
     0
 40
1.0
176
     0
 90
        2
176
     1
  1
strokes_ogs.tif
176
     1
290
     0
176
     1
 40
1.0
176
     1
 40
1.0
176
     1
  0
VISUALSTYLE
  5
2C
102
{ACAD_REACTORS
330
2A
102
}
330
2A
100
AcDbVisualStyle
  2
FlatWithEdges
 70
     1
177
     3
291
     1
 70
    58
 90
        2
176
     1
 90
        1
176
     1
 90
        1
176
     1
 90
        2
176
     1
 40
0.6
176
     1
 40
30.0
176
     1
 62
     7
420
 16777215
176
     1
 90
        1
176
     1
 90
        0
176
     1
 62
     7
176
     1
 62
   257
176
     1
 90
        1
176
     1
 90
        1
176
     1
 40
1.0
176
     1
 90
        0
176
     1
 62
   257
176
     1
 40
1.0
176
     1
 90
        1
176
     1
 90
        6
176
     1
 90
        2
176
     1
 62
     7
176
     1
 90
        5
176
     1
 90
        0
176
     1
 90
        0
176
     1
290
     0
176
     1
 90
       13
176
     1
 40
0.0
176
     1
 90
        0
176
     1
290
     0
176
     1
290
     1
176
     1
290
     1
176
     1
290
     0
176
     1
290
     0
176
     1
290
     0
176
     1
290
     0
176
     1
290
     0
176
     1
290
     0
176
     1
 90
       50
176
     1
 40
0.0
176
     1
 40
1.0
176
     1
 90
        0
176
     1
 62
    18
420
        0
176
     1
 90
       50
176
     1
 90
        3
176
     1
 62
     5
420
      255
176
     1
290
     0
176
     1
 90
       50
176
     1
 90
       50
176
     1
 90
       50
176
     1
290
     0
176
     1
 90
       50
176
     1
 62
   256
176
     0
 40
1.0
176
     0
 90
        2
176
     1
  1
strokes_ogs.tif
176
     1
290
     0
176
     1
 40
1.0
176
     1
 40
1.0
176
     1
  0
VISUALSTYLE
  5
2D
102
{ACAD_REACTORS
330
2A
102
}
330
2A
100
AcDbVisualStyle
  2
Gouraud
 70
     2
177
     3
291
     1
 70
    58
 90
        2
176
     1
 90
        2
176
     1
 90
        1
176
     1
 90
        2
176
     1
 40
0.6
176
     1
 40
30.0
176
     1
 62
     7
420
 16777215
176
     1
 90
        0
176
     1
 90
        0
176
     1
 62
     7
176
     1
 62
   257
176
     1
 90
        1
176
     1
 90
        1
176
     1
 40
1.0
176
     1
 90
        0
176
     1
 62
     7
176
     1
 40
1.0
176
     1
 90
        1
176
     1
 90
        6
176
     1
 90
        2
176
     1
 62
     7
176
     1
 90
        5
176
     1
 90
        0
176
     1
 90
        0
176
     1
290
     0
176
     1
 90
       13
176
     1
 40
0.0
176
     1
 90
        0
176
     1
290
     0
176
     1
290
     1
176
     1
290
     1
176
     1
290
     0
176
     1
290
     0
176
     1
290
     0
176
     1
290
     0
176
     1
290
     0
176
     1
290
     0
176
     1
 90
       50
176
     1
 40
0.0
176
     1
 40
1.0
176
     1
 90
        0
176
     1
 62
    18
420
        0
176
     1
 90
       50
176
     1
 90
        3
176
     1
 62
     5
420
      255
176
     1
290
     0
176
     1
 90
       50
176
     1
 90
       50
176
     1
 90
       50
176
     1
290
     0
176
     1
 90
       50
176
     1
 62
   256
176
     0
 40
1.0
176
     0
 90
        2
176
     1
  1
strokes_ogs.tif
176
     1
290
     0
176
     1
 40
1.0
176
     1
 40
1.0
176
     1
  0
VISUALSTYLE
  5
2E
102
{ACAD_REACTORS
330
2A
102
}
330
2A
100
AcDbVisualStyle
  2
GouraudWithEdges
 70
     3
177
     3
291
     1
 70
    58
 90
        2
176
     1
 90
        2
176
     1
 90
        1
176
     1
 90
        2
176
     1
 40
0.6
176
     1
 40
30.0
176
     1
 62
     7
420
 16777215
176
     1
 90
        1
176
     1
 90
        0
176
     1
 62
     7
176
     1
 62
   257
176
     1
 90
        1
176
     1
 90
        1
176
     1
 40
1.0
176
     1
 90
        0
176
     1
 62
   257
176
     1
 40
1.0
176
     1
 90
        1
176
     1
 90
        6
176
     1
 90
        2
176
     1
 62
     7
176
     1
 90
        5
176
     1
 90
        0
176
     1
 90
        0
176
     1
290
     0
176
     1
 90
       13
176
     1
 40
0.0
176
     1
 90
        0
176
     1
290
     0
176
     1
290
     1
176
     1
290
     1
176
     1
290
     0
176
     1
290
     0
176
     1
290
     0
176
     1
290
     0
176
     1
290
     0
176
     1
290
     0
176
     1
 90
       50
176
     1
 40
0.0
176
     1
 40
1.0
176
     1
 90
        0
176
     1
 62
    18
420
        0
176
     1
 90
       50
176
     1
 90
        3
176
     1
 62
     5
420
      255
176
     1
290
     0
176
     1
 90
       50
176
     1
 90
       50
176
     1
 90
       50
176
     1
290
     0
176
     1
 90
       50
176
     1
 62
   256
176
     0
 40
1.0
176
     0
 90
        2
176
     1
  1
strokes_ogs.tif
176
     1
290
     0
176
     1
 40
1.0
176
     1
 40
1.0
176
     1
  0
VISUALSTYLE
  5
31
102
{ACAD_REACTORS
330
2A
102
}
330
2A
100
AcDbVisualStyle
  2
Hidden
 70
     6
177
     3
291
     0
 70
    58
 90
        1
176
     1
 90
        2
176
     1
 90
        2
176
     1
 90
        0
176
     1
 40
0.6
176
     1
 40
30.0
176
     1
 62
     7
420
 16777215
176
     1
 90
        2
176
     1
 90
        2
176
     1
 62
     7
176
     1
 62
   257
176
     1
 90
        2
176
     1
 90
        1
176
     1
 40
40.0
176
     1
 90
        0
176
     1
 62
   257
176
     1
 40
1.0
176
     1
 90
        1
176
     1
 90
        6
176
     1
 90
        2
176
     1
 62
     7
176
     1
 90
        3
176
     1
 90
        0
176
     1
 90
        0
176
     1
290
     0
176
     1
 90
        1
176
     1
 40
0.0
176
     1
 90
        0
176
     1
290
     0
176
     1
290
     1
176
     1
290
     1
176
     1
290
     0
176
     1
290
     0
176
     1
290
     0
176
     1
290
     0
176
     1
290
     0
176
     1
290
     0
176
     1
 90
       50
176
     1
 40
0.0
176
     1
 40
1.0
176
     1
 90
        0
176
     1
 62
    18
420
        0
176
     1
 90
       50
176
     1
 90
        3
176
     1
 62
     5
420
      255
176
     1
290
     0
176
     1
 90
       50
176
     1
 90
       50
176
     1
 90
       50
176
     1
290
     0
176
     1
 90
       50
176
     1
 62
   256
176
     0
 40
1.0
176
     0
 90
        2
176
     1
  1
strokes_ogs.tif
176
     1
290
     0
176
     1
 40
1.0
176
     1
 40
1.0
176
     1
  0
VISUALSTYLE
  5
3B
102
{ACAD_REACTORS
330
2A
102
}
330
2A
100
AcDbVisualStyle
  2
JitterOff
 70
    20
177
     3
291
     1
 70
    58
 90
        2
176
     0
 90
        2
176
     0
 90
        0
176
     0
 90
        0
176
     0
 40
0.6
176
     0
 40
30.0
176
     0
 62
     7
420
 16777215
176
     0
 90
        1
176
     0
 90
        4
176
     0
 62
     7
176
     0
 62
   257
176
     0
 90
        1
176
     0
 90
        1
176
     0
 40
1.0
176
     0
 90
       10
176
     2
 62
     7
176
     0
 40
1.0
176
     0
 90
        1
176
     0
 90
        6
176
     0
 90
        2
176
     0
 62
     7
176
     0
 90
        5
176
     0
 90
        0
176
     0
 90
        0
176
     0
290
     0
176
     0
 90
        1
176
     0
 40
0.0
176
     0
 90
        0
176
     0
290
     0
176
     0
290
     1
176
     0
290
     1
176
     0
290
     0
176
     0
290
     0
176
     0
290
     0
176
     0
290
     0
176
     0
290
     0
176
     0
290
     0
176
     0
 90
       50
176
     0
 40
0.0
176
     0
 40
1.0
176
     0
 90
        0
176
     0
 62
    18
420
        0
176
     0
 90
       50
176
     0
 90
        3
176
     0
 62
     5
420
      255
176
     0
290
     0
176
     0
 90
       50
176
     0
 90
       50
176
     0
 90
       50
176
     0
290
     0
176
     0
 90
       50
176
     0
 62
   256
176
     0
 40
1.0
176
     0
 90
        2
176
     0
  1
strokes_ogs.tif
176
     0
290
     0
176
     0
 40
1.0
176
     0
 40
1.0
176
     0
  0
VISUALSTYLE
  5
38
102
{ACAD_REACTORS
330
2A
102
}
330
2A
100
AcDbVisualStyle
  2
Linepattern
 70
    14
177
     3
291
     1
 70
    58
 90
        2
176
     1
 90
        2
176
     1
 90
        0
176
     1
 90
        0
176
     1
 40
0.6
176
     1
 40
30.0
176
     1
 62
     7
420
 16777215
176
     1
 90
        1
176
     1
 90
        4
176
     1
 62
     7
176
     1
 62
   257
176
     1
 90
        7
176
     1
 90
        7
176
     1
 40
1.0
176
     1
 90
        8
176
     1
 62
     7
176
     1
 40
1.0
176
     1
 90
        1
176
     1
 90
        6
176
     1
 90
        2
176
     1
 62
     7
176
     1
 90
        5
176
     1
 90
        0
176
     1
 90
        0
176
     1
290
     0
176
     1
 90
        1
176
     1
 40
0.0
176
     1
 90
        0
176
     1
290
     0
176
     1
290
     1
176
     1
290
     1
176
     1
290
     0
176
     1
290
     0
176
     1
290
     0
176
     1
290
     0
176
     1
290
     0
176
     1
290
     0
176
     1
 90
       50
176
     1
 40
0.0
176
     1
 40
1.0
176
     1
 90
        0
176
     1
 62
    18
420
        0
176
     1
 90
       50
176
     1
 90
        3
176
     1
 62
     5
420
      255
176
     1
290
     0
176
     1
 90
       50
176
     1
 90
       50
176
     1
 90
       50
176
     1
290
     0
176
     1
 90
       50
176
     1
 62
   256
176
     0
 40
1.0
176
     0
 90
        2
176
     1
  1
strokes_ogs.tif
176
     1
290
     0
176
     1
 40
1.0
176
     1
 40
1.0
176
     1
  0
VISUALSTYLE
  5
3C
102
{ACAD_REACTORS
330
2A
102
}
330
2A
100
AcDbVisualStyle
  2
OverhangOff
 70
    21
177
     3
291
     1
 70
    58
 90
        2
176
     0
 90
        2
176
     0
 90
        0
176
     0
 90
        0
176
     0
 40
0.6
176
     0
 40
30.0
176
     0
 62
     7
420
 16777215
176
     0
 90
        1
176
     0
 90
        4
176
     0
 62
     7
176
     0
 62
   257
176
     0
 90
        1
176
     0
 90
        1
176
     0
 40
1.0
176
     0
 90
        9
176
     2
 62
     7
176
     0
 40
1.0
176
     0
 90
        1
176
     0
 90
        6
176
     0
 90
        2
176
     0
 62
     7
176
     0
 90
        5
176
     0
 90
        0
176
     0
 90
        0
176
     0
290
     0
176
     0
 90
        1
176
     0
 40
0.0
176
     0
 90
        0
176
     0
290
     0
176
     0
290
     1
176
     0
290
     1
176
     0
290
     0
176
     0
290
     0
176
     0
290
     0
176
     0
290
     0
176
     0
290
     0
176
     0
290
     0
176
     0
 90
       50
176
     0
 40
0.0
176
     0
 40
1.0
176
     0
 90
        0
176
     0
 62
    18
420
        0
176
     0
 90
       50
176
     0
 90
        3
176
     0
 62
     5
420
      255
176
     0
290
     0
176
     0
 90
       50
176
     0
 90
       50
176
     0
 90
       50
176
     0
290
     0
176
     0
 90
       50
176
     0
 62
   256
176
     0
 40
1.0
176
     0
 90
        2
176
     0
  1
strokes_ogs.tif
176
     0
290
     0
176
     0
 40
1.0
176
     0
 40
1.0
176
     0
  0
VISUALSTYLE
  5
33
102
{ACAD_REACTORS
330
2A
102
}
330
2A
100
AcDbVisualStyle
  2
Realistic
 70
     8
177
     3
291
     0
 70
    58
 90
        2
176
     1
 90
        3
176
     1
 90
        0
176
     1
 90
        2
176
     1
 40
0.6
176
     1
 40
30.0
176
     1
 62
     7
420
 16777215
176
     1
 90
        0
176
     1
 90
        0
176
     1
 62
     7
176
     1
 62
   257
176
     1
 90
        1
176
     1
 90
        1
176
     1
 40
1.0
176
     1
 90
        8
176
     1
 62
   257
176
     1
 40
1.0
176
     1
 90
        1
176
     1
 90
        6
176
     1
 90
        2
176
     1
 62
     7
176
     1
 90
        3
176
     1
 90
        0
176
     1
 90
        0
176
     1
290
     0
176
     1
 90
       13
176
     1
 40
0.0
176
     1
 90
        0
176
     1
290
     0
176
     1
290
     1
176
     1
290
     1
176
     1
290
     0
176
     1
290
     0
176
     1
290
     0
176
     1
290
     0
176
     1
290
     0
176
     1
290
     0
176
     1
 90
       50
176
     1
 40
0.0
176
     1
 40
1.0
176
     1
 90
        0
176
     1
 62
    18
420
        0
176
     1
 90
       50
176
     1
 90
        3
176
     1
 62
     5
420
      255
176
     1
290
     0
176
     1
 90
       50
176
     1
 90
       50
176
     1
 90
       50
176
     1
290
     0
176
     1
 90
       50
176
     1
 62
   256
176
     0
 40
1.0
176
     0
 90
        2
176
     1
  1
strokes_ogs.tif
176
     1
290
     0
176
     1
 40
1.0
176
     1
 40
1.0
176
     1
  0
VISUALSTYLE
  5
42
102
{ACAD_REACTORS
330
2A
102
}
330
2A
100
AcDbVisualStyle
  2
Shaded
 70
    27
177
     3
291
     0
 70
    58
 90
        2
176
     1
 90
        2
176
     1
 90
        1
176
     1
 90
        2
176
     1
 40
0.6
176
     1
 40
30.0
176
     1
 62
     7
420
 16777215
176
     1
 90
        0
176
     1
 90
        4
176
     1
 62
     7
176
     1
 62
   257
176
     1
 90
        1
176
     1
 90
        1
176
     1
 40
1.0
176
     1
 90
        8
176
     1
 62
   257
176
     1
 40
1.0
176
     1
 90
        1
176
     1
 90
        6
176
     1
 90
        2
176
     1
 62
     8
420
  7895160
176
     1
 90
        3
176
     1
 90
        0
176
     1
 90
        0
176
     1
290
     0
176
     1
 90
        5
176
     1
 40
0.0
176
     1
 90
        0
176
     1
290
     0
176
     1
290
     1
176
     1
290
     1
176
     1
290
     0
176
     1
290
     0
176
     1
290
     0
176
     1
290
     0
176
     1
290
     0
176
     1
290
     0
176
     1
 90
       50
176
     1
 40
0.0
176
     1
 40
1.0
176
     1
 90
        0
176
     1
 62
    18
420
        0
176
     1
 90
       50
176
     1
 90
        3
176
     1
 62
     5
420
      255
176
     1
290
     0
176
     1
 90
       50
176
     1
 90
       50
176
     1
 90
       50
176
     1
290
     0
176
     1
 90
       50
176
     1
 62
   256
176
     0
 40
1.0
176
     0
 90
        2
176
     1
  1
strokes_ogs.tif
176
     1
290
     0
176
     1
 40
1.0
176
     1
 40
1.0
176
     1
  0
VISUALSTYLE
  5
41
102
{ACAD_REACTORS
330
2A
102
}
330
2A
100
AcDbVisualStyle
  2
Shaded with edges
 70
    26
177
     3
291
     0
 70
    58
 90
        2
176
     1
 90
        2
176
     1
 90
        1
176
     1
 90
        2
176
     1
 40
0.6
176
     1
 40
30.0
176
     1
 62
     7
420
 16777215
176
     1
 90
        1
176
     1
 90
       10
176
     1
 62
     7
176
     1
 62
   257
176
     1
 90
        2
176
     1
 90
        1
176
     1
 40
1.0
176
     1
 90
        8
176
     1
 62
   257
176
     1
 40
1.0
176
     1
 90
        1
176
     1
 90
        6
176
     1
 90
        2
176
     1
 62
     7
176
     1
 90
        3
176
     1
 90
        0
176
     1
 90
        0
176
     1
290
     0
176
     1
 90
        5
176
     1
 40
0.0
176
     1
 90
        0
176
     1
290
     0
176
     1
290
     1
176
     1
290
     1
176
     1
290
     0
176
     1
290
     0
176
     1
290
     0
176
     1
290
     0
176
     1
290
     0
176
     1
290
     0
176
     1
 90
       50
176
     1
 40
0.0
176
     1
 40
1.0
176
     1
 90
        0
176
     1
 62
    18
420
        0
176
     1
 90
       50
176
     1
 90
        3
176
     1
 62
     5
420
      255
176
     1
290
     0
176
     1
 90
       50
176
     1
 90
       50
176
     1
 90
       50
176
     1
290
     0
176
     1
 90
       50
176
     1
 62
   256
176
     0
 40
1.0
176
     0
 90
        2
176
     1
  1
strokes_ogs.tif
176
     1
290
     0
176
     1
 40
1.0
176
     1
 40
1.0
176
     1
  0
VISUALSTYLE
  5
3E
102
{ACAD_REACTORS
330
2A
102
}
330
2A
100
AcDbVisualStyle
  2
Shades of Gray
 70
    23
177
     3
291
     0
 70
    58
 90
        2
176
     1
 90
        2
176
     1
 90
        3
176
     1
 90
        0
176
     1
 40
0.6
176
     1
 40
30.0
176
     1
 62
     7
420
 16777215
176
     1
 90
        2
176
     1
 90
        2
176
     1
 62
     7
176
     1
 62
     7
176
     1
 90
        1
176
     1
 90
        1
176
     1
 40
40.0
176
     1
 90
        8
176
     1
 62
     7
176
     1
 40
1.0
176
     1
 90
        1
176
     1
 90
        6
176
     1
 90
        2
176
     1
 62
     7
176
     1
 90
        3
176
     1
 90
        0
176
     1
 90
        0
176
     1
290
     0
176
     1
 90
        1
176
     1
 40
0.0
176
     1
 90
        0
176
     1
290
     0
176
     1
290
     1
176
     1
290
     1
176
     1
290
     0
176
     1
290
     0
176
     1
290
     0
176
     1
290
     0
176
     1
290
     0
176
     1
290
     0
176
     1
 90
       50
176
     1
 40
0.0
176
     1
 40
1.0
176
     1
 90
        0
176
     1
 62
    18
420
        0
176
     1
 90
       50
176
     1
 90
        3
176
     1
 62
     5
420
      255
176
     1
290
     0
176
     1
 90
       50
176
     1
 90
       50
176
     1
 90
       50
176
     1
290
     0
176
     1
 90
       50
176
     1
 62
   256
176
     0
 40
1.0
176
     0
 90
        2
176
     1
  1
strokes_ogs.tif
176
     1
290
     0
176
     1
 40
1.0
176
     1
 40
1.0
176
     1
  0
VISUALSTYLE
  5
3F
102
{ACAD_REACTORS
330
2A
102
}
330
2A
100
AcDbVisualStyle
  2
Sketchy
 70
    24
177
     3
291
     0
 70
    58
 90
        1
176
     1
 90
        2
176
     1
 90
        2
176
     1
 90
        0
176
     1
 40
0.6
176
     1
 40
30.0
176
     1
 62
     7
420
 16777215
176
     1
 90
        2
176
     1
 90
        2
176
     1
 62
     7
176
     1
 62
     7
176
     1
 90
        1
176
     1
 90
        1
176
     1
 40
40.0
176
     1
 90
       11
176
     1
 62
     7
176
     1
 40
1.0
176
     1
 90
        1
176
     1
 90
        6
176
     1
 90
        2
176
     1
 62
     7
176
     1
 90
        6
176
     1
 90
        0
176
     1
 90
        0
176
     1
290
     0
176
     1
 90
        1
176
     1
 40
0.0
176
     1
 90
        0
176
     1
290
     0
176
     1
290
     1
176
     1
290
     1
176
     1
290
     0
176
     1
290
     0
176
     1
290
     0
176
     1
290
     0
176
     1
290
     0
176
     1
290
     0
176
     1
 90
       50
176
     1
 40
0.0
176
     1
 40
1.0
176
     1
 90
        0
176
     1
 62
    18
420
        0
176
     1
 90
       50
176
     1
 90
        3
176
     1
 62
     5
420
      255
176
     1
290
     0
176
     1
 90
       50
176
     1
 90
       50
176
     1
 90
       50
176
     1
290
     0
176
     1
 90
       50
176
     1
 62
   256
176
     0
 40
1.0
176
     0
 90
        2
176
     1
  1
strokes_ogs.tif
176
     1
290
     0
176
     1
 40
1.0
176
     1
 40
1.0
176
     1
  0
VISUALSTYLE
  5
37
102
{ACAD_REACTORS
330
2A
102
}
330
2A
100
AcDbVisualStyle
  2
Thicken
 70
    13
177
     3
291
     1
 70
    58
 90
        2
176
     1
 90
        2
176
     1
 90
        0
176
     1
 90
        0
176
     1
 40
0.6
176
     1
 40
30.0
176
     1
 62
     7
420
 16777215
176
     1
 90
        1
176
     1
 90
        4
176
     1
 62
     7
176
     1
 62
   257
176
     1
 90
        1
176
     1
 90
        1
176
     1
 40
1.0
176
     1
 90
       12
176
     1
 62
     7
176
     1
 40
1.0
176
     1
 90
        1
176
     1
 90
        6
176
     1
 90
        2
176
     1
 62
     7
176
     1
 90
        5
176
     1
 90
        0
176
     1
 90
        0
176
     1
290
     0
176
     1
 90
        1
176
     1
 40
0.0
176
     1
 90
        0
176
     1
290
     0
176
     1
290
     1
176
     1
290
     1
176
     1
290
     0
176
     1
290
     0
176
     1
290
     0
176
     1
290
     0
176
     1
290
     0
176
     1
290
     0
176
     1
 90
       50
176
     1
 40
0.0
176
     1
 40
1.0
176
     1
 90
        0
176
     1
 62
    18
420
        0
176
     1
 90
       50
176
     1
 90
        3
176
     1
 62
     5
420
      255
176
     1
290
     0
176
     1
 90
       50
176
     1
 90
       50
176
     1
 90
       50
176
     1
290
     0
176
     1
 90
       50
176
     1
 62
   256
176
     0
 40
1.0
176
     0
 90
        2
176
     1
  1
strokes_ogs.tif
176
     1
290
     0
176
     1
 40
1.0
176
     1
 40
1.0
176
     1
  0
VISUALSTYLE
  5
30
102
{ACAD_REACTORS
330
2A
102
}
330
2A
100
AcDbVisualStyle
  2
Wireframe
 70
     5
177
     3
291
     0
 70
    58
 90
        0
176
     1
 90
        2
176
     1
 90
        0
176
     1
 90
        0
176
     1
 40
0.6
176
     1
 40
30.0
176
     1
 62
     7
420
 16777215
176
     1
 90
        1
176
     1
 90
        4
176
     1
 62
     7
176
     1
 62
   257
176
     1
 90
        1
176
     1
 90
        1
176
     1
 40
1.0
176
     1
 90
        0
176
     1
 62
   257
176
     1
 40
1.0
176
     1
 90
        1
176
     1
 90
        6
176
     1
 90
        2
176
     1
 62
     7
176
     1
 90
        3
176
     1
 90
        0
176
     1
 90
        0
176
     1
290
     0
176
     1
 90
        1
176
     1
 40
0.0
176
     1
 90
        0
176
     1
290
     0
176
     1
290
     1
176
     1
290
     1
176
     1
290
     0
176
     1
290
     0
176
     1
290
     0
176
     1
290
     0
176
     1
290
     0
176
     1
290
     0
176
     1
 90
       50
176
     1
 40
0.0
176
     1
 40
1.0
176
     1
 90
        0
176
     1
 62
    18
420
        0
176
     1
 90
       50
176
     1
 90
        3
176
     1
 62
     5
420
      255
176
     1
290
     0
176
     1
 90
       50
176
     1
 90
       50
176
     1
 90
       50
176
     1
290
     0
176
     1
 90
       50
176
     1
 62
   256
176
     0
 40
1.0
176
     0
 90
        2
176
     1
  1
strokes_ogs.tif
176
     1
290
     0
176
     1
 40
1.0
176
     1
 40
1.0
176
     1
  0
VISUALSTYLE
  5
40
102
{ACAD_REACTORS
330
2A
102
}
330
2A
100
AcDbVisualStyle
  2
X-Ray
 70
    25
177
     3
291
     0
 70
    58
 90
        2
176
     1
 90
        2
176
     1
 90
        1
176
     1
 90
        1
176
     1
 40
0.5
176
     1
 40
30.0
176
     1
 62
     7
420
 16777215
176
     1
 90
        1
176
     1
 90
        0
176
     1
 62
     7
176
     1
 62
   257
176
     1
 90
        1
176
     1
 90
        1
176
     1
 40
1.0
176
     1
 90
        8
176
     1
 62
     7
176
     1
 40
1.0
176
     1
 90
        1
176
     1
 90
        6
176
     1
 90
        2
176
     1
 62
     7
176
     1
 90
        3
176
     1
 90
        0
176
     1
 90
        0
176
     1
290
     0
176
     1
 90
       13
176
     1
 40
0.0
176
     1
 90
        0
176
     1
290
     0
176
     1
290
     1
176
     1
290
     1
176
     1
290
     0
176
     1
290
     0
176
     1
290
     0
176
     1
290
     0
176
     1
290
     0
176
     1
290
     0
176
     1
 90
       50
176
     1
 40
0.0
176
     1
 40
1.0
176
     1
 90
        0
176
     1
 62
    18
420
        0
176
     1
 90
       50
176
     1
 90
        3
176
     1
 62
     5
420
      255
176
     1
290
     0
176
     1
 90
       50
176
     1
 90
       50
176
     1
 90
       50
176
     1
290
     0
176
     1
 90
       50
176
     1
 62
   256
176
     0
 40
1.0
176
     0
 90
        2
176
     1
  1
strokes_ogs.tif
176
     1
290
     0
176
     1
 40
1.0
176
     1
 40
1.0
176
     1
  0
DICTIONARYVAR
  5
204
102
{ACAD_REACTORS
330
203
102
}
330
203
100
DictionaryVariables
280
     0
  1
1:1
  0
DICTIONARYVAR
  5
209
102
{ACAD_REACTORS
330
203
102
}
330
203
100
DictionaryVariables
280
     0
  1
Standard
  0
DICTIONARYVAR
  5
208
102
{ACAD_REACTORS
330
203
102
}
330
203
100
DictionaryVariables
280
     0
  1
Standard
  0
DICTIONARY
  5
205
330
6A
100
AcDbDictionary
280
     1
281
     1
  3
ACAD_ROUNDTRIP_2008_TABLESTYLE_CELLSTYLEMAP
360
206
  0
CELLSTYLEMAP
  5
206
102
{ACAD_REACTORS
330
205
102
}
330
205
100
AcDbCellStyleMap
 90
        3
300
CELLSTYLE
  1
TABLEFORMAT_BEGIN
 90
        5
170
     1
 91
        0
 92
    32768
 62
   257
 93
        1
300
CONTENTFORMAT
  1
CONTENTFORMAT_BEGIN
 90
        0
 91
        0
 92
        4
 93
        0
300

 40
0.0
140
1.0
 94
        5
 62
     0
340
11
144
0.25
309
CONTENTFORMAT_END
171
     1
301
MARGIN
  1
CELLMARGIN_BEGIN
 40
0.06
 40
0.06
 40
0.06
 40
0.06
 40
0.06
 40
0.06
309
CELLMARGIN_END
 94
        6
 95
        1
302
GRIDFORMAT
  1
GRIDFORMAT_BEGIN
 90
        0
 91
        1
 62
     0
 92
       -2
340
14
 93
        0
 40
0.045
309
GRIDFORMAT_END
 95
        2
302
GRIDFORMAT
  1
GRIDFORMAT_BEGIN
 90
        0
 91
        1
 62
     0
 92
       -2
340
14
 93
        0
 40
0.045
309
GRIDFORMAT_END
 95
        4
302
GRIDFORMAT
  1
GRIDFORMAT_BEGIN
 90
        0
 91
        1
 62
     0
 92
       -2
340
14
 93
        0
 40
0.045
309
GRIDFORMAT_END
 95
        8
302
GRIDFORMAT
  1
GRIDFORMAT_BEGIN
 90
        0
 91
        1
 62
     0
 92
       -2
340
14
 93
        0
 40
0.045
309
GRIDFORMAT_END
 95
       16
302
GRIDFORMAT
  1
GRIDFORMAT_BEGIN
 90
        0
 91
        1
 62
     0
 92
       -2
340
14
 93
        0
 40
0.045
309
GRIDFORMAT_END
 95
       32
302
GRIDFORMAT
  1
GRIDFORMAT_BEGIN
 90
        0
 91
        1
 62
     0
 92
       -2
340
14
 93
        0
 40
0.045
309
GRIDFORMAT_END
309
TABLEFORMAT_END
  1
CELLSTYLE_BEGIN
 90
        1
 91
        1
300
_TITLE
309
CELLSTYLE_END
300
CELLSTYLE
  1
TABLEFORMAT_BEGIN
 90
        5
170
     1
 91
        0
 92
        0
 62
   257
 93
        1
300
CONTENTFORMAT
  1
CONTENTFORMAT_BEGIN
 90
        0
 91
        0
 92
        4
 93
        0
300

 40
0.0
140
1.0
 94
        5
 62
     0
340
11
144
0.18
309
CONTENTFORMAT_END
171
     1
301
MARGIN
  1
CELLMARGIN_BEGIN
 40
0.06
 40
0.06
 40
0.06
 40
0.06
 40
0.06
 40
0.06
309
CELLMARGIN_END
 94
        6
 95
        1
302
GRIDFORMAT
  1
GRIDFORMAT_BEGIN
 90
        0
 91
        1
 62
     0
 92
       -2
340
14
 93
        0
 40
0.045
309
GRIDFORMAT_END
 95
        2
302
GRIDFORMAT
  1
GRIDFORMAT_BEGIN
 90
        0
 91
        1
 62
     0
 92
       -2
340
14
 93
        0
 40
0.045
309
GRIDFORMAT_END
 95
        4
302
GRIDFORMAT
  1
GRIDFORMAT_BEGIN
 90
        0
 91
        1
 62
     0
 92
       -2
340
14
 93
        0
 40
0.045
309
GRIDFORMAT_END
 95
        8
302
GRIDFORMAT
  1
GRIDFORMAT_BEGIN
 90
        0
 91
        1
 62
     0
 92
       -2
340
14
 93
        0
 40
0.045
309
GRIDFORMAT_END
 95
       16
302
GRIDFORMAT
  1
GRIDFORMAT_BEGIN
 90
        0
 91
        1
 62
     0
 92
       -2
340
14
 93
        0
 40
0.045
309
GRIDFORMAT_END
 95
       32
302
GRIDFORMAT
  1
GRIDFORMAT_BEGIN
 90
        0
 91
        1
 62
     0
 92
       -2
340
14
 93
        0
 40
0.045
309
GRIDFORMAT_END
309
TABLEFORMAT_END
  1
CELLSTYLE_BEGIN
 90
        2
 91
        1
300
_HEADER
309
CELLSTYLE_END
300
CELLSTYLE
  1
TABLEFORMAT_BEGIN
 90
        5
170
     1
 91
        0
 92
        0
 62
   257
 93
        1
300
CONTENTFORMAT
  1
CONTENTFORMAT_BEGIN
 90
        0
 91
        0
 92
        4
 93
        0
300

 40
0.0
140
1.0
 94
        2
 62
     0
340
11
144
0.18
309
CONTENTFORMAT_END
171
     1
301
MARGIN
  1
CELLMARGIN_BEGIN
 40
0.06
 40
0.06
 40
0.06
 40
0.06
 40
0.06
 40
0.06
309
CELLMARGIN_END
 94
        6
 95
        1
302
GRIDFORMAT
  1
GRIDFORMAT_BEGIN
 90
        0
 91
        1
 62
     0
 92
       -2
340
14
 93
        0
 40
0.045
309
GRIDFORMAT_END
 95
        2
302
GRIDFORMAT
  1
GRIDFORMAT_BEGIN
 90
        0
 91
        1
 62
     0
 92
       -2
340
14
 93
        0
 40
0.045
309
GRIDFORMAT_END
 95
        4
302
GRIDFORMAT
  1
GRIDFORMAT_BEGIN
 90
        0
 91
        1
 62
     0
 92
       -2
340
14
 93
        0
 40
0.045
309
GRIDFORMAT_END
 95
        8
302
GRIDFORMAT
  1
GRIDFORMAT_BEGIN
 90
        0
 91
        1
 62
     0
 92
       -2
340
14
 93
        0
 40
0.045
309
GRIDFORMAT_END
 95
       16
302
GRIDFORMAT
  1
GRIDFORMAT_BEGIN
 90
        0
 91
        1
 62
     0
 92
       -2
340
14
 93
        0
 40
0.045
309
GRIDFORMAT_END
 95
       32
302
GRIDFORMAT
  1
GRIDFORMAT_BEGIN
 90
        0
 91
        1
 62
     0
 92
       -2
340
14
 93
        0
 40
0.045
309
GRIDFORMAT_END
309
TABLEFORMAT_END
  1
CELLSTYLE_BEGIN
 90
        3
 91
        2
300
_DATA
309
CELLSTYLE_END
  0
ENDSEC
  0
EOF