0
SECTION
  2
HEADER
  9
$ACADVER
  1
AC1027
  9
$ACADMAINTVER
 70
     8
  9
$DWGCODEPAGE
  3
ANSI_1252
  9
$REQUIREDVERSIONS
160
                 0
  9
$COMMENTS
  1
File was created by Cadenas
  9
$CUSTOMPROPERTYTAG
  1
NN
  9
$CUSTOMPROPERTY
  1
Grip Tight Two-Bolt Pillow Block - Stainless Housing, Corrision Resistant Insert Inch Bore
  9
$CUSTOMPROPERTYTAG
  1
NT
  9
$CUSTOMPROPERTY
  1
GTEZ Normal Duty Stainless Steel Housed Pillow Blocks
  9
$CUSTOMPROPERTYTAG
  1
NB
  9
$CUSTOMPROPERTY
  1
 129262
  9
$CUSTOMPROPERTYTAG
  1
NBSYN
  9
$CUSTOMPROPERTY
  1
 $PN.$LUBE.
  9
$CUSTOMPROPERTYTAG
  1
LINA
  9
$CUSTOMPROPERTY
  1
129262
  9
$CUSTOMPROPERTYTAG
  1
SERIES
  9
$CUSTOMPROPERTY
  1
205
  9
$CUSTOMPROPERTYTAG
  1
SS
  9
$CUSTOMPROPERTY
  1
1
  9
$CUSTOMPROPERTYTAG
  1
PN
  9
$CUSTOMPROPERTY
  1
129262
  9
$CUSTOMPROPERTYTAG
  1
DESCRIPTION
  9
$CUSTOMPROPERTY
  1
P2B-GTEZ-100-SHCR
  9
$CUSTOMPROPERTYTAG
  1
A
  9
$CUSTOMPROPERTY
  1
1-29/64
  9
$CUSTOMPROPERTYTAG
  1
B
  9
$CUSTOMPROPERTY
  1
5-1/2
  9
$CUSTOMPROPERTYTAG
  1
C
  9
$CUSTOMPROPERTY
  1
1-1/8
  9
$CUSTOMPROPERTYTAG
  1
DMIN
  9
$CUSTOMPROPERTY
  1
3-11/16
  9
$CUSTOMPROPERTYTAG
  1
DMAX
  9
$CUSTOMPROPERTY
  1
4-1/2
  9
$CUSTOMPROPERTYTAG
  1
F
  9
$CUSTOMPROPERTY
  1
3/8
  9
$CUSTOMPROPERTYTAG
  1
G
  9
$CUSTOMPROPERTY
  1
27/32
  9
$CUSTOMPROPERTYTAG
  1
H
  9
$CUSTOMPROPERTY
  1
17/32
  9
$CUSTOMPROPERTYTAG
  1
J
  9
$CUSTOMPROPERTY
  1
2-23/32
  9
$CUSTOMPROPERTYTAG
  1
L
  9
$CUSTOMPROPERTY
  1
1-51/64
  9
$CUSTOMPROPERTYTAG
  1
M
  9
$CUSTOMPROPERTY
  1
1-7/16
  9
$CUSTOMPROPERTYTAG
  1
R
  9
$CUSTOMPROPERTY
  1
1/2
  9
$CUSTOMPROPERTYTAG
  1
S
  9
$CUSTOMPROPERTY
  1
61/64
  9
$CUSTOMPROPERTYTAG
  1
Z
  9
$CUSTOMPROPERTY
  1
61/64
  9
$CUSTOMPROPERTYTAG
  1
COMPANY
  9
$CUSTOMPROPERTY
  1
baldor
  9
$INSBASE
 10
0.0
 20
0.0
 30
0.0
  9
$EXTMIN
 10
1.000000000000000E+20
 20
1.000000000000000E+20
 30
1.000000000000000E+20
  9
$EXTMAX
 10
-1.000000000000000E+20
 20
-1.000000000000000E+20
 30
-1.000000000000000E+20
  9
$LIMMIN
 10
0.0
 20
0.0
  9
$LIMMAX
 10
12.0
 20
9.0
  9
$ORTHOMODE
 70
     0
  9
$REGENMODE
 70
     1
  9
$FILLMODE
 70
     1
  9
$QTEXTMODE
 70
     0
  9
$MIRRTEXT
 70
     1
  9
$LTSCALE
 40
1.0
  9
$ATTMODE
 70
     1
  9
$TEXTSIZE
 40
0.2
  9
$TRACEWID
 40
0.05
  9
$TEXTSTYLE
  7
Standard
  9
$CLAYER
  8
0
  9
$CELTYPE
  6
ByLayer
  9
$CECOLOR
 62
   256
  9
$CELTSCALE
 40
1.0
  9
$DISPSILH
 70
     0
  9
$DIMSCALE
 40
1.0
  9
$DIMASZ
 40
0.18
  9
$DIMEXO
 40
0.0625
  9
$DIMDLI
 40
0.38
  9
$DIMRND
 40
0.0
  9
$DIMDLE
 40
0.0
  9
$DIMEXE
 40
0.18
  9
$DIMTP
 40
0.0
  9
$DIMTM
 40
0.0
  9
$DIMTXT
 40
0.18
  9
$DIMCEN
 40
0.09
  9
$DIMTSZ
 40
0.0
  9
$DIMTOL
 70
     0
  9
$DIMLIM
 70
     0
  9
$DIMTIH
 70
     1
  9
$DIMTOH
 70
     1
  9
$DIMSE1
 70
     0
  9
$DIMSE2
 70
     0
  9
$DIMTAD
 70
     0
  9
$DIMZIN
 70
     0
  9
$DIMBLK
  1

  9
$DIMASO
 70
     1
  9
$DIMSHO
 70
     1
  9
$DIMPOST
  1

  9
$DIMAPOST
  1

  9
$DIMALT
 70
     0
  9
$DIMALTD
 70
     2
  9
$DIMALTF
 40
25.4
  9
$DIMLFAC
 40
1.0
  9
$DIMTOFL
 70
     0
  9
$DIMTVP
 40
0.0
  9
$DIMTIX
 70
     0
  9
$DIMSOXD
 70
     0
  9
$DIMSAH
 70
     0
  9
$DIMBLK1
  1

  9
$DIMBLK2
  1

  9
$DIMSTYLE
  2
Standard
  9
$DIMCLRD
 70
     0
  9
$DIMCLRE
 70
     0
  9
$DIMCLRT
 70
     0
  9
$DIMTFAC
 40
1.0
  9
$DIMGAP
 40
0.09
  9
$DIMJUST
 70
     0
  9
$DIMSD1
 70
     0
  9
$DIMSD2
 70
     0
  9
$DIMTOLJ
 70
     1
  9
$DIMTZIN
 70
     0
  9
$DIMALTZ
 70
     0
  9
$DIMALTTZ
 70
     0
  9
$DIMUPT
 70
     0
  9
$DIMDEC
 70
     4
  9
$DIMTDEC
 70
     4
  9
$DIMALTU
 70
     2
  9
$DIMALTTD
 70
     2
  9
$DIMTXSTY
  7
Standard
  9
$DIMAUNIT
 70
     0
  9
$DIMADEC
 70
     0
  9
$DIMALTRND
 40
0.0
  9
$DIMAZIN
 70
     0
  9
$DIMDSEP
 70
    46
  9
$DIMATFIT
 70
     3
  9
$DIMFRAC
 70
     0
  9
$DIMLDRBLK
  1

  9
$DIMLUNIT
 70
     2
  9
$DIMLWD
 70
    -2
  9
$DIMLWE
 70
    -2
  9
$DIMTMOVE
 70
     0
  9
$DIMFXL
 40
1.0
  9
$DIMFXLON
 70
     0
  9
$DIMJOGANG
 40
0.7853981633974483
  9
$DIMTFILL
 70
     0
  9
$DIMTFILLCLR
 70
     0
  9
$DIMARCSYM
 70
     0
  9
$DIMLTYPE
  6

  9
$DIMLTEX1
  6

  9
$DIMLTEX2
  6

  9
$DIMTXTDIRECTION
 70
     0
  9
$LUNITS
 70
     2
  9
$LUPREC
 70
     4
  9
$SKETCHINC
 40
0.1
  9
$FILLETRAD
 40
0.5
  9
$AUNITS
 70
     0
  9
$AUPREC
 70
     0
  9
$MENU
  1
.
  9
$ELEVATION
 40
0.0
  9
$PELEVATION
 40
0.0
  9
$THICKNESS
 40
0.0
  9
$LIMCHECK
 70
     0
  9
$CHAMFERA
 40
0.0
  9
$CHAMFERB
 40
0.0
  9
$CHAMFERC
 40
0.0
  9
$CHAMFERD
 40
0.0
  9
$SKPOLY
 70
     0
  9
$TDCREATE
 40
2458168.976941748
  9
$TDUCREATE
 40
2458168.935275081
  9
$TDUPDATE
 40
2458168.976941921
  9
$TDUUPDATE
 40
2458168.935275255
  9
$TDINDWG
 40
0.0000000116
  9
$TDUSRTIMER
 40
0.0000000116
  9
$USRTIMER
 70
     1
  9
$ANGBASE
 50
0.0
  9
$ANGDIR
 70
     0
  9
$PDMODE
 70
     0
  9
$PDSIZE
 40
0.0
  9
$PLINEWID
 40
0.0
  9
$SPLFRAME
 70
     0
  9
$SPLINETYPE
 70
     6
  9
$SPLINESEGS
 70
     8
  9
$HANDSEED
  5
204
  9
$SURFTAB1
 70
     6
  9
$SURFTAB2
 70
     6
  9
$SURFTYPE
 70
     6
  9
$SURFU
 70
     6
  9
$SURFV
 70
     6
  9
$UCSBASE
  2

  9
$UCSNAME
  2

  9
$UCSORG
 10
0.0
 20
0.0
 30
0.0
  9
$UCSXDIR
 10
1.0
 20
0.0
 30
0.0
  9
$UCSYDIR
 10
0.0
 20
1.0
 30
0.0
  9
$UCSORTHOREF
  2

  9
$UCSORTHOVIEW
 70
     0
  9
$UCSORGTOP
 10
0.0
 20
0.0
 30
0.0
  9
$UCSORGBOTTOM
 10
0.0
 20
0.0
 30
0.0
  9
$UCSORGLEFT
 10
0.0
 20
0.0
 30
0.0
  9
$UCSORGRIGHT
 10
0.0
 20
0.0
 30
0.0
  9
$UCSORGFRONT
 10
0.0
 20
0.0
 30
0.0
  9
$UCSORGBACK
 10
0.0
 20
0.0
 30
0.0
  9
$PUCSBASE
  2

  9
$PUCSNAME
  2

  9
$PUCSORG
 10
0.0
 20
0.0
 30
0.0
  9
$PUCSXDIR
 10
1.0
 20
0.0
 30
0.0
  9
$PUCSYDIR
 10
0.0
 20
1.0
 30
0.0
  9
$PUCSORTHOREF
  2

  9
$PUCSORTHOVIEW
 70
     0
  9
$PUCSORGTOP
 10
0.0
 20
0.0
 30
0.0
  9
$PUCSORGBOTTOM
 10
0.0
 20
0.0
 30
0.0
  9
$PUCSORGLEFT
 10
0.0
 20
0.0
 30
0.0
  9
$PUCSORGRIGHT
 10
0.0
 20
0.0
 30
0.0
  9
$PUCSORGFRONT
 10
0.0
 20
0.0
 30
0.0
  9
$PUCSORGBACK
 10
0.0
 20
0.0
 30
0.0
  9
$USERI1
 70
     0
  9
$USERI2
 70
     0
  9
$USERI3
 70
     0
  9
$USERI4
 70
     0
  9
$USERI5
 70
     0
  9
$USERR1
 40
0.0
  9
$USERR2
 40
0.0
  9
$USERR3
 40
0.0
  9
$USERR4
 40
0.0
  9
$USERR5
 40
0.0
  9
$WORLDVIEW
 70
     1
  9
$SHADEDGE
 70
     3
  9
$SHADEDIF
 70
    70
  9
$TILEMODE
 70
     1
  9
$MAXACTVP
 70
    64
  9
$PINSBASE
 10
0.0
 20
0.0
 30
0.0
  9
$PLIMCHECK
 70
     0
  9
$PEXTMIN
 10
1.000000000000000E+20
 20
1.000000000000000E+20
 30
1.000000000000000E+20
  9
$PEXTMAX
 10
-1.000000000000000E+20
 20
-1.000000000000000E+20
 30
-1.000000000000000E+20
  9
$PLIMMIN
 10
0.0
 20
0.0
  9
$PLIMMAX
 10
12.0
 20
9.0
  9
$UNITMODE
 70
     0
  9
$VISRETAIN
 70
     1
  9
$PLINEGEN
 70
     0
  9
$PSLTSCALE
 70
     1
  9
$TREEDEPTH
 70
  3020
  9
$CMLSTYLE
  2
Standard
  9
$CMLJUST
 70
     0
  9
$CMLSCALE
 40
1.0
  9
$PROXYGRAPHICS
 70
     1
  9
$MEASUREMENT
 70
     0
  9
$CELWEIGHT
370
    -1
  9
$ENDCAPS
280
     0
  9
$JOINSTYLE
280
     0
  9
$LWDISPLAY
290
     0
  9
$INSUNITS
 70
     1
  9
$HYPERLINKBASE
  1

  9
$STYLESHEET
  1

  9
$XEDIT
290
     1
  9
$CEPSNTYPE
380
     0
  9
$PSTYLEMODE
290
     1
  9
$FINGERPRINTGUID
  2
{A89C3DA6-FAB8-4E8E-A25D-4B6BD3BBCB32}
  9
$VERSIONGUID
  2
{FAEB1C32-E019-11D5-929B-00C0DF256EC4}
  9
$EXTNAMES
290
     1
  9
$PSVPSCALE
 40
0.0
  9
$OLESTARTUP
290
     0
  9
$SORTENTS
280
   127
  9
$INDEXCTL
280
     0
  9
$HIDETEXT
280
     1
  9
$XCLIPFRAME
280
     2
  9
$HALOGAP
280
     0
  9
$OBSCOLOR
 70
   257
  9
$OBSLTYPE
280
     0
  9
$INTERSECTIONDISPLAY
280
     0
  9
$INTERSECTIONCOLOR
 70
   257
  9
$DIMASSOC
280
     2
  9
$PROJECTNAME
  1

  9
$CAMERADISPLAY
290
     0
  9
$LENSLENGTH
 40
50.0
  9
$CAMERAHEIGHT
 40
0.0
  9
$STEPSPERSEC
 40
2.0
  9
$STEPSIZE
 40
6.0
  9
$3DDWFPREC
 40
2.0
  9
$PSOLWIDTH
 40
0.25
  9
$PSOLHEIGHT
 40
4.0
  9
$LOFTANG1
 40
1.570796326794897
  9
$LOFTANG2
 40
1.570796326794897
  9
$LOFTMAG1
 40
0.0
  9
$LOFTMAG2
 40
0.0
  9
$LOFTPARAM
 70
     7
  9
$LOFTNORMALS
280
     1
  9
$LATITUDE
 40
37.795
  9
$LONGITUDE
 40
-122.394
  9
$NORTHDIRECTION
 40
0.0
  9
$TIMEZONE
 70
 -8000
  9
$LIGHTGLYPHDISPLAY
280
     1
  9
$TILEMODELIGHTSYNCH
280
     1
  9
$CMATERIAL
347
44
  9
$SOLIDHIST
280
     0
  9
$SHOWHIST
280
     1
  9
$DWFFRAME
280
     2
  9
$DGNFRAME
280
     2
  9
$REALWORLDSCALE
290
     1
  9
$INTERFERECOLOR
 62
   256
  9
$CSHADOW
280
     0
  9
$SHADOWPLANELOCATION
 40
0.0
  0
ENDSEC
  0
SECTION
  2
CLASSES
  0
CLASS
  1
ACDBDICTIONARYWDFLT
  2
AcDbDictionaryWithDefault
  3
ObjectDBX Classes
 90
        0
 91
        4
280
     0
281
     0
  0
CLASS
  1
VISUALSTYLE
  2
AcDbVisualStyle
  3
ObjectDBX Classes
 90
     4095
 91
        4
280
     0
281
     0
  0
CLASS
  1
MATERIAL
  2
AcDbMaterial
  3
ObjectDBX Classes
 90
     1153
 91
        4
280
     0
281
     0
  0
CLASS
  1
SCALE
  2
AcDbScale
  3
ObjectDBX Classes
 90
     1153
 91
        4
280
     0
281
     0
  0
CLASS
  1
TABLESTYLE
  2
AcDbTableStyle
  3
ObjectDBX Classes
 90
     4095
 91
        4
280
     0
281
     0
  0
CLASS
  1
MLEADERSTYLE
  2
AcDbMLeaderStyle
  3
ACDB_MLEADERSTYLE_CLASS
 90
     4095
 91
        4
280
     0
281
     0
  0
CLASS
  1
SUN
  2
AcDbSun
  3
SCENEOE
 90
     1153
 91
        4
280
     0
281
     0
  0
CLASS
  1
DICTIONARYVAR
  2
AcDbDictionaryVar
  3
ObjectDBX Classes
 90
        0
 91
        4
280
     0
281
     0
  0
CLASS
  1
CELLSTYLEMAP
  2
AcDbCellStyleMap
  3
ObjectDBX Classes
 90
     1152
 91
        4
280
     0
281
     0
  0
ENDSEC
  0
SECTION
  2
TABLES
  0
TABLE
  2
VPORT
  5
8
330
0
100
AcDbSymbolTable
 70
     1
  0
VPORT
  5
29
330
8
100
AcDbSymbolTableRecord
100
AcDbViewportTableRecord
  2
*Active
 70
     0
 10
0.0
 20
0.0
 11
1.0
 21
1.0
 12
0.0
 22
-0.2035156249999996
 13
0.0
 23
0.0
 14
0.5
 24
0.5
 15
0.5
 25
0.5
 16
0.0
 26
0.0
 36
1.0
 17
0.0
 27
0.0
 37
0.0
 40
1.677421875
 41
3.344418052256532
 42
50.0
 43
0.0
 44
0.0
 50
0.0
 51
0.0
 71
     0
 72
   100
 73
     1
 74
     3
 75
     0
 76
     0
 77
     0
 78
     0
281
     0
 65
     1
110
0.0
120
0.0
130
0.0
111
1.0
121
0.0
131
0.0
112
0.0
122
1.0
132
0.0
 79
     0
146
0.0
348
2F
 60
     3
 61
     5
292
     1
282
     1
141
0.0
142
0.0
 63
   250
361
6D
  0
ENDTAB
  0
TABLE
  2
LTYPE
  5
5
330
0
100
AcDbSymbolTable
 70
     3
  0
LTYPE
  5
14
330
5
100
AcDbSymbolTableRecord
100
AcDbLinetypeTableRecord
  2
ByBlock
 70
     0
  3

 72
    65
 73
     0
 40
0.0
  0
LTYPE
  5
15
330
5
100
AcDbSymbolTableRecord
100
AcDbLinetypeTableRecord
  2
ByLayer
 70
     0
  3

 72
    65
 73
     0
 40
0.0
  0
LTYPE
  5
16
330
5
100
AcDbSymbolTableRecord
100
AcDbLinetypeTableRecord
  2
Continuous
 70
     0
  3
Solid line
 72
    65
 73
     0
 40
0.0
  0
LTYPE
  5
A1
330
5
100
AcDbSymbolTableRecord
100
AcDbLinetypeTableRecord
  2
Dashed
 70
     0
  3

 72
    65
 73
     2
 40
2.0
 49
1.0
 74
     0
 49
-1.0
 74
     0
  0
LTYPE
  5
109
330
5
100
AcDbSymbolTableRecord
100
AcDbLinetypeTableRecord
  2
Center
 70
     0
  3

 72
    65
 73
     4
 40
1.5
 49
0.45
 74
     0
 49
-0.5
 74
     0
 49
0.05
 74
     0
 49
-0.5
 74
     0
  0
ENDTAB
  0
TABLE
  2
LAYER
  5
2
330
0
100
AcDbSymbolTable
 70
     7
  0
LAYER
  5
10
330
2
100
AcDbSymbolTableRecord
100
AcDbLayerTableRecord
  2
0
 70
     0
 62
     7
  6
Continuous
370
    -3
390
F
347
46
348
0
  0
LAYER
  5
72
330
2
100
AcDbSymbolTableRecord
100
AcDbLayerTableRecord
  2
AM_6
 70
     0
 62
    -2
  6
Continuous
370
    35
390
F
347
46
348
0
  0
LAYER
  5
A2
330
2
100
AcDbSymbolTableRecord
100
AcDbLayerTableRecord
  2
AM_9
 70
     0
 62
     6
  6
Dashed
370
    25
390
F
347
46
348
0
  0
LAYER
  5
CD
330
2
100
AcDbSymbolTableRecord
100
AcDbLayerTableRecord
  2
AM_4
 70
     0
 62
     7
  6
Continuous
370
    50
390
F
347
46
348
0
  0
LAYER
  5
106
330
2
100
AcDbSymbolTableRecord
100
AcDbLayerTableRecord
  2
AM_5
 70
     0
 62
     3
  6
Continuous
370
    25
390
F
347
46
348
0
  0
LAYER
  5
10A
330
2
100
AcDbSymbolTableRecord
100
AcDbLayerTableRecord
  2
AM_7
 70
     0
 62
     7
  6
Center
370
    25
390
F
347
46
348
0
  0
LAYER
  5
1F7
330
2
100
AcDbSymbolTableRecord
100
AcDbLayerTableRecord
  2
ConnectionPoints
 70
     0
 62
     7
  6
Continuous
370
    50
390
F
347
46
348
0
  0
ENDTAB
  0
TABLE
  2
STYLE
  5
3
330
0
100
AcDbSymbolTable
 70
     1
  0
STYLE
  5
11
330
3
100
AcDbSymbolTableRecord
100
AcDbTextStyleTableRecord
  2
Standard
 70
     0
 40
0.0
 41
1.0
 50
0.0
 71
     0
 42
0.2
  3
txt
  4

  0
ENDTAB
  0
TABLE
  2
VIEW
  5
6
330
0
100
AcDbSymbolTable
 70
     0
  0
ENDTAB
  0
TABLE
  2
UCS
  5
7
330
0
100
AcDbSymbolTable
 70
     0
  0
ENDTAB
  0
TABLE
  2
APPID
  5
9
330
0
100
AcDbSymbolTable
 70
     1
  0
APPID
  5
12
330
9
100
AcDbSymbolTableRecord
100
AcDbRegAppTableRecord
  2
ACAD
 70
     0
  0
ENDTAB
  0
TABLE
  2
DIMSTYLE
  5
A
330
0
100
AcDbSymbolTable
 70
     1
100
AcDbDimStyleTable
  0
DIMSTYLE
105
27
330
A
100
AcDbSymbolTableRecord
100
AcDbDimStyleTableRecord
  2
Standard
 70
     0
178
     0
340
11
  0
ENDTAB
  0
TABLE
  2
BLOCK_RECORD
  5
1
330
0
100
AcDbSymbolTable
 70
     5
  0
BLOCK_RECORD
  5
1F
330
1
100
AcDbSymbolTableRecord
100
AcDbBlockTableRecord
  2
*Model_Space
340
22
 70
     0
280
     1
281
     0
  0
BLOCK_RECORD
  5
1B
330
1
100
AcDbSymbolTableRecord
100
AcDbBlockTableRecord
  2
*Paper_Space
340
1E
 70
     0
280
     1
281
     0
  0
BLOCK_RECORD
  5
23
330
1
100
AcDbSymbolTableRecord
100
AcDbBlockTableRecord
  2
*Paper_Space0
340
26
 70
     0
280
     1
281
     0
  0
BLOCK_RECORD
  5
6E
330
1
100
AcDbSymbolTableRecord
100
AcDbBlockTableRecord
  2
1__129262_4
340
0
102
{BLKREFS
331
6F
102
}
 70
     0
280
     1
281
     0
  0
BLOCK_RECORD
  5
8B
330
1
100
AcDbSymbolTableRecord
100
AcDbBlockTableRecord
  2
2_INS_GT_05_CRI_0_in__129262_4
340
0
102
{BLKREFS
331
8C
102
}
 70
     0
280
     1
281
     0
  0
BLOCK_RECORD
  5
D5
330
1
100
AcDbSymbolTableRecord
100
AcDbBlockTableRecord
  2
3_129968_0_in__129262_4
340
0
102
{BLKREFS
331
D6
102
}
 70
     0
280
     1
281
     0
  0
BLOCK_RECORD
  5
126
330
1
100
AcDbSymbolTableRecord
100
AcDbBlockTableRecord
  2
4_P2B_GTEZ_05_SHCRI_0_in__129262_4
340
0
102
{BLKREFS
331
127
102
}
 70
     0
280
     1
281
     0
  0
ENDTAB
  0
ENDSEC
  0
SECTION
  2
BLOCKS
  0
BLOCK
  5
20
330
1F
100
AcDbEntity
  8
0
100
AcDbBlockBegin
  2
*Model_Space
 70
     0
 10
0.0
 20
0.0
 30
0.0
  3
*Model_Space
  1

  0
ENDBLK
  5
21
330
1F
100
AcDbEntity
  8
0
100
AcDbBlockEnd
  0
BLOCK
  5
1C
330
1B
100
AcDbEntity
 67
     1
  8
0
100
AcDbBlockBegin
  2
*Paper_Space
 70
     0
 10
0.0
 20
0.0
 30
0.0
  3
*Paper_Space
  1

  0
ENDBLK
  5
1D
330
1B
100
AcDbEntity
 67
     1
  8
0
100
AcDbBlockEnd
  0
BLOCK
  5
24
330
23
100
AcDbEntity
  8
0
100
AcDbBlockBegin
  2
*Paper_Space0
 70
     0
 10
0.0
 20
0.0
 30
0.0
  3
*Paper_Space0
  1

  0
ENDBLK
  5
25
330
23
100
AcDbEntity
  8
0
100
AcDbBlockEnd
  0
BLOCK
  5
70
330
6E
100
AcDbEntity
  8
0
100
AcDbBlockBegin
  2
1__129262_4
 70
     2
 10
0.0
 20
0.0
 30
0.0
  3
1__129262_4
  1

  0
ATTDEF
  5
73
330
6E
100
AcDbEntity
  8
AM_6
100
AcDbText
 10
7.75
 20
0.61875
 30
0.0
 40
0.5
  1
Grip Tight Two-Bolt Pillow Block - Stainless Housing, Corrision Resistant Insert Inch Bore
100
AcDbAttributeDefinition
  3

  2
NN
 70
     8
280
     0
  0
ATTDEF
  5
74
330
6E
100
AcDbEntity
  8
AM_6
100
AcDbText
 10
7.75
 20
0.11875
 30
0.0
 40
0.5
  1
GTEZ Normal Duty Stainless Steel Housed Pillow Blocks
100
AcDbAttributeDefinition
  3

  2
NT
 70
     8
280
     0
  0
ATTDEF
  5
75
330
6E
100
AcDbEntity
  8
AM_6
100
AcDbText
 10
7.75
 20
-0.38125
 30
0.0
 40
0.5
  1
 129262
100
AcDbAttributeDefinition
  3

  2
NB
 70
     8
280
     0
  0
ATTDEF
  5
76
330
6E
100
AcDbEntity
  8
AM_6
100
AcDbText
 10
7.75
 20
-0.88125
 30
0.0
 40
0.5
  1
 $PN.$LUBE.
100
AcDbAttributeDefinition
  3

  2
NBSYN
 70
     8
280
     0
  0
ATTDEF
  5
77
330
6E
100
AcDbEntity
  8
AM_6
100
AcDbText
 10
7.75
 20
-1.38125
 30
0.0
 40
0.5
  1
129262
100
AcDbAttributeDefinition
  3

  2
LINA
 70
     8
280
     0
  0
ATTDEF
  5
78
330
6E
100
AcDbEntity
  8
AM_6
100
AcDbText
 10
7.75
 20
-1.88125
 30
0.0
 40
0.5
  1
205
100
AcDbAttributeDefinition
  3

  2
SERIES
 70
     8
280
     0
  0
ATTDEF
  5
79
330
6E
100
AcDbEntity
  8
AM_6
100
AcDbText
 10
7.75
 20
-2.38125
 30
0.0
 40
0.5
  1
1
100
AcDbAttributeDefinition
  3

  2
SS
 70
     8
280
     0
  0
ATTDEF
  5
7A
330
6E
100
AcDbEntity
  8
AM_6
100
AcDbText
 10
7.75
 20
-2.88125
 30
0.0
 40
0.5
  1
129262
100
AcDbAttributeDefinition
  3

  2
PN
 70
     8
280
     0
  0
ATTDEF
  5
7B
330
6E
100
AcDbEntity
  8
AM_6
100
AcDbText
 10
7.75
 20
-3.38125
 30
0.0
 40
0.5
  1
P2B-GTEZ-100-SHCR
100
AcDbAttributeDefinition
  3

  2
DESCRIPTION
 70
     8
280
     0
  0
ATTDEF
  5
7C
330
6E
100
AcDbEntity
  8
AM_6
100
AcDbText
 10
7.75
 20
-3.88125
 30
0.0
 40
0.5
  1
1-29/64
100
AcDbAttributeDefinition
  3

  2
A
 70
     8
280
     0
  0
ATTDEF
  5
7D
330
6E
100
AcDbEntity
  8
AM_6
100
AcDbText
 10
7.75
 20
-4.38125
 30
0.0
 40
0.5
  1
5-1/2
100
AcDbAttributeDefinition
  3

  2
B
 70
     8
280
     0
  0
ATTDEF
  5
7E
330
6E
100
AcDbEntity
  8
AM_6
100
AcDbText
 10
7.75
 20
-4.88125
 30
0.0
 40
0.5
  1
1-1/8
100
AcDbAttributeDefinition
  3

  2
C
 70
     8
280
     0
  0
ATTDEF
  5
7F
330
6E
100
AcDbEntity
  8
AM_6
100
AcDbText
 10
7.75
 20
-5.38125
 30
0.0
 40
0.5
  1
3-11/16
100
AcDbAttributeDefinition
  3

  2
DMIN
 70
     8
280
     0
  0
ATTDEF
  5
80
330
6E
100
AcDbEntity
  8
AM_6
100
AcDbText
 10
7.75
 20
-5.88125
 30
0.0
 40
0.5
  1
4-1/2
100
AcDbAttributeDefinition
  3

  2
DMAX
 70
     8
280
     0
  0
ATTDEF
  5
81
330
6E
100
AcDbEntity
  8
AM_6
100
AcDbText
 10
7.75
 20
-6.38125
 30
0.0
 40
0.5
  1
3/8
100
AcDbAttributeDefinition
  3

  2
F
 70
     8
280
     0
  0
ATTDEF
  5
82
330
6E
100
AcDbEntity
  8
AM_6
100
AcDbText
 10
7.75
 20
-6.88125
 30
0.0
 40
0.5
  1
27/32
100
AcDbAttributeDefinition
  3

  2
G
 70
     8
280
     0
  0
ATTDEF
  5
83
330
6E
100
AcDbEntity
  8
AM_6
100
AcDbText
 10
7.75
 20
-7.38125
 30
0.0
 40
0.5
  1
17/32
100
AcDbAttributeDefinition
  3

  2
H
 70
     8
280
     0
  0
ATTDEF
  5
84
330
6E
100
AcDbEntity
  8
AM_6
100
AcDbText
 10
7.75
 20
-7.88125
 30
0.0
 40
0.5
  1
2-23/32
100
AcDbAttributeDefinition
  3

  2
J
 70
     8
280
     0
  0
ATTDEF
  5
85
330
6E
100
AcDbEntity
  8
AM_6
100
AcDbText
 10
7.75
 20
-8.38125
 30
0.0
 40
0.5
  1
1-51/64
100
AcDbAttributeDefinition
  3

  2
L
 70
     8
280
     0
  0
ATTDEF
  5
86
330
6E
100
AcDbEntity
  8
AM_6
100
AcDbText
 10
7.75
 20
-8.88125
 30
0.0
 40
0.5
  1
1-7/16
100
AcDbAttributeDefinition
  3

  2
M
 70
     8
280
     0
  0
ATTDEF
  5
87
330
6E
100
AcDbEntity
  8
AM_6
100
AcDbText
 10
7.75
 20
-9.38125
 30
0.0
 40
0.5
  1
1/2
100
AcDbAttributeDefinition
  3

  2
R
 70
     8
280
     0
  0
ATTDEF
  5
88
330
6E
100
AcDbEntity
  8
AM_6
100
AcDbText
 10
7.75
 20
-9.88125
 30
0.0
 40
0.5
  1
61/64
100
AcDbAttributeDefinition
  3

  2
S
 70
     8
280
     0
  0
ATTDEF
  5
89
330
6E
100
AcDbEntity
  8
AM_6
100
AcDbText
 10
7.75
 20
-10.38125
 30
0.0
 40
0.5
  1
61/64
100
AcDbAttributeDefinition
  3

  2
Z
 70
     8
280
     0
  0
ATTDEF
  5
8A
330
6E
100
AcDbEntity
  8
AM_6
100
AcDbText
 10
7.75
 20
-10.88125
 30
0.0
 40
0.5
  1
baldor
100
AcDbAttributeDefinition
  3

  2
COMPANY
 70
     8
280
     0
  0
INSERT
  5
8C
330
6E
100
AcDbEntity
  8
0
100
AcDbBlockReference
  2
2_INS_GT_05_CRI_0_in__129262_4
 10
0.0
 20
0.0
 30
0.0
  0
INSERT
  5
D6
330
6E
100
AcDbEntity
  8
0
100
AcDbBlockReference
  2
3_129968_0_in__129262_4
 10
0.0
 20
0.0
 30
0.0
  0
INSERT
  5
127
330
6E
100
AcDbEntity
  8
0
100
AcDbBlockReference
  2
4_P2B_GTEZ_05_SHCRI_0_in__129262_4
 10
0.0
 20
0.0
 30
0.0
  0
ENDBLK
  5
71
330
6E
100
AcDbEntity
  8
0
100
AcDbBlockEnd
  0
BLOCK
  5
8D
330
8B
100
AcDbEntity
  8
0
100
AcDbBlockBegin
  2
2_INS_GT_05_CRI_0_in__129262_4
 70
     2
 10
0.0
 20
0.0
 30
0.0
  3
2_INS_GT_05_CRI_0_in__129262_4
  1

  0
ATTDEF
  5
8F
330
8B
100
AcDbEntity
  8
AM_6
100
AcDbText
 10
6.023598287356717
 20
0.45
 30
0.0
 40
0.5
  1
INS-GT-CR-I
100
AcDbAttributeDefinition
  3

  2
NN
 70
     8
280
     0
  0
ATTDEF
  5
90
330
8B
100
AcDbEntity
  8
AM_6
100
AcDbText
 10
6.023598287356717
 20
-0.05
 30
0.0
 40
0.5
  1
GT Normal Duty Corrosion Resistant Bearing Inserts
100
AcDbAttributeDefinition
  3

  2
NT
 70
     8
280
     0
  0
ATTDEF
  5
91
330
8B
100
AcDbEntity
  8
AM_6
100
AcDbText
 10
6.023598287356717
 20
-0.55
 30
0.0
 40
0.5
  1
INS-GT-05-CRI
100
AcDbAttributeDefinition
  3

  2
NB
 70
     8
280
     0
  0
ATTDEF
  5
92
330
8B
100
AcDbEntity
  8
AM_6
100
AcDbText
 10
6.023598287356717
 20
-1.05
 30
0.0
 40
0.5
  1
$PN.I
100
AcDbAttributeDefinition
  3

  2
NBSYN
 70
     8
280
     0
  0
ATTDEF
  5
93
330
8B
100
AcDbEntity
  8
AM_6
100
AcDbText
 10
6.023598287356717
 20
-1.55
 30
0.0
 40
0.5
  1
INS-GT-05-CR
100
AcDbAttributeDefinition
  3

  2
LINA
 70
     8
280
     0
  0
ATTDEF
  5
94
330
8B
100
AcDbEntity
  8
AM_6
100
AcDbText
 10
6.023598287356717
 20
-2.05
 30
0.0
 40
0.5
  1
205
100
AcDbAttributeDefinition
  3

  2
SERIES
 70
     8
280
     0
  0
ATTDEF
  5
95
330
8B
100
AcDbEntity
  8
AM_6
100
AcDbText
 10
6.023598287356717
 20
-2.55
 30
0.0
 40
0.5
  1
INS-GT-05-CR
100
AcDbAttributeDefinition
  3

  2
PN
 70
     8
280
     0
  0
ATTDEF
  5
96
330
8B
100
AcDbEntity
  8
AM_6
100
AcDbText
 10
6.023598287356717
 20
-3.05
 30
0.0
 40
0.5
  1
INS-GT-05-CR
100
AcDbAttributeDefinition
  3

  2
DESCRIPTION
 70
     8
280
     0
  0
ATTDEF
  5
97
330
8B
100
AcDbEntity
  8
AM_6
100
AcDbText
 10
6.023598287356717
 20
-3.55
 30
0.0
 40
0.5
  1
1-29/64
100
AcDbAttributeDefinition
  3

  2
A
 70
     8
280
     0
  0
ATTDEF
  5
98
330
8B
100
AcDbEntity
  8
AM_6
100
AcDbText
 10
6.023598287356717
 20
-4.05
 30
0.0
 40
0.5
  1
0.5906
100
AcDbAttributeDefinition
  3

  2
C
 70
     8
280
     0
  0
ATTDEF
  5
99
330
8B
100
AcDbEntity
  8
AM_6
100
AcDbText
 10
6.023598287356717
 20
-4.55
 30
0.0
 40
0.5
  1
2.0472
100
AcDbAttributeDefinition
  3

  2
D
 70
     8
280
     0
  0
ATTDEF
  5
9A
330
8B
100
AcDbEntity
  8
AM_6
100
AcDbText
 10
6.023598287356717
 20
-5.05
 30
0.0
 40
0.5
  1
0.152
100
AcDbAttributeDefinition
  3

  2
J
 70
     8
280
     0
  0
ATTDEF
  5
9B
330
8B
100
AcDbEntity
  8
AM_6
100
AcDbText
 10
6.023598287356717
 20
-5.55
 30
0.0
 40
0.5
  1
1-51/64
100
AcDbAttributeDefinition
  3

  2
L
 70
     8
280
     0
  0
ATTDEF
  5
9C
330
8B
100
AcDbEntity
  8
AM_6
100
AcDbText
 10
6.023598287356717
 20
-6.05
 30
0.0
 40
0.5
  1
10 - 32 x 1/4
100
AcDbAttributeDefinition
  3

  2
N
 70
     8
280
     0
  0
ATTDEF
  5
9D
330
8B
100
AcDbEntity
  8
AM_6
100
AcDbText
 10
6.023598287356717
 20
-6.55
 30
0.0
 40
0.5
  1
1/2
100
AcDbAttributeDefinition
  3

  2
W
 70
     8
280
     0
  0
ATTDEF
  5
9E
330
8B
100
AcDbEntity
  8
AM_6
100
AcDbText
 10
6.023598287356717
 20
-7.05
 30
0.0
 40
0.5
  1
61/64
100
AcDbAttributeDefinition
  3

  2
X
 70
     8
280
     0
  0
ATTDEF
  5
9F
330
8B
100
AcDbEntity
  8
AM_6
100
AcDbText
 10
6.023598287356717
 20
-7.55
 30
0.0
 40
0.5
  1
61/64
100
AcDbAttributeDefinition
  3

  2
Y
 70
     8
280
     0
  0
ATTDEF
  5
A0
330
8B
100
AcDbEntity
  8
AM_6
100
AcDbText
 10
6.023598287356717
 20
-8.05
 30
0.0
 40
0.5
  1
baldor
100
AcDbAttributeDefinition
  3

  2
COMPANY
 70
     8
280
     0
  0
LINE
  5
A3
330
8B
100
AcDbEntity
  8
AM_9
100
AcDbLine
 10
0.6702628454861111
 20
-0.7148431447644146
 30
0.0
 11
0.6702628454861111
 21
-0.3574212697644147
 31
0.0
  0
LINE
  5
A4
330
8B
100
AcDbEntity
  8
AM_9
100
AcDbLine
 10
-0.6702628454861111
 20
-0.3574212697644147
 30
0.0
 11
-0.6702628454861111
 21
-0.7148431447644146
 31
0.0
  0
LINE
  5
A5
330
8B
100
AcDbEntity
  8
AM_9
100
AcDbLine
 10
-0.6702628454861111
 20
-0.3574212697644147
 30
0.0
 11
0.6702628454861111
 21
-0.3574212697644147
 31
0.0
  0
LINE
  5
A6
330
8B
100
AcDbEntity
  8
AM_9
100
AcDbLine
 10
0.6702628454861111
 20
-0.3574212697644147
 30
0.0
 11
0.6984586175302885
 21
0.45
 31
0.0
  0
LINE
  5
A7
330
8B
100
AcDbEntity
  8
AM_9
100
AcDbLine
 10
-0.6984586175302885
 20
0.45
 30
0.0
 11
-0.6702628454861111
 21
-0.3574212697644147
 31
0.0
  0
LINE
  5
A8
330
8B
100
AcDbEntity
  8
AM_9
100
AcDbLine
 10
0.7344369782986113
 20
-0.5957025197644147
 30
0.0
 11
0.7344369782986113
 21
-0.4765625
 31
0.0
  0
LINE
  5
A9
330
8B
100
AcDbEntity
  8
AM_9
100
AcDbLine
 10
-0.7344369782986113
 20
-0.4765625
 30
0.0
 11
-0.7344369782986113
 21
-0.5957025197644147
 31
0.0
  0
LINE
  5
AA
330
8B
100
AcDbEntity
  8
AM_9
100
AcDbLine
 10
0.7749871111111111
 20
-0.7148431447644146
 30
0.0
 11
0.798611111111111
 21
-0.6912191447644146
 31
0.0
  0
LINE
  5
AB
330
8B
100
AcDbEntity
  8
AM_9
100
AcDbLine
 10
-0.798611111111111
 20
-0.6912191447644146
 30
0.0
 11
-0.7749871111111111
 21
-0.7148431447644146
 31
0.0
  0
LINE
  5
AC
330
8B
100
AcDbEntity
  8
AM_9
100
AcDbLine
 10
-0.7749871111111111
 20
-0.7148431447644146
 30
0.0
 11
0.7749871111111111
 21
-0.7148431447644146
 31
0.0
  0
LINE
  5
AD
330
8B
100
AcDbEntity
  8
AM_9
100
AcDbLine
 10
0.798611111111111
 20
-0.6912191447644146
 30
0.0
 11
0.798611111111111
 21
-0.5957025197644147
 31
0.0
  0
LINE
  5
AE
330
8B
100
AcDbEntity
  8
AM_9
100
AcDbLine
 10
-0.798611111111111
 20
-0.5957025197644147
 30
0.0
 11
-0.798611111111111
 21
-0.6912191447644146
 31
0.0
  0
LINE
  5
AF
330
8B
100
AcDbEntity
  8
AM_9
100
AcDbLine
 10
-0.798611111111111
 20
-0.6912191447644146
 30
0.0
 11
0.798611111111111
 21
-0.6912191447644146
 31
0.0
  0
LINE
  5
B0
330
8B
100
AcDbEntity
  8
AM_9
100
AcDbLine
 10
-0.798611111111111
 20
-0.5957025197644147
 30
0.0
 11
0.798611111111111
 21
-0.5957025197644147
 31
0.0
  0
LINE
  5
B1
330
8B
100
AcDbEntity
  8
AM_9
100
AcDbLine
 10
0.798611111111111
 20
0.2953
 30
0.0
 11
0.798611111111111
 21
0.426376
 31
0.0
  0
LINE
  5
B2
330
8B
100
AcDbEntity
  8
AM_9
100
AcDbLine
 10
-0.798611111111111
 20
0.426376
 30
0.0
 11
-0.798611111111111
 21
0.2953
 31
0.0
  0
LINE
  5
B3
330
8B
100
AcDbEntity
  8
AM_9
100
AcDbLine
 10
0.798611111111111
 20
-0.4271292580074905
 30
0.0
 11
0.798611111111111
 21
-0.2953
 31
0.0
  0
LINE
  5
B4
330
8B
100
AcDbEntity
  8
AM_9
100
AcDbLine
 10
-0.798611111111111
 20
-0.2953
 30
0.0
 11
-0.798611111111111
 21
-0.4271292580074905
 31
0.0
  0
LINE
  5
B5
330
8B
100
AcDbEntity
  8
AM_9
100
AcDbLine
 10
0.7916312198164852
 20
0.426376
 30
0.0
 11
0.798611111111111
 21
0.426376
 31
0.0
  0
LINE
  5
B6
330
8B
100
AcDbEntity
  8
AM_9
100
AcDbLine
 10
-0.798611111111111
 20
0.426376
 30
0.0
 11
-0.7916312198164852
 21
0.426376
 31
0.0
  0
LINE
  5
B7
330
8B
100
AcDbEntity
  8
AM_9
100
AcDbLine
 10
0.9645400000000001
 20
-0.1824000000000001
 30
0.0
 11
0.9645400000000001
 21
-0.1216
 31
0.0
  0
LINE
  5
B8
330
8B
100
AcDbEntity
  8
AM_9
100
AcDbLine
 10
-0.9645400000000001
 20
-0.1216
 30
0.0
 11
-0.9645400000000001
 21
-0.1824000000000001
 31
0.0
  0
LINE
  5
B9
330
8B
100
AcDbEntity
  8
AM_9
100
AcDbLine
 10
-0.9486116738529748
 20
-0.2953000000000001
 30
0.0
 11
0.9486116738529748
 21
-0.2953000000000001
 31
0.0
  0
ARC
  5
BA
330
8B
100
AcDbEntity
  8
AM_9
100
AcDbCircle
 10
0.9486116738529748
 20
-0.2716760000000003
 30
0.0
 40
0.0236239999999999
100
AcDbArc
 50
270.0
 51
338.5874968130156
  0
ARC
  5
BB
330
8B
100
AcDbEntity
  8
AM_9
100
AcDbCircle
 10
-0.9486116738529748
 20
-0.2716760000000003
 30
0.0
 40
0.0236239999999999
100
AcDbArc
 50
201.4125031869844
 51
270.0
  0
LINE
  5
BC
330
8B
100
AcDbEntity
  8
AM_9
100
AcDbLine
 10
-0.9486116738529703
 20
0.2953
 30
0.0
 11
0.9486116738529703
 21
0.2953
 31
0.0
  0
ARC
  5
BD
330
8B
100
AcDbEntity
  8
AM_9
100
AcDbCircle
 10
0.9486116738529703
 20
0.2716759999999998
 30
0.0
 40
0.0236240000000002
100
AcDbArc
 50
21.4124760819087
 51
90.0
  0
ARC
  5
BE
330
8B
100
AcDbEntity
  8
AM_9
100
AcDbCircle
 10
-0.9486116738529703
 20
0.2716759999999998
 30
0.0
 40
0.0236240000000002
100
AcDbArc
 50
90.0
 51
158.5875239180913
  0
ARC
  5
BF
330
8B
100
AcDbEntity
  8
AM_9
100
AcDbCircle
 10
0.2558199999999732
 20
0.0000000000000114
 30
0.0
 40
0.767780000000029
100
AcDbArc
 50
338.5875318411129
 51
345.6903860459091
  0
ARC
  5
C0
330
8B
100
AcDbEntity
  8
AM_9
100
AcDbCircle
 10
-0.2558200000000181
 20
-0.0000000000000034
 30
0.0
 40
0.7677799999999817
100
AcDbArc
 50
194.3096139540906
 51
201.4124681588873
  0
LINE
  5
C1
330
8B
100
AcDbEntity
  8
AM_9
100
AcDbLine
 10
-0.9706050548843862
 20
-0.2803006487932642
 30
0.0
 11
0.9706050548843862
 21
-0.2803006487932642
 31
0.0
  0
LINE
  5
C2
330
8B
100
AcDbEntity
  8
AM_9
100
AcDbLine
 10
-0.994056305148968
 20
-0.1824000000000001
 30
0.0
 11
0.994056305148968
 21
-0.1824000000000001
 31
0.0
  0
ARC
  5
C3
330
8B
100
AcDbEntity
  8
AM_9
100
AcDbCircle
 10
0.9940563051489683
 20
-0.1883059999999999
 30
0.0
 40
0.0059059999999999
100
AcDbArc
 50
345.6903766028011
 51
90.0
  0
ARC
  5
C4
330
8B
100
AcDbEntity
  8
AM_9
100
AcDbCircle
 10
-0.9940563051489683
 20
-0.1883059999999999
 30
0.0
 40
0.0059059999999998
100
AcDbArc
 50
90.0
 51
194.3096233971989
  0
LINE
  5
C5
330
8B
100
AcDbEntity
  8
AM_9
100
AcDbLine
 10
-0.9997790669619374
 20
-0.1897657373846074
 30
0.0
 11
0.9997790669619374
 21
-0.1897657373846074
 31
0.0
  0
LINE
  5
C6
330
8B
100
AcDbEntity
  8
AM_9
100
AcDbLine
 10
-1.008858438753296
 20
-0.1216
 30
0.0
 11
1.008858438753296
 21
-0.1216
 31
0.0
  0
ARC
  5
C7
330
8B
100
AcDbEntity
  8
AM_9
100
AcDbCircle
 10
1.008858438753295
 20
-0.1156940000000002
 30
0.0
 40
0.0059059999999999
100
AcDbArc
 50
270.0
 51
351.26558677709
  0
ARC
  5
C8
330
8B
100
AcDbEntity
  8
AM_9
100
AcDbCircle
 10
-1.008858438753296
 20
-0.1156940000000006
 30
0.0
 40
0.0059059999999994
100
AcDbArc
 50
188.7344132229059
 51
270.0
  0
LINE
  5
C9
330
8B
100
AcDbEntity
  8
AM_9
100
AcDbLine
 10
-0.9706050589644662
 20
0.2803006383887922
 30
0.0
 11
0.9706050589644662
 21
0.2803006383887922
 31
0.0
  0
ARC
  5
CA
330
8B
100
AcDbEntity
  8
AM_9
100
AcDbCircle
 10
0.2558200000004504
 20
0.00000000000005
 30
0.0
 40
0.7677799999995625
100
AcDbArc
 50
351.2655867770794
 51
21.41246732489362
  0
ARC
  5
CB
330
8B
100
AcDbEntity
  8
AM_9
100
AcDbCircle
 10
-0.2558199999999914
 20
-0.000000000000001
 30
0.0
 40
0.7677800000000083
100
AcDbArc
 50
158.5875326751154
 51
188.7344132229116
  0
LINE
  5
CC
330
8B
100
AcDbEntity
  8
AM_9
100
AcDbLine
 10
-1.014695946030452
 20
-0.1165908527131782
 30
0.0
 11
1.014695946030452
 21
-0.1165908527131782
 31
0.0
  0
LINE
  5
CE
330
8B
100
AcDbEntity
  8
AM_4
100
AcDbLine
 10
0.798611111111111
 20
-0.4765618947644147
 30
0.0
 11
0.798611111111111
 21
-0.4271292580074905
 31
0.0
  0
LINE
  5
CF
330
8B
100
AcDbEntity
  8
AM_4
100
AcDbLine
 10
-0.798611111111111
 20
-0.4271292580074905
 30
0.0
 11
-0.798611111111111
 21
-0.4765618947644147
 31
0.0
  0
LINE
  5
D0
330
8B
100
AcDbEntity
  8
AM_4
100
AcDbLine
 10
-0.798611111111111
 20
-0.4765618947644147
 30
0.0
 11
0.798611111111111
 21
-0.4765618947644147
 31
0.0
  0
LINE
  5
D1
330
8B
100
AcDbEntity
  8
AM_4
100
AcDbLine
 10
-0.7916312198164852
 20
0.426376
 30
0.0
 11
0.7916312198164852
 21
0.426376
 31
0.0
  0
LINE
  5
D2
330
8B
100
AcDbEntity
  8
AM_4
100
AcDbLine
 10
-0.7749871111111111
 20
0.45
 30
0.0
 11
0.7749871111111111
 21
0.45
 31
0.0
  0
LINE
  5
D3
330
8B
100
AcDbEntity
  8
AM_4
100
AcDbLine
 10
-0.7749871111111111
 20
0.45
 30
0.0
 11
-0.797931889784808
 21
0.427055221326303
 31
0.0
  0
LINE
  5
D4
330
8B
100
AcDbEntity
  8
AM_4
100
AcDbLine
 10
0.797931889784808
 20
0.427055221326303
 30
0.0
 11
0.7749871111111111
 21
0.45
 31
0.0
  0
ENDBLK
  5
8E
330
8B
100
AcDbEntity
  8
0
100
AcDbBlockEnd
  0
BLOCK
  5
D7
330
D5
100
AcDbEntity
  8
0
100
AcDbBlockBegin
  2
3_129968_0_in__129262_4
 70
     2
 10
0.0
 20
0.0
 30
0.0
  3
3_129968_0_in__129262_4
  1

  0
ATTDEF
  5
D9
330
D5
100
AcDbEntity
  8
AM_6
100
AcDbText
 10
5.895217259332196
 20
0.5000000000000001
 30
0.0
 40
0.5
  1
Grip Tight Adapter and Nut - Corrosion Resistant Inch Bore
100
AcDbAttributeDefinition
  3

  2
NN
 70
     8
280
     0
  0
ATTDEF
  5
DA
330
D5
100
AcDbEntity
  8
AM_6
100
AcDbText
 10
5.895217259332196
 20
0.0000000000000001
 30
0.0
 40
0.5
  1
GT and GTM Adapter & Lock Nut Assemblies
100
AcDbAttributeDefinition
  3

  2
NT
 70
     8
280
     0
  0
ATTDEF
  5
DB
330
D5
100
AcDbEntity
  8
AM_6
100
AcDbText
 10
5.895217259332196
 20
-0.4999999999999999
 30
0.0
 40
0.5
  1
129968
100
AcDbAttributeDefinition
  3

  2
NB
 70
     8
280
     0
  0
ATTDEF
  5
DC
330
D5
100
AcDbEntity
  8
AM_6
100
AcDbText
 10
5.895217259332196
 20
-0.9999999999999999
 30
0.0
 40
0.5
  1
$PN.
100
AcDbAttributeDefinition
  3

  2
NBSYN
 70
     8
280
     0
  0
ATTDEF
  5
DD
330
D5
100
AcDbEntity
  8
AM_6
100
AcDbText
 10
5.895217259332196
 20
-1.5
 30
0.0
 40
0.5
  1
129968
100
AcDbAttributeDefinition
  3

  2
LINA
 70
     8
280
     0
  0
ATTDEF
  5
DE
330
D5
100
AcDbEntity
  8
AM_6
100
AcDbText
 10
5.895217259332196
 20
-2.0
 30
0.0
 40
0.5
  1
205
100
AcDbAttributeDefinition
  3

  2
SERIES
 70
     8
280
     0
  0
ATTDEF
  5
DF
330
D5
100
AcDbEntity
  8
AM_6
100
AcDbText
 10
5.895217259332196
 20
-2.5
 30
0.0
 40
0.5
  1
1
100
AcDbAttributeDefinition
  3

  2
SS
 70
     8
280
     0
  0
ATTDEF
  5
E0
330
D5
100
AcDbEntity
  8
AM_6
100
AcDbText
 10
5.895217259332196
 20
-3.0
 30
0.0
 40
0.5
  1
129968
100
AcDbAttributeDefinition
  3

  2
PN
 70
     8
280
     0
  0
ATTDEF
  5
E1
330
D5
100
AcDbEntity
  8
AM_6
100
AcDbText
 10
5.895217259332196
 20
-3.5
 30
0.0
 40
0.5
  1
AN-GT-05-100-CR
100
AcDbAttributeDefinition
  3

  2
DESCRIPTION
 70
     8
280
     0
  0
ATTDEF
  5
E2
330
D5
100
AcDbEntity
  8
AM_6
100
AcDbText
 10
5.895217259332196
 20
-4.0
 30
0.0
 40
0.5
  1
1-29/64
100
AcDbAttributeDefinition
  3

  2
A
 70
     8
280
     0
  0
ATTDEF
  5
E3
330
D5
100
AcDbEntity
  8
AM_6
100
AcDbText
 10
5.895217259332196
 20
-4.5
 30
0.0
 40
0.5
  1
0.5906
100
AcDbAttributeDefinition
  3

  2
C
 70
     8
280
     0
  0
ATTDEF
  5
E4
330
D5
100
AcDbEntity
  8
AM_6
100
AcDbText
 10
5.895217259332196
 20
-5.0
 30
0.0
 40
0.5
  1
2.0472
100
AcDbAttributeDefinition
  3

  2
D
 70
     8
280
     0
  0
ATTDEF
  5
E5
330
D5
100
AcDbEntity
  8
AM_6
100
AcDbText
 10
5.895217259332196
 20
-5.5
 30
0.0
 40
0.5
  1
0.152
100
AcDbAttributeDefinition
  3

  2
J
 70
     8
280
     0
  0
ATTDEF
  5
E6
330
D5
100
AcDbEntity
  8
AM_6
100
AcDbText
 10
5.895217259332196
 20
-6.0
 30
0.0
 40
0.5
  1
1-51/64
100
AcDbAttributeDefinition
  3

  2
L
 70
     8
280
     0
  0
ATTDEF
  5
E7
330
D5
100
AcDbEntity
  8
AM_6
100
AcDbText
 10
5.895217259332196
 20
-6.5
 30
0.0
 40
0.5
  1
10 - 32 x 1/4
100
AcDbAttributeDefinition
  3

  2
N
 70
     8
280
     0
  0
ATTDEF
  5
E8
330
D5
100
AcDbEntity
  8
AM_6
100
AcDbText
 10
5.895217259332196
 20
-7.0
 30
0.0
 40
0.5
  1
1/2
100
AcDbAttributeDefinition
  3

  2
W
 70
     8
280
     0
  0
ATTDEF
  5
E9
330
D5
100
AcDbEntity
  8
AM_6
100
AcDbText
 10
5.895217259332196
 20
-7.5
 30
0.0
 40
0.5
  1
61/64
100
AcDbAttributeDefinition
  3

  2
X
 70
     8
280
     0
  0
ATTDEF
  5
EA
330
D5
100
AcDbEntity
  8
AM_6
100
AcDbText
 10
5.895217259332196
 20
-8.0
 30
0.0
 40
0.5
  1
61/64
100
AcDbAttributeDefinition
  3

  2
Y
 70
     8
280
     0
  0
ATTDEF
  5
EB
330
D5
100
AcDbEntity
  8
AM_6
100
AcDbText
 10
5.895217259332196
 20
-8.5
 30
0.0
 40
0.5
  1
baldor
100
AcDbAttributeDefinition
  3

  2
COMPANY
 70
     8
280
     0
  0
LINE
  5
EC
330
D5
100
AcDbEntity
  8
AM_9
100
AcDbLine
 10
0.8385415145309456
 20
-0.4765625
 30
0.0
 11
0.8385415145309456
 21
-0.9531249999999998
 31
0.0
  0
LINE
  5
ED
330
D5
100
AcDbEntity
  8
AM_9
100
AcDbLine
 10
-0.8814374999999999
 20
-0.9158855416772499
 30
0.0
 11
-0.6908281249999999
 21
-0.9158855416772499
 31
0.0
  0
LINE
  5
EE
330
D5
100
AcDbEntity
  8
AM_9
100
AcDbLine
 10
-0.6908281249999999
 20
-0.75988554167725
 30
0.0
 11
-0.8814374999999999
 21
-0.75988554167725
 31
0.0
  0
LINE
  5
EF
330
D5
100
AcDbEntity
  8
AM_9
100
AcDbLine
 10
-0.6908281249999999
 20
-0.9158855416772499
 30
0.0
 11
-0.6738281249999999
 21
-0.9328855416772499
 31
0.0
  0
LINE
  5
F0
330
D5
100
AcDbEntity
  8
AM_9
100
AcDbLine
 10
-0.6738281249999999
 20
-0.74288554167725
 30
0.0
 11
-0.6908281249999999
 21
-0.75988554167725
 31
0.0
  0
LINE
  5
F1
330
D5
100
AcDbEntity
  8
AM_9
100
AcDbLine
 10
-0.6738281249999999
 20
-0.74288554167725
 30
0.0
 11
-0.6738281249999999
 21
-0.9328855416772499
 31
0.0
  0
LINE
  5
F2
330
D5
100
AcDbEntity
  8
AM_9
100
AcDbLine
 10
-0.6908281249999999
 20
-0.75988554167725
 30
0.0
 11
-0.6908281249999999
 21
-0.9158855416772499
 31
0.0
  0
LINE
  5
F3
330
D5
100
AcDbEntity
  8
AM_9
100
AcDbLine
 10
-0.8814374999999999
 20
-0.75988554167725
 30
0.0
 11
-0.898327161605769
 21
-0.7429958800714809
 31
0.0
  0
LINE
  5
F4
330
D5
100
AcDbEntity
  8
AM_9
100
AcDbLine
 10
-0.8967426010291873
 20
-0.9311906427064375
 30
0.0
 11
-0.8814374999999999
 21
-0.9158855416772499
 31
0.0
  0
LINE
  5
F5
330
D5
100
AcDbEntity
  8
AM_9
100
AcDbLine
 10
-0.8814374999999999
 20
-0.75988554167725
 30
0.0
 11
-0.8814374999999999
 21
-0.9158855416772499
 31
0.0
  0
LINE
  5
F6
330
D5
100
AcDbEntity
  8
AM_9
100
AcDbLine
 10
0.5
 20
-0.9531249999999998
 30
0.0
 11
0.5
 21
0.4999999999999998
 31
0.0
  0
LINE
  5
F7
330
D5
100
AcDbEntity
  8
AM_9
100
AcDbLine
 10
-0.5
 20
0.4999999999999998
 30
0.0
 11
-0.5
 21
-0.9531249999999998
 31
0.0
  0
LINE
  5
F8
330
D5
100
AcDbEntity
  8
AM_9
100
AcDbLine
 10
0.6702628968253969
 20
-0.7148431447644146
 30
0.0
 11
0.6702628968253969
 21
-0.3574218750000003
 31
0.0
  0
LINE
  5
F9
330
D5
100
AcDbEntity
  8
AM_9
100
AcDbLine
 10
-0.6702628968253969
 20
-0.3574218750000003
 30
0.0
 11
-0.6702628968253969
 21
-0.7148431447644146
 31
0.0
  0
LINE
  5
FA
330
D5
100
AcDbEntity
  8
AM_9
100
AcDbLine
 10
0.05
 20
0.4499999942760695
 30
0.0
 11
0.05
 21
-0.953125
 31
0.0
  0
LINE
  5
FB
330
D5
100
AcDbEntity
  8
AM_9
100
AcDbLine
 10
-0.05
 20
0.4499999942760695
 30
0.0
 11
-0.05
 21
-0.953125
 31
0.0
  0
LINE
  5
FC
330
D5
100
AcDbEntity
  8
AM_9
100
AcDbLine
 10
0.6702628968253969
 20
-0.3574218750000003
 30
0.0
 11
0.6984586900048666
 21
0.45
 31
0.0
  0
LINE
  5
FD
330
D5
100
AcDbEntity
  8
AM_9
100
AcDbLine
 10
-0.6984586900048666
 20
0.45
 30
0.0
 11
-0.6702628968253969
 21
-0.3574218750000003
 31
0.0
  0
LINE
  5
FE
330
D5
100
AcDbEntity
  8
AM_9
100
AcDbLine
 10
-0.6702628968253969
 20
-0.3574218750000003
 30
0.0
 11
0.6702628968253969
 21
-0.3574218750000003
 31
0.0
  0
LINE
  5
FF
330
D5
100
AcDbEntity
  8
AM_9
100
AcDbLine
 10
0.7344370039682537
 20
-0.595703125
 30
0.0
 11
0.7344370039682537
 21
-0.4765625
 31
0.0
  0
LINE
  5
100
330
D5
100
AcDbEntity
  8
AM_9
100
AcDbLine
 10
-0.7344370039682537
 20
-0.4765625
 30
0.0
 11
-0.7344370039682537
 21
-0.595703125
 31
0.0
  0
LINE
  5
101
330
D5
100
AcDbEntity
  8
AM_9
100
AcDbLine
 10
-0.3534528265778557
 20
-0.4765624999999999
 30
0.0
 11
-0.3534528265778557
 21
-0.9531249999999998
 31
0.0
  0
LINE
  5
102
330
D5
100
AcDbEntity
  8
AM_9
100
AcDbLine
 10
-0.7986111111111118
 20
-0.595703125
 30
0.0
 11
0.7986111111111118
 21
-0.595703125
 31
0.0
  0
LINE
  5
103
330
D5
100
AcDbEntity
  8
AM_9
100
AcDbLine
 10
-0.7986111111111118
 20
-0.71484375
 30
0.0
 11
0.7986111111111118
 21
-0.71484375
 31
0.0
  0
LINE
  5
104
330
D5
100
AcDbEntity
  8
AM_9
100
AcDbLine
 10
0.7986111111111118
 20
-0.71484375
 30
0.0
 11
0.7986111111111118
 21
-0.595703125
 31
0.0
  0
LINE
  5
105
330
D5
100
AcDbEntity
  8
AM_9
100
AcDbLine
 10
-0.7986111111111118
 20
-0.595703125
 30
0.0
 11
-0.7986111111111118
 21
-0.71484375
 31
0.0
  0
LINE
  5
107
330
D5
100
AcDbEntity
  8
AM_5
100
AcDbLine
 10
-0.8950529583227499
 20
-0.9328855416772499
 30
0.0
 11
-0.6738281249999999
 21
-0.9328855416772499
 31
0.0
  0
LINE
  5
108
330
D5
100
AcDbEntity
  8
AM_5
100
AcDbLine
 10
-0.8984374999999998
 20
-0.74288554167725
 30
0.0
 11
-0.6738281249999999
 21
-0.74288554167725
 31
0.0
  0
LINE
  5
10B
330
D5
100
AcDbEntity
  8
AM_7
100
AcDbLine
 10
-0.6625976562499999
 20
-0.8378855416772499
 30
0.0
 11
-0.9096679687499998
 21
-0.8378855416772499
 31
0.0
  0
LINE
  5
10C
330
D5
100
AcDbEntity
  8
AM_4
100
AcDbLine
 10
0.05
 20
0.4499999942760695
 30
0.0
 11
0.05
 21
0.5000000000000001
 31
0.0
  0
LINE
  5
10D
330
D5
100
AcDbEntity
  8
AM_4
100
AcDbLine
 10
-0.05
 20
0.4499999942760695
 30
0.0
 11
-0.05
 21
0.5000000000000001
 31
0.0
  0
LINE
  5
10E
330
D5
100
AcDbEntity
  8
AM_4
100
AcDbLine
 10
0.6984586900048666
 20
0.45
 30
0.0
 11
0.7002047284794539
 21
0.5
 31
0.0
  0
LINE
  5
10F
330
D5
100
AcDbEntity
  8
AM_4
100
AcDbLine
 10
-0.7002047284794539
 20
0.5
 30
0.0
 11
-0.6984586900048666
 21
0.45
 31
0.0
  0
LINE
  5
110
330
D5
100
AcDbEntity
  8
AM_4
100
AcDbLine
 10
-0.7002047284794539
 20
0.5
 30
0.0
 11
0.7002047284794539
 21
0.5
 31
0.0
  0
LINE
  5
111
330
D5
100
AcDbEntity
  8
AM_4
100
AcDbLine
 10
-0.8748134999999996
 20
-0.4765625
 30
0.0
 11
-0.8984374999999996
 21
-0.5001865
 31
0.0
  0
LINE
  5
112
330
D5
100
AcDbEntity
  8
AM_4
100
AcDbLine
 10
-0.8981195081615964
 20
-0.929500999999998
 30
0.0
 11
-0.8967452291613778
 21
-0.9311932708386214
 31
0.0
  0
LINE
  5
113
330
D5
100
AcDbEntity
  8
AM_4
100
AcDbLine
 10
-0.8967707715890936
 20
-0.9311677284109063
 30
0.0
 11
-0.8748135
 21
-0.9531249999999998
 31
0.0
  0
LINE
  5
114
330
D5
100
AcDbEntity
  8
AM_4
100
AcDbLine
 10
-0.8981195081615947
 20
-0.9295009999999998
 30
0.0
 11
-0.513426560353716
 21
-0.9295009999999998
 31
0.0
  0
LINE
  5
115
330
D5
100
AcDbEntity
  8
AM_4
100
AcDbLine
 10
-0.8984374999999998
 20
-0.5001865
 30
0.0
 11
-0.8984374999999998
 21
-0.7430872843609327
 31
0.0
  0
LWPOLYLINE
  5
116
330
D5
100
AcDbEntity
  8
AM_4
100
AcDbPolyline
 90
       20
 70
     0
 43
0.0
 10
-0.8984374999999938
 20
-0.7428855416773122
 10
-0.8984332221439664
 20
-0.7429302865757373
 10
-0.8982774487887877
 20
-0.7445739696054869
 10
-0.897900345677263
 20
-0.7486761331233031
 10
-0.8973614371495956
 20
-0.7548836534660837
 10
-0.8966908825441339
 20
-0.7633148316937022
 10
-0.8959645603835187
 20
-0.7736686516856155
 10
-0.8952448751211983
 20
-0.7859043994123397
 10
-0.8946131305411653
 20
-0.7997318061459331
 10
-0.8941417678714635
 20
-0.814932897904595
 10
-0.8938989440663881
 20
-0.8309103241659259
 10
-0.8939214414192145
 20
-0.8475263755370677
 10
-0.8942123484969241
 20
-0.863689725790965
 10
-0.8947562505458049
 20
-0.8795739175845011
 10
-0.8953126541578662
 20
-0.8911382527864955
 10
-0.8959518361928613
 20
-0.9019062693908416
 10
-0.89661720592388
 20
-0.9114717506335235
 10
-0.8972606565122553
 20
-0.9196750826741094
 10
-0.897740586130992
 20
-0.9253000177918882
 10
-0.8981195081615944
 20
-0.9295009999999966
  0
LINE
  5
117
330
D5
100
AcDbEntity
  8
AM_4
100
AcDbLine
 10
-0.8984374999999998
 20
-0.5001865
 30
0.0
 11
-0.5134265603537158
 21
-0.5001864999999999
 31
0.0
  0
LINE
  5
118
330
D5
100
AcDbEntity
  8
AM_4
100
AcDbLine
 10
-0.5015709168455583
 20
-0.4765625
 30
0.0
 11
-0.5134265603537158
 21
-0.5001864999999999
 31
0.0
  0
LINE
  5
119
330
D5
100
AcDbEntity
  8
AM_4
100
AcDbLine
 10
-0.5134265603537158
 20
-0.5001864999999999
 30
0.0
 11
-0.513426560353716
 21
-0.9295009999999998
 31
0.0
  0
LINE
  5
11A
330
D5
100
AcDbEntity
  8
AM_4
100
AcDbLine
 10
-0.513426560353716
 20
-0.9295009999999998
 30
0.0
 11
-0.5015709168455583
 21
-0.9531249999999997
 31
0.0
  0
LINE
  5
11B
330
D5
100
AcDbEntity
  8
AM_4
100
AcDbLine
 10
-0.4850886879530904
 20
-0.4765624999999999
 30
0.0
 11
-0.4850886879530904
 21
-0.9531249999999998
 31
0.0
  0
LINE
  5
11C
330
D5
100
AcDbEntity
  8
AM_4
100
AcDbLine
 10
0.8715059723158811
 20
-0.4765625
 30
0.0
 11
0.8952172593321964
 21
-0.5001865
 31
0.0
  0
LINE
  5
11D
330
D5
100
AcDbEntity
  8
AM_4
100
AcDbLine
 10
-0.8748134999999996
 20
-0.4765625
 30
0.0
 11
0.8715059723158811
 21
-0.4765625
 31
0.0
  0
LINE
  5
11E
330
D5
100
AcDbEntity
  8
AM_4
100
AcDbLine
 10
-0.3817906989784813
 20
-0.5001864999999999
 30
0.0
 11
-0.3699350554703236
 21
-0.4765625000000001
 31
0.0
  0
LINE
  5
11F
330
D5
100
AcDbEntity
  8
AM_4
100
AcDbLine
 10
0.8952172593321964
 20
-0.5001865
 30
0.0
 11
0.8952172593321966
 21
-0.9295009999999998
 31
0.0
  0
LINE
  5
120
330
D5
100
AcDbEntity
  8
AM_4
100
AcDbLine
 10
-0.3817906989784813
 20
-0.5001864999999999
 30
0.0
 11
0.8952172593321964
 21
-0.5001865
 31
0.0
  0
LINE
  5
121
330
D5
100
AcDbEntity
  8
AM_4
100
AcDbLine
 10
-0.3817906989784813
 20
-0.9295009999999998
 30
0.0
 11
-0.3817906989784813
 21
-0.5001864999999999
 31
0.0
  0
LINE
  5
122
330
D5
100
AcDbEntity
  8
AM_4
100
AcDbLine
 10
0.8952172593321966
 20
-0.9295009999999998
 30
0.0
 11
0.8715059723158816
 21
-0.9531249999999998
 31
0.0
  0
LINE
  5
123
330
D5
100
AcDbEntity
  8
AM_4
100
AcDbLine
 10
-0.3817906989784813
 20
-0.9295009999999998
 30
0.0
 11
0.8952172593321966
 21
-0.9295009999999998
 31
0.0
  0
LINE
  5
124
330
D5
100
AcDbEntity
  8
AM_4
100
AcDbLine
 10
-0.3699350554703238
 20
-0.9531249999999998
 30
0.0
 11
-0.3817906989784813
 21
-0.9295009999999998
 31
0.0
  0
LINE
  5
125
330
D5
100
AcDbEntity
  8
AM_4
100
AcDbLine
 10
-0.8748135
 20
-0.9531249999999998
 30
0.0
 11
0.8715059723158816
 21
-0.9531249999999998
 31
0.0
  0
ENDBLK
  5
D8
330
D5
100
AcDbEntity
  8
0
100
AcDbBlockEnd
  0
BLOCK
  5
128
330
126
100
AcDbEntity
  8
0
100
AcDbBlockBegin
  2
4_P2B_GTEZ_05_SHCRI_0_in__129262_4
 70
     2
 10
0.0
 20
0.0
 30
0.0
  3
4_P2B_GTEZ_05_SHCRI_0_in__129262_4
  1

  0
ATTDEF
  5
12A
330
126
100
AcDbEntity
  8
AM_6
100
AcDbText
 10
7.75
 20
0.61875
 30
0.0
 40
0.5
  1
P2B-GTEZ-SHCR-I
100
AcDbAttributeDefinition
  3

  2
NN
 70
     8
280
     0
  0
ATTDEF
  5
12B
330
126
100
AcDbEntity
  8
AM_6
100
AcDbText
 10
7.75
 20
0.11875
 30
0.0
 40
0.5
  1
GTEZ Normal Duty Stainless Steel Housed Pillow Blocks
100
AcDbAttributeDefinition
  3

  2
NT
 70
     8
280
     0
  0
ATTDEF
  5
12C
330
126
100
AcDbEntity
  8
AM_6
100
AcDbText
 10
7.75
 20
-0.38125
 30
0.0
 40
0.5
  1
P2B-GTEZ-05-SHCRI
100
AcDbAttributeDefinition
  3

  2
NB
 70
     8
280
     0
  0
ATTDEF
  5
12D
330
126
100
AcDbEntity
  8
AM_6
100
AcDbText
 10
7.75
 20
-0.88125
 30
0.0
 40
0.5
  1
$PN.$LUBE.I
100
AcDbAttributeDefinition
  3

  2
NBSYN
 70
     8
280
     0
  0
ATTDEF
  5
12E
330
126
100
AcDbEntity
  8
AM_6
100
AcDbText
 10
7.75
 20
-1.38125
 30
0.0
 40
0.5
  1
P2B-GTEZ-05-SHCR
100
AcDbAttributeDefinition
  3

  2
LINA
 70
     8
280
     0
  0
ATTDEF
  5
12F
330
126
100
AcDbEntity
  8
AM_6
100
AcDbText
 10
7.75
 20
-1.88125
 30
0.0
 40
0.5
  1
205
100
AcDbAttributeDefinition
  3

  2
SERIES
 70
     8
280
     0
  0
ATTDEF
  5
130
330
126
100
AcDbEntity
  8
AM_6
100
AcDbText
 10
7.75
 20
-2.38125
 30
0.0
 40
0.5
  1
P2B-GTEZ-05-SHCR
100
AcDbAttributeDefinition
  3

  2
PN
 70
     8
280
     0
  0
ATTDEF
  5
131
330
126
100
AcDbEntity
  8
AM_6
100
AcDbText
 10
7.75
 20
-2.88125
 30
0.0
 40
0.5
  1
P2B-GTEZ-05-SHCR
100
AcDbAttributeDefinition
  3

  2
DESCRIPTION
 70
     8
280
     0
  0
ATTDEF
  5
132
330
126
100
AcDbEntity
  8
AM_6
100
AcDbText
 10
7.75
 20
-3.38125
 30
0.0
 40
0.5
  1
1-29/64
100
AcDbAttributeDefinition
  3

  2
A
 70
     8
280
     0
  0
ATTDEF
  5
133
330
126
100
AcDbEntity
  8
AM_6
100
AcDbText
 10
7.75
 20
-3.88125
 30
0.0
 40
0.5
  1
5-1/2
100
AcDbAttributeDefinition
  3

  2
B
 70
     8
280
     0
  0
ATTDEF
  5
134
330
126
100
AcDbEntity
  8
AM_6
100
AcDbText
 10
7.75
 20
-4.38125
 30
0.0
 40
0.5
  1
1-1/8
100
AcDbAttributeDefinition
  3

  2
C
 70
     8
280
     0
  0
ATTDEF
  5
135
330
126
100
AcDbEntity
  8
AM_6
100
AcDbText
 10
7.75
 20
-4.88125
 30
0.0
 40
0.5
  1
3-11/16
100
AcDbAttributeDefinition
  3

  2
DMIN
 70
     8
280
     0
  0
ATTDEF
  5
136
330
126
100
AcDbEntity
  8
AM_6
100
AcDbText
 10
7.75
 20
-5.38125
 30
0.0
 40
0.5
  1
4-1/2
100
AcDbAttributeDefinition
  3

  2
DMAX
 70
     8
280
     0
  0
ATTDEF
  5
137
330
126
100
AcDbEntity
  8
AM_6
100
AcDbText
 10
7.75
 20
-5.88125
 30
0.0
 40
0.5
  1
4.500
100
AcDbAttributeDefinition
  3

  2
DMAX1
 70
     8
280
     0
  0
ATTDEF
  5
138
330
126
100
AcDbEntity
  8
AM_6
100
AcDbText
 10
7.75
 20
-6.38125
 30
0.0
 40
0.5
  1
3/8
100
AcDbAttributeDefinition
  3

  2
F
 70
     8
280
     0
  0
ATTDEF
  5
139
330
126
100
AcDbEntity
  8
AM_6
100
AcDbText
 10
7.75
 20
-6.88125
 30
0.0
 40
0.5
  1
27/32
100
AcDbAttributeDefinition
  3

  2
G
 70
     8
280
     0
  0
ATTDEF
  5
13A
330
126
100
AcDbEntity
  8
AM_6
100
AcDbText
 10
7.75
 20
-7.38125
 30
0.0
 40
0.5
  1
17/32
100
AcDbAttributeDefinition
  3

  2
H
 70
     8
280
     0
  0
ATTDEF
  5
13B
330
126
100
AcDbEntity
  8
AM_6
100
AcDbText
 10
7.75
 20
-7.88125
 30
0.0
 40
0.5
  1
2-23/32
100
AcDbAttributeDefinition
  3

  2
J
 70
     8
280
     0
  0
ATTDEF
  5
13C
330
126
100
AcDbEntity
  8
AM_6
100
AcDbText
 10
7.75
 20
-8.38125
 30
0.0
 40
0.5
  1
1-51/64
100
AcDbAttributeDefinition
  3

  2
L
 70
     8
280
     0
  0
ATTDEF
  5
13D
330
126
100
AcDbEntity
  8
AM_6
100
AcDbText
 10
7.75
 20
-8.88125
 30
0.0
 40
0.5
  1
1-7/16
100
AcDbAttributeDefinition
  3

  2
M
 70
     8
280
     0
  0
ATTDEF
  5
13E
330
126
100
AcDbEntity
  8
AM_6
100
AcDbText
 10
7.75
 20
-9.38125
 30
0.0
 40
0.5
  1
1/2
100
AcDbAttributeDefinition
  3

  2
R
 70
     8
280
     0
  0
ATTDEF
  5
13F
330
126
100
AcDbEntity
  8
AM_6
100
AcDbText
 10
7.75
 20
-9.88125
 30
0.0
 40
0.5
  1
61/64
100
AcDbAttributeDefinition
  3

  2
S
 70
     8
280
     0
  0
ATTDEF
  5
140
330
126
100
AcDbEntity
  8
AM_6
100
AcDbText
 10
7.75
 20
-10.38125
 30
0.0
 40
0.5
  1
61/64
100
AcDbAttributeDefinition
  3

  2
Z
 70
     8
280
     0
  0
ATTDEF
  5
141
330
126
100
AcDbEntity
  8
AM_6
100
AcDbText
 10
7.75
 20
-10.88125
 30
0.0
 40
0.5
  1
baldor
100
AcDbAttributeDefinition
  3

  2
COMPANY
 70
     8
280
     0
  0
LINE
  5
142
330
126
100
AcDbEntity
  8
AM_9
100
AcDbLine
 10
-1.677182
 20
-0.4837598000000005
 30
0.0
 11
-1.677182
 21
-0.5625000000000004
 31
0.0
  0
LINE
  5
143
330
126
100
AcDbEntity
  8
AM_9
100
AcDbLine
 10
-1.508834
 20
-0.4837598000000005
 30
0.0
 11
-1.508834
 21
-0.5625000000000004
 31
0.0
  0
LINE
  5
144
330
126
100
AcDbEntity
  8
AM_9
100
AcDbLine
 10
-2.068974530935
 20
-0.4837598000000005
 30
0.0
 11
-2.068974530935
 21
-0.5625000000000004
 31
0.0
  0
LINE
  5
145
330
126
100
AcDbEntity
  8
AM_9
100
AcDbLine
 10
-2.044487509838
 20
-0.4837598000000005
 30
0.0
 11
-2.044487509838
 21
-0.5625000000000004
 31
0.0
  0
LINE
  5
146
330
126
100
AcDbEntity
  8
AM_9
100
AcDbLine
 10
-1.7751302
 20
-0.4837598000000005
 30
0.0
 11
-1.7751302
 21
-0.5625000000000004
 31
0.0
  0
LINE
  5
147
330
126
100
AcDbEntity
  8
AM_9
100
AcDbLine
 10
-1.7506432
 20
-0.4837598000000005
 30
0.0
 11
-1.7506432
 21
-0.5625000000000004
 31
0.0
  0
LINE
  5
148
330
126
100
AcDbEntity
  8
AM_9
100
AcDbLine
 10
-1.922052404353
 20
-0.4837598000000005
 30
0.0
 11
-1.922052404353
 21
-0.5625000000000004
 31
0.0
  0
LINE
  5
149
330
126
100
AcDbEntity
  8
AM_9
100
AcDbLine
 10
-1.732278
 20
-0.4837598000000005
 30
0.0
 11
-1.732278
 21
-0.5625000000000004
 31
0.0
  0
LINE
  5
14A
330
126
100
AcDbEntity
  8
AM_9
100
AcDbLine
 10
-1.7934955
 20
-0.4837598000000005
 30
0.0
 11
-1.7934955
 21
-0.5625000000000004
 31
0.0
  0
LINE
  5
14B
330
126
100
AcDbEntity
  8
AM_9
100
AcDbLine
 10
-2.087339895183
 20
-0.4837598000000005
 30
0.0
 11
-2.087339895183
 21
-0.5625000000000004
 31
0.0
  0
LINE
  5
14C
330
126
100
AcDbEntity
  8
AM_9
100
AcDbLine
 10
-1.940417768601
 20
-0.4837598000000005
 30
0.0
 11
-1.940417768601
 21
-0.5625000000000004
 31
0.0
  0
LINE
  5
14D
330
126
100
AcDbEntity
  8
AM_9
100
AcDbLine
 10
-2.02612214559
 20
-0.4837598000000005
 30
0.0
 11
-2.02612214559
 21
-0.5625000000000004
 31
0.0
  0
LINE
  5
14E
330
126
100
AcDbEntity
  8
AM_9
100
AcDbLine
 10
-1.631269
 20
-0.4837598000000005
 30
0.0
 11
-1.631269
 21
-0.5625000000000004
 31
0.0
  0
LINE
  5
14F
330
126
100
AcDbEntity
  8
AM_9
100
AcDbLine
 10
-1.7781911
 20
-0.4837598000000005
 30
0.0
 11
-1.7781911
 21
-0.5625000000000004
 31
0.0
  0
LINE
  5
150
330
126
100
AcDbEntity
  8
AM_9
100
AcDbLine
 10
-2.041426878264
 20
-0.4837598000000005
 30
0.0
 11
-2.041426878264
 21
-0.5625000000000004
 31
0.0
  0
LINE
  5
151
330
126
100
AcDbEntity
  8
AM_9
100
AcDbLine
 10
-2.07203555621
 20
-0.4837598000000005
 30
0.0
 11
-2.07203555621
 21
-0.5625000000000004
 31
0.0
  0
LINE
  5
152
330
126
100
AcDbEntity
  8
AM_9
100
AcDbLine
 10
-1.925113429628
 20
-0.4837598000000005
 30
0.0
 11
-1.925113429628
 21
-0.5625000000000004
 31
0.0
  0
LINE
  5
153
330
126
100
AcDbEntity
  8
AM_9
100
AcDbLine
 10
-1.7475823
 20
-0.4837598000000005
 30
0.0
 11
-1.7475823
 21
-0.5625000000000004
 31
0.0
  0
LINE
  5
154
330
126
100
AcDbEntity
  8
AM_9
100
AcDbLine
 10
-1.649634
 20
-0.4837598000000005
 30
0.0
 11
-1.649634
 21
-0.5625000000000004
 31
0.0
  0
LINE
  5
155
330
126
100
AcDbEntity
  8
AM_9
100
AcDbLine
 10
-1.8026781
 20
-0.4837598000000005
 30
0.0
 11
-1.8026781
 21
-0.5625000000000004
 31
0.0
  0
LINE
  5
156
330
126
100
AcDbEntity
  8
AM_9
100
AcDbLine
 10
-1.652695
 20
-0.4837598000000005
 30
0.0
 11
-1.652695
 21
-0.5625000000000004
 31
0.0
  0
LINE
  5
157
330
126
100
AcDbEntity
  8
AM_9
100
AcDbLine
 10
-1.63433
 20
-0.4837598000000005
 30
0.0
 11
-1.63433
 21
-0.5625000000000004
 31
0.0
  0
LINE
  5
158
330
126
100
AcDbEntity
  8
AM_9
100
AcDbLine
 10
-1.741461
 20
-0.4837598000000005
 30
0.0
 11
-1.741461000000001
 21
-0.5625000000000001
 31
0.0
  0
LINE
  5
159
330
126
100
AcDbEntity
  8
AM_9
100
AcDbLine
 10
-1.7843129
 20
-0.4837598000000005
 30
0.0
 11
-1.7843129
 21
-0.5625000000000004
 31
0.0
  0
LINE
  5
15A
330
126
100
AcDbEntity
  8
AM_9
100
AcDbLine
 10
-1.723095
 20
-0.4837598000000005
 30
0.0
 11
-1.723095
 21
-0.5625000000000004
 31
0.0
  0
LINE
  5
15B
330
126
100
AcDbEntity
  8
AM_9
100
AcDbLine
 10
-2.096522577307
 20
-0.4837598000000005
 30
0.0
 11
-2.096522577307
 21
-0.5625000000000004
 31
0.0
  0
LINE
  5
15C
330
126
100
AcDbEntity
  8
AM_9
100
AcDbLine
 10
-2.078157213059
 20
-0.4837598000000005
 30
0.0
 11
-2.078157213059
 21
-0.5625000000000004
 31
0.0
  0
LINE
  5
15D
330
126
100
AcDbEntity
  8
AM_9
100
AcDbLine
 10
-1.949600450725
 20
-0.4837598000000005
 30
0.0
 11
-1.949600450725
 21
-0.5625000000000004
 31
0.0
  0
LINE
  5
15E
330
126
100
AcDbEntity
  8
AM_9
100
AcDbLine
 10
-2.016939463466
 20
-0.4837598000000005
 30
0.0
 11
-2.016939463466
 21
-0.5625000000000004
 31
0.0
  0
LINE
  5
15F
330
126
100
AcDbEntity
  8
AM_9
100
AcDbLine
 10
-2.035304827714
 20
-0.4837598000000005
 30
0.0
 11
-2.035304827713999
 21
-0.5625000000000001
 31
0.0
  0
LINE
  5
160
330
126
100
AcDbEntity
  8
AM_9
100
AcDbLine
 10
-1.931235086477
 20
-0.4837598000000005
 30
0.0
 11
-1.931235086477
 21
-0.5625000000000004
 31
0.0
  0
LINE
  5
161
330
126
100
AcDbEntity
  8
AM_9
100
AcDbLine
 10
-1.661878
 20
-0.4837598000000005
 30
0.0
 11
-1.661878
 21
-0.5625000000000004
 31
0.0
  0
LINE
  5
162
330
126
100
AcDbEntity
  8
AM_9
100
AcDbLine
 10
-1.713913
 20
-0.4837598000000005
 30
0.0
 11
-1.713913
 21
-0.5625000000000004
 31
0.0
  0
LINE
  5
163
330
126
100
AcDbEntity
  8
AM_9
100
AcDbLine
 10
-1.8118608
 20
-0.4837598000000005
 30
0.0
 11
-1.8118608
 21
-0.5625000000000004
 31
0.0
  0
LINE
  5
164
330
126
100
AcDbEntity
  8
AM_9
100
AcDbLine
 10
-1.8792000977482
 20
-0.4837598000000005
 30
0.0
 11
-1.8792000977482
 21
-0.5625000000000004
 31
0.0
  0
LINE
  5
165
330
126
100
AcDbEntity
  8
AM_9
100
AcDbLine
 10
-1.958783132849
 20
-0.4837598000000005
 30
0.0
 11
-1.958783132849
 21
-0.5625000000000004
 31
0.0
  0
LINE
  5
166
330
126
100
AcDbEntity
  8
AM_9
100
AcDbLine
 10
-2.173044665873
 20
-0.4837598000000005
 30
0.0
 11
-2.173044665873
 21
-0.5625000000000004
 31
0.0
  0
LINE
  5
167
330
126
100
AcDbEntity
  8
AM_9
100
AcDbLine
 10
-2.105705259431
 20
-0.4837598000000005
 30
0.0
 11
-2.105705259431
 21
-0.5625000000000004
 31
0.0
  0
LINE
  5
168
330
126
100
AcDbEntity
  8
AM_9
100
AcDbLine
 10
-2.007757175043
 20
-0.4837598000000005
 30
0.0
 11
-2.007757175043
 21
-0.5625000000000004
 31
0.0
  0
LINE
  5
169
330
126
100
AcDbEntity
  8
AM_9
100
AcDbLine
 10
-1.588417
 20
-0.4837598000000005
 30
0.0
 11
-1.588417
 21
-0.5625000000000004
 31
0.0
  0
LINE
  5
16A
330
126
100
AcDbEntity
  8
AM_9
100
AcDbLine
 10
-1.7965564
 20
-0.4837598000000005
 30
0.0
 11
-1.7965564
 21
-0.5625000000000004
 31
0.0
  0
LINE
  5
16B
330
126
100
AcDbEntity
  8
AM_9
100
AcDbLine
 10
-1.729217
 20
-0.4837598000000005
 30
0.0
 11
-1.729217
 21
-0.5625000000000004
 31
0.0
  0
LINE
  5
16C
330
126
100
AcDbEntity
  8
AM_9
100
AcDbLine
 10
-1.943478400175
 20
-0.4837598000000005
 30
0.0
 11
-1.943478400175
 21
-0.5625000000000004
 31
0.0
  0
LINE
  5
16D
330
126
100
AcDbEntity
  8
AM_9
100
AcDbLine
 10
-2.090400920458
 20
-0.4837598000000005
 30
0.0
 11
-2.090400920458
 21
-0.5625000000000004
 31
0.0
  0
LINE
  5
16E
330
126
100
AcDbEntity
  8
AM_9
100
AcDbLine
 10
-2.023061514016
 20
-0.4837598000000005
 30
0.0
 11
-2.023061514016
 21
-0.5625000000000004
 31
0.0
  0
LINE
  5
16F
330
126
100
AcDbEntity
  8
AM_9
100
AcDbLine
 10
-1.646573
 20
-0.4837598000000005
 30
0.0
 11
-1.646573
 21
-0.5625000000000004
 31
0.0
  0
LINE
  5
170
330
126
100
AcDbEntity
  8
AM_9
100
AcDbLine
 10
-1.8087999
 20
-0.4837598000000005
 30
0.0
 11
-1.8087999
 21
-0.5625000000000004
 31
0.0
  0
LINE
  5
171
330
126
100
AcDbEntity
  8
AM_9
100
AcDbLine
 10
-2.010817806617
 20
-0.4837598000000005
 30
0.0
 11
-2.010817806617
 21
-0.5625000000000004
 31
0.0
  0
LINE
  5
172
330
126
100
AcDbEntity
  8
AM_9
100
AcDbLine
 10
-1.658817
 20
-0.4837598000000005
 30
0.0
 11
-1.658817
 21
-0.5625000000000004
 31
0.0
  0
LINE
  5
173
330
126
100
AcDbEntity
  8
AM_9
100
AcDbLine
 10
-2.102644234156
 20
-0.4837598000000005
 30
0.0
 11
-2.102644234156
 21
-0.5625000000000001
 31
0.0
  0
LINE
  5
174
330
126
100
AcDbEntity
  8
AM_9
100
AcDbLine
 10
-1.716974
 20
-0.4837598000000005
 30
0.0
 11
-1.716974
 21
-0.5625000000000004
 31
0.0
  0
LINE
  5
175
330
126
100
AcDbEntity
  8
AM_9
100
AcDbLine
 10
-1.955722107574
 20
-0.4837598000000005
 30
0.0
 11
-1.955722107574
 21
-0.5625000000000004
 31
0.0
  0
LINE
  5
176
330
126
100
AcDbEntity
  8
AM_9
100
AcDbLine
 10
-1.674121
 20
-0.4837598000000005
 30
0.0
 11
-1.674121
 21
-0.5625000000000004
 31
0.0
  0
LINE
  5
177
330
126
100
AcDbEntity
  8
AM_9
100
AcDbLine
 10
-1.7751302
 20
-0.4837598000000005
 30
0.0
 11
-1.897565383256
 21
-0.4837598000000005
 31
0.0
  0
LINE
  5
178
330
126
100
AcDbEntity
  8
AM_9
100
AcDbLine
 10
-1.8241043
 20
-0.4837598000000005
 30
0.0
 11
-1.8241043
 21
-0.5625000000000001
 31
0.0
  0
LINE
  5
179
330
126
100
AcDbEntity
  8
AM_9
100
AcDbLine
 10
-1.897565383256
 20
-0.4837598000000005
 30
0.0
 11
-1.897565383256
 21
-0.5625000000000004
 31
0.0
  0
LINE
  5
17A
330
126
100
AcDbEntity
  8
AM_9
100
AcDbLine
 10
-1.922052404353
 20
-0.4837598000000005
 30
0.0
 11
-2.044487509838
 21
-0.4837598000000005
 31
0.0
  0
LINE
  5
17B
330
126
100
AcDbEntity
  8
AM_9
100
AcDbLine
 10
-1.631269
 20
-0.4837598000000005
 30
0.0
 11
-1.7506432
 21
-0.4837598000000005
 31
0.0
  0
LINE
  5
17C
330
126
100
AcDbEntity
  8
AM_9
100
AcDbLine
 10
-2.19140963642
 20
-0.4837598000000005
 30
0.0
 11
-2.19140963642
 21
-0.5625000000000004
 31
0.0
  0
LINE
  5
17D
330
126
100
AcDbEntity
  8
AM_9
100
AcDbLine
 10
-1.606782
 20
-0.4837598000000005
 30
0.0
 11
-1.606782
 21
-0.5625000000000004
 31
0.0
  0
LINE
  5
17E
330
126
100
AcDbEntity
  8
AM_9
100
AcDbLine
 10
-1.995513467644
 20
-0.4837598000000005
 30
0.0
 11
-1.995513467644
 21
-0.5625000000000004
 31
0.0
  0
LINE
  5
17F
330
126
100
AcDbEntity
  8
AM_9
100
AcDbLine
 10
-1.971026446547
 20
-0.4837598000000005
 30
0.0
 11
-1.971026446547
 21
-0.5625000000000004
 31
0.0
  0
LINE
  5
180
330
126
100
AcDbEntity
  8
AM_9
100
AcDbLine
 10
-1.701669
 20
-0.4837598000000005
 30
0.0
 11
-1.701669
 21
-0.5625000000000004
 31
0.0
  0
LINE
  5
181
330
126
100
AcDbEntity
  8
AM_9
100
AcDbLine
 10
-2.068974530935
 20
-0.4837598000000005
 30
0.0
 11
-2.19140963642
 21
-0.4837598000000005
 31
0.0
  0
LINE
  5
182
330
126
100
AcDbEntity
  8
AM_9
100
AcDbLine
 10
-2.117948573129
 20
-0.4837598000000005
 30
0.0
 11
-2.117948573129
 21
-0.5625000000000004
 31
0.0
  0
LINE
  5
183
330
126
100
AcDbEntity
  8
AM_9
100
AcDbLine
 10
-1.49659
 20
-0.4837598000000005
 30
0.0
 11
-1.49659
 21
-0.5625000000000001
 31
0.0
  0
LINE
  5
184
330
126
100
AcDbEntity
  8
AM_9
100
AcDbLine
 10
-1.49659
 20
-0.4837598000000005
 30
0.0
 11
-1.606782
 21
-0.4837598000000005
 31
0.0
  0
LWPOLYLINE
  5
185
330
126
100
AcDbEntity
  8
AM_9
100
AcDbPolyline
 90
        5
 70
     0
 43
0.0
 10
1.021997975340524
 20
-0.0215785909328831
 10
1.018634146684145
 20
-0.0664019552542312
 10
1.017382538835504
 20
-0.1116255192870854
 10
1.018577442020644
 20
-0.1575211226067939
 10
1.021997975340524
 20
-0.2034214090671168
  0
LINE
  5
186
330
126
100
AcDbEntity
  8
AM_9
100
AcDbLine
 10
1.096283081852221
 20
-0.2034214090671168
 30
0.0
 11
1.021997975340524
 21
-0.2034214090671168
 31
0.0
  0
LINE
  5
187
330
126
100
AcDbEntity
  8
AM_9
100
AcDbLine
 10
1.096283081852221
 20
-0.0215785909328831
 30
0.0
 11
1.021997975340524
 21
-0.0215785909328831
 31
0.0
  0
LINE
  5
188
330
126
100
AcDbEntity
  8
AM_9
100
AcDbLine
 10
1.100767718284533
 20
-0.1272877849083698
 30
0.0
 11
1.100767718284533
 21
-0.0977122150916301
 31
0.0
  0
LINE
  5
189
330
126
100
AcDbEntity
  8
AM_9
100
AcDbLine
 10
1.036034321694324
 20
-0.2562760060548609
 30
0.0
 11
1.054145585420093
 21
-0.2414882211464896
 31
0.0
  0
LINE
  5
18A
330
126
100
AcDbEntity
  8
AM_9
100
AcDbLine
 10
1.054145585420093
 20
0.0164882211464898
 30
0.0
 11
1.036034321694324
 21
0.0312760060548611
 31
0.0
  0
LWPOLYLINE
  5
18B
330
126
100
AcDbEntity
  8
AM_9
100
AcDbPolyline
 90
        5
 70
     0
 43
0.0
 10
0.9106424458858765
 20
0.0693428181342338
 10
0.9347272100150409
 20
0.0469311359735597
 10
0.9611692662240431
 20
0.0243193539571326
 10
0.9904693718018014
 20
0.0013715522972783
 10
1.021997975340524
 20
-0.0215785909328831
  0
LWPOLYLINE
  5
18C
330
126
100
AcDbEntity
  8
AM_9
100
AcDbPolyline
 90
        5
 70
     0
 43
0.0
 10
1.021997975340524
 20
-0.2034214090671168
 10
0.991185553898601
 20
-0.2258330912277909
 10
0.962240281992316
 20
-0.2484448732442179
 10
0.9353299827848385
 20
-0.2713926749040722
 10
0.9106424458858765
 20
-0.2943428181342336
  0
LWPOLYLINE
  5
18D
330
126
100
AcDbEntity
  8
AM_9
100
AcDbPolyline
 90
       20
 70
     0
 43
0.0
 10
0.9057965085566181
 20
-0.222735999519477
 10
0.9146470250206256
 20
-0.2220172318390504
 10
0.9272564397900445
 20
-0.2183609468347613
 10
0.939098765512488
 20
-0.2117440899675245
 10
0.9498706302406995
 20
-0.2023012517357532
 10
0.9593129900585764
 20
-0.1903434785811907
 10
0.9672103192113172
 20
-0.1761246631441473
 10
0.9733756853103557
 20
-0.1601084653542155
 10
0.9776515134829555
 20
-0.1427223833624627
 10
0.9799704660471084
 20
-0.1244782614728438
 10
0.9802597912094063
 20
-0.1059483865584521
 10
0.9785499948362516
 20
-0.0876036606715013
 10
0.9748586787393274
 20
-0.069998346587646
 10
0.9692877211925324
 20
-0.0535864094506964
 10
0.9619115415132933
 20
-0.0388128508931655
 10
0.9529272513608256
 20
-0.0261097166653543
 10
0.9424892214342054
 20
-0.0158416882399457
 10
0.9308893862759661
 20
-0.0083017134113799
 10
0.9184227337879008
 20
-0.0037505669515045
 10
0.9058012506658125
 20
-0.0022640000583411
  0
LWPOLYLINE
  5
18E
330
126
100
AcDbEntity
  8
AM_9
100
AcDbPolyline
 90
       12
 70
     0
 43
0.0
 10
0.9058012506658125
 20
-0.0022640000583411
 10
0.9054189347481938
 20
-0.002265343018901
 10
0.8922771975636565
 20
-0.0039227233661941
 10
0.8793395911227068
 20
-0.0086213989179948
 10
0.8669997202748023
 20
-0.0162673190801579
 10
0.8556290231372
 20
-0.0266040529333299
 10
0.8455747159331056
 20
-0.0394201677276014
 10
0.8371846172590234
 20
-0.0542945453594243
 10
0.8307593944434015
 20
-0.0708611059652329
 10
0.8265057338823573
 20
-0.0886091670466632
 10
0.8250012248487348
 20
-0.1004826882404609
 10
0.8244950106501995
 20
-0.1124999999999999
  0
ELLIPSE
  5
18F
330
126
100
AcDbEntity
  8
AM_9
100
AcDbEllipse
 10
0.9060264546253627
 20
-0.1124999999999999
 30
0.0
 11
9.642868896486260E-18
 21
0.15748
 31
0.0
210
0.0
220
0.0
230
1.0
 40
0.707106781186547
 41
0.0
 42
6.283185307179586
  0
LINE
  5
190
330
126
100
AcDbEntity
  8
AM_9
100
AcDbLine
 10
-0.7986111111111109
 20
-0.4500000000000001
 30
0.0
 11
0.7986111111111109
 21
-0.4500000000000001
 31
0.0
  0
LINE
  5
191
330
126
100
AcDbEntity
  8
AM_9
100
AcDbLine
 10
1.0236
 20
-0.4831477821819869
 30
0.0
 11
1.0236
 21
0.4831477821819868
 31
0.0
  0
LINE
  5
192
330
126
100
AcDbEntity
  8
AM_9
100
AcDbLine
 10
-1.0236
 20
0.4831477821819868
 30
0.0
 11
-1.0236
 21
-0.4831477821819869
 31
0.0
  0
ELLIPSE
  5
193
330
126
100
AcDbEntity
  8
AM_9
100
AcDbEllipse
 10
1.003462940645744
 20
-0.1124999999999999
 30
0.0
 11
-2.025002468262110E-17
 21
-0.1102359999999998
 31
0.0
210
0.0
220
0.0
230
1.0
 40
0.70710678118655
 41
0.6102466772247128
 42
2.531529483967848
  0
ELLIPSE
  5
194
330
126
100
AcDbEntity
  8
AM_9
100
AcDbEllipse
 10
0.9895435436580874
 20
-0.1124999999999999
 30
0.0
 11
-2.025002468262111E-17
 21
-0.1102359999999998
 31
0.0
210
0.0
220
0.0
230
1.0
 40
0.7071067811865465
 41
0.0
 42
3.141592653589793
  0
LINE
  5
195
330
126
100
AcDbEntity
  8
AM_9
100
AcDbLine
 10
0.9246787922396735
 20
-0.2414882211464879
 30
0.0
 11
0.942790055965447
 21
-0.2562760060548622
 31
0.0
  0
LINE
  5
196
330
126
100
AcDbEntity
  8
AM_9
100
AcDbLine
 10
0.942790055965447
 20
0.0312760060548624
 30
0.0
 11
0.9246787922396735
 21
0.016488221146488
 31
0.0
  0
LINE
  5
197
330
126
100
AcDbEntity
  8
AM_9
100
AcDbLine
 10
0.8780566593752365
 20
-0.0977122150916235
 30
0.0
 11
0.8780566593752365
 21
-0.1272877849083764
 31
0.0
  0
ELLIPSE
  5
198
330
126
100
AcDbEntity
  8
AM_9
100
AcDbEllipse
 10
0.9895435436580869
 20
-0.1124999999999999
 30
0.0
 11
-2.892860668945882E-17
 21
-0.1574800000000002
 31
0.0
210
0.0
220
0.0
230
1.0
 40
0.7071067811865481
 41
0.8515379508849126
 42
2.288753463089312
  0
LWPOLYLINE
  5
199
330
126
100
AcDbEntity
  8
AM_9
100
AcDbPolyline
 90
        3
 70
     0
 43
0.0
 10
1.100767718284533
 20
-0.0977122150916301
 10
1.099068249386281
 20
-0.05649417009799
 10
1.096283081852221
 20
-0.0215785909328831
  0
LINE
  5
19A
330
126
100
AcDbEntity
  8
AM_9
100
AcDbLine
 10
1.096283081852221
 20
-0.0215785909328831
 30
0.0
 11
1.081063415281321
 21
-0.0072139019831151
 31
0.0
  0
LINE
  5
19B
330
126
100
AcDbEntity
  8
AM_9
100
AcDbLine
 10
1.081059334343035
 20
-0.217789857297926
 30
0.0
 11
1.096283081852221
 21
-0.2034214090671168
 31
0.0
  0
LWPOLYLINE
  5
19C
330
126
100
AcDbEntity
  8
AM_9
100
AcDbPolyline
 90
        3
 70
     0
 43
0.0
 10
1.096283081852221
 20
-0.2034214090671168
 10
1.099254940155608
 20
-0.1654928219930894
 10
1.100767718284533
 20
-0.1272877849083698
  0
LWPOLYLINE
  5
19D
330
126
100
AcDbEntity
  8
AM_9
100
AcDbPolyline
 90
       54
 70
     0
 43
0.0
 10
1.019712233062823
 20
-0.0634395651286929
 10
1.02176583254902
 20
-0.0588887818329542
 10
1.024960547624862
 20
-0.052881818088865
 10
1.028265675066163
 20
-0.0477254915254412
 10
1.031555907853096
 20
-0.0434517395534709
 10
1.03469980980955
 20
-0.0400625294676124
 10
1.037573811064694
 20
-0.0375188704406938
 10
1.04006752144014
 20
-0.035745703444295
 10
1.042094484120291
 20
-0.034633229307706
 10
1.043609505392399
 20
-0.0340400140512936
 10
1.044648146699285
 20
-0.0338010429125225
 10
1.04546727246982
 20
-0.0337676766953547
 10
1.046371918921159
 20
-0.0339128312757552
 10
1.047728443860804
 20
-0.0343622642130543
 10
1.049582986694602
 20
-0.0352732144191803
 10
1.051876932809066
 20
-0.0367641584072286
 10
1.054828059910756
 20
-0.0391965095189204
 10
1.058021092082099
 20
-0.0424543396306394
 10
1.061340554085183
 20
-0.0465643594406499
 10
1.064674109699558
 20
-0.0515328412897397
 10
1.067909391036974
 20
-0.0573394641765187
 10
1.070936229932673
 20
-0.0639334624380334
 10
1.07365379489649
 20
-0.0712399829843448
 10
1.07597532144164
 20
-0.0791698627392203
 10
1.077826760520197
 20
-0.0876158500053317
 10
1.079148918645588
 20
-0.0964558618708349
 10
1.079899072854655
 20
-0.1055564682347182
 10
1.080052126509541
 20
-0.1147764352538309
 10
1.079601395421113
 20
-0.1239702646533986
 10
1.078559713167045
 20
-0.1329876244467788
 10
1.076959413191153
 20
-0.141684647579021
 10
1.074851490623732
 20
-0.1499264427913254
 10
1.07230495996827
 20
-0.1575895223110972
 10
1.069405686374034
 20
-0.1645658905965074
 10
1.066254537862913
 20
-0.1707672801643246
 10
1.062964683160315
 20
-0.1761293556347294
 10
1.059658547998842
 20
-0.1806148008355382
 10
1.056468431447672
 20
-0.1842117458092242
 10
1.053519745072902
 20
-0.1869506068489961
 10
1.050926857918194
 20
-0.188897944109974
 10
1.048783106522051
 20
-0.1901555166346052
 10
1.047145756200898
 20
-0.1908576741788877
 10
1.046004628705675
 20
-0.1911652512710166
 10
1.045183518787579
 20
-0.1912400152731877
 10
1.044196335636464
 20
-0.1911165332989096
 10
1.042910199926692
 20
-0.1907159450348606
 10
1.041114776036966
 20
-0.1898693132479879
 10
1.038871384568763
 20
-0.1884558710247821
 10
1.035952828277221
 20
-0.1861109307945032
 10
1.032780384063927
 20
-0.1829452854093477
 10
1.02946936778075
 20
-0.1789297710657891
 10
1.026131828003161
 20
-0.1740551862733344
 10
1.022880329736469
 20
-0.1683389300087368
 10
1.021853232955362
 20
-0.1662915758201035
  0
LINE
  5
19E
330
126
100
AcDbEntity
  8
AM_9
100
AcDbLine
 10
1.010371591171989
 20
-0.1124999999999999
 30
0.0
 11
1.010375194813548
 21
-0.1114926109549139
 31
0.0
  0
ELLIPSE
  5
19F
330
126
100
AcDbEntity
  8
AM_9
100
AcDbEllipse
 10
1.081296258582024
 20
-0.1125000000000005
 30
0.0
 11
-1.842729205746984E-17
 21
-0.100313505740592
 31
0.0
210
0.0
220
0.0
230
1.0
 40
0.7071067811869891
 41
4.612344494319514
 42
4.920023085242183
  0
ELLIPSE
  5
1A0
330
126
100
AcDbEntity
  8
AM_9
100
AcDbEllipse
 10
1.081296258581972
 20
-0.1124999999999997
 30
0.0
 11
-1.842729205746790E-17
 21
-0.1003135057405814
 31
0.0
210
0.0
220
0.0
230
1.0
 40
0.7071067811865477
 41
5.160720601470032
 42
10.43004395424894
  0
ELLIPSE
  5
1A1
330
126
100
AcDbEntity
  8
AM_9
100
AcDbEllipse
 10
1.096451958120716
 20
-0.1125
 30
0.0
 11
-1.926567240316129E-17
 21
-0.1048774357720926
 31
0.0
210
0.0
220
0.0
230
1.0
 40
0.7071067811865449
 41
0.4211409276084597
 42
2.730079687431011
  0
ELLIPSE
  5
1A2
330
126
100
AcDbEntity
  8
AM_9
100
AcDbEllipse
 10
1.133907008178054
 20
-0.1124999999999999
 30
0.0
 11
-1.537357571213912E-17
 21
-0.0836898482231383
 31
0.0
210
0.0
220
0.0
230
1.0
 40
0.7071067811865461
 41
0.4239737770404695
 42
2.729839663796469
  0
LWPOLYLINE
  5
1A3
330
126
100
AcDbEntity
  8
AM_9
100
AcDbPolyline
 90
       11
 70
     0
 43
0.0
 10
0.8244950106501995
 20
-0.1124999999999999
 10
0.8257002774760446
 20
-0.1309667957003961
 10
0.8292373078736757
 20
-0.1489121276314528
 10
0.8350144919108887
 20
-0.165814389458266
 10
0.8428008656960183
 20
-0.1812180795333713
 10
0.852384152199373
 20
-0.1946963052946163
 10
0.8634086691167893
 20
-0.2058614886652252
 10
0.875555507409583
 20
-0.2143744397040005
 10
0.8884141785200813
 20
-0.2200105542860341
 10
0.9015631934048391
 20
-0.2225623760979638
 10
0.9057965085566181
 20
-0.222735999519477
  0
ELLIPSE
  5
1A4
330
126
100
AcDbEntity
  8
AM_9
100
AcDbEllipse
 10
0.9060264546253628
 20
-0.1125
 30
0.0
 11
-2.025002468262116E-17
 21
-0.1102360000000001
 31
0.0
210
0.0
220
0.0
230
1.0
 40
0.707106781186546
 41
0.0
 42
6.283185307179586
  0
LINE
  5
1A5
330
126
100
AcDbEntity
  8
AM_7
100
AcDbLine
 10
0.0
 20
0.61875
 30
0.0
 11
0.0
 21
-1.02578125
 31
0.0
  0
LINE
  5
1A6
330
126
100
AcDbEntity
  8
AM_7
100
AcDbLine
 10
1.61405
 20
-0.0000000000000001
 30
0.0
 11
2.47995
 21
-0.0000000000000002
 31
0.0
  0
LINE
  5
1A7
330
126
100
AcDbEntity
  8
AM_7
100
AcDbLine
 10
2.25
 20
-0.2299500000000005
 30
0.0
 11
2.25
 21
0.2299500000000001
 31
0.0
  0
LINE
  5
1A8
330
126
100
AcDbEntity
  8
AM_7
100
AcDbLine
 10
-2.47995
 20
0.0000000000000002
 30
0.0
 11
-1.61405
 21
0.0000000000000002
 31
0.0
  0
LINE
  5
1A9
330
126
100
AcDbEntity
  8
AM_7
100
AcDbLine
 10
-2.25
 20
-0.2299499999999997
 30
0.0
 11
-2.25
 21
0.2299500000000001
 31
0.0
  0
LINE
  5
1AA
330
126
100
AcDbEntity
  8
AM_7
100
AcDbLine
 10
-1.844
 20
-0.2299499999999999
 30
0.0
 11
-1.844
 21
0.2299500000000003
 31
0.0
  0
LINE
  5
1AB
330
126
100
AcDbEntity
  8
AM_7
100
AcDbLine
 10
1.844
 20
-0.2299500000000002
 30
0.0
 11
1.844
 21
0.22995
 31
0.0
  0
LINE
  5
1AC
330
126
100
AcDbEntity
  8
AM_4
100
AcDbLine
 10
2.609375
 20
0.5624999999999999
 30
0.0
 11
2.749999999999998
 21
0.4218750000000016
 31
0.0
  0
LINE
  5
1AD
330
126
100
AcDbEntity
  8
AM_4
100
AcDbLine
 10
2.749999999999998
 20
-0.4218750000000017
 30
0.0
 11
2.609375
 21
-0.5625000000000001
 31
0.0
  0
LINE
  5
1AE
330
126
100
AcDbEntity
  8
AM_4
100
AcDbLine
 10
2.749999999999998
 20
-0.4218750000000017
 30
0.0
 11
2.75
 21
0.4218749999999999
 31
0.0
  0
LINE
  5
1AF
330
126
100
AcDbEntity
  8
AM_4
100
AcDbLine
 10
1.844
 20
0.2189999999999999
 30
0.0
 11
2.25
 21
0.2189999999999999
 31
0.0
  0
LINE
  5
1B0
330
126
100
AcDbEntity
  8
AM_4
100
AcDbLine
 10
2.609375
 20
0.5624999999999999
 30
0.0
 11
0.9816144102791767
 21
0.5624999999999999
 31
0.0
  0
ARC
  5
1B1
330
126
100
AcDbEntity
  8
AM_4
100
AcDbCircle
 10
1.844
 20
-0.0000000000000001
 30
0.0
 40
0.219
100
AcDbArc
 50
90.0
 51
270.0
  0
LINE
  5
1B2
330
126
100
AcDbEntity
  8
AM_4
100
AcDbLine
 10
2.25
 20
-0.2190000000000001
 30
0.0
 11
1.844
 21
-0.2190000000000001
 31
0.0
  0
ARC
  5
1B3
330
126
100
AcDbEntity
  8
AM_4
100
AcDbCircle
 10
2.25
 20
-0.0000000000000002
 30
0.0
 40
0.2189999999999999
100
AcDbArc
 50
270.0
 51
90.0
  0
LINE
  5
1B4
330
126
100
AcDbEntity
  8
AM_4
100
AcDbLine
 10
2.609375
 20
-0.5625000000000001
 30
0.0
 11
0.9816144102791786
 21
-0.5625000000000044
 31
0.0
  0
LINE
  5
1B5
330
126
100
AcDbEntity
  8
AM_4
100
AcDbLine
 10
2.690944899999999
 20
-0.4809301000000012
 30
0.0
 11
2.690944899999999
 21
0.480930100000001
 31
0.0
  0
LINE
  5
1B6
330
126
100
AcDbEntity
  8
AM_4
100
AcDbLine
 10
-2.75
 20
0.4218750000000006
 30
0.0
 11
-2.609375
 21
0.5624999999999999
 31
0.0
  0
LINE
  5
1B7
330
126
100
AcDbEntity
  8
AM_4
100
AcDbLine
 10
-2.609375
 20
-0.5625000000000001
 30
0.0
 11
-2.75
 21
-0.4218750000000006
 31
0.0
  0
LINE
  5
1B8
330
126
100
AcDbEntity
  8
AM_4
100
AcDbLine
 10
-2.75
 20
-0.4218750000000006
 30
0.0
 11
-2.75
 21
0.4218750000000006
 31
0.0
  0
ARC
  5
1B9
330
126
100
AcDbEntity
  8
AM_4
100
AcDbCircle
 10
-2.25
 20
0.0000000000000002
 30
0.0
 40
0.219
100
AcDbArc
 50
90.0
 51
270.0
  0
LINE
  5
1BA
330
126
100
AcDbEntity
  8
AM_4
100
AcDbLine
 10
-2.25
 20
0.2190000000000002
 30
0.0
 11
-1.844
 21
0.2190000000000001
 31
0.0
  0
ARC
  5
1BB
330
126
100
AcDbEntity
  8
AM_4
100
AcDbCircle
 10
-1.844
 20
0.0000000000000002
 30
0.0
 40
0.219
100
AcDbArc
 50
270.0
 51
90.0
  0
LINE
  5
1BC
330
126
100
AcDbEntity
  8
AM_4
100
AcDbLine
 10
-1.844
 20
-0.2189999999999998
 30
0.0
 11
-2.25
 21
-0.2189999999999998
 31
0.0
  0
LINE
  5
1BD
330
126
100
AcDbEntity
  8
AM_4
100
AcDbLine
 10
-2.6909449
 20
-0.4809301000000002
 30
0.0
 11
-2.6909449
 21
0.4809301
 31
0.0
  0
LINE
  5
1BE
330
126
100
AcDbEntity
  8
AM_4
100
AcDbLine
 10
-0.9816209002884895
 20
-0.5625000000000001
 30
0.0
 11
-2.609375
 21
-0.5625000000000001
 31
0.0
  0
LINE
  5
1BF
330
126
100
AcDbEntity
  8
AM_4
100
AcDbLine
 10
-0.9816209002884897
 20
0.5625000000000008
 30
0.0
 11
-2.609375
 21
0.5624999999999999
 31
0.0
  0
LINE
  5
1C0
330
126
100
AcDbEntity
  8
AM_4
100
AcDbLine
 10
-1.3400551
 20
-0.5625000000000001
 30
0.0
 11
-1.3400551
 21
0.5624999999999999
 31
0.0
  0
LINE
  5
1C1
330
126
100
AcDbEntity
  8
AM_4
100
AcDbLine
 10
1.3400551
 20
-0.5625000000000001
 30
0.0
 11
1.3400551
 21
0.5624999999999999
 31
0.0
  0
LINE
  5
1C2
330
126
100
AcDbEntity
  8
AM_4
100
AcDbLine
 10
0.7986111111111109
 20
-0.4500000000000001
 30
0.0
 11
0.9166625049953435
 21
-0.45
 31
0.0
  0
LINE
  5
1C3
330
126
100
AcDbEntity
  8
AM_4
100
AcDbLine
 10
-0.9166689950046565
 20
-0.45
 30
0.0
 11
-0.7986111111111109
 21
-0.4500000000000001
 31
0.0
  0
LINE
  5
1C4
330
126
100
AcDbEntity
  8
AM_4
100
AcDbLine
 10
0.9166625049953431
 20
-0.4499999999999998
 30
0.0
 11
0.9816144102791786
 21
-0.5625000000000044
 31
0.0
  0
LINE
  5
1C5
330
126
100
AcDbEntity
  8
AM_4
100
AcDbLine
 10
-0.9816209002884895
 20
-0.5625000000000001
 30
0.0
 11
-0.9166689950046565
 21
-0.4500000000000001
 31
0.0
  0
LINE
  5
1C6
330
126
100
AcDbEntity
  8
AM_4
100
AcDbLine
 10
-0.7749871111111111
 20
0.4499999999999999
 30
0.0
 11
-0.9166689950046566
 21
0.4499999999999999
 31
0.0
  0
LINE
  5
1C7
330
126
100
AcDbEntity
  8
AM_4
100
AcDbLine
 10
0.9166625049953433
 20
0.45
 30
0.0
 11
0.7749871111111113
 21
0.4499999999999998
 31
0.0
  0
LINE
  5
1C8
330
126
100
AcDbEntity
  8
AM_4
100
AcDbLine
 10
-0.9166689950046562
 20
0.4499999999999996
 30
0.0
 11
-0.9816209002884897
 21
0.5625000000000008
 31
0.0
  0
LINE
  5
1C9
330
126
100
AcDbEntity
  8
AM_4
100
AcDbLine
 10
0.9816144102791767
 20
0.5624999999999999
 30
0.0
 11
0.9166625049953435
 21
0.4500000000000002
 31
0.0
  0
LWPOLYLINE
  5
1CA
330
126
100
AcDbEntity
  8
AM_4
100
AcDbPolyline
 90
       37
 70
     0
 43
0.0
 10
-1.0236
 20
-0.4831477821819869
 10
-1.019704892966711
 20
-0.4753426894393272
 10
-1.008049215983297
 20
-0.4675969981652831
 10
-0.9887216757894908
 20
-0.4599696577474262
 10
-0.9618693666364563
 20
-0.4525187168518504
 10
-0.9276966508107156
 20
-0.4453008816377723
 10
-0.8864636033137521
 20
-0.4383710841894191
 10
-0.8384840325342129
 20
-0.4317820644496986
 10
-0.7841230919765868
 20
-0.4255839688373894
 10
-0.7237945012225512
 20
-0.4198239686026132
 10
-0.6579573972751428
 20
-0.4145459008251402
 10
-0.5871128402489321
 20
-0.4097899347877413
 10
-0.5118000000000015
 20
-0.4055922662636919
 10
-0.4325920527177815
 20
-0.4019848420450816
 10
-0.3500918187081562
 20
-0.3989951168084364
 10
-0.264927174566942
 20
-0.3966458441680524
 10
-0.1777462746598718
 20
-0.3949549035072527
 10
-0.0892126182765049
 20
-0.3939351639054839
 10
-0.0000000000000021
 20
-0.3935943861968509
 10
0.0892126182765008
 20
-0.3939351639054839
 10
0.1777462746598677
 20
-0.3949549035072527
 10
0.264927174566938
 20
-0.3966458441680523
 10
0.3500918187081523
 20
-0.3989951168084362
 10
0.4325920527177777
 20
-0.4019848420450814
 10
0.5117999999999979
 20
-0.4055922662636918
 10
0.5871128402489286
 20
-0.4097899347877411
 10
0.6579573972751396
 20
-0.4145459008251399
 10
0.7237945012225482
 20
-0.419823968602613
 10
0.7841230919765843
 20
-0.4255839688373891
 10
0.8384840325342104
 20
-0.4317820644496984
 10
0.88646360331375
 20
-0.4383710841894187
 10
0.9276966508107138
 20
-0.445300881637772
 10
0.961869366636455
 20
-0.4525187168518501
 10
0.9887216757894897
 20
-0.4599696577474258
 10
1.008049215983296
 20
-0.4675969981652828
 10
1.019704892966711
 20
-0.4753426894393269
 10
1.0236
 20
-0.4831477821819866
  0
LWPOLYLINE
  5
1CB
330
126
100
AcDbEntity
  8
AM_4
100
AcDbPolyline
 90
        6
 70
     0
 43
0.0
 10
1.0236
 20
-0.4831477821819869
 10
1.019704892966711
 20
-0.4909528749246466
 10
1.008049215983297
 20
-0.4986985661986907
 10
0.9887216757894908
 20
-0.5063259066165476
 10
0.9618693666364563
 20
-0.5137768475121234
 10
0.954477985255332
 20
-0.5154983331229177
  0
LWPOLYLINE
  5
1CC
330
126
100
AcDbEntity
  8
AM_4
100
AcDbPolyline
 90
       37
 70
     0
 43
0.0
 10
1.0236
 20
0.4831477821819868
 10
1.019704892966711
 20
0.4753426894393272
 10
1.008049215983297
 20
0.467596998165283
 10
0.9887216757894908
 20
0.4599696577474261
 10
0.9618693666364563
 20
0.4525187168518504
 10
0.9276966508107155
 20
0.4453008816377723
 10
0.8864636033137521
 20
0.4383710841894189
 10
0.8384840325342128
 20
0.4317820644496986
 10
0.7841230919765867
 20
0.4255839688373892
 10
0.723794501222551
 20
0.4198239686026132
 10
0.6579573972751428
 20
0.4145459008251401
 10
0.587112840248932
 20
0.4097899347877413
 10
0.5118000000000014
 20
0.4055922662636919
 10
0.4325920527177814
 20
0.4019848420450816
 10
0.3500918187081561
 20
0.3989951168084364
 10
0.2649271745669419
 20
0.3966458441680524
 10
0.1777462746598717
 20
0.3949549035072527
 10
0.0892126182765048
 20
0.3939351639054839
 10
0.0000000000000019
 20
0.3935943861968509
 10
-0.0892126182765009
 20
0.3939351639054839
 10
-0.1777462746598678
 20
0.3949549035072527
 10
-0.2649271745669382
 20
0.3966458441680523
 10
-0.3500918187081524
 20
0.3989951168084362
 10
-0.4325920527177778
 20
0.4019848420450814
 10
-0.511799999999998
 20
0.4055922662636918
 10
-0.5871128402489287
 20
0.4097899347877411
 10
-0.6579573972751398
 20
0.4145459008251399
 10
-0.7237945012225483
 20
0.419823968602613
 10
-0.7841230919765843
 20
0.4255839688373891
 10
-0.8384840325342104
 20
0.4317820644496983
 10
-0.88646360331375
 20
0.4383710841894187
 10
-0.9276966508107138
 20
0.4453008816377719
 10
-0.961869366636455
 20
0.45251871685185
 10
-0.9887216757894899
 20
0.4599696577474257
 10
-1.008049215983296
 20
0.4675969981652827
 10
-1.019704892966711
 20
0.4753426894393268
 10
-1.0236
 20
0.4831477821819865
  0
LWPOLYLINE
  5
1CD
330
126
100
AcDbEntity
  8
AM_4
100
AcDbPolyline
 90
        6
 70
     0
 43
0.0
 10
-1.0236
 20
0.4831477821819868
 10
-1.019704892966711
 20
0.4909528749246465
 10
-1.008049215983297
 20
0.4986985661986906
 10
-0.9887216757894908
 20
0.5063259066165475
 10
-0.9618693666364563
 20
0.5137768475121233
 10
-0.9544837266556965
 20
0.5154970364941838
  0
LINE
  5
1CE
330
126
100
AcDbEntity
  8
AM_4
100
AcDbLine
 10
0.9895435436580873
 20
-0.2227359999999998
 30
0.0
 11
1.003462940645744
 21
-0.2227359999999998
 31
0.0
  0
LINE
  5
1CF
330
126
100
AcDbEntity
  8
AM_4
100
AcDbLine
 10
1.003462940645744
 20
-0.0022640000000001
 30
0.0
 11
0.9895435436580873
 21
-0.0022640000000001
 31
0.0
  0
ELLIPSE
  5
1D0
330
126
100
AcDbEntity
  8
AM_4
100
AcDbEllipse
 10
1.003462940645743
 20
-0.1125
 30
0.0
 11
-2.025002468262109E-17
 21
-0.1102359999999997
 31
0.0
210
0.0
220
0.0
230
1.0
 40
0.7071067811865501
 41
2.531529483967836
 42
6.893431984404311
  0
ELLIPSE
  5
1D1
330
126
100
AcDbEntity
  8
AM_4
100
AcDbEllipse
 10
0.9895435436580875
 20
-0.1125
 30
0.0
 11
-2.025002468262114E-17
 21
-0.110236
 31
0.0
210
0.0
220
0.0
230
1.0
 40
0.7071067811865487
 41
3.141592653589793
 42
6.283185307179586
  0
LINE
  5
1D2
330
126
100
AcDbEntity
  8
AM_4
100
AcDbLine
 10
0.9849275523975735
 20
-0.2943428181342336
 30
0.0
 11
0.9106424458858765
 21
-0.2943428181342336
 31
0.0
  0
LWPOLYLINE
  5
1D3
330
126
100
AcDbEntity
  8
AM_4
100
AcDbPolyline
 90
        5
 70
     0
 43
0.0
 10
0.9106424458858765
 20
-0.2943428181342336
 10
0.8798300244439531
 20
-0.2719311359735596
 10
0.850884752537668
 20
-0.2493193539571325
 10
0.8239744533301905
 20
-0.2263715522972782
 10
0.7992869164312285
 20
-0.2034214090671168
  0
LINE
  5
1D4
330
126
100
AcDbEntity
  8
AM_4
100
AcDbLine
 10
0.9849275523975735
 20
0.0693428181342338
 30
0.0
 11
0.9106424458858765
 21
0.0693428181342338
 31
0.0
  0
LWPOLYLINE
  5
1D5
330
126
100
AcDbEntity
  8
AM_4
100
AcDbPolyline
 90
        5
 70
     0
 43
0.0
 10
0.7992869164312285
 20
-0.0215785909328831
 10
0.8233716805603928
 20
0.000833091227791
 10
0.8498137367693951
 20
0.023444873244218
 10
0.8791138423471533
 20
0.0463926749040723
 10
0.9106424458858765
 20
0.0693428181342338
  0
LINE
  5
1D6
330
126
100
AcDbEntity
  8
AM_4
100
AcDbLine
 10
0.8735720229429254
 20
-0.2034214090671168
 30
0.0
 11
0.7992869164312285
 21
-0.2034214090671168
 31
0.0
  0
LINE
  5
1D7
330
126
100
AcDbEntity
  8
AM_4
100
AcDbLine
 10
0.8735720229429254
 20
-0.0215785909328831
 30
0.0
 11
0.7992869164312285
 21
-0.0215785909328831
 31
0.0
  0
LWPOLYLINE
  5
1D8
330
126
100
AcDbEntity
  8
AM_4
100
AcDbPolyline
 90
        5
 70
     0
 43
0.0
 10
0.7992869164312285
 20
-0.2034214090671168
 10
0.7959230877748489
 20
-0.1585980447457687
 10
0.7946714799262075
 20
-0.1133744807129145
 10
0.7958663831113479
 20
-0.0674788773932059
 10
0.7992869164312285
 20
-0.0215785909328831
  0
ELLIPSE
  5
1D9
330
126
100
AcDbEntity
  8
AM_4
100
AcDbEllipse
 10
0.989543543658087
 20
-0.1124999999999997
 30
0.0
 11
-2.892860668945874E-17
 21
-0.1574799999999998
 31
0.0
210
0.0
220
0.0
230
1.0
 40
0.7071067811865465
 41
2.288753463089312
 42
7.134723258064499
  0
LWPOLYLINE
  5
1DA
330
126
100
AcDbEntity
  8
AM_4
100
AcDbPolyline
 90
        3
 70
     0
 43
0.0
 10
1.081063415281321
 20
-0.0072139019831151
 10
1.076028518906586
 20
-0.0026142973958697
 10
1.054145585420093
 20
0.0164882211464898
  0
LWPOLYLINE
  5
1DB
330
126
100
AcDbEntity
  8
AM_4
100
AcDbPolyline
 90
        3
 70
     0
 43
0.0
 10
1.036034321694324
 20
0.0312760060548611
 10
1.011201272996964
 20
0.0503224548133496
 10
0.9849275523975735
 20
0.0693428181342338
  0
LWPOLYLINE
  5
1DC
330
126
100
AcDbEntity
  8
AM_4
100
AcDbPolyline
 90
        3
 70
     0
 43
0.0
 10
0.9849275523975735
 20
0.0693428181342338
 10
0.9646729894519385
 20
0.0503785245972211
 10
0.942790055965447
 20
0.0312760060548624
  0
LWPOLYLINE
  5
1DD
330
126
100
AcDbEntity
  8
AM_4
100
AcDbPolyline
 90
        3
 70
     0
 43
0.0
 10
0.9246787922396735
 20
0.016488221146488
 10
0.8998457435423152
 20
-0.0025582276119998
 10
0.8735720229429254
 20
-0.0215785909328831
  0
LWPOLYLINE
  5
1DE
330
126
100
AcDbEntity
  8
AM_4
100
AcDbPolyline
 90
        3
 70
     0
 43
0.0
 10
0.8735720229429254
 20
-0.0215785909328831
 10
0.8765438812463113
 20
-0.0595071780069072
 10
0.8780566593752365
 20
-0.0977122150916235
  0
LWPOLYLINE
  5
1DF
330
126
100
AcDbEntity
  8
AM_4
100
AcDbPolyline
 90
        3
 70
     0
 43
0.0
 10
0.8780566593752365
 20
-0.1272877849083764
 10
0.8763571904769851
 20
-0.1685058299020098
 10
0.8735720229429254
 20
-0.2034214090671168
  0
LWPOLYLINE
  5
1E0
330
126
100
AcDbEntity
  8
AM_4
100
AcDbPolyline
 90
        3
 70
     0
 43
0.0
 10
0.8735720229429254
 20
-0.2034214090671168
 10
0.8997703024953321
 20
-0.2223857026041293
 10
0.9246787922396735
 20
-0.2414882211464879
  0
LWPOLYLINE
  5
1E1
330
126
100
AcDbEntity
  8
AM_4
100
AcDbPolyline
 90
        3
 70
     0
 43
0.0
 10
0.942790055965447
 20
-0.2562760060548622
 10
0.9646110881384501
 20
-0.2753224548133502
 10
0.9849275523975735
 20
-0.2943428181342336
  0
LWPOLYLINE
  5
1E2
330
126
100
AcDbEntity
  8
AM_4
100
AcDbPolyline
 90
        3
 70
     0
 43
0.0
 10
0.9849275523975735
 20
-0.2943428181342336
 10
1.011125831949981
 20
-0.2753785245972203
 10
1.036034321694324
 20
-0.2562760060548609
  0
LWPOLYLINE
  5
1E3
330
126
100
AcDbEntity
  8
AM_4
100
AcDbPolyline
 90
        3
 70
     0
 43
0.0
 10
1.054145585420093
 20
-0.2414882211464896
 10
1.075966617593097
 20
-0.222441772388001
 10
1.081059334343035
 20
-0.217789857297926
  0
LWPOLYLINE
  5
1E4
330
126
100
AcDbEntity
  8
AM_4
100
AcDbPolyline
 90
        3
 70
     0
 43
0.0
 10
1.12372554152541
 20
-0.2100351970895635
 10
1.126241904045861
 20
-0.2085437350278049
 10
1.126856160272068
 20
-0.2081587243413704
  0
LWPOLYLINE
  5
1E5
330
126
100
AcDbEntity
  8
AM_4
100
AcDbPolyline
 90
       21
 70
     0
 43
0.0
 10
1.010361768950883
 20
-0.1124999999999999
 10
1.01048571662207
 20
-0.1184339118350953
 10
1.011352870439629
 20
-0.1292318586418708
 10
1.013044639207811
 20
-0.139875020690633
 10
1.015551738611255
 20
-0.1502564854002235
 10
1.018860180841681
 20
-0.160273320928827
 10
1.022950612669705
 20
-0.1698226991685587
 10
1.027797015154562
 20
-0.1788011930221788
 10
1.033361371763739
 20
-0.1871003491346289
 10
1.039593119512026
 20
-0.1946142767921991
 10
1.046424857224847
 20
-0.2012408909384841
 10
1.053770775955892
 20
-0.2068882420834812
 10
1.061529147515095
 20
-0.211482501278977
 10
1.069589208018727
 20
-0.214974269642739
 10
1.07784009743085
 20
-0.2173400450419549
 10
1.086178339824053
 20
-0.2185783152634681
 10
1.094511746980632
 20
-0.2187025304273496
 10
1.102759756522165
 20
-0.2177338894216176
 10
1.110839273987263
 20
-0.2156997626064386
 10
1.118686438407235
 20
-0.2126277977013448
 10
1.122235602972002
 20
-0.2108552053723732
  0
LWPOLYLINE
  5
1E6
330
126
100
AcDbEntity
  8
AM_4
100
AcDbPolyline
 90
       22
 70
     0
 43
0.0
 10
1.126138023573287
 20
-0.0163919789756991
 10
1.125802334318598
 20
-0.0161858600162742
 10
1.117912554707948
 20
-0.0120184509296093
 10
1.109764919772444
 20
-0.0089656988241893
 10
1.101468116056026
 20
-0.0070417976283114
 10
1.093121454178829
 20
-0.0062415007441424
 10
1.084812449047709
 20
-0.0065475363986516
 10
1.076621517955932
 20
-0.0079363600563497
 10
1.068625744952827
 20
-0.0103795240499302
 10
1.060885578551052
 20
-0.0138503495903682
 10
1.053460645274579
 20
-0.0183230949493262
 10
1.0464140190257
 20
-0.0237684942577907
 10
1.039814009926463
 20
-0.0301474073218278
 10
1.033732553099737
 20
-0.0374050885210063
 10
1.028240700756654
 20
-0.0454686850598187
 10
1.023403231402717
 20
-0.0542490062447864
 10
1.019274670922619
 20
-0.063645291702601
 10
1.015897814897369
 20
-0.0735505239333544
 10
1.013304871447746
 20
-0.0838528540397515
 10
1.011517130188614
 20
-0.0944445192093603
 10
1.010548473244305
 20
-0.1052186861192931
 10
1.010361768950883
 20
-0.1124999999999999
  0
ELLIPSE
  5
1E7
330
126
100
AcDbEntity
  8
AM_4
100
AcDbEllipse
 10
1.096451958120716
 20
-0.1125
 30
0.0
 11
-1.926567240316126E-17
 21
-0.1048774357720924
 31
0.0
210
0.0
220
0.0
230
1.0
 40
0.7071067811865481
 41
2.730079687431011
 42
6.694698273338369
  0
LINE
  5
1E8
330
126
100
AcDbEntity
  8
AM_4
100
AcDbLine
 10
1.157577861420433
 20
-0.0357968572406095
 30
0.0
 11
1.126115512820674
 21
-0.0163780796110763
 31
0.0
  0
LINE
  5
1E9
330
126
100
AcDbEntity
  8
AM_4
100
AcDbLine
 10
1.126115512820674
 20
-0.2086219203889236
 30
0.0
 11
1.157577861420433
 21
-0.1892031427593903
 31
0.0
  0
ELLIPSE
  5
1EA
330
126
100
AcDbEntity
  8
AM_4
100
AcDbEllipse
 10
1.133907008178054
 20
-0.1125000000000001
 30
0.0
 11
-1.537357571213911E-17
 21
-0.08368984822313827
 31
0.0
210
0.0
220
0.0
230
1.0
 40
0.7071067811865464
 41
2.729839663796468
 42
6.694698273338373
  0
ELLIPSE
  5
1EB
330
126
100
AcDbEntity
  8
AM_4
100
AcDbEllipse
 10
1.142656910522316
 20
-0.1124999999999999
 30
0.0
 11
4.005376489621564E-18
 21
0.0654127621516712
 31
0.0
210
0.0
220
0.0
230
1.0
 40
0.7071067811865475
 41
0.0
 42
6.283185307179586
  0
LWPOLYLINE
  5
1EC
330
126
100
AcDbEntity
  8
AM_4
100
AcDbPolyline
 90
       21
 70
     0
 43
0.0
 10
1.158362026253612
 20
-0.1887108539747872
 10
1.164572923936168
 20
-0.1841847835756081
 10
1.170583641962741
 20
-0.1785758711945318
 10
1.17607775264444
 20
-0.1720886969123281
 10
1.180976666205207
 20
-0.1647973135351865
 10
1.185206461114534
 20
-0.1567989836343271
 10
1.188705077240312
 20
-0.1482083038872583
 10
1.191425682927227
 20
-0.1391488396779127
 10
1.193335752128789
 20
-0.1297490026946175
 10
1.194416350133921
 20
-0.1201295730548413
 10
1.194656835328699
 20
-0.1104091496233884
 10
1.194053100191707
 20
-0.1007045242448974
 10
1.192606888886942
 20
-0.0911330194253018
 10
1.19032526695993
 20
-0.0818099642525699
 10
1.187220364997301
 20
-0.0728499808652139
 10
1.183310585794113
 20
-0.0643693152300483
 10
1.178624996335524
 20
-0.0564896813206593
 10
1.173210662008435
 20
-0.0493391153662219
 10
1.167136551935309
 20
-0.0430430234769753
 10
1.160498524325039
 20
-0.0377168562982974
 10
1.157603025707302
 20
-0.0358123972992958
  0
LWPOLYLINE
  5
1ED
330
126
100
AcDbEntity
  8
AM_4
100
AcDbPolyline
 90
       19
 70
     0
 43
0.0
 10
1.3400551
 20
-0.5625
 10
1.334908108896463
 20
-0.5624803393301475
 10
1.329800289503062
 20
-0.5624215069501588
 10
1.324770515409567
 20
-0.5623239506099696
 10
1.319857066233889
 20
-0.5621884127722351
 10
1.315097336291077
 20
-0.5620159249617401
 10
1.31052755
 20
-0.5618077999148737
 10
1.306182486193646
 20
-0.5615656215889119
 10
1.302095213431201
 20
-0.5612912331071462
 10
1.298296838326351
 20
-0.5609867227316037
 10
1.294816268807165
 20
-0.5606544079701101
 10
1.291679994109309
 20
-0.5602968179386579
 10
1.28891188317697
 20
-0.5599166741133051
 10
1.286533003005772
 20
-0.5595168696180997
 10
1.284561458310226
 20
-0.5591004472066587
 10
1.283012253735917
 20
-0.5586705761049762
 10
1.281897179665089
 20
-0.5582305278916989
 10
1.281224722484722
 20
-0.5577836515994385
 10
1.281
 20
-0.5573333482266102
  0
LWPOLYLINE
  5
1EE
330
126
100
AcDbEntity
  8
AM_4
100
AcDbPolyline
 90
       19
 70
     0
 43
0.0
 10
-1.281
 20
-0.5573333482266102
 10
-1.281224722484722
 20
-0.5577836515994385
 10
-1.281897179665089
 20
-0.558230527891699
 10
-1.283012253735917
 20
-0.5586705761049762
 10
-1.284561458310227
 20
-0.5591004472066587
 10
-1.286533003005772
 20
-0.5595168696180997
 10
-1.28891188317697
 20
-0.5599166741133051
 10
-1.29167999410931
 20
-0.5602968179386579
 10
-1.294816268807165
 20
-0.5606544079701101
 10
-1.298296838326351
 20
-0.5609867227316037
 10
-1.302095213431201
 20
-0.5612912331071462
 10
-1.306182486193646
 20
-0.5615656215889119
 10
-1.310527550000001
 20
-0.5618077999148737
 10
-1.315097336291078
 20
-0.5620159249617401
 10
-1.319857066233889
 20
-0.562188412772235
 10
-1.324770515409567
 20
-0.5623239506099696
 10
-1.329800289503062
 20
-0.5624215069501587
 10
-1.334908108896464
 20
-0.5624803393301474
 10
-1.3400551
 20
-0.5625
  0
LWPOLYLINE
  5
1EF
330
126
100
AcDbEntity
  8
AM_4
100
AcDbPolyline
 90
        6
 70
     0
 43
0.0
 10
-0.9544837266556974
 20
-0.5154970364941837
 10
-0.9830777835422885
 20
-0.5080958662949846
 10
-1.004190024897528
 20
-0.5005048261116204
 10
-1.017659773816781
 20
-0.4927816883434821
 10
-1.023384517377518
 20
-0.4849852307323433
 10
-1.0236
 20
-0.4831477821819869
  0
LWPOLYLINE
  5
1F0
330
126
100
AcDbEntity
  8
AM_4
100
AcDbPolyline
 90
       19
 70
     0
 43
0.0
 10
-1.3400551
 20
0.5624999999999999
 10
-1.334908108896463
 20
0.5624803393301473
 10
-1.329800289503062
 20
0.5624215069501587
 10
-1.324770515409567
 20
0.5623239506099695
 10
-1.319857066233889
 20
0.562188412772235
 10
-1.315097336291077
 20
0.56201592496174
 10
-1.31052755
 20
0.5618077999148736
 10
-1.306182486193646
 20
0.5615656215889118
 10
-1.302095213431201
 20
0.5612912331071462
 10
-1.298296838326351
 20
0.5609867227316035
 10
-1.294816268807165
 20
0.5606544079701101
 10
-1.29167999410931
 20
0.5602968179386578
 10
-1.28891188317697
 20
0.559916674113305
 10
-1.286533003005772
 20
0.5595168696180997
 10
-1.284561458310227
 20
0.5591004472066587
 10
-1.283012253735917
 20
0.5586705761049762
 10
-1.281897179665089
 20
0.5582305278916989
 10
-1.281224722484722
 20
0.5577836515994384
 10
-1.281
 20
0.5573333482266102
  0
LINE
  5
1F1
330
126
100
AcDbEntity
  8
AM_4
100
AcDbLine
 10
-1.281
 20
-0.5573333482266102
 30
0.0
 11
-1.281
 21
0.5573333482266102
 31
0.0
  0
LINE
  5
1F2
330
126
100
AcDbEntity
  8
AM_4
100
AcDbLine
 10
1.281
 20
0.5573333482266102
 30
0.0
 11
1.281
 21
-0.5573333482266102
 31
0.0
  0
LWPOLYLINE
  5
1F3
330
126
100
AcDbEntity
  8
AM_4
100
AcDbPolyline
 90
       19
 70
     0
 43
0.0
 10
1.281
 20
0.5573333482266102
 10
1.281224722484722
 20
0.5577836515994384
 10
1.281897179665089
 20
0.5582305278916989
 10
1.283012253735917
 20
0.5586705761049762
 10
1.284561458310226
 20
0.5591004472066587
 10
1.286533003005772
 20
0.5595168696180997
 10
1.28891188317697
 20
0.559916674113305
 10
1.291679994109309
 20
0.5602968179386579
 10
1.294816268807165
 20
0.5606544079701101
 10
1.29829683832635
 20
0.5609867227316035
 10
1.302095213431201
 20
0.5612912331071462
 10
1.306182486193646
 20
0.5615656215889118
 10
1.31052755
 20
0.5618077999148736
 10
1.315097336291077
 20
0.56201592496174
 10
1.319857066233889
 20
0.562188412772235
 10
1.324770515409567
 20
0.5623239506099696
 10
1.329800289503062
 20
0.5624215069501587
 10
1.334908108896463
 20
0.5624803393301474
 10
1.3400551
 20
0.5624999999999999
  0
LWPOLYLINE
  5
1F4
330
126
100
AcDbEntity
  8
AM_4
100
AcDbPolyline
 90
        6
 70
     0
 43
0.0
 10
0.9544779852553323
 20
0.5154983331229176
 10
0.9830733556843555
 20
0.5080972017686332
 10
1.004186944280699
 20
0.5005061902664227
 10
1.017658063886411
 20
0.4927830707973966
 10
1.023384191147209
 20
0.4849866209640608
 10
1.0236
 20
0.4831477821819868
  0
LWPOLYLINE
  5
1F5
330
126
100
AcDbEntity
  8
AM_4
100
AcDbPolyline
 90
       37
 70
     0
 43
0.0
 10
-1.281000000000001
 20
-0.4831477821819869
 10
-1.276125408255527
 20
-0.4733799785444849
 10
-1.261538731608639
 20
-0.4636865137906254
 10
-1.237350983476298
 20
-0.4541411610402593
 10
-1.20374624722675
 20
-0.4448165661914585
 10
-1.16098027519395
 20
-0.4357836950413666
 10
-1.109378542247867
 20
-0.4271112931936326
 10
-1.0493337687342
 20
-0.4188653628628571
 10
-0.9813029316354126
 20
-0.4111086605578861
 10
-0.9058037866999693
 20
-0.4039002194668856
 10
-0.8234109280084588
 20
-0.3972949001791336
 10
-0.7347514149656922
 20
-0.3913429731628108
 10
-0.6405000000000022
 20
-0.3860897361763833
 10
-0.5413739932898385
 20
-0.3815751695253088
 10
-0.4381278036001842
 20
-0.3778336317877721
 10
-0.3315471967763318
 20
-0.3748935983251579
 10
-0.2224433155913406
 20
-0.3727774445673577
 10
-0.111646506459753
 20
-0.3715012757222366
 10
-0.000000000000003
 20
-0.3710748042052781
 10
0.1116465064597471
 20
-0.3715012757222366
 10
0.2224433155913347
 20
-0.3727774445673576
 10
0.331547196776326
 20
-0.3748935983251578
 10
0.4381278036001785
 20
-0.3778336317877719
 10
0.5413739932898329
 20
-0.3815751695253086
 10
0.6404999999999971
 20
-0.386089736176383
 10
0.7347514149656871
 20
-0.3913429731628106
 10
0.8234109280084541
 20
-0.3972949001791333
 10
0.9058037866999648
 20
-0.4039002194668853
 10
0.9813029316354085
 20
-0.4111086605578858
 10
1.049333768734196
 20
-0.4188653628628567
 10
1.109378542247864
 20
-0.4271112931936322
 10
1.160980275193947
 20
-0.4357836950413662
 10
1.203746247226747
 20
-0.444816566191458
 10
1.237350983476296
 20
-0.4541411610402589
 10
1.261538731608638
 20
-0.463686513790625
 10
1.276125408255526
 20
-0.4733799785444844
 10
1.281
 20
-0.4831477821819865
  0
LWPOLYLINE
  5
1F6
330
126
100
AcDbEntity
  8
AM_4
100
AcDbPolyline
 90
       37
 70
     0
 43
0.0
 10
1.281
 20
0.4831477821819867
 10
1.276125408255526
 20
0.4733799785444848
 10
1.261538731608638
 20
0.4636865137906254
 10
1.237350983476297
 20
0.4541411610402593
 10
1.203746247226749
 20
0.4448165661914584
 10
1.160980275193949
 20
0.4357836950413665
 10
1.109378542247866
 20
0.4271112931936324
 10
1.049333768734199
 20
0.418865362862857
 10
0.9813029316354114
 20
0.4111086605578861
 10
0.9058037866999679
 20
0.4039002194668856
 10
0.8234109280084574
 20
0.3972949001791335
 10
0.7347514149656909
 20
0.3913429731628108
 10
0.6405000000000008
 20
0.3860897361763832
 10
0.5413739932898369
 20
0.3815751695253087
 10
0.4381278036001827
 20
0.3778336317877721
 10
0.3315471967763302
 20
0.374893598325158
 10
0.222443315591339
 20
0.3727774445673577
 10
0.1116465064597515
 20
0.3715012757222366
 10
0.0000000000000015
 20
0.3710748042052781
 10
-0.1116465064597486
 20
0.3715012757222366
 10
-0.2224433155913362
 20
0.3727774445673576
 10
-0.3315471967763275
 20
0.3748935983251578
 10
-0.43812780360018
 20
0.3778336317877719
 10
-0.5413739932898344
 20
0.3815751695253086
 10
-0.6404999999999984
 20
0.386089736176383
 10
-0.7347514149656885
 20
0.3913429731628106
 10
-0.8234109280084554
 20
0.3972949001791334
 10
-0.9058037866999661
 20
0.4039002194668853
 10
-0.9813029316354102
 20
0.4111086605578859
 10
-1.049333768734198
 20
0.4188653628628567
 10
-1.109378542247865
 20
0.4271112931936323
 10
-1.160980275193948
 20
0.4357836950413662
 10
-1.203746247226749
 20
0.4448165661914581
 10
-1.237350983476297
 20
0.454141161040259
 10
-1.261538731608639
 20
0.4636865137906251
 10
-1.276125408255527
 20
0.4733799785444845
 10
-1.281000000000001
 20
0.4831477821819865
  0
ENDBLK
  5
129
330
126
100
AcDbEntity
  8
0
100
AcDbBlockEnd
  0
ENDSEC
  0
SECTION
  2
ENTITIES
  0
INSERT
  5
6F
330
1F
100
AcDbEntity
  8
0
100
AcDbBlockReference
  2
1__129262_4
 10
0.0
 20
0.0
 30
0.0
  0
POINT
  5
1F8
330
1F
100
AcDbEntity
  8
ConnectionPoints
100
AcDbPoint
 10
0.0
 20
0.0
 30
0.0
  0
POINT
  5
1F9
330
1F
100
AcDbEntity
  8
ConnectionPoints
100
AcDbPoint
 10
0.0
 20
0.5
 30
0.0
  0
POINT
  5
1FA
330
1F
100
AcDbEntity
  8
ConnectionPoints
100
AcDbPoint
 10
0.0
 20
0.0
 30
0.0
  0
ENDSEC
  0
SECTION
  2
OBJECTS
  0
DICTIONARY
  5
C
330
0
100
AcDbDictionary
281
     1
  3
ACAD_DETAILVIEWSTYLE
350
202
  3
ACAD_GROUP
350
D
  3
ACAD_LAYOUT
350
1A
  3
ACAD_MATERIAL
350
43
  3
ACAD_MLEADERSTYLE
350
6B
  3
ACAD_MLINESTYLE
350
17
  3
ACAD_PLOTSETTINGS
350
19
  3
ACAD_PLOTSTYLENAME
350
E
  3
ACAD_SCALELIST
350
47
  3
ACAD_SECTIONVIEWSTYLE
350
203
  3
ACAD_TABLESTYLE
350
69
  3
ACAD_VISUALSTYLE
350
2A
  3
ACDB_RECOMPOSE_DATA
350
1FF
  3
AcDbVariableDictionary
350
1FB
  0
SUN
  5
6D
330
29
100
AcDbSun
 90
        1
290
     0
 63
     7
421
 16777215
 40
1.0
291
     1
 91
  2455826
 92
 54000000
292
     0
 70
     2
 71
   256
280
     1
  0
DICTIONARY
  5
202
102
{ACAD_REACTORS
330
C
102
}
330
C
100
AcDbDictionary
281
     1
  0
DICTIONARY
  5
D
102
{ACAD_REACTORS
330
C
102
}
330
C
100
AcDbDictionary
281
     1
  0
DICTIONARY
  5
1A
102
{ACAD_REACTORS
330
C
102
}
330
C
100
AcDbDictionary
281
     1
  3
Layout1
350
1E
  3
Layout2
350
26
  3
Model
350
22
  0
DICTIONARY
  5
43
102
{ACAD_REACTORS
330
C
102
}
330
C
100
AcDbDictionary
281
     1
  3
ByBlock
350
45
  3
ByLayer
350
44
  3
Global
350
46
  0
DICTIONARY
  5
6B
102
{ACAD_REACTORS
330
C
102
}
330
C
100
AcDbDictionary
281
     1
  3
Standard
350
6C
  0
DICTIONARY
  5
17
102
{ACAD_REACTORS
330
C
102
}
330
C
100
AcDbDictionary
281
     1
  3
Standard
350
18
  0
DICTIONARY
  5
19
102
{ACAD_REACTORS
330
C
102
}
330
C
100
AcDbDictionary
281
     1
  0
ACDBDICTIONARYWDFLT
  5
E
102
{ACAD_REACTORS
330
C
102
}
330
C
100
AcDbDictionary
281
     1
  3
Normal
350
F
100
AcDbDictionaryWithDefault
340
F
  0
DICTIONARY
  5
47
102
{ACAD_REACTORS
330
C
102
}
330
C
100
AcDbDictionary
281
     1
  3
A0
350
48
  3
A1
350
49
  3
A2
350
4A
  3
A3
350
4B
  3
A4
350
4C
  3
A5
350
4D
  3
A6
350
4E
  3
A7
350
4F
  3
A8
350
50
  3
A9
350
51
  3
B0
350
52
  3
B1
350
53
  3
B2
350
54
  3
B3
350
55
  3
B4
350
56
  3
B5
350
57
  3
B6
350
58
  3
B7
350
59
  3
B8
350
5A
  3
B9
350
5B
  3
C0
350
5C
  3
C1
350
5D
  3
C2
350
5E
  3
C3
350
5F
  3
C4
350
60
  3
C5
350
61
  3
C6
350
62
  3
C7
350
63
  3
C8
350
64
  3
C9
350
65
  3
D0
350
66
  3
D1
350
67
  3
D2
350
68
  0
DICTIONARY
  5
203
102
{ACAD_REACTORS
330
C
102
}
330
C
100
AcDbDictionary
281
     1
  0
DICTIONARY
  5
69
102
{ACAD_REACTORS
330
C
102
}
330
C
100
AcDbDictionary
281
     1
  3
Standard
350
6A
  0
DICTIONARY
  5
2A
102
{ACAD_REACTORS
330
C
102
}
330
C
100
AcDbDictionary
281
     1
  3
2dWireframe
350
2F
  3
Basic
350
32
  3
Brighten
350
36
  3
ColorChange
350
3A
  3
Conceptual
350
34
  3
Dim
350
35
  3
EdgeColorOff
350
3D
  3
Facepattern
350
39
  3
Flat
350
2B
  3
FlatWithEdges
350
2C
  3
Gouraud
350
2D
  3
GouraudWithEdges
350
2E
  3
Hidden
350
31
  3
JitterOff
350
3B
  3
Linepattern
350
38
  3
OverhangOff
350
3C
  3
Realistic
350
33
  3
Shaded
350
42
  3
Shaded with edges
350
41
  3
Shades of Gray
350
3E
  3
Sketchy
350
3F
  3
Thicken
350
37
  3
Wireframe
350
30
  3
X-Ray
350
40
  0
XRECORD
  5
1FF
102
{ACAD_REACTORS
330
C
102
}
330
C
100
AcDbXrecord
280
     1
 90
        1
330
6A
  0
DICTIONARY
  5
1FB
102
{ACAD_REACTORS
330
C
102
}
330
C
100
AcDbDictionary
281
     1
  3
CANNOSCALE
350
1FC
  3
CMLEADERSTYLE
350
201
  3
CTABLESTYLE
350
200
  0
LAYOUT
  5
1E
102
{ACAD_REACTORS
330
1A
102
}
330
1A
100
AcDbPlotSettings
  1

  2
none_device
  4

  6

 40
0.0
 41
0.0
 42
0.0
 43
0.0
 44
0.0
 45
0.0
 46
0.0
 47
0.0
 48
0.0
 49
0.0
140
0.0
141
0.0
142
1.0
143
1.0
 70
   688
 72
     0
 73
     0
 74
     5
  7

 75
    16
 76
     0
 77
     2
 78
   300
147
1.0
148
0.0
149
0.0
100
AcDbLayout
  1
Layout1
 70
     1
 71
     1
 10
0.0
 20
0.0
 11
12.0
 21
9.0
 12
0.0
 22
0.0
 32
0.0
 14
1.000000000000000E+20
 24
1.000000000000000E+20
 34
1.000000000000000E+20
 15
-1.000000000000000E+20
 25
-1.000000000000000E+20
 35
-1.000000000000000E+20
146
0.0
 13
0.0
 23
0.0
 33
0.0
 16
1.0
 26
0.0
 36
0.0
 17
0.0
 27
1.0
 37
0.0
 76
     0
330
1B
  0
LAYOUT
  5
26
102
{ACAD_REACTORS
330
1A
102
}
330
1A
100
AcDbPlotSettings
  1

  2
none_device
  4

  6

 40
0.0
 41
0.0
 42
0.0
 43
0.0
 44
0.0
 45
0.0
 46
0.0
 47
0.0
 48
0.0
 49
0.0
140
0.0
141
0.0
142
1.0
143
1.0
 70
   688
 72
     0
 73
     0
 74
     5
  7

 75
    16
 76
     0
 77
     2
 78
   300
147
1.0
148
0.0
149
0.0
100
AcDbLayout
  1
Layout2
 70
     1
 71
     2
 10
0.0
 20
0.0
 11
0.0
 21
0.0
 12
0.0
 22
0.0
 32
0.0
 14
0.0
 24
0.0
 34
0.0
 15
0.0
 25
0.0
 35
0.0
146
0.0
 13
0.0
 23
0.0
 33
0.0
 16
1.0
 26
0.0
 36
0.0
 17
0.0
 27
1.0
 37
0.0
 76
     0
330
23
  0
LAYOUT
  5
22
102
{ACAD_REACTORS
330
1A
102
}
330
1A
100
AcDbPlotSettings
  1

  2
none_device
  4
Letter_(8.50_x_11.00_Inches)
  6

 40
6.35
 41
6.35
 42
6.35000508
 43
6.35000508
 44
215.9
 45
279.4
 46
0.0
 47
0.0
 48
0.0
 49
0.0
140
0.0
141
0.0
142
1.0
143
1.0
 70
  1712
 72
     0
 73
     0
 74
     0
  7

 75
     0
 76
     0
 77
     2
 78
   300
147
1.0
148
0.0
149
0.0
100
AcDbLayout
  1
Model
 70
     1
 71
     0
 10
0.0
 20
0.0
 11
12.0
 21
9.0
 12
0.0
 22
0.0
 32
0.0
 14
1.000000000000000E+20
 24
1.000000000000000E+20
 34
1.000000000000000E+20
 15
-1.000000000000000E+20
 25
-1.000000000000000E+20
 35
-1.000000000000000E+20
146
0.0
 13
0.0
 23
0.0
 33
0.0
 16
1.0
 26
0.0
 36
0.0
 17
0.0
 27
1.0
 37
0.0
 76
     0
330
1F
331
29
  0
MATERIAL
  5
45
102
{ACAD_REACTORS
330
43
102
}
330
43
100
AcDbMaterial
  1
ByBlock
 72
     1
 94
      127
  0
MATERIAL
  5
44
102
{ACAD_REACTORS
330
43
102
}
330
43
100
AcDbMaterial
  1
ByLayer
 72
     1
 94
      127
  0
MATERIAL
  5
46
102
{ACAD_REACTORS
330
43
102
}
330
43
100
AcDbMaterial
  1
Global
 72
     1
 94
      127
  0
MLEADERSTYLE
  5
6C
102
{ACAD_REACTORS
330
6B
102
}
330
6B
100
AcDbMLeaderStyle
179
     2
170
     2
171
     1
172
     0
 90
        2
 40
0.0
 41
0.0
173
     1
 91
-1056964608
340
14
 92
       -2
290
     1
 42
0.09
291
     1
 43
0.36
  3
Standard
341
0
 44
0.18
300

342
11
174
     1
178
     6
175
     1
176
     0
 93
-1056964608
 45
0.18
292
     0
297
     0
 46
0.18
343
0
 94
-1056964608
 47
1.0
 49
1.0
140
1.0
293
     1
141
0.0
294
     1
177
     0
142
1.0
295
     0
296
     0
143
0.125
271
     0
272
     9
273
     9
298
     0
  0
MLINESTYLE
  5
18
102
{ACAD_REACTORS
330
17
102
}
330
17
100
AcDbMlineStyle
  2
Standard
 70
     0
  3

 62
   256
 51
90.0
 52
90.0
 71
     2
 49
0.5
 62
   256
  6
BYLAYER
 49
-0.5
 62
   256
  6
BYLAYER
  0
ACDBPLACEHOLDER
  5
F
102
{ACAD_REACTORS
330
E
102
}
330
E
  0
SCALE
  5
48
102
{ACAD_REACTORS
330
47
102
}
330
47
100
AcDbScale
 70
     0
300
1:1
140
1.0
141
1.0
290
     1
  0
SCALE
  5
49
102
{ACAD_REACTORS
330
47
102
}
330
47
100
AcDbScale
 70
     0
300
1:2
140
1.0
141
2.0
290
     0
  0
SCALE
  5
4A
102
{ACAD_REACTORS
330
47
102
}
330
47
100
AcDbScale
 70
     0
300
1:4
140
1.0
141
4.0
290
     0
  0
SCALE
  5
4B
102
{ACAD_REACTORS
330
47
102
}
330
47
100
AcDbScale
 70
     0
300
1:5
140
1.0
141
5.0
290
     0
  0
SCALE
  5
4C
102
{ACAD_REACTORS
330
47
102
}
330
47
100
AcDbScale
 70
     0
300
1:8
140
1.0
141
8.0
290
     0
  0
SCALE
  5
4D
102
{ACAD_REACTORS
330
47
102
}
330
47
100
AcDbScale
 70
     0
300
1:10
140
1.0
141
10.0
290
     0
  0
SCALE
  5
4E
102
{ACAD_REACTORS
330
47
102
}
330
47
100
AcDbScale
 70
     0
300
1:16
140
1.0
141
16.0
290
     0
  0
SCALE
  5
4F
102
{ACAD_REACTORS
330
47
102
}
330
47
100
AcDbScale
 70
     0
300
1:20
140
1.0
141
20.0
290
     0
  0
SCALE
  5
50
102
{ACAD_REACTORS
330
47
102
}
330
47
100
AcDbScale
 70
     0
300
1:30
140
1.0
141
30.0
290
     0
  0
SCALE
  5
51
102
{ACAD_REACTORS
330
47
102
}
330
47
100
AcDbScale
 70
     0
300
1:40
140
1.0
141
40.0
290
     0
  0
SCALE
  5
52
102
{ACAD_REACTORS
330
47
102
}
330
47
100
AcDbScale
 70
     0
300
1:50
140
1.0
141
50.0
290
     0
  0
SCALE
  5
53
102
{ACAD_REACTORS
330
47
102
}
330
47
100
AcDbScale
 70
     0
300
1:100
140
1.0
141
100.0
290
     0
  0
SCALE
  5
54
102
{ACAD_REACTORS
330
47
102
}
330
47
100
AcDbScale
 70
     0
300
2:1
140
2.0
141
1.0
290
     0
  0
SCALE
  5
55
102
{ACAD_REACTORS
330
47
102
}
330
47
100
AcDbScale
 70
     0
300
4:1
140
4.0
141
1.0
290
     0
  0
SCALE
  5
56
102
{ACAD_REACTORS
330
47
102
}
330
47
100
AcDbScale
 70
     0
300
8:1
140
8.0
141
1.0
290
     0
  0
SCALE
  5
57
102
{ACAD_REACTORS
330
47
102
}
330
47
100
AcDbScale
 70
     0
300
10:1
140
10.0
141
1.0
290
     0
  0
SCALE
  5
58
102
{ACAD_REACTORS
330
47
102
}
330
47
100
AcDbScale
 70
     0
300
100:1
140
100.0
141
1.0
290
     0
  0
SCALE
  5
59
102
{ACAD_REACTORS
330
47
102
}
330
47
100
AcDbScale
 70
     0
300
1/128" = 1'-0"
140
0.0078125
141
12.0
290
     0
  0
SCALE
  5
5A
102
{ACAD_REACTORS
330
47
102
}
330
47
100
AcDbScale
 70
     0
300
1/64" = 1'-0"
140
0.015625
141
12.0
290
     0
  0
SCALE
  5
5B
102
{ACAD_REACTORS
330
47
102
}
330
47
100
AcDbScale
 70
     0
300
1/32" = 1'-0"
140
0.03125
141
12.0
290
     0
  0
SCALE
  5
5C
102
{ACAD_REACTORS
330
47
102
}
330
47
100
AcDbScale
 70
     0
300
1/16" = 1'-0"
140
0.0625
141
12.0
290
     0
  0
SCALE
  5
5D
102
{ACAD_REACTORS
330
47
102
}
330
47
100
AcDbScale
 70
     0
300
3/32" = 1'-0"
140
0.09375
141
12.0
290
     0
  0
SCALE
  5
5E
102
{ACAD_REACTORS
330
47
102
}
330
47
100
AcDbScale
 70
     0
300
1/8" = 1'-0"
140
0.125
141
12.0
290
     0
  0
SCALE
  5
5F
102
{ACAD_REACTORS
330
47
102
}
330
47
100
AcDbScale
 70
     0
300
3/16" = 1'-0"
140
0.1875
141
12.0
290
     0
  0
SCALE
  5
60
102
{ACAD_REACTORS
330
47
102
}
330
47
100
AcDbScale
 70
     0
300
1/4" = 1'-0"
140
0.25
141
12.0
290
     0
  0
SCALE
  5
61
102
{ACAD_REACTORS
330
47
102
}
330
47
100
AcDbScale
 70
     0
300
3/8" = 1'-0"
140
0.375
141
12.0
290
     0
  0
SCALE
  5
62
102
{ACAD_REACTORS
330
47
102
}
330
47
100
AcDbScale
 70
     0
300
1/2" = 1'-0"
140
0.5
141
12.0
290
     0
  0
SCALE
  5
63
102
{ACAD_REACTORS
330
47
102
}
330
47
100
AcDbScale
 70
     0
300
3/4" = 1'-0"
140
0.75
141
12.0
290
     0
  0
SCALE
  5
64
102
{ACAD_REACTORS
330
47
102
}
330
47
100
AcDbScale
 70
     0
300
1" = 1'-0"
140
1.0
141
12.0
290
     0
  0
SCALE
  5
65
102
{ACAD_REACTORS
330
47
102
}
330
47
100
AcDbScale
 70
     0
300
1-1/2" = 1'-0"
140
1.5
141
12.0
290
     0
  0
SCALE
  5
66
102
{ACAD_REACTORS
330
47
102
}
330
47
100
AcDbScale
 70
     0
300
3" = 1'-0"
140
3.0
141
12.0
290
     0
  0
SCALE
  5
67
102
{ACAD_REACTORS
330
47
102
}
330
47
100
AcDbScale
 70
     0
300
6" = 1'-0"
140
6.0
141
12.0
290
     0
  0
SCALE
  5
68
102
{ACAD_REACTORS
330
47
102
}
330
47
100
AcDbScale
 70
     0
300
1'-0" = 1'-0"
140
12.0
141
12.0
290
     0
  0
TABLESTYLE
  5
6A
102
{ACAD_REACTORS
330
69
102
}
102
{ACAD_XDICTIONARY
360
1FD
102
}
330
69
100
AcDbTableStyle
  3
Standard
 70
     0
 71
     0
 40
0.06
 41
0.06
280
     0
281
     0
  7
Standard
140
0.18
170
     2
 62
     0
 63
   257
283
     0
 90
        4
 91
        0
  1

274
    -2
284
     1
 64
     0
275
    -2
285
     1
 65
     0
276
    -2
286
     1
 66
     0
277
    -2
287
     1
 67
     0
278
    -2
288
     1
 68
     0
279
    -2
289
     1
 69
     0
  7
Standard
140
0.25
170
     5
 62
     0
 63
   257
283
     0
 90
        4
 91
        0
  1

274
    -2
284
     1
 64
     0
275
    -2
285
     1
 65
     0
276
    -2
286
     1
 66
     0
277
    -2
287
     1
 67
     0
278
    -2
288
     1
 68
     0
279
    -2
289
     1
 69
     0
  7
Standard
140
0.18
170
     5
 62
     0
 63
   257
283
     0
 90
        4
 91
        0
  1

274
    -2
284
     1
 64
     0
275
    -2
285
     1
 65
     0
276
    -2
286
     1
 66
     0
277
    -2
287
     1
 67
     0
278
    -2
288
     1
 68
     0
279
    -2
289
     1
 69
     0
  0
VISUALSTYLE
  5
2F
102
{ACAD_REACTORS
330
2A
102
}
330
2A
100
AcDbVisualStyle
  2
2dWireframe
 70
     4
177
     3
291
     0
 70
    58
 90
        0
176
     1
 90
        2
176
     1
 90
        0
176
     1
 90
        0
176
     1
 40
0.6
176
     1
 40
30.0
176
     1
 62
     7
420
 16777215
176
     1
 90
        1
176
     1
 90
        4
176
     1
 62
     7
176
     1
 62
   257
176
     1
 90
        1
176
     1
 90
        1
176
     1
 40
1.0
176
     1
 90
        0
176
     1
 62
   257
176
     1
 40
1.0
176
     1
 90
        1
176
     1
 90
        6
176
     1
 90
        2
176
     1
 62
     7
176
     1
 90
        5
176
     1
 90
        0
176
     1
 90
        0
176
     1
290
     0
176
     1
 90
        1
176
     1
 40
0.0
176
     1
 90
        0
176
     1
290
     1
176
     1
290
     1
176
     1
290
     0
176
     1
290
     0
176
     1
290
     0
176
     1
290
     0
176
     1
290
     0
176
     1
290
     0
176
     1
290
     0
176
     1
 90
       50
176
     1
 40
0.0
176
     1
 40
1.0
176
     1
 90
        0
176
     1
 62
    18
420
        0
176
     1
 90
       50
176
     1
 90
        3
176
     1
 62
     5
420
      255
176
     1
290
     0
176
     1
 90
       50
176
     1
 90
       50
176
     1
 90
       50
176
     1
290
     0
176
     1
 90
       50
176
     1
 62
   256
176
     0
 40
1.0
176
     0
 90
        2
176
     1
  1
strokes_ogs.tif
176
     1
290
     0
176
     1
 40
1.0
176
     1
 40
1.0
176
     1
  0
VISUALSTYLE
  5
32
102
{ACAD_REACTORS
330
2A
102
}
330
2A
100
AcDbVisualStyle
  2
Basic
 70
     7
177
     3
291
     1
 70
    58
 90
        1
176
     1
 90
        0
176
     1
 90
        1
176
     1
 90
        0
176
     1
 40
0.6
176
     1
 40
30.0
176
     1
 62
     7
420
 16777215
176
     1
 90
        0
176
     1
 90
        4
176
     1
 62
     7
176
     1
 62
   257
176
     1
 90
        1
176
     1
 90
        1
176
     1
 40
1.0
176
     1
 90
        8
176
     1
 62
     7
176
     1
 40
1.0
176
     1
 90
        1
176
     1
 90
        6
176
     1
 90
        2
176
     1
 62
     7
176
     1
 90
        5
176
     1
 90
        0
176
     1
 90
        0
176
     1
290
     0
176
     1
 90
        1
176
     1
 40
0.0
176
     1
 90
        0
176
     1
290
     0
176
     1
290
     1
176
     1
290
     1
176
     1
290
     0
176
     1
290
     0
176
     1
290
     0
176
     1
290
     0
176
     1
290
     0
176
     1
290
     0
176
     1
 90
       50
176
     1
 40
0.0
176
     1
 40
1.0
176
     1
 90
        0
176
     1
 62
    18
420
        0
176
     1
 90
       50
176
     1
 90
        3
176
     1
 62
     5
420
      255
176
     1
290
     0
176
     1
 90
       50
176
     1
 90
       50
176
     1
 90
       50
176
     1
290
     0
176
     1
 90
       50
176
     1
 62
   256
176
     0
 40
1.0
176
     0
 90
        2
176
     1
  1
strokes_ogs.tif
176
     1
290
     0
176
     1
 40
1.0
176
     1
 40
1.0
176
     1
  0
VISUALSTYLE
  5
36
102
{ACAD_REACTORS
330
2A
102
}
330
2A
100
AcDbVisualStyle
  2
Brighten
 70
    12
177
     3
291
     1
 70
    58
 90
        2
176
     1
 90
        2
176
     1
 90
        0
176
     1
 90
        0
176
     1
 40
0.6
176
     1
 40
30.0
176
     1
 62
     7
420
 16777215
176
     1
 90
        1
176
     1
 90
        4
176
     1
 62
     7
176
     1
 62
   257
176
     1
 90
        1
176
     1
 90
        1
176
     1
 40
1.0
176
     1
 90
        8
176
     1
 62
     7
176
     1
 40
1.0
176
     1
 90
        1
176
     1
 90
        6
176
     1
 90
        2
176
     1
 62
     7
176
     1
 90
        5
176
     1
 90
        0
176
     1
 90
        0
176
     1
290
     0
176
     1
 90
        1
176
     1
 40
50.0
176
     1
 90
        0
176
     1
290
     0
176
     1
290
     1
176
     1
290
     1
176
     1
290
     0
176
     1
290
     0
176
     1
290
     0
176
     1
290
     0
176
     1
290
     0
176
     1
290
     0
176
     1
 90
       50
176
     1
 40
0.0
176
     1
 40
1.0
176
     1
 90
        0
176
     1
 62
    18
420
        0
176
     1
 90
       50
176
     1
 90
        3
176
     1
 62
     5
420
      255
176
     1
290
     0
176
     1
 90
       50
176
     1
 90
       50
176
     1
 90
       50
176
     1
290
     0
176
     1
 90
       50
176
     1
 62
   256
176
     0
 40
1.0
176
     0
 90
        2
176
     1
  1
strokes_ogs.tif
176
     1
290
     0
176
     1
 40
1.0
176
     1
 40
1.0
176
     1
  0
VISUALSTYLE
  5
3A
102
{ACAD_REACTORS
330
2A
102
}
330
2A
100
AcDbVisualStyle
  2
ColorChange
 70
    16
177
     3
291
     1
 70
    58
 90
        2
176
     1
 90
        2
176
     1
 90
        3
176
     1
 90
        0
176
     1
 40
0.6
176
     1
 40
30.0
176
     1
 62
     8
420
  8421504
176
     1
 90
        1
176
     1
 90
        4
176
     1
 62
     7
176
     1
 62
   257
176
     1
 90
        1
176
     1
 90
        1
176
     1
 40
1.0
176
     1
 90
        8
176
     1
 62
     8
420
  8421504
176
     1
 40
1.0
176
     1
 90
        1
176
     1
 90
        6
176
     1
 90
        2
176
     1
 62
     7
176
     1
 90
        5
176
     1
 90
        0
176
     1
 90
        0
176
     1
290
     0
176
     1
 90
        1
176
     1
 40
0.0
176
     1
 90
        0
176
     1
290
     0
176
     1
290
     1
176
     1
290
     1
176
     1
290
     0
176
     1
290
     0
176
     1
290
     0
176
     1
290
     0
176
     1
290
     0
176
     1
290
     0
176
     1
 90
       50
176
     1
 40
0.0
176
     1
 40
1.0
176
     1
 90
        0
176
     1
 62
    18
420
        0
176
     1
 90
       50
176
     1
 90
        3
176
     1
 62
     5
420
      255
176
     1
290
     0
176
     1
 90
       50
176
     1
 90
       50
176
     1
 90
       50
176
     1
290
     0
176
     1
 90
       50
176
     1
 62
   256
176
     0
 40
1.0
176
     0
 90
        2
176
     1
  1
strokes_ogs.tif
176
     1
290
     0
176
     1
 40
1.0
176
     1
 40
1.0
176
     1
  0
VISUALSTYLE
  5
34
102
{ACAD_REACTORS
330
2A
102
}
330
2A
100
AcDbVisualStyle
  2
Conceptual
 70
     9
177
     3
291
     0
 70
    58
 90
        3
176
     1
 90
        2
176
     1
 90
        0
176
     1
 90
        0
176
     1
 40
0.6
176
     1
 40
30.0
176
     1
 62
     7
420
 16777215
176
     1
 90
        2
176
     1
 90
        2
176
     1
 62
     7
176
     1
 62
   257
176
     1
 90
        1
176
     1
 90
        1
176
     1
 40
179.0
176
     1
 90
        8
176
     1
 62
     7
176
     1
 40
1.0
176
     1
 90
        1
176
     1
 90
        6
176
     1
 90
        2
176
     1
 62
     7
176
     1
 90
        3
176
     1
 90
        0
176
     1
 90
        0
176
     1
290
     0
176
     1
 90
        1
176
     1
 40
0.0
176
     1
 90
        0
176
     1
290
     0
176
     1
290
     1
176
     1
290
     1
176
     1
290
     0
176
     1
290
     0
176
     1
290
     0
176
     1
290
     0
176
     1
290
     0
176
     1
290
     0
176
     1
 90
       50
176
     1
 40
0.0
176
     1
 40
1.0
176
     1
 90
        0
176
     1
 62
    18
420
        0
176
     1
 90
       50
176
     1
 90
        3
176
     1
 62
     5
420
      255
176
     1
290
     0
176
     1
 90
       50
176
     1
 90
       50
176
     1
 90
       50
176
     1
290
     0
176
     1
 90
       50
176
     1
 62
   256
176
     0
 40
1.0
176
     0
 90
        2
176
     1
  1
strokes_ogs.tif
176
     1
290
     0
176
     1
 40
1.0
176
     1
 40
1.0
176
     1
  0
VISUALSTYLE
  5
35
102
{ACAD_REACTORS
330
2A
102
}
330
2A
100
AcDbVisualStyle
  2
Dim
 70
    11
177
     3
291
     1
 70
    58
 90
        2
176
     1
 90
        2
176
     1
 90
        0
176
     1
 90
        0
176
     1
 40
0.6
176
     1
 40
30.0
176
     1
 62
     7
420
 16777215
176
     1
 90
        1
176
     1
 90
        4
176
     1
 62
     7
176
     1
 62
   257
176
     1
 90
        1
176
     1
 90
        1
176
     1
 40
1.0
176
     1
 90
        8
176
     1
 62
     7
176
     1
 40
1.0
176
     1
 90
        1
176
     1
 90
        6
176
     1
 90
        2
176
     1
 62
     7
176
     1
 90
        5
176
     1
 90
        0
176
     1
 90
        0
176
     1
290
     0
176
     1
 90
        1
176
     1
 40
-50.0
176
     1
 90
        0
176
     1
290
     0
176
     1
290
     1
176
     1
290
     1
176
     1
290
     0
176
     1
290
     0
176
     1
290
     0
176
     1
290
     0
176
     1
290
     0
176
     1
290
     0
176
     1
 90
       50
176
     1
 40
0.0
176
     1
 40
1.0
176
     1
 90
        0
176
     1
 62
    18
420
        0
176
     1
 90
       50
176
     1
 90
        3
176
     1
 62
     5
420
      255
176
     1
290
     0
176
     1
 90
       50
176
     1
 90
       50
176
     1
 90
       50
176
     1
290
     0
176
     1
 90
       50
176
     1
 62
   256
176
     0
 40
1.0
176
     0
 90
        2
176
     1
  1
strokes_ogs.tif
176
     1
290
     0
176
     1
 40
1.0
176
     1
 40
1.0
176
     1
  0
VISUALSTYLE
  5
3D
102
{ACAD_REACTORS
330
2A
102
}
330
2A
100
AcDbVisualStyle
  2
EdgeColorOff
 70
    22
177
     3
291
     1
 70
    58
 90
        2
176
     0
 90
        2
176
     0
 90
        0
176
     0
 90
        0
176
     0
 40
0.6
176
     0
 40
30.0
176
     0
 62
     7
420
 16777215
176
     0
 90
        1
176
     0
 90
        4
176
     0
 62
     7
176
     0
 62
   257
176
     0
 90
        1
176
     0
 90
        1
176
     0
 40
1.0
176
     0
 90
        8
176
     2
 62
     7
176
     0
 40
1.0
176
     0
 90
        1
176
     0
 90
        6
176
     0
 90
        2
176
     0
 62
     7
176
     0
 90
        5
176
     0
 90
        0
176
     0
 90
        0
176
     0
290
     0
176
     0
 90
        1
176
     0
 40
0.0
176
     0
 90
        0
176
     0
290
     0
176
     0
290
     1
176
     0
290
     1
176
     0
290
     0
176
     0
290
     0
176
     0
290
     0
176
     0
290
     0
176
     0
290
     0
176
     0
290
     0
176
     0
 90
       50
176
     0
 40
0.0
176
     0
 40
1.0
176
     0
 90
        0
176
     0
 62
    18
420
        0
176
     0
 90
       50
176
     0
 90
        3
176
     0
 62
     5
420
      255
176
     0
290
     0
176
     0
 90
       50
176
     0
 90
       50
176
     0
 90
       50
176
     0
290
     0
176
     0
 90
       50
176
     0
 62
   256
176
     0
 40
1.0
176
     0
 90
        2
176
     0
  1
strokes_ogs.tif
176
     0
290
     0
176
     0
 40
1.0
176
     0
 40
1.0
176
     0
  0
VISUALSTYLE
  5
39
102
{ACAD_REACTORS
330
2A
102
}
330
2A
100
AcDbVisualStyle
  2
Facepattern
 70
    15
177
     3
291
     1
 70
    58
 90
        2
176
     1
 90
        2
176
     1
 90
        0
176
     1
 90
        0
176
     1
 40
0.6
176
     1
 40
30.0
176
     1
 62
     7
420
 16777215
176
     1
 90
        1
176
     1
 90
        4
176
     1
 62
     7
176
     1
 62
   257
176
     1
 90
        1
176
     1
 90
        1
176
     1
 40
1.0
176
     1
 90
        8
176
     1
 62
     7
176
     1
 40
1.0
176
     1
 90
        1
176
     1
 90
        6
176
     1
 90
        2
176
     1
 62
     7
176
     1
 90
        5
176
     1
 90
        0
176
     1
 90
        0
176
     1
290
     0
176
     1
 90
        1
176
     1
 40
0.0
176
     1
 90
        0
176
     1
290
     0
176
     1
290
     1
176
     1
290
     1
176
     1
290
     0
176
     1
290
     0
176
     1
290
     0
176
     1
290
     0
176
     1
290
     0
176
     1
290
     0
176
     1
 90
       50
176
     1
 40
0.0
176
     1
 40
1.0
176
     1
 90
        0
176
     1
 62
    18
420
        0
176
     1
 90
       50
176
     1
 90
        3
176
     1
 62
     5
420
      255
176
     1
290
     0
176
     1
 90
       50
176
     1
 90
       50
176
     1
 90
       50
176
     1
290
     0
176
     1
 90
       50
176
     1
 62
   256
176
     0
 40
1.0
176
     0
 90
        2
176
     1
  1
strokes_ogs.tif
176
     1
290
     0
176
     1
 40
1.0
176
     1
 40
1.0
176
     1
  0
VISUALSTYLE
  5
2B
102
{ACAD_REACTORS
330
2A
102
}
330
2A
100
AcDbVisualStyle
  2
Flat
 70
     0
177
     3
291
     1
 70
    58
 90
        2
176
     1
 90
        1
176
     1
 90
        1
176
     1
 90
        2
176
     1
 40
0.6
176
     1
 40
30.0
176
     1
 62
     7
420
 16777215
176
     1
 90
        0
176
     1
 90
        0
176
     1
 62
     7
176
     1
 62
   257
176
     1
 90
        1
176
     1
 90
        1
176
     1
 40
1.0
176
     1
 90
        8
176
     1
 62
     7
176
     1
 40
1.0
176
     1
 90
        1
176
     1
 90
        6
176
     1
 90
        2
176
     1
 62
     7
176
     1
 90
        5
176
     1
 90
        0
176
     1
 90
        0
176
     1
290
     0
176
     1
 90
       13
176
     1
 40
0.0
176
     1
 90
        0
176
     1
290
     0
176
     1
290
     1
176
     1
290
     1
176
     1
290
     0
176
     1
290
     0
176
     1
290
     0
176
     1
290
     0
176
     1
290
     0
176
     1
290
     0
176
     1
 90
       50
176
     1
 40
0.0
176
     1
 40
1.0
176
     1
 90
        0
176
     1
 62
    18
420
        0
176
     1
 90
       50
176
     1
 90
        3
176
     1
 62
     5
420
      255
176
     1
290
     0
176
     1
 90
       50
176
     1
 90
       50
176
     1
 90
       50
176
     1
290
     0
176
     1
 90
       50
176
     1
 62
   256
176
     0
 40
1.0
176
     0
 90
        2
176
     1
  1
strokes_ogs.tif
176
     1
290
     0
176
     1
 40
1.0
176
     1
 40
1.0
176
     1
  0
VISUALSTYLE
  5
2C
102
{ACAD_REACTORS
330
2A
102
}
330
2A
100
AcDbVisualStyle
  2
FlatWithEdges
 70
     1
177
     3
291
     1
 70
    58
 90
        2
176
     1
 90
        1
176
     1
 90
        1
176
     1
 90
        2
176
     1
 40
0.6
176
     1
 40
30.0
176
     1
 62
     7
420
 16777215
176
     1
 90
        1
176
     1
 90
        0
176
     1
 62
     7
176
     1
 62
   257
176
     1
 90
        1
176
     1
 90
        1
176
     1
 40
1.0
176
     1
 90
        0
176
     1
 62
   257
176
     1
 40
1.0
176
     1
 90
        1
176
     1
 90
        6
176
     1
 90
        2
176
     1
 62
     7
176
     1
 90
        5
176
     1
 90
        0
176
     1
 90
        0
176
     1
290
     0
176
     1
 90
       13
176
     1
 40
0.0
176
     1
 90
        0
176
     1
290
     0
176
     1
290
     1
176
     1
290
     1
176
     1
290
     0
176
     1
290
     0
176
     1
290
     0
176
     1
290
     0
176
     1
290
     0
176
     1
290
     0
176
     1
 90
       50
176
     1
 40
0.0
176
     1
 40
1.0
176
     1
 90
        0
176
     1
 62
    18
420
        0
176
     1
 90
       50
176
     1
 90
        3
176
     1
 62
     5
420
      255
176
     1
290
     0
176
     1
 90
       50
176
     1
 90
       50
176
     1
 90
       50
176
     1
290
     0
176
     1
 90
       50
176
     1
 62
   256
176
     0
 40
1.0
176
     0
 90
        2
176
     1
  1
strokes_ogs.tif
176
     1
290
     0
176
     1
 40
1.0
176
     1
 40
1.0
176
     1
  0
VISUALSTYLE
  5
2D
102
{ACAD_REACTORS
330
2A
102
}
330
2A
100
AcDbVisualStyle
  2
Gouraud
 70
     2
177
     3
291
     1
 70
    58
 90
        2
176
     1
 90
        2
176
     1
 90
        1
176
     1
 90
        2
176
     1
 40
0.6
176
     1
 40
30.0
176
     1
 62
     7
420
 16777215
176
     1
 90
        0
176
     1
 90
        0
176
     1
 62
     7
176
     1
 62
   257
176
     1
 90
        1
176
     1
 90
        1
176
     1
 40
1.0
176
     1
 90
        0
176
     1
 62
     7
176
     1
 40
1.0
176
     1
 90
        1
176
     1
 90
        6
176
     1
 90
        2
176
     1
 62
     7
176
     1
 90
        5
176
     1
 90
        0
176
     1
 90
        0
176
     1
290
     0
176
     1
 90
       13
176
     1
 40
0.0
176
     1
 90
        0
176
     1
290
     0
176
     1
290
     1
176
     1
290
     1
176
     1
290
     0
176
     1
290
     0
176
     1
290
     0
176
     1
290
     0
176
     1
290
     0
176
     1
290
     0
176
     1
 90
       50
176
     1
 40
0.0
176
     1
 40
1.0
176
     1
 90
        0
176
     1
 62
    18
420
        0
176
     1
 90
       50
176
     1
 90
        3
176
     1
 62
     5
420
      255
176
     1
290
     0
176
     1
 90
       50
176
     1
 90
       50
176
     1
 90
       50
176
     1
290
     0
176
     1
 90
       50
176
     1
 62
   256
176
     0
 40
1.0
176
     0
 90
        2
176
     1
  1
strokes_ogs.tif
176
     1
290
     0
176
     1
 40
1.0
176
     1
 40
1.0
176
     1
  0
VISUALSTYLE
  5
2E
102
{ACAD_REACTORS
330
2A
102
}
330
2A
100
AcDbVisualStyle
  2
GouraudWithEdges
 70
     3
177
     3
291
     1
 70
    58
 90
        2
176
     1
 90
        2
176
     1
 90
        1
176
     1
 90
        2
176
     1
 40
0.6
176
     1
 40
30.0
176
     1
 62
     7
420
 16777215
176
     1
 90
        1
176
     1
 90
        0
176
     1
 62
     7
176
     1
 62
   257
176
     1
 90
        1
176
     1
 90
        1
176
     1
 40
1.0
176
     1
 90
        0
176
     1
 62
   257
176
     1
 40
1.0
176
     1
 90
        1
176
     1
 90
        6
176
     1
 90
        2
176
     1
 62
     7
176
     1
 90
        5
176
     1
 90
        0
176
     1
 90
        0
176
     1
290
     0
176
     1
 90
       13
176
     1
 40
0.0
176
     1
 90
        0
176
     1
290
     0
176
     1
290
     1
176
     1
290
     1
176
     1
290
     0
176
     1
290
     0
176
     1
290
     0
176
     1
290
     0
176
     1
290
     0
176
     1
290
     0
176
     1
 90
       50
176
     1
 40
0.0
176
     1
 40
1.0
176
     1
 90
        0
176
     1
 62
    18
420
        0
176
     1
 90
       50
176
     1
 90
        3
176
     1
 62
     5
420
      255
176
     1
290
     0
176
     1
 90
       50
176
     1
 90
       50
176
     1
 90
       50
176
     1
290
     0
176
     1
 90
       50
176
     1
 62
   256
176
     0
 40
1.0
176
     0
 90
        2
176
     1
  1
strokes_ogs.tif
176
     1
290
     0
176
     1
 40
1.0
176
     1
 40
1.0
176
     1
  0
VISUALSTYLE
  5
31
102
{ACAD_REACTORS
330
2A
102
}
330
2A
100
AcDbVisualStyle
  2
Hidden
 70
     6
177
     3
291
     0
 70
    58
 90
        1
176
     1
 90
        2
176
     1
 90
        2
176
     1
 90
        0
176
     1
 40
0.6
176
     1
 40
30.0
176
     1
 62
     7
420
 16777215
176
     1
 90
        2
176
     1
 90
        2
176
     1
 62
     7
176
     1
 62
   257
176
     1
 90
        2
176
     1
 90
        1
176
     1
 40
40.0
176
     1
 90
        0
176
     1
 62
   257
176
     1
 40
1.0
176
     1
 90
        1
176
     1
 90
        6
176
     1
 90
        2
176
     1
 62
     7
176
     1
 90
        3
176
     1
 90
        0
176
     1
 90
        0
176
     1
290
     0
176
     1
 90
        1
176
     1
 40
0.0
176
     1
 90
        0
176
     1
290
     0
176
     1
290
     1
176
     1
290
     1
176
     1
290
     0
176
     1
290
     0
176
     1
290
     0
176
     1
290
     0
176
     1
290
     0
176
     1
290
     0
176
     1
 90
       50
176
     1
 40
0.0
176
     1
 40
1.0
176
     1
 90
        0
176
     1
 62
    18
420
        0
176
     1
 90
       50
176
     1
 90
        3
176
     1
 62
     5
420
      255
176
     1
290
     0
176
     1
 90
       50
176
     1
 90
       50
176
     1
 90
       50
176
     1
290
     0
176
     1
 90
       50
176
     1
 62
   256
176
     0
 40
1.0
176
     0
 90
        2
176
     1
  1
strokes_ogs.tif
176
     1
290
     0
176
     1
 40
1.0
176
     1
 40
1.0
176
     1
  0
VISUALSTYLE
  5
3B
102
{ACAD_REACTORS
330
2A
102
}
330
2A
100
AcDbVisualStyle
  2
JitterOff
 70
    20
177
     3
291
     1
 70
    58
 90
        2
176
     0
 90
        2
176
     0
 90
        0
176
     0
 90
        0
176
     0
 40
0.6
176
     0
 40
30.0
176
     0
 62
     7
420
 16777215
176
     0
 90
        1
176
     0
 90
        4
176
     0
 62
     7
176
     0
 62
   257
176
     0
 90
        1
176
     0
 90
        1
176
     0
 40
1.0
176
     0
 90
       10
176
     2
 62
     7
176
     0
 40
1.0
176
     0
 90
        1
176
     0
 90
        6
176
     0
 90
        2
176
     0
 62
     7
176
     0
 90
        5
176
     0
 90
        0
176
     0
 90
        0
176
     0
290
     0
176
     0
 90
        1
176
     0
 40
0.0
176
     0
 90
        0
176
     0
290
     0
176
     0
290
     1
176
     0
290
     1
176
     0
290
     0
176
     0
290
     0
176
     0
290
     0
176
     0
290
     0
176
     0
290
     0
176
     0
290
     0
176
     0
 90
       50
176
     0
 40
0.0
176
     0
 40
1.0
176
     0
 90
        0
176
     0
 62
    18
420
        0
176
     0
 90
       50
176
     0
 90
        3
176
     0
 62
     5
420
      255
176
     0
290
     0
176
     0
 90
       50
176
     0
 90
       50
176
     0
 90
       50
176
     0
290
     0
176
     0
 90
       50
176
     0
 62
   256
176
     0
 40
1.0
176
     0
 90
        2
176
     0
  1
strokes_ogs.tif
176
     0
290
     0
176
     0
 40
1.0
176
     0
 40
1.0
176
     0
  0
VISUALSTYLE
  5
38
102
{ACAD_REACTORS
330
2A
102
}
330
2A
100
AcDbVisualStyle
  2
Linepattern
 70
    14
177
     3
291
     1
 70
    58
 90
        2
176
     1
 90
        2
176
     1
 90
        0
176
     1
 90
        0
176
     1
 40
0.6
176
     1
 40
30.0
176
     1
 62
     7
420
 16777215
176
     1
 90
        1
176
     1
 90
        4
176
     1
 62
     7
176
     1
 62
   257
176
     1
 90
        7
176
     1
 90
        7
176
     1
 40
1.0
176
     1
 90
        8
176
     1
 62
     7
176
     1
 40
1.0
176
     1
 90
        1
176
     1
 90
        6
176
     1
 90
        2
176
     1
 62
     7
176
     1
 90
        5
176
     1
 90
        0
176
     1
 90
        0
176
     1
290
     0
176
     1
 90
        1
176
     1
 40
0.0
176
     1
 90
        0
176
     1
290
     0
176
     1
290
     1
176
     1
290
     1
176
     1
290
     0
176
     1
290
     0
176
     1
290
     0
176
     1
290
     0
176
     1
290
     0
176
     1
290
     0
176
     1
 90
       50
176
     1
 40
0.0
176
     1
 40
1.0
176
     1
 90
        0
176
     1
 62
    18
420
        0
176
     1
 90
       50
176
     1
 90
        3
176
     1
 62
     5
420
      255
176
     1
290
     0
176
     1
 90
       50
176
     1
 90
       50
176
     1
 90
       50
176
     1
290
     0
176
     1
 90
       50
176
     1
 62
   256
176
     0
 40
1.0
176
     0
 90
        2
176
     1
  1
strokes_ogs.tif
176
     1
290
     0
176
     1
 40
1.0
176
     1
 40
1.0
176
     1
  0
VISUALSTYLE
  5
3C
102
{ACAD_REACTORS
330
2A
102
}
330
2A
100
AcDbVisualStyle
  2
OverhangOff
 70
    21
177
     3
291
     1
 70
    58
 90
        2
176
     0
 90
        2
176
     0
 90
        0
176
     0
 90
        0
176
     0
 40
0.6
176
     0
 40
30.0
176
     0
 62
     7
420
 16777215
176
     0
 90
        1
176
     0
 90
        4
176
     0
 62
     7
176
     0
 62
   257
176
     0
 90
        1
176
     0
 90
        1
176
     0
 40
1.0
176
     0
 90
        9
176
     2
 62
     7
176
     0
 40
1.0
176
     0
 90
        1
176
     0
 90
        6
176
     0
 90
        2
176
     0
 62
     7
176
     0
 90
        5
176
     0
 90
        0
176
     0
 90
        0
176
     0
290
     0
176
     0
 90
        1
176
     0
 40
0.0
176
     0
 90
        0
176
     0
290
     0
176
     0
290
     1
176
     0
290
     1
176
     0
290
     0
176
     0
290
     0
176
     0
290
     0
176
     0
290
     0
176
     0
290
     0
176
     0
290
     0
176
     0
 90
       50
176
     0
 40
0.0
176
     0
 40
1.0
176
     0
 90
        0
176
     0
 62
    18
420
        0
176
     0
 90
       50
176
     0
 90
        3
176
     0
 62
     5
420
      255
176
     0
290
     0
176
     0
 90
       50
176
     0
 90
       50
176
     0
 90
       50
176
     0
290
     0
176
     0
 90
       50
176
     0
 62
   256
176
     0
 40
1.0
176
     0
 90
        2
176
     0
  1
strokes_ogs.tif
176
     0
290
     0
176
     0
 40
1.0
176
     0
 40
1.0
176
     0
  0
VISUALSTYLE
  5
33
102
{ACAD_REACTORS
330
2A
102
}
330
2A
100
AcDbVisualStyle
  2
Realistic
 70
     8
177
     3
291
     0
 70
    58
 90
        2
176
     1
 90
        3
176
     1
 90
        0
176
     1
 90
        2
176
     1
 40
0.6
176
     1
 40
30.0
176
     1
 62
     7
420
 16777215
176
     1
 90
        0
176
     1
 90
        0
176
     1
 62
     7
176
     1
 62
   257
176
     1
 90
        1
176
     1
 90
        1
176
     1
 40
1.0
176
     1
 90
        8
176
     1
 62
   257
176
     1
 40
1.0
176
     1
 90
        1
176
     1
 90
        6
176
     1
 90
        2
176
     1
 62
     7
176
     1
 90
        3
176
     1
 90
        0
176
     1
 90
        0
176
     1
290
     0
176
     1
 90
       13
176
     1
 40
0.0
176
     1
 90
        0
176
     1
290
     0
176
     1
290
     1
176
     1
290
     1
176
     1
290
     0
176
     1
290
     0
176
     1
290
     0
176
     1
290
     0
176
     1
290
     0
176
     1
290
     0
176
     1
 90
       50
176
     1
 40
0.0
176
     1
 40
1.0
176
     1
 90
        0
176
     1
 62
    18
420
        0
176
     1
 90
       50
176
     1
 90
        3
176
     1
 62
     5
420
      255
176
     1
290
     0
176
     1
 90
       50
176
     1
 90
       50
176
     1
 90
       50
176
     1
290
     0
176
     1
 90
       50
176
     1
 62
   256
176
     0
 40
1.0
176
     0
 90
        2
176
     1
  1
strokes_ogs.tif
176
     1
290
     0
176
     1
 40
1.0
176
     1
 40
1.0
176
     1
  0
VISUALSTYLE
  5
42
102
{ACAD_REACTORS
330
2A
102
}
330
2A
100
AcDbVisualStyle
  2
Shaded
 70
    27
177
     3
291
     0
 70
    58
 90
        2
176
     1
 90
        2
176
     1
 90
        1
176
     1
 90
        2
176
     1
 40
0.6
176
     1
 40
30.0
176
     1
 62
     7
420
 16777215
176
     1
 90
        0
176
     1
 90
        4
176
     1
 62
     7
176
     1
 62
   257
176
     1
 90
        1
176
     1
 90
        1
176
     1
 40
1.0
176
     1
 90
        8
176
     1
 62
   257
176
     1
 40
1.0
176
     1
 90
        1
176
     1
 90
        6
176
     1
 90
        2
176
     1
 62
     8
420
  7895160
176
     1
 90
        3
176
     1
 90
        0
176
     1
 90
        0
176
     1
290
     0
176
     1
 90
        5
176
     1
 40
0.0
176
     1
 90
        0
176
     1
290
     0
176
     1
290
     1
176
     1
290
     1
176
     1
290
     0
176
     1
290
     0
176
     1
290
     0
176
     1
290
     0
176
     1
290
     0
176
     1
290
     0
176
     1
 90
       50
176
     1
 40
0.0
176
     1
 40
1.0
176
     1
 90
        0
176
     1
 62
    18
420
        0
176
     1
 90
       50
176
     1
 90
        3
176
     1
 62
     5
420
      255
176
     1
290
     0
176
     1
 90
       50
176
     1
 90
       50
176
     1
 90
       50
176
     1
290
     0
176
     1
 90
       50
176
     1
 62
   256
176
     0
 40
1.0
176
     0
 90
        2
176
     1
  1
strokes_ogs.tif
176
     1
290
     0
176
     1
 40
1.0
176
     1
 40
1.0
176
     1
  0
VISUALSTYLE
  5
41
102
{ACAD_REACTORS
330
2A
102
}
330
2A
100
AcDbVisualStyle
  2
Shaded with edges
 70
    26
177
     3
291
     0
 70
    58
 90
        2
176
     1
 90
        2
176
     1
 90
        1
176
     1
 90
        2
176
     1
 40
0.6
176
     1
 40
30.0
176
     1
 62
     7
420
 16777215
176
     1
 90
        1
176
     1
 90
       10
176
     1
 62
     7
176
     1
 62
   257
176
     1
 90
        2
176
     1
 90
        1
176
     1
 40
1.0
176
     1
 90
        8
176
     1
 62
   257
176
     1
 40
1.0
176
     1
 90
        1
176
     1
 90
        6
176
     1
 90
        2
176
     1
 62
     7
176
     1
 90
        3
176
     1
 90
        0
176
     1
 90
        0
176
     1
290
     0
176
     1
 90
        5
176
     1
 40
0.0
176
     1
 90
        0
176
     1
290
     0
176
     1
290
     1
176
     1
290
     1
176
     1
290
     0
176
     1
290
     0
176
     1
290
     0
176
     1
290
     0
176
     1
290
     0
176
     1
290
     0
176
     1
 90
       50
176
     1
 40
0.0
176
     1
 40
1.0
176
     1
 90
        0
176
     1
 62
    18
420
        0
176
     1
 90
       50
176
     1
 90
        3
176
     1
 62
     5
420
      255
176
     1
290
     0
176
     1
 90
       50
176
     1
 90
       50
176
     1
 90
       50
176
     1
290
     0
176
     1
 90
       50
176
     1
 62
   256
176
     0
 40
1.0
176
     0
 90
        2
176
     1
  1
strokes_ogs.tif
176
     1
290
     0
176
     1
 40
1.0
176
     1
 40
1.0
176
     1
  0
VISUALSTYLE
  5
3E
102
{ACAD_REACTORS
330
2A
102
}
330
2A
100
AcDbVisualStyle
  2
Shades of Gray
 70
    23
177
     3
291
     0
 70
    58
 90
        2
176
     1
 90
        2
176
     1
 90
        3
176
     1
 90
        0
176
     1
 40
0.6
176
     1
 40
30.0
176
     1
 62
     7
420
 16777215
176
     1
 90
        2
176
     1
 90
        2
176
     1
 62
     7
176
     1
 62
     7
176
     1
 90
        1
176
     1
 90
        1
176
     1
 40
40.0
176
     1
 90
        8
176
     1
 62
     7
176
     1
 40
1.0
176
     1
 90
        1
176
     1
 90
        6
176
     1
 90
        2
176
     1
 62
     7
176
     1
 90
        3
176
     1
 90
        0
176
     1
 90
        0
176
     1
290
     0
176
     1
 90
        1
176
     1
 40
0.0
176
     1
 90
        0
176
     1
290
     0
176
     1
290
     1
176
     1
290
     1
176
     1
290
     0
176
     1
290
     0
176
     1
290
     0
176
     1
290
     0
176
     1
290
     0
176
     1
290
     0
176
     1
 90
       50
176
     1
 40
0.0
176
     1
 40
1.0
176
     1
 90
        0
176
     1
 62
    18
420
        0
176
     1
 90
       50
176
     1
 90
        3
176
     1
 62
     5
420
      255
176
     1
290
     0
176
     1
 90
       50
176
     1
 90
       50
176
     1
 90
       50
176
     1
290
     0
176
     1
 90
       50
176
     1
 62
   256
176
     0
 40
1.0
176
     0
 90
        2
176
     1
  1
strokes_ogs.tif
176
     1
290
     0
176
     1
 40
1.0
176
     1
 40
1.0
176
     1
  0
VISUALSTYLE
  5
3F
102
{ACAD_REACTORS
330
2A
102
}
330
2A
100
AcDbVisualStyle
  2
Sketchy
 70
    24
177
     3
291
     0
 70
    58
 90
        1
176
     1
 90
        2
176
     1
 90
        2
176
     1
 90
        0
176
     1
 40
0.6
176
     1
 40
30.0
176
     1
 62
     7
420
 16777215
176
     1
 90
        2
176
     1
 90
        2
176
     1
 62
     7
176
     1
 62
     7
176
     1
 90
        1
176
     1
 90
        1
176
     1
 40
40.0
176
     1
 90
       11
176
     1
 62
     7
176
     1
 40
1.0
176
     1
 90
        1
176
     1
 90
        6
176
     1
 90
        2
176
     1
 62
     7
176
     1
 90
        6
176
     1
 90
        0
176
     1
 90
        0
176
     1
290
     0
176
     1
 90
        1
176
     1
 40
0.0
176
     1
 90
        0
176
     1
290
     0
176
     1
290
     1
176
     1
290
     1
176
     1
290
     0
176
     1
290
     0
176
     1
290
     0
176
     1
290
     0
176
     1
290
     0
176
     1
290
     0
176
     1
 90
       50
176
     1
 40
0.0
176
     1
 40
1.0
176
     1
 90
        0
176
     1
 62
    18
420
        0
176
     1
 90
       50
176
     1
 90
        3
176
     1
 62
     5
420
      255
176
     1
290
     0
176
     1
 90
       50
176
     1
 90
       50
176
     1
 90
       50
176
     1
290
     0
176
     1
 90
       50
176
     1
 62
   256
176
     0
 40
1.0
176
     0
 90
        2
176
     1
  1
strokes_ogs.tif
176
     1
290
     0
176
     1
 40
1.0
176
     1
 40
1.0
176
     1
  0
VISUALSTYLE
  5
37
102
{ACAD_REACTORS
330
2A
102
}
330
2A
100
AcDbVisualStyle
  2
Thicken
 70
    13
177
     3
291
     1
 70
    58
 90
        2
176
     1
 90
        2
176
     1
 90
        0
176
     1
 90
        0
176
     1
 40
0.6
176
     1
 40
30.0
176
     1
 62
     7
420
 16777215
176
     1
 90
        1
176
     1
 90
        4
176
     1
 62
     7
176
     1
 62
   257
176
     1
 90
        1
176
     1
 90
        1
176
     1
 40
1.0
176
     1
 90
       12
176
     1
 62
     7
176
     1
 40
1.0
176
     1
 90
        1
176
     1
 90
        6
176
     1
 90
        2
176
     1
 62
     7
176
     1
 90
        5
176
     1
 90
        0
176
     1
 90
        0
176
     1
290
     0
176
     1
 90
        1
176
     1
 40
0.0
176
     1
 90
        0
176
     1
290
     0
176
     1
290
     1
176
     1
290
     1
176
     1
290
     0
176
     1
290
     0
176
     1
290
     0
176
     1
290
     0
176
     1
290
     0
176
     1
290
     0
176
     1
 90
       50
176
     1
 40
0.0
176
     1
 40
1.0
176
     1
 90
        0
176
     1
 62
    18
420
        0
176
     1
 90
       50
176
     1
 90
        3
176
     1
 62
     5
420
      255
176
     1
290
     0
176
     1
 90
       50
176
     1
 90
       50
176
     1
 90
       50
176
     1
290
     0
176
     1
 90
       50
176
     1
 62
   256
176
     0
 40
1.0
176
     0
 90
        2
176
     1
  1
strokes_ogs.tif
176
     1
290
     0
176
     1
 40
1.0
176
     1
 40
1.0
176
     1
  0
VISUALSTYLE
  5
30
102
{ACAD_REACTORS
330
2A
102
}
330
2A
100
AcDbVisualStyle
  2
Wireframe
 70
     5
177
     3
291
     0
 70
    58
 90
        0
176
     1
 90
        2
176
     1
 90
        0
176
     1
 90
        0
176
     1
 40
0.6
176
     1
 40
30.0
176
     1
 62
     7
420
 16777215
176
     1
 90
        1
176
     1
 90
        4
176
     1
 62
     7
176
     1
 62
   257
176
     1
 90
        1
176
     1
 90
        1
176
     1
 40
1.0
176
     1
 90
        0
176
     1
 62
   257
176
     1
 40
1.0
176
     1
 90
        1
176
     1
 90
        6
176
     1
 90
        2
176
     1
 62
     7
176
     1
 90
        3
176
     1
 90
        0
176
     1
 90
        0
176
     1
290
     0
176
     1
 90
        1
176
     1
 40
0.0
176
     1
 90
        0
176
     1
290
     0
176
     1
290
     1
176
     1
290
     1
176
     1
290
     0
176
     1
290
     0
176
     1
290
     0
176
     1
290
     0
176
     1
290
     0
176
     1
290
     0
176
     1
 90
       50
176
     1
 40
0.0
176
     1
 40
1.0
176
     1
 90
        0
176
     1
 62
    18
420
        0
176
     1
 90
       50
176
     1
 90
        3
176
     1
 62
     5
420
      255
176
     1
290
     0
176
     1
 90
       50
176
     1
 90
       50
176
     1
 90
       50
176
     1
290
     0
176
     1
 90
       50
176
     1
 62
   256
176
     0
 40
1.0
176
     0
 90
        2
176
     1
  1
strokes_ogs.tif
176
     1
290
     0
176
     1
 40
1.0
176
     1
 40
1.0
176
     1
  0
VISUALSTYLE
  5
40
102
{ACAD_REACTORS
330
2A
102
}
330
2A
100
AcDbVisualStyle
  2
X-Ray
 70
    25
177
     3
291
     0
 70
    58
 90
        2
176
     1
 90
        2
176
     1
 90
        1
176
     1
 90
        1
176
     1
 40
0.5
176
     1
 40
30.0
176
     1
 62
     7
420
 16777215
176
     1
 90
        1
176
     1
 90
        0
176
     1
 62
     7
176
     1
 62
   257
176
     1
 90
        1
176
     1
 90
        1
176
     1
 40
1.0
176
     1
 90
        8
176
     1
 62
     7
176
     1
 40
1.0
176
     1
 90
        1
176
     1
 90
        6
176
     1
 90
        2
176
     1
 62
     7
176
     1
 90
        3
176
     1
 90
        0
176
     1
 90
        0
176
     1
290
     0
176
     1
 90
       13
176
     1
 40
0.0
176
     1
 90
        0
176
     1
290
     0
176
     1
290
     1
176
     1
290
     1
176
     1
290
     0
176
     1
290
     0
176
     1
290
     0
176
     1
290
     0
176
     1
290
     0
176
     1
290
     0
176
     1
 90
       50
176
     1
 40
0.0
176
     1
 40
1.0
176
     1
 90
        0
176
     1
 62
    18
420
        0
176
     1
 90
       50
176
     1
 90
        3
176
     1
 62
     5
420
      255
176
     1
290
     0
176
     1
 90
       50
176
     1
 90
       50
176
     1
 90
       50
176
     1
290
     0
176
     1
 90
       50
176
     1
 62
   256
176
     0
 40
1.0
176
     0
 90
        2
176
     1
  1
strokes_ogs.tif
176
     1
290
     0
176
     1
 40
1.0
176
     1
 40
1.0
176
     1
  0
DICTIONARYVAR
  5
1FC
102
{ACAD_REACTORS
330
1FB
102
}
330
1FB
100
DictionaryVariables
280
     0
  1
1:1
  0
DICTIONARYVAR
  5
201
102
{ACAD_REACTORS
330
1FB
102
}
330
1FB
100
DictionaryVariables
280
     0
  1
Standard
  0
DICTIONARYVAR
  5
200
102
{ACAD_REACTORS
330
1FB
102
}
330
1FB
100
DictionaryVariables
280
     0
  1
Standard
  0
DICTIONARY
  5
1FD
330
6A
100
AcDbDictionary
280
     1
281
     1
  3
ACAD_ROUNDTRIP_2008_TABLESTYLE_CELLSTYLEMAP
360
1FE
  0
CELLSTYLEMAP
  5
1FE
102
{ACAD_REACTORS
330
1FD
102
}
330
1FD
100
AcDbCellStyleMap
 90
        3
300
CELLSTYLE
  1
TABLEFORMAT_BEGIN
 90
        5
170
     1
 91
        0
 92
    32768
 62
   257
 93
        1
300
CONTENTFORMAT
  1
CONTENTFORMAT_BEGIN
 90
        0
 91
        0
 92
        4
 93
        0
300

 40
0.0
140
1.0
 94
        5
 62
     0
340
11
144
0.25
309
CONTENTFORMAT_END
171
     1
301
MARGIN
  1
CELLMARGIN_BEGIN
 40
0.06
 40
0.06
 40
0.06
 40
0.06
 40
0.06
 40
0.06
309
CELLMARGIN_END
 94
        6
 95
        1
302
GRIDFORMAT
  1
GRIDFORMAT_BEGIN
 90
        0
 91
        1
 62
     0
 92
       -2
340
14
 93
        0
 40
0.045
309
GRIDFORMAT_END
 95
        2
302
GRIDFORMAT
  1
GRIDFORMAT_BEGIN
 90
        0
 91
        1
 62
     0
 92
       -2
340
14
 93
        0
 40
0.045
309
GRIDFORMAT_END
 95
        4
302
GRIDFORMAT
  1
GRIDFORMAT_BEGIN
 90
        0
 91
        1
 62
     0
 92
       -2
340
14
 93
        0
 40
0.045
309
GRIDFORMAT_END
 95
        8
302
GRIDFORMAT
  1
GRIDFORMAT_BEGIN
 90
        0
 91
        1
 62
     0
 92
       -2
340
14
 93
        0
 40
0.045
309
GRIDFORMAT_END
 95
       16
302
GRIDFORMAT
  1
GRIDFORMAT_BEGIN
 90
        0
 91
        1
 62
     0
 92
       -2
340
14
 93
        0
 40
0.045
309
GRIDFORMAT_END
 95
       32
302
GRIDFORMAT
  1
GRIDFORMAT_BEGIN
 90
        0
 91
        1
 62
     0
 92
       -2
340
14
 93
        0
 40
0.045
309
GRIDFORMAT_END
309
TABLEFORMAT_END
  1
CELLSTYLE_BEGIN
 90
        1
 91
        1
300
_TITLE
309
CELLSTYLE_END
300
CELLSTYLE
  1
TABLEFORMAT_BEGIN
 90
        5
170
     1
 91
        0
 92
        0
 62
   257
 93
        1
300
CONTENTFORMAT
  1
CONTENTFORMAT_BEGIN
 90
        0
 91
        0
 92
        4
 93
        0
300

 40
0.0
140
1.0
 94
        5
 62
     0
340
11
144
0.18
309
CONTENTFORMAT_END
171
     1
301
MARGIN
  1
CELLMARGIN_BEGIN
 40
0.06
 40
0.06
 40
0.06
 40
0.06
 40
0.06
 40
0.06
309
CELLMARGIN_END
 94
        6
 95
        1
302
GRIDFORMAT
  1
GRIDFORMAT_BEGIN
 90
        0
 91
        1
 62
     0
 92
       -2
340
14
 93
        0
 40
0.045
309
GRIDFORMAT_END
 95
        2
302
GRIDFORMAT
  1
GRIDFORMAT_BEGIN
 90
        0
 91
        1
 62
     0
 92
       -2
340
14
 93
        0
 40
0.045
309
GRIDFORMAT_END
 95
        4
302
GRIDFORMAT
  1
GRIDFORMAT_BEGIN
 90
        0
 91
        1
 62
     0
 92
       -2
340
14
 93
        0
 40
0.045
309
GRIDFORMAT_END
 95
        8
302
GRIDFORMAT
  1
GRIDFORMAT_BEGIN
 90
        0
 91
        1
 62
     0
 92
       -2
340
14
 93
        0
 40
0.045
309
GRIDFORMAT_END
 95
       16
302
GRIDFORMAT
  1
GRIDFORMAT_BEGIN
 90
        0
 91
        1
 62
     0
 92
       -2
340
14
 93
        0
 40
0.045
309
GRIDFORMAT_END
 95
       32
302
GRIDFORMAT
  1
GRIDFORMAT_BEGIN
 90
        0
 91
        1
 62
     0
 92
       -2
340
14
 93
        0
 40
0.045
309
GRIDFORMAT_END
309
TABLEFORMAT_END
  1
CELLSTYLE_BEGIN
 90
        2
 91
        1
300
_HEADER
309
CELLSTYLE_END
300
CELLSTYLE
  1
TABLEFORMAT_BEGIN
 90
        5
170
     1
 91
        0
 92
        0
 62
   257
 93
        1
300
CONTENTFORMAT
  1
CONTENTFORMAT_BEGIN
 90
        0
 91
        0
 92
        4
 93
        0
300

 40
0.0
140
1.0
 94
        2
 62
     0
340
11
144
0.18
309
CONTENTFORMAT_END
171
     1
301
MARGIN
  1
CELLMARGIN_BEGIN
 40
0.06
 40
0.06
 40
0.06
 40
0.06
 40
0.06
 40
0.06
309
CELLMARGIN_END
 94
        6
 95
        1
302
GRIDFORMAT
  1
GRIDFORMAT_BEGIN
 90
        0
 91
        1
 62
     0
 92
       -2
340
14
 93
        0
 40
0.045
309
GRIDFORMAT_END
 95
        2
302
GRIDFORMAT
  1
GRIDFORMAT_BEGIN
 90
        0
 91
        1
 62
     0
 92
       -2
340
14
 93
        0
 40
0.045
309
GRIDFORMAT_END
 95
        4
302
GRIDFORMAT
  1
GRIDFORMAT_BEGIN
 90
        0
 91
        1
 62
     0
 92
       -2
340
14
 93
        0
 40
0.045
309
GRIDFORMAT_END
 95
        8
302
GRIDFORMAT
  1
GRIDFORMAT_BEGIN
 90
        0
 91
        1
 62
     0
 92
       -2
340
14
 93
        0
 40
0.045
309
GRIDFORMAT_END
 95
       16
302
GRIDFORMAT
  1
GRIDFORMAT_BEGIN
 90
        0
 91
        1
 62
     0
 92
       -2
340
14
 93
        0
 40
0.045
309
GRIDFORMAT_END
 95
       32
302
GRIDFORMAT
  1
GRIDFORMAT_BEGIN
 90
        0
 91
        1
 62
     0
 92
       -2
340
14
 93
        0
 40
0.045
309
GRIDFORMAT_END
309
TABLEFORMAT_END
  1
CELLSTYLE_BEGIN
 90
        3
 91
        2
300
_DATA
309
CELLSTYLE_END
  0
ENDSEC
  0
EOF