0
SECTION
  2
HEADER
  9
$ACADVER
  1
AC1027
  9
$ACADMAINTVER
 70
     8
  9
$DWGCODEPAGE
  3
ANSI_1252
  9
$REQUIREDVERSIONS
160
                 0
  9
$COMMENTS
  1
File was created by Cadenas
  9
$CUSTOMPROPERTYTAG
  1
NN
  9
$CUSTOMPROPERTY
  1
Grip Tight Two-Bolt Pillow Block - Stainless Housing, Corrision Resistant Insert Metric Bore
  9
$CUSTOMPROPERTYTAG
  1
NT
  9
$CUSTOMPROPERTY
  1
GTEZ Normal Duty Stainless Steel Housed Pillow Blocks
  9
$CUSTOMPROPERTYTAG
  1
NB
  9
$CUSTOMPROPERTY
  1
 129261
  9
$CUSTOMPROPERTYTAG
  1
NBSYN
  9
$CUSTOMPROPERTY
  1
 $PN.$LUBE.
  9
$CUSTOMPROPERTYTAG
  1
LINA
  9
$CUSTOMPROPERTY
  1
 129261
  9
$CUSTOMPROPERTYTAG
  1
SERIES
  9
$CUSTOMPROPERTY
  1
204
  9
$CUSTOMPROPERTYTAG
  1
SS
  9
$CUSTOMPROPERTY
  1
20
  9
$CUSTOMPROPERTYTAG
  1
PN
  9
$CUSTOMPROPERTY
  1
129261
  9
$CUSTOMPROPERTYTAG
  1
DESCRIPTION
  9
$CUSTOMPROPERTY
  1
P2B-GTEZ-20M-SHCR
  9
$CUSTOMPROPERTYTAG
  1
A
  9
$CUSTOMPROPERTY
  1
37.3
  9
$CUSTOMPROPERTYTAG
  1
B
  9
$CUSTOMPROPERTY
  1
127.0
  9
$CUSTOMPROPERTYTAG
  1
C
  9
$CUSTOMPROPERTY
  1
25.4
  9
$CUSTOMPROPERTYTAG
  1
DMIN
  9
$CUSTOMPROPERTY
  1
85.7
  9
$CUSTOMPROPERTYTAG
  1
DMAX
  9
$CUSTOMPROPERTY
  1
106.4
  9
$CUSTOMPROPERTYTAG
  1
F
  9
$CUSTOMPROPERTY
  1
M10
  9
$CUSTOMPROPERTYTAG
  1
G
  9
$CUSTOMPROPERTY
  1
21.4
  9
$CUSTOMPROPERTYTAG
  1
H
  9
$CUSTOMPROPERTY
  1
12.7
  9
$CUSTOMPROPERTYTAG
  1
J
  9
$CUSTOMPROPERTY
  1
63.5
  9
$CUSTOMPROPERTYTAG
  1
L
  9
$CUSTOMPROPERTY
  1
38.1
  9
$CUSTOMPROPERTYTAG
  1
M
  9
$CUSTOMPROPERTY
  1
33.3
  9
$CUSTOMPROPERTYTAG
  1
R
  9
$CUSTOMPROPERTY
  1
12.3
  9
$CUSTOMPROPERTYTAG
  1
S
  9
$CUSTOMPROPERTY
  1
25.0
  9
$CUSTOMPROPERTYTAG
  1
Z
  9
$CUSTOMPROPERTY
  1
25.0
  9
$CUSTOMPROPERTYTAG
  1
COMPANY
  9
$CUSTOMPROPERTY
  1
baldor
  9
$INSBASE
 10
0.0
 20
0.0
 30
0.0
  9
$EXTMIN
 10
1.000000000000000E+20
 20
1.000000000000000E+20
 30
1.000000000000000E+20
  9
$EXTMAX
 10
-1.000000000000000E+20
 20
-1.000000000000000E+20
 30
-1.000000000000000E+20
  9
$LIMMIN
 10
0.0
 20
0.0
  9
$LIMMAX
 10
420.0
 20
297.0
  9
$ORTHOMODE
 70
     0
  9
$REGENMODE
 70
     1
  9
$FILLMODE
 70
     1
  9
$QTEXTMODE
 70
     0
  9
$MIRRTEXT
 70
     1
  9
$LTSCALE
 40
1.0
  9
$ATTMODE
 70
     1
  9
$TEXTSIZE
 40
2.5
  9
$TRACEWID
 40
1.0
  9
$TEXTSTYLE
  7
Standard
  9
$CLAYER
  8
0
  9
$CELTYPE
  6
ByLayer
  9
$CECOLOR
 62
   256
  9
$CELTSCALE
 40
1.0
  9
$DISPSILH
 70
     0
  9
$DIMSCALE
 40
1.0
  9
$DIMASZ
 40
2.5
  9
$DIMEXO
 40
0.625
  9
$DIMDLI
 40
3.75
  9
$DIMRND
 40
0.0
  9
$DIMDLE
 40
0.0
  9
$DIMEXE
 40
1.25
  9
$DIMTP
 40
0.0
  9
$DIMTM
 40
0.0
  9
$DIMTXT
 40
2.5
  9
$DIMCEN
 40
2.5
  9
$DIMTSZ
 40
0.0
  9
$DIMTOL
 70
     0
  9
$DIMLIM
 70
     0
  9
$DIMTIH
 70
     0
  9
$DIMTOH
 70
     0
  9
$DIMSE1
 70
     0
  9
$DIMSE2
 70
     0
  9
$DIMTAD
 70
     1
  9
$DIMZIN
 70
     8
  9
$DIMBLK
  1

  9
$DIMASO
 70
     1
  9
$DIMSHO
 70
     1
  9
$DIMPOST
  1

  9
$DIMAPOST
  1

  9
$DIMALT
 70
     0
  9
$DIMALTD
 70
     3
  9
$DIMALTF
 40
0.03937007874016
  9
$DIMLFAC
 40
1.0
  9
$DIMTOFL
 70
     1
  9
$DIMTVP
 40
0.0
  9
$DIMTIX
 70
     0
  9
$DIMSOXD
 70
     0
  9
$DIMSAH
 70
     0
  9
$DIMBLK1
  1

  9
$DIMBLK2
  1

  9
$DIMSTYLE
  2
ISO-25
  9
$DIMCLRD
 70
     0
  9
$DIMCLRE
 70
     0
  9
$DIMCLRT
 70
     0
  9
$DIMTFAC
 40
1.0
  9
$DIMGAP
 40
0.625
  9
$DIMJUST
 70
     0
  9
$DIMSD1
 70
     0
  9
$DIMSD2
 70
     0
  9
$DIMTOLJ
 70
     0
  9
$DIMTZIN
 70
     8
  9
$DIMALTZ
 70
     0
  9
$DIMALTTZ
 70
     0
  9
$DIMUPT
 70
     0
  9
$DIMDEC
 70
     2
  9
$DIMTDEC
 70
     2
  9
$DIMALTU
 70
     2
  9
$DIMALTTD
 70
     3
  9
$DIMTXSTY
  7
Standard
  9
$DIMAUNIT
 70
     0
  9
$DIMADEC
 70
     0
  9
$DIMALTRND
 40
0.0
  9
$DIMAZIN
 70
     0
  9
$DIMDSEP
 70
    44
  9
$DIMATFIT
 70
     3
  9
$DIMFRAC
 70
     0
  9
$DIMLDRBLK
  1

  9
$DIMLUNIT
 70
     2
  9
$DIMLWD
 70
    -2
  9
$DIMLWE
 70
    -2
  9
$DIMTMOVE
 70
     0
  9
$DIMFXL
 40
1.0
  9
$DIMFXLON
 70
     0
  9
$DIMJOGANG
 40
0.7853981633974483
  9
$DIMTFILL
 70
     0
  9
$DIMTFILLCLR
 70
     0
  9
$DIMARCSYM
 70
     0
  9
$DIMLTYPE
  6

  9
$DIMLTEX1
  6

  9
$DIMLTEX2
  6

  9
$DIMTXTDIRECTION
 70
     0
  9
$LUNITS
 70
     2
  9
$LUPREC
 70
     4
  9
$SKETCHINC
 40
1.0
  9
$FILLETRAD
 40
10.0
  9
$AUNITS
 70
     0
  9
$AUPREC
 70
     0
  9
$MENU
  1
.
  9
$ELEVATION
 40
0.0
  9
$PELEVATION
 40
0.0
  9
$THICKNESS
 40
0.0
  9
$LIMCHECK
 70
     0
  9
$CHAMFERA
 40
0.0
  9
$CHAMFERB
 40
0.0
  9
$CHAMFERC
 40
0.0
  9
$CHAMFERD
 40
0.0
  9
$SKPOLY
 70
     0
  9
$TDCREATE
 40
2458168.992066713
  9
$TDUCREATE
 40
2458168.950400046
  9
$TDUPDATE
 40
2458168.992066713
  9
$TDUUPDATE
 40
2458168.950400046
  9
$TDINDWG
 40
0.0000000116
  9
$TDUSRTIMER
 40
0.0000000116
  9
$USRTIMER
 70
     1
  9
$ANGBASE
 50
0.0
  9
$ANGDIR
 70
     0
  9
$PDMODE
 70
     0
  9
$PDSIZE
 40
0.0
  9
$PLINEWID
 40
0.0
  9
$SPLFRAME
 70
     0
  9
$SPLINETYPE
 70
     6
  9
$SPLINESEGS
 70
     8
  9
$HANDSEED
  5
1F2
  9
$SURFTAB1
 70
     6
  9
$SURFTAB2
 70
     6
  9
$SURFTYPE
 70
     6
  9
$SURFU
 70
     6
  9
$SURFV
 70
     6
  9
$UCSBASE
  2

  9
$UCSNAME
  2

  9
$UCSORG
 10
0.0
 20
0.0
 30
0.0
  9
$UCSXDIR
 10
1.0
 20
0.0
 30
0.0
  9
$UCSYDIR
 10
0.0
 20
1.0
 30
0.0
  9
$UCSORTHOREF
  2

  9
$UCSORTHOVIEW
 70
     0
  9
$UCSORGTOP
 10
0.0
 20
0.0
 30
0.0
  9
$UCSORGBOTTOM
 10
0.0
 20
0.0
 30
0.0
  9
$UCSORGLEFT
 10
0.0
 20
0.0
 30
0.0
  9
$UCSORGRIGHT
 10
0.0
 20
0.0
 30
0.0
  9
$UCSORGFRONT
 10
0.0
 20
0.0
 30
0.0
  9
$UCSORGBACK
 10
0.0
 20
0.0
 30
0.0
  9
$PUCSBASE
  2

  9
$PUCSNAME
  2

  9
$PUCSORG
 10
0.0
 20
0.0
 30
0.0
  9
$PUCSXDIR
 10
1.0
 20
0.0
 30
0.0
  9
$PUCSYDIR
 10
0.0
 20
1.0
 30
0.0
  9
$PUCSORTHOREF
  2

  9
$PUCSORTHOVIEW
 70
     0
  9
$PUCSORGTOP
 10
0.0
 20
0.0
 30
0.0
  9
$PUCSORGBOTTOM
 10
0.0
 20
0.0
 30
0.0
  9
$PUCSORGLEFT
 10
0.0
 20
0.0
 30
0.0
  9
$PUCSORGRIGHT
 10
0.0
 20
0.0
 30
0.0
  9
$PUCSORGFRONT
 10
0.0
 20
0.0
 30
0.0
  9
$PUCSORGBACK
 10
0.0
 20
0.0
 30
0.0
  9
$USERI1
 70
     0
  9
$USERI2
 70
     0
  9
$USERI3
 70
     0
  9
$USERI4
 70
     0
  9
$USERI5
 70
     0
  9
$USERR1
 40
0.0
  9
$USERR2
 40
0.0
  9
$USERR3
 40
0.0
  9
$USERR4
 40
0.0
  9
$USERR5
 40
0.0
  9
$WORLDVIEW
 70
     1
  9
$SHADEDGE
 70
     3
  9
$SHADEDIF
 70
    70
  9
$TILEMODE
 70
     1
  9
$MAXACTVP
 70
    64
  9
$PINSBASE
 10
0.0
 20
0.0
 30
0.0
  9
$PLIMCHECK
 70
     0
  9
$PEXTMIN
 10
1.000000000000000E+20
 20
1.000000000000000E+20
 30
1.000000000000000E+20
  9
$PEXTMAX
 10
-1.000000000000000E+20
 20
-1.000000000000000E+20
 30
-1.000000000000000E+20
  9
$PLIMMIN
 10
0.0
 20
0.0
  9
$PLIMMAX
 10
420.0
 20
297.0
  9
$UNITMODE
 70
     0
  9
$VISRETAIN
 70
     1
  9
$PLINEGEN
 70
     0
  9
$PSLTSCALE
 70
     1
  9
$TREEDEPTH
 70
  3020
  9
$CMLSTYLE
  2
Standard
  9
$CMLJUST
 70
     0
  9
$CMLSCALE
 40
20.0
  9
$PROXYGRAPHICS
 70
     1
  9
$MEASUREMENT
 70
     1
  9
$CELWEIGHT
370
    -1
  9
$ENDCAPS
280
     0
  9
$JOINSTYLE
280
     0
  9
$LWDISPLAY
290
     0
  9
$INSUNITS
 70
     4
  9
$HYPERLINKBASE
  1

  9
$STYLESHEET
  1

  9
$XEDIT
290
     1
  9
$CEPSNTYPE
380
     0
  9
$PSTYLEMODE
290
     1
  9
$FINGERPRINTGUID
  2
{BE4C9B10-D1E3-43FF-9089-989110029C25}
  9
$VERSIONGUID
  2
{FAEB1C32-E019-11D5-929B-00C0DF256EC4}
  9
$EXTNAMES
290
     1
  9
$PSVPSCALE
 40
0.0
  9
$OLESTARTUP
290
     0
  9
$SORTENTS
280
   127
  9
$INDEXCTL
280
     0
  9
$HIDETEXT
280
     1
  9
$XCLIPFRAME
280
     2
  9
$HALOGAP
280
     0
  9
$OBSCOLOR
 70
   257
  9
$OBSLTYPE
280
     0
  9
$INTERSECTIONDISPLAY
280
     0
  9
$INTERSECTIONCOLOR
 70
   257
  9
$DIMASSOC
280
     2
  9
$PROJECTNAME
  1

  9
$CAMERADISPLAY
290
     0
  9
$LENSLENGTH
 40
50.0
  9
$CAMERAHEIGHT
 40
0.0
  9
$STEPSPERSEC
 40
2.0
  9
$STEPSIZE
 40
6.0
  9
$3DDWFPREC
 40
2.0
  9
$PSOLWIDTH
 40
5.0
  9
$PSOLHEIGHT
 40
80.0
  9
$LOFTANG1
 40
1.570796326794897
  9
$LOFTANG2
 40
1.570796326794897
  9
$LOFTMAG1
 40
0.0
  9
$LOFTMAG2
 40
0.0
  9
$LOFTPARAM
 70
     7
  9
$LOFTNORMALS
280
     1
  9
$LATITUDE
 40
37.795
  9
$LONGITUDE
 40
-122.394
  9
$NORTHDIRECTION
 40
0.0
  9
$TIMEZONE
 70
 -8000
  9
$LIGHTGLYPHDISPLAY
280
     1
  9
$TILEMODELIGHTSYNCH
280
     1
  9
$CMATERIAL
347
44
  9
$SOLIDHIST
280
     0
  9
$SHOWHIST
280
     1
  9
$DWFFRAME
280
     2
  9
$DGNFRAME
280
     2
  9
$REALWORLDSCALE
290
     1
  9
$INTERFERECOLOR
 62
   256
  9
$CSHADOW
280
     0
  9
$SHADOWPLANELOCATION
 40
0.0
  0
ENDSEC
  0
SECTION
  2
CLASSES
  0
CLASS
  1
ACDBDICTIONARYWDFLT
  2
AcDbDictionaryWithDefault
  3
ObjectDBX Classes
 90
        0
 91
        4
280
     0
281
     0
  0
CLASS
  1
VISUALSTYLE
  2
AcDbVisualStyle
  3
ObjectDBX Classes
 90
     4095
 91
        4
280
     0
281
     0
  0
CLASS
  1
MATERIAL
  2
AcDbMaterial
  3
ObjectDBX Classes
 90
     1153
 91
        4
280
     0
281
     0
  0
CLASS
  1
SCALE
  2
AcDbScale
  3
ObjectDBX Classes
 90
     1153
 91
        4
280
     0
281
     0
  0
CLASS
  1
TABLESTYLE
  2
AcDbTableStyle
  3
ObjectDBX Classes
 90
     4095
 91
        4
280
     0
281
     0
  0
CLASS
  1
MLEADERSTYLE
  2
AcDbMLeaderStyle
  3
ACDB_MLEADERSTYLE_CLASS
 90
     4095
 91
        4
280
     0
281
     0
  0
CLASS
  1
SUN
  2
AcDbSun
  3
SCENEOE
 90
     1153
 91
        4
280
     0
281
     0
  0
CLASS
  1
DICTIONARYVAR
  2
AcDbDictionaryVar
  3
ObjectDBX Classes
 90
        0
 91
        4
280
     0
281
     0
  0
CLASS
  1
CELLSTYLEMAP
  2
AcDbCellStyleMap
  3
ObjectDBX Classes
 90
     1152
 91
        4
280
     0
281
     0
  0
ENDSEC
  0
SECTION
  2
TABLES
  0
TABLE
  2
VPORT
  5
8
330
0
100
AcDbSymbolTable
 70
     1
  0
VPORT
  5
29
330
8
100
AcDbSymbolTableRecord
100
AcDbViewportTableRecord
  2
*Active
 70
     0
 10
0.0
 20
0.0
 11
1.0
 21
1.0
 12
0.0
 22
-1.550000337174794
 13
0.0
 23
0.0
 14
10.0
 24
10.0
 15
10.0
 25
10.0
 16
0.0
 26
0.0
 36
1.0
 17
0.0
 27
0.0
 37
0.0
 40
64.76999931216345
 41
2.000000021239356
 42
50.0
 43
0.0
 44
0.0
 50
0.0
 51
0.0
 71
     0
 72
   100
 73
     1
 74
     3
 75
     0
 76
     0
 77
     0
 78
     0
281
     0
 65
     1
110
0.0
120
0.0
130
0.0
111
1.0
121
0.0
131
0.0
112
0.0
122
1.0
132
0.0
 79
     0
146
0.0
348
2F
 60
     3
 61
     5
292
     1
282
     1
141
0.0
142
0.0
 63
   250
361
6D
  0
ENDTAB
  0
TABLE
  2
LTYPE
  5
5
330
0
100
AcDbSymbolTable
 70
     3
  0
LTYPE
  5
14
330
5
100
AcDbSymbolTableRecord
100
AcDbLinetypeTableRecord
  2
ByBlock
 70
     0
  3

 72
    65
 73
     0
 40
0.0
  0
LTYPE
  5
15
330
5
100
AcDbSymbolTableRecord
100
AcDbLinetypeTableRecord
  2
ByLayer
 70
     0
  3

 72
    65
 73
     0
 40
0.0
  0
LTYPE
  5
16
330
5
100
AcDbSymbolTableRecord
100
AcDbLinetypeTableRecord
  2
Continuous
 70
     0
  3
Solid line
 72
    65
 73
     0
 40
0.0
  0
LTYPE
  5
A1
330
5
100
AcDbSymbolTableRecord
100
AcDbLinetypeTableRecord
  2
Dashed
 70
     0
  3

 72
    65
 73
     2
 40
2.0
 49
1.0
 74
     0
 49
-1.0
 74
     0
  0
LTYPE
  5
AB
330
5
100
AcDbSymbolTableRecord
100
AcDbLinetypeTableRecord
  2
Center
 70
     0
  3

 72
    65
 73
     4
 40
1.5
 49
0.45
 74
     0
 49
-0.5
 74
     0
 49
0.05
 74
     0
 49
-0.5
 74
     0
  0
ENDTAB
  0
TABLE
  2
LAYER
  5
2
330
0
100
AcDbSymbolTable
 70
     7
  0
LAYER
  5
10
330
2
100
AcDbSymbolTableRecord
100
AcDbLayerTableRecord
  2
0
 70
     0
 62
     7
  6
Continuous
370
    -3
390
F
347
46
348
0
  0
LAYER
  5
72
330
2
100
AcDbSymbolTableRecord
100
AcDbLayerTableRecord
  2
AM_6
 70
     0
 62
    -2
  6
Continuous
370
    35
390
F
347
46
348
0
  0
LAYER
  5
A2
330
2
100
AcDbSymbolTableRecord
100
AcDbLayerTableRecord
  2
AM_9
 70
     0
 62
     6
  6
Dashed
370
    25
390
F
347
46
348
0
  0
LAYER
  5
AC
330
2
100
AcDbSymbolTableRecord
100
AcDbLayerTableRecord
  2
AM_7
 70
     0
 62
     7
  6
Center
370
    25
390
F
347
46
348
0
  0
LAYER
  5
AF
330
2
100
AcDbSymbolTableRecord
100
AcDbLayerTableRecord
  2
AM_4
 70
     0
 62
     3
  6
Continuous
370
    25
390
F
347
46
348
0
  0
LAYER
  5
DD
330
2
100
AcDbSymbolTableRecord
100
AcDbLayerTableRecord
  2
AM_5
 70
     0
 62
     3
  6
Continuous
370
    25
390
F
347
46
348
0
  0
LAYER
  5
1E5
330
2
100
AcDbSymbolTableRecord
100
AcDbLayerTableRecord
  2
ConnectionPoints
 70
     0
 62
     7
  6
Continuous
370
    50
390
F
347
46
348
0
  0
ENDTAB
  0
TABLE
  2
STYLE
  5
3
330
0
100
AcDbSymbolTable
 70
     1
  0
STYLE
  5
11
330
3
100
AcDbSymbolTableRecord
100
AcDbTextStyleTableRecord
  2
Standard
 70
     0
 40
0.0
 41
1.0
 50
0.0
 71
     0
 42
2.5
  3
txt
  4

  0
ENDTAB
  0
TABLE
  2
VIEW
  5
6
330
0
100
AcDbSymbolTable
 70
     0
  0
ENDTAB
  0
TABLE
  2
UCS
  5
7
330
0
100
AcDbSymbolTable
 70
     0
  0
ENDTAB
  0
TABLE
  2
APPID
  5
9
330
0
100
AcDbSymbolTable
 70
     1
  0
APPID
  5
12
330
9
100
AcDbSymbolTableRecord
100
AcDbRegAppTableRecord
  2
ACAD
 70
     0
  0
ENDTAB
  0
TABLE
  2
DIMSTYLE
  5
A
330
0
100
AcDbSymbolTable
 70
     1
100
AcDbDimStyleTable
  0
DIMSTYLE
105
27
330
A
100
AcDbSymbolTableRecord
100
AcDbDimStyleTableRecord
  2
ISO-25
 70
     0
 41
2.5
 42
0.625
 43
3.75
 44
1.25
 73
     0
 74
     0
 77
     1
 78
     8
140
2.5
141
2.5
143
0.03937007874016
147
0.625
171
     3
172
     1
178
     0
271
     2
272
     2
274
     3
278
    44
283
     0
284
     8
340
11
  0
ENDTAB
  0
TABLE
  2
BLOCK_RECORD
  5
1
330
0
100
AcDbSymbolTable
 70
     5
  0
BLOCK_RECORD
  5
1F
330
1
100
AcDbSymbolTableRecord
100
AcDbBlockTableRecord
  2
*Model_Space
340
22
 70
     0
280
     1
281
     0
  0
BLOCK_RECORD
  5
1B
330
1
100
AcDbSymbolTableRecord
100
AcDbBlockTableRecord
  2
*Paper_Space
340
1E
 70
     0
280
     1
281
     0
  0
BLOCK_RECORD
  5
23
330
1
100
AcDbSymbolTableRecord
100
AcDbBlockTableRecord
  2
*Paper_Space0
340
26
 70
     0
280
     1
281
     0
  0
BLOCK_RECORD
  5
6E
330
1
100
AcDbSymbolTableRecord
100
AcDbBlockTableRecord
  2
1__129261_0
340
0
102
{BLKREFS
331
6F
102
}
 70
     0
280
     1
281
     0
  0
BLOCK_RECORD
  5
8B
330
1
100
AcDbSymbolTableRecord
100
AcDbBlockTableRecord
  2
2_INS_GT_04_CR_0_in__129261_0
340
0
102
{BLKREFS
331
8C
102
}
 70
     0
280
     1
281
     0
  0
BLOCK_RECORD
  5
B7
330
1
100
AcDbSymbolTableRecord
100
AcDbBlockTableRecord
  2
3_129980_0_in__129261_0
340
0
102
{BLKREFS
331
B8
102
}
 70
     0
280
     1
281
     0
  0
BLOCK_RECORD
  5
F3
330
1
100
AcDbSymbolTableRecord
100
AcDbBlockTableRecord
  2
4_P2B_GTEZ_04_SHCR_0_in__129261_0
340
0
102
{BLKREFS
331
F4
102
}
 70
     0
280
     1
281
     0
  0
ENDTAB
  0
ENDSEC
  0
SECTION
  2
BLOCKS
  0
BLOCK
  5
20
330
1F
100
AcDbEntity
  8
0
100
AcDbBlockBegin
  2
*Model_Space
 70
     0
 10
0.0
 20
0.0
 30
0.0
  3
*Model_Space
  1

  0
ENDBLK
  5
21
330
1F
100
AcDbEntity
  8
0
100
AcDbBlockEnd
  0
BLOCK
  5
1C
330
1B
100
AcDbEntity
 67
     1
  8
0
100
AcDbBlockBegin
  2
*Paper_Space
 70
     0
 10
0.0
 20
0.0
 30
0.0
  3
*Paper_Space
  1

  0
ENDBLK
  5
1D
330
1B
100
AcDbEntity
 67
     1
  8
0
100
AcDbBlockEnd
  0
BLOCK
  5
24
330
23
100
AcDbEntity
  8
0
100
AcDbBlockBegin
  2
*Paper_Space0
 70
     0
 10
0.0
 20
0.0
 30
0.0
  3
*Paper_Space0
  1

  0
ENDBLK
  5
25
330
23
100
AcDbEntity
  8
0
100
AcDbBlockEnd
  0
BLOCK
  5
70
330
6E
100
AcDbEntity
  8
0
100
AcDbBlockBegin
  2
1__129261_0
 70
     2
 10
0.0
 20
0.0
 30
0.0
  3
1__129261_0
  1

  0
ATTDEF
  5
73
330
6E
100
AcDbEntity
  8
AM_6
100
AcDbText
 10
68.5
 20
30.19999932565042
 30
0.0
 40
0.5
  1
Grip Tight Two-Bolt Pillow Block - Stainless Housing, Corrision Resistant Insert Metric Bore
100
AcDbAttributeDefinition
  3

  2
NN
 70
     8
280
     0
  0
ATTDEF
  5
74
330
6E
100
AcDbEntity
  8
AM_6
100
AcDbText
 10
68.5
 20
29.69999932565042
 30
0.0
 40
0.5
  1
GTEZ Normal Duty Stainless Steel Housed Pillow Blocks
100
AcDbAttributeDefinition
  3

  2
NT
 70
     8
280
     0
  0
ATTDEF
  5
75
330
6E
100
AcDbEntity
  8
AM_6
100
AcDbText
 10
68.5
 20
29.19999932565042
 30
0.0
 40
0.5
  1
 129261
100
AcDbAttributeDefinition
  3

  2
NB
 70
     8
280
     0
  0
ATTDEF
  5
76
330
6E
100
AcDbEntity
  8
AM_6
100
AcDbText
 10
68.5
 20
28.69999932565042
 30
0.0
 40
0.5
  1
 $PN.$LUBE.
100
AcDbAttributeDefinition
  3

  2
NBSYN
 70
     8
280
     0
  0
ATTDEF
  5
77
330
6E
100
AcDbEntity
  8
AM_6
100
AcDbText
 10
68.5
 20
28.19999932565042
 30
0.0
 40
0.5
  1
 129261
100
AcDbAttributeDefinition
  3

  2
LINA
 70
     8
280
     0
  0
ATTDEF
  5
78
330
6E
100
AcDbEntity
  8
AM_6
100
AcDbText
 10
68.5
 20
27.69999932565042
 30
0.0
 40
0.5
  1
204
100
AcDbAttributeDefinition
  3

  2
SERIES
 70
     8
280
     0
  0
ATTDEF
  5
79
330
6E
100
AcDbEntity
  8
AM_6
100
AcDbText
 10
68.5
 20
27.19999932565042
 30
0.0
 40
0.5
  1
20
100
AcDbAttributeDefinition
  3

  2
SS
 70
     8
280
     0
  0
ATTDEF
  5
7A
330
6E
100
AcDbEntity
  8
AM_6
100
AcDbText
 10
68.5
 20
26.69999932565042
 30
0.0
 40
0.5
  1
129261
100
AcDbAttributeDefinition
  3

  2
PN
 70
     8
280
     0
  0
ATTDEF
  5
7B
330
6E
100
AcDbEntity
  8
AM_6
100
AcDbText
 10
68.5
 20
26.19999932565042
 30
0.0
 40
0.5
  1
P2B-GTEZ-20M-SHCR
100
AcDbAttributeDefinition
  3

  2
DESCRIPTION
 70
     8
280
     0
  0
ATTDEF
  5
7C
330
6E
100
AcDbEntity
  8
AM_6
100
AcDbText
 10
68.5
 20
25.69999932565042
 30
0.0
 40
0.5
  1
37.3
100
AcDbAttributeDefinition
  3

  2
A
 70
     8
280
     0
  0
ATTDEF
  5
7D
330
6E
100
AcDbEntity
  8
AM_6
100
AcDbText
 10
68.5
 20
25.19999932565042
 30
0.0
 40
0.5
  1
127.0
100
AcDbAttributeDefinition
  3

  2
B
 70
     8
280
     0
  0
ATTDEF
  5
7E
330
6E
100
AcDbEntity
  8
AM_6
100
AcDbText
 10
68.5
 20
24.69999932565042
 30
0.0
 40
0.5
  1
25.4
100
AcDbAttributeDefinition
  3

  2
C
 70
     8
280
     0
  0
ATTDEF
  5
7F
330
6E
100
AcDbEntity
  8
AM_6
100
AcDbText
 10
68.5
 20
24.19999932565042
 30
0.0
 40
0.5
  1
85.7
100
AcDbAttributeDefinition
  3

  2
DMIN
 70
     8
280
     0
  0
ATTDEF
  5
80
330
6E
100
AcDbEntity
  8
AM_6
100
AcDbText
 10
68.5
 20
23.69999932565042
 30
0.0
 40
0.5
  1
106.4
100
AcDbAttributeDefinition
  3

  2
DMAX
 70
     8
280
     0
  0
ATTDEF
  5
81
330
6E
100
AcDbEntity
  8
AM_6
100
AcDbText
 10
68.5
 20
23.19999932565042
 30
0.0
 40
0.5
  1
M10
100
AcDbAttributeDefinition
  3

  2
F
 70
     8
280
     0
  0
ATTDEF
  5
82
330
6E
100
AcDbEntity
  8
AM_6
100
AcDbText
 10
68.5
 20
22.69999932565042
 30
0.0
 40
0.5
  1
21.4
100
AcDbAttributeDefinition
  3

  2
G
 70
     8
280
     0
  0
ATTDEF
  5
83
330
6E
100
AcDbEntity
  8
AM_6
100
AcDbText
 10
68.5
 20
22.19999932565042
 30
0.0
 40
0.5
  1
12.7
100
AcDbAttributeDefinition
  3

  2
H
 70
     8
280
     0
  0
ATTDEF
  5
84
330
6E
100
AcDbEntity
  8
AM_6
100
AcDbText
 10
68.5
 20
21.69999932565042
 30
0.0
 40
0.5
  1
63.5
100
AcDbAttributeDefinition
  3

  2
J
 70
     8
280
     0
  0
ATTDEF
  5
85
330
6E
100
AcDbEntity
  8
AM_6
100
AcDbText
 10
68.5
 20
21.19999932565042
 30
0.0
 40
0.5
  1
38.1
100
AcDbAttributeDefinition
  3

  2
L
 70
     8
280
     0
  0
ATTDEF
  5
86
330
6E
100
AcDbEntity
  8
AM_6
100
AcDbText
 10
68.5
 20
20.69999932565042
 30
0.0
 40
0.5
  1
33.3
100
AcDbAttributeDefinition
  3

  2
M
 70
     8
280
     0
  0
ATTDEF
  5
87
330
6E
100
AcDbEntity
  8
AM_6
100
AcDbText
 10
68.5
 20
20.19999932565042
 30
0.0
 40
0.5
  1
12.3
100
AcDbAttributeDefinition
  3

  2
R
 70
     8
280
     0
  0
ATTDEF
  5
88
330
6E
100
AcDbEntity
  8
AM_6
100
AcDbText
 10
68.5
 20
19.69999932565042
 30
0.0
 40
0.5
  1
25.0
100
AcDbAttributeDefinition
  3

  2
S
 70
     8
280
     0
  0
ATTDEF
  5
89
330
6E
100
AcDbEntity
  8
AM_6
100
AcDbText
 10
68.5
 20
19.19999932565042
 30
0.0
 40
0.5
  1
25.0
100
AcDbAttributeDefinition
  3

  2
Z
 70
     8
280
     0
  0
ATTDEF
  5
8A
330
6E
100
AcDbEntity
  8
AM_6
100
AcDbText
 10
68.5
 20
18.69999932565042
 30
0.0
 40
0.5
  1
baldor
100
AcDbAttributeDefinition
  3

  2
COMPANY
 70
     8
280
     0
  0
INSERT
  5
8C
330
6E
100
AcDbEntity
  8
0
100
AcDbBlockReference
  2
2_INS_GT_04_CR_0_in__129261_0
 10
0.0
 20
0.0
 30
0.0
  0
INSERT
  5
B8
330
6E
100
AcDbEntity
  8
0
100
AcDbBlockReference
  2
3_129980_0_in__129261_0
 10
0.0
 20
0.0
 30
0.0
  0
INSERT
  5
F4
330
6E
100
AcDbEntity
  8
0
100
AcDbBlockReference
  2
4_P2B_GTEZ_04_SHCR_0_in__129261_0
 10
0.0
 20
0.0
 30
0.0
  0
ENDBLK
  5
71
330
6E
100
AcDbEntity
  8
0
100
AcDbBlockEnd
  0
BLOCK
  5
8D
330
8B
100
AcDbEntity
  8
0
100
AcDbBlockBegin
  2
2_INS_GT_04_CR_0_in__129261_0
 70
     2
 10
0.0
 20
0.0
 30
0.0
  3
2_INS_GT_04_CR_0_in__129261_0
  1

  0
ATTDEF
  5
8F
330
8B
100
AcDbEntity
  8
AM_6
100
AcDbText
 10
29.43238054452931
 20
24.43238054452931
 30
0.0
 40
0.5
  1
INS-GT-CR-M
100
AcDbAttributeDefinition
  3

  2
NN
 70
     8
280
     0
  0
ATTDEF
  5
90
330
8B
100
AcDbEntity
  8
AM_6
100
AcDbText
 10
29.43238054452931
 20
23.93238054452931
 30
0.0
 40
0.5
  1
GT Normal Duty Corrosion Resistant Bearing Inserts
100
AcDbAttributeDefinition
  3

  2
NT
 70
     8
280
     0
  0
ATTDEF
  5
91
330
8B
100
AcDbEntity
  8
AM_6
100
AcDbText
 10
29.43238054452931
 20
23.43238054452931
 30
0.0
 40
0.5
  1
INS-GT-04-CR
100
AcDbAttributeDefinition
  3

  2
NB
 70
     8
280
     0
  0
ATTDEF
  5
92
330
8B
100
AcDbEntity
  8
AM_6
100
AcDbText
 10
29.43238054452931
 20
22.93238054452931
 30
0.0
 40
0.5
  1
$PN.
100
AcDbAttributeDefinition
  3

  2
NBSYN
 70
     8
280
     0
  0
ATTDEF
  5
93
330
8B
100
AcDbEntity
  8
AM_6
100
AcDbText
 10
29.43238054452931
 20
22.43238054452931
 30
0.0
 40
0.5
  1
INS-GT-04-CR
100
AcDbAttributeDefinition
  3

  2
LINA
 70
     8
280
     0
  0
ATTDEF
  5
94
330
8B
100
AcDbEntity
  8
AM_6
100
AcDbText
 10
29.43238054452931
 20
21.93238054452931
 30
0.0
 40
0.5
  1
204
100
AcDbAttributeDefinition
  3

  2
SERIES
 70
     8
280
     0
  0
ATTDEF
  5
95
330
8B
100
AcDbEntity
  8
AM_6
100
AcDbText
 10
29.43238054452931
 20
21.43238054452931
 30
0.0
 40
0.5
  1
INS-GT-04-CR
100
AcDbAttributeDefinition
  3

  2
PN
 70
     8
280
     0
  0
ATTDEF
  5
96
330
8B
100
AcDbEntity
  8
AM_6
100
AcDbText
 10
29.43238054452931
 20
20.93238054452931
 30
0.0
 40
0.5
  1
INS-GT-04-CR
100
AcDbAttributeDefinition
  3

  2
DESCRIPTION
 70
     8
280
     0
  0
ATTDEF
  5
97
330
8B
100
AcDbEntity
  8
AM_6
100
AcDbText
 10
29.43238054452931
 20
20.43238054452931
 30
0.0
 40
0.5
  1
37.3
100
AcDbAttributeDefinition
  3

  2
A
 70
     8
280
     0
  0
ATTDEF
  5
98
330
8B
100
AcDbEntity
  8
AM_6
100
AcDbText
 10
29.43238054452931
 20
19.93238054452931
 30
0.0
 40
0.5
  1
15.0
100
AcDbAttributeDefinition
  3

  2
C
 70
     8
280
     0
  0
ATTDEF
  5
99
330
8B
100
AcDbEntity
  8
AM_6
100
AcDbText
 10
29.43238054452931
 20
19.43238054452931
 30
0.0
 40
0.5
  1
47.0
100
AcDbAttributeDefinition
  3

  2
D
 70
     8
280
     0
  0
ATTDEF
  5
9A
330
8B
100
AcDbEntity
  8
AM_6
100
AcDbText
 10
29.43238054452931
 20
18.93238054452931
 30
0.0
 40
0.5
  1
3.9
100
AcDbAttributeDefinition
  3

  2
J
 70
     8
280
     0
  0
ATTDEF
  5
9B
330
8B
100
AcDbEntity
  8
AM_6
100
AcDbText
 10
29.43238054452931
 20
18.43238054452931
 30
0.0
 40
0.5
  1
38.1
100
AcDbAttributeDefinition
  3

  2
L
 70
     8
280
     0
  0
ATTDEF
  5
9C
330
8B
100
AcDbEntity
  8
AM_6
100
AcDbText
 10
29.43238054452931
 20
17.93238054452931
 30
0.0
 40
0.5
  1
10 - 32 x 1/4
100
AcDbAttributeDefinition
  3

  2
N
 70
     8
280
     0
  0
ATTDEF
  5
9D
330
8B
100
AcDbEntity
  8
AM_6
100
AcDbText
 10
29.43238054452931
 20
17.43238054452931
 30
0.0
 40
0.5
  1
12.3
100
AcDbAttributeDefinition
  3

  2
W
 70
     8
280
     0
  0
ATTDEF
  5
9E
330
8B
100
AcDbEntity
  8
AM_6
100
AcDbText
 10
29.43238054452931
 20
16.93238054452931
 30
0.0
 40
0.5
  1
25.0
100
AcDbAttributeDefinition
  3

  2
X
 70
     8
280
     0
  0
ATTDEF
  5
9F
330
8B
100
AcDbEntity
  8
AM_6
100
AcDbText
 10
29.43238054452931
 20
16.43238054452931
 30
0.0
 40
0.5
  1
25.0
100
AcDbAttributeDefinition
  3

  2
Y
 70
     8
280
     0
  0
ATTDEF
  5
A0
330
8B
100
AcDbEntity
  8
AM_6
100
AcDbText
 10
29.43238054452931
 20
15.93238054452931
 30
0.0
 40
0.5
  1
baldor
100
AcDbAttributeDefinition
  3

  2
COMPANY
 70
     8
280
     0
  0
CIRCLE
  5
A3
330
8B
100
AcDbEntity
  8
AM_9
100
AcDbCircle
 10
0.0
 20
0.0
 30
0.0
 40
14.92585989416354
  0
ARC
  5
A4
330
8B
100
AcDbEntity
  8
AM_9
100
AcDbCircle
 10
0.0
 20
-0.0000000000000178
 30
0.0
 40
23.49999999999999
100
AcDbArc
 50
205.7485518202385
 51
334.2514481797615
  0
CIRCLE
  5
A5
330
8B
100
AcDbEntity
  8
AM_9
100
AcDbCircle
 10
0.0
 20
0.0
 30
0.0
 40
22.0
  0
CIRCLE
  5
A6
330
8B
100
AcDbEntity
  8
AM_9
100
AcDbCircle
 10
0.0
 20
0.0
 30
0.0
 40
22.73749182788348
  0
CIRCLE
  5
A7
330
8B
100
AcDbEntity
  8
AM_9
100
AcDbCircle
 10
0.0
 20
0.0
 30
0.0
 40
15.57261904761905
  0
ARC
  5
A8
330
8B
100
AcDbEntity
  8
AM_9
100
AcDbCircle
 10
-0.0000000000000037
 20
0.0000000000000006
 30
0.0
 40
14.21190476190476
100
AcDbArc
 50
95.02011017395377
 51
84.98849037612173
  0
CIRCLE
  5
A9
330
8B
100
AcDbEntity
  8
AM_9
100
AcDbCircle
 10
0.0
 20
0.0
 30
0.0
 40
16.33333333333333
  0
CIRCLE
  5
AA
330
8B
100
AcDbEntity
  8
AM_9
100
AcDbCircle
 10
0.0
 20
0.0
 30
0.0
 40
16.93333333333333
  0
LINE
  5
AD
330
8B
100
AcDbEntity
  8
AM_7
100
AcDbLine
 10
-24.43238054452931
 20
0.0
 30
0.0
 11
24.43238054452931
 21
0.0
 31
0.0
  0
LINE
  5
AE
330
8B
100
AcDbEntity
  8
AM_7
100
AcDbLine
 10
0.0
 20
-24.43238054452931
 30
0.0
 11
0.0
 21
24.43238054452931
 31
0.0
  0
CIRCLE
  5
B0
330
8B
100
AcDbEntity
  8
AM_4
100
AcDbCircle
 10
0.0
 20
0.0
 30
0.0
 40
23.12071128384088
  0
CIRCLE
  5
B1
330
8B
100
AcDbEntity
  8
AM_4
100
AcDbCircle
 10
0.0
 20
0.0
 30
0.0
 40
23.26893385193267
  0
CIRCLE
  5
B2
330
8B
100
AcDbEntity
  8
AM_4
100
AcDbCircle
 10
0.0
 20
0.0
 30
0.0
 40
22.88749182788348
  0
CIRCLE
  5
B3
330
8B
100
AcDbEntity
  8
AM_4
100
AcDbCircle
 10
0.0
 20
0.0
 30
0.0
 40
22.88274369757586
  0
CIRCLE
  5
B4
330
8B
100
AcDbEntity
  8
AM_4
100
AcDbCircle
 10
0.0
 20
0.0
 30
0.0
 40
21.59545395833822
  0
CIRCLE
  5
B5
330
8B
100
AcDbEntity
  8
AM_4
100
AcDbCircle
 10
0.0
 20
0.0
 30
0.0
 40
22.15403979828546
  0
ARC
  5
B6
330
8B
100
AcDbEntity
  8
AM_4
100
AcDbCircle
 10
-0.0000000000000041
 20
-0.000000000000302
 30
0.0
 40
14.21190476190506
100
AcDbArc
 50
84.98849037612183
 51
95.02011017395367
  0
ENDBLK
  5
8E
330
8B
100
AcDbEntity
  8
0
100
AcDbBlockEnd
  0
BLOCK
  5
B9
330
B7
100
AcDbEntity
  8
0
100
AcDbBlockBegin
  2
3_129980_0_in__129261_0
 70
     2
 10
0.0
 20
0.0
 30
0.0
  3
3_129980_0_in__129261_0
  1

  0
ATTDEF
  5
BB
330
B7
100
AcDbEntity
  8
AM_6
100
AcDbText
 10
23.94993403682451
 20
19.04933875577034
 30
0.0
 40
0.5
  1
Grip Tight Adapter and Nut - Corrosion Resistant Metric Bore
100
AcDbAttributeDefinition
  3

  2
NN
 70
     8
280
     0
  0
ATTDEF
  5
BC
330
B7
100
AcDbEntity
  8
AM_6
100
AcDbText
 10
23.94993403682451
 20
18.54933875577034
 30
0.0
 40
0.5
  1
GT and GTM Adapter & Lock Nut Assemblies
100
AcDbAttributeDefinition
  3

  2
NT
 70
     8
280
     0
  0
ATTDEF
  5
BD
330
B7
100
AcDbEntity
  8
AM_6
100
AcDbText
 10
23.94993403682451
 20
18.04933875577034
 30
0.0
 40
0.5
  1
129980
100
AcDbAttributeDefinition
  3

  2
NB
 70
     8
280
     0
  0
ATTDEF
  5
BE
330
B7
100
AcDbEntity
  8
AM_6
100
AcDbText
 10
23.94993403682451
 20
17.54933875577034
 30
0.0
 40
0.5
  1
$PN.
100
AcDbAttributeDefinition
  3

  2
NBSYN
 70
     8
280
     0
  0
ATTDEF
  5
BF
330
B7
100
AcDbEntity
  8
AM_6
100
AcDbText
 10
23.94993403682451
 20
17.04933875577034
 30
0.0
 40
0.5
  1
129980
100
AcDbAttributeDefinition
  3

  2
LINA
 70
     8
280
     0
  0
ATTDEF
  5
C0
330
B7
100
AcDbEntity
  8
AM_6
100
AcDbText
 10
23.94993403682451
 20
16.54933875577034
 30
0.0
 40
0.5
  1
204
100
AcDbAttributeDefinition
  3

  2
SERIES
 70
     8
280
     0
  0
ATTDEF
  5
C1
330
B7
100
AcDbEntity
  8
AM_6
100
AcDbText
 10
23.94993403682451
 20
16.04933875577034
 30
0.0
 40
0.5
  1
20
100
AcDbAttributeDefinition
  3

  2
SS
 70
     8
280
     0
  0
ATTDEF
  5
C2
330
B7
100
AcDbEntity
  8
AM_6
100
AcDbText
 10
23.94993403682451
 20
15.54933875577034
 30
0.0
 40
0.5
  1
129980
100
AcDbAttributeDefinition
  3

  2
PN
 70
     8
280
     0
  0
ATTDEF
  5
C3
330
B7
100
AcDbEntity
  8
AM_6
100
AcDbText
 10
23.94993403682451
 20
15.04933875577034
 30
0.0
 40
0.5
  1
AN-GT-04-20M-CR
100
AcDbAttributeDefinition
  3

  2
DESCRIPTION
 70
     8
280
     0
  0
ATTDEF
  5
C4
330
B7
100
AcDbEntity
  8
AM_6
100
AcDbText
 10
23.94993403682451
 20
14.54933875577034
 30
0.0
 40
0.5
  1
37.3
100
AcDbAttributeDefinition
  3

  2
A
 70
     8
280
     0
  0
ATTDEF
  5
C5
330
B7
100
AcDbEntity
  8
AM_6
100
AcDbText
 10
23.94993403682451
 20
14.04933875577034
 30
0.0
 40
0.5
  1
15.0
100
AcDbAttributeDefinition
  3

  2
C
 70
     8
280
     0
  0
ATTDEF
  5
C6
330
B7
100
AcDbEntity
  8
AM_6
100
AcDbText
 10
23.94993403682451
 20
13.54933875577034
 30
0.0
 40
0.5
  1
47.0
100
AcDbAttributeDefinition
  3

  2
D
 70
     8
280
     0
  0
ATTDEF
  5
C7
330
B7
100
AcDbEntity
  8
AM_6
100
AcDbText
 10
23.94993403682451
 20
13.04933875577034
 30
0.0
 40
0.5
  1
3.9
100
AcDbAttributeDefinition
  3

  2
J
 70
     8
280
     0
  0
ATTDEF
  5
C8
330
B7
100
AcDbEntity
  8
AM_6
100
AcDbText
 10
23.94993403682451
 20
12.54933875577034
 30
0.0
 40
0.5
  1
38.1
100
AcDbAttributeDefinition
  3

  2
L
 70
     8
280
     0
  0
ATTDEF
  5
C9
330
B7
100
AcDbEntity
  8
AM_6
100
AcDbText
 10
23.94993403682451
 20
12.04933875577034
 30
0.0
 40
0.5
  1
10 - 32 x 1/4
100
AcDbAttributeDefinition
  3

  2
N
 70
     8
280
     0
  0
ATTDEF
  5
CA
330
B7
100
AcDbEntity
  8
AM_6
100
AcDbText
 10
23.94993403682451
 20
11.54933875577034
 30
0.0
 40
0.5
  1
12.3
100
AcDbAttributeDefinition
  3

  2
W
 70
     8
280
     0
  0
ATTDEF
  5
CB
330
B7
100
AcDbEntity
  8
AM_6
100
AcDbText
 10
23.94993403682451
 20
11.04933875577034
 30
0.0
 40
0.5
  1
25.0
100
AcDbAttributeDefinition
  3

  2
X
 70
     8
280
     0
  0
ATTDEF
  5
CC
330
B7
100
AcDbEntity
  8
AM_6
100
AcDbText
 10
23.94993403682451
 20
10.54933875577034
 30
0.0
 40
0.5
  1
25.0
100
AcDbAttributeDefinition
  3

  2
Y
 70
     8
280
     0
  0
ATTDEF
  5
CD
330
B7
100
AcDbEntity
  8
AM_6
100
AcDbText
 10
23.94993403682451
 20
10.04933875577034
 30
0.0
 40
0.5
  1
baldor
100
AcDbAttributeDefinition
  3

  2
COMPANY
 70
     8
280
     0
  0
LINE
  5
CE
330
B7
100
AcDbEntity
  8
AM_9
100
AcDbLine
 10
1.25
 20
14.21253562576836
 30
0.0
 11
1.25
 21
14.91652928408652
 31
0.0
  0
LINE
  5
CF
330
B7
100
AcDbEntity
  8
AM_9
100
AcDbLine
 10
-1.25
 20
14.21253562576836
 30
0.0
 11
-1.25
 21
14.91652928408652
 31
0.0
  0
ARC
  5
D0
330
B7
100
AcDbEntity
  8
AM_9
100
AcDbCircle
 10
0.0
 20
0.0000000000000016
 30
0.0
 40
14.96881244063839
100
AcDbArc
 50
94.79017463460902
 51
85.209825365391
  0
CIRCLE
  5
D1
330
B7
100
AcDbEntity
  8
AM_9
100
AcDbCircle
 10
0.0
 20
0.0
 30
0.0
 40
15.57261904761905
  0
ARC
  5
D2
330
B7
100
AcDbEntity
  8
AM_9
100
AcDbCircle
 10
0.0
 20
0.0000000000000002
 30
0.0
 40
14.21190476190476
100
AcDbArc
 50
95.04593789657739
 51
84.95406210342261
  0
CIRCLE
  5
D3
330
B7
100
AcDbEntity
  8
AM_9
100
AcDbCircle
 10
0.0
 20
0.0
 30
0.0
 40
17.12383333333334
  0
LINE
  5
D4
330
B7
100
AcDbEntity
  8
AM_9
100
AcDbLine
 10
-18.6182
 20
-1.981199999999999
 30
0.0
 11
-14.7193
 21
-1.981199999999999
 31
0.0
  0
LINE
  5
D5
330
B7
100
AcDbEntity
  8
AM_9
100
AcDbLine
 10
-14.7193
 20
1.981199999999999
 30
0.0
 11
-18.6182
 21
1.981199999999999
 31
0.0
  0
LINE
  5
D6
330
B7
100
AcDbEntity
  8
AM_9
100
AcDbLine
 10
-14.7193
 20
-1.981199999999999
 30
0.0
 11
-14.2875
 21
-2.412999999999998
 31
0.0
  0
LINE
  5
D7
330
B7
100
AcDbEntity
  8
AM_9
100
AcDbLine
 10
-14.2875
 20
2.412999999999998
 30
0.0
 11
-14.7193
 21
1.981199999999999
 31
0.0
  0
LINE
  5
D8
330
B7
100
AcDbEntity
  8
AM_9
100
AcDbLine
 10
-14.2875
 20
2.412999999999998
 30
0.0
 11
-14.2875
 21
-2.412999999999998
 31
0.0
  0
LINE
  5
D9
330
B7
100
AcDbEntity
  8
AM_9
100
AcDbLine
 10
-14.7193
 20
1.981199999999999
 30
0.0
 11
-14.7193
 21
-1.981199999999999
 31
0.0
  0
LINE
  5
DA
330
B7
100
AcDbEntity
  8
AM_9
100
AcDbLine
 10
-18.6182
 20
1.981199999999999
 30
0.0
 11
-18.90985989624251
 21
2.272859896242507
 31
0.0
  0
LINE
  5
DB
330
B7
100
AcDbEntity
  8
AM_9
100
AcDbLine
 10
-18.91048163257259
 20
-2.273481632572589
 30
0.0
 11
-18.6182
 21
-1.981199999999999
 31
0.0
  0
LINE
  5
DC
330
B7
100
AcDbEntity
  8
AM_9
100
AcDbLine
 10
-18.6182
 20
1.981199999999999
 30
0.0
 11
-18.6182
 21
-1.981199999999999
 31
0.0
  0
LINE
  5
DE
330
B7
100
AcDbEntity
  8
AM_5
100
AcDbLine
 10
-18.89655870787059
 20
-2.412999999999998
 30
0.0
 11
-14.2875
 21
-2.412999999999998
 31
0.0
  0
LINE
  5
DF
330
B7
100
AcDbEntity
  8
AM_5
100
AcDbLine
 10
-18.89655870787059
 20
2.413000000000002
 30
0.0
 11
-14.2875
 21
2.413000000000002
 31
0.0
  0
LINE
  5
E0
330
B7
100
AcDbEntity
  8
AM_4
100
AcDbLine
 10
17.77999576665255
 20
-1.95
 30
0.0
 11
18.94993403682451
 21
-1.95
 31
0.0
  0
LINE
  5
E1
330
B7
100
AcDbEntity
  8
AM_4
100
AcDbLine
 10
18.94993403682451
 20
1.95
 30
0.0
 11
17.77999576665255
 21
1.95
 31
0.0
  0
LINE
  5
E2
330
B7
100
AcDbEntity
  8
AM_4
100
AcDbLine
 10
17.77999576665255
 20
1.95
 30
0.0
 11
17.77999576665255
 21
-1.95
 31
0.0
  0
LINE
  5
E3
330
B7
100
AcDbEntity
  8
AM_4
100
AcDbLine
 10
-10.57874742070593
 20
-14.42292801310089
 30
0.0
 11
-11.16371655579191
 21
-15.43612427592943
 31
0.0
  0
LINE
  5
E4
330
B7
100
AcDbEntity
  8
AM_4
100
AcDbLine
 10
-7.20124834594662
 20
-16.37292801310089
 30
0.0
 11
-10.57874742070593
 21
-14.42292801310089
 31
0.0
  0
LINE
  5
E5
330
B7
100
AcDbEntity
  8
AM_4
100
AcDbLine
 10
-7.786217481032596
 20
-17.38612427592942
 30
0.0
 11
-7.20124834594662
 21
-16.37292801310089
 31
0.0
  0
LINE
  5
E6
330
B7
100
AcDbEntity
  8
AM_4
100
AcDbLine
 10
-10.57874742070594
 20
14.42292801310088
 30
0.0
 11
-7.201248345946629
 21
16.37292801310088
 31
0.0
  0
LINE
  5
E7
330
B7
100
AcDbEntity
  8
AM_4
100
AcDbLine
 10
-7.201248345946629
 20
16.37292801310088
 30
0.0
 11
-7.786217481032606
 21
17.38612427592942
 31
0.0
  0
LINE
  5
E8
330
B7
100
AcDbEntity
  8
AM_4
100
AcDbLine
 10
1.25
 20
14.21190476190476
 30
0.0
 11
1.25
 21
9.921567416492216
 31
0.0
  0
ARC
  5
E9
330
B7
100
AcDbEntity
  8
AM_4
100
AcDbCircle
 10
0.0
 20
0.0000000000000008
 30
0.0
 40
10.0
100
AcDbArc
 50
97.18075578145829
 51
82.81924421854173
  0
LINE
  5
EA
330
B7
100
AcDbEntity
  8
AM_4
100
AcDbLine
 10
-1.25
 20
14.21190476190476
 30
0.0
 11
-1.25
 21
9.921567416492216
 31
0.0
  0
LINE
  5
EB
330
B7
100
AcDbEntity
  8
AM_4
100
AcDbLine
 10
1.25
 20
14.21190476190476
 30
0.0
 11
-1.25
 21
14.21190476190476
 31
0.0
  0
LINE
  5
EC
330
B7
100
AcDbEntity
  8
AM_4
100
AcDbLine
 10
-11.16371655579191
 20
15.43612427592942
 30
0.0
 11
-10.57874742070594
 21
14.42292801310088
 31
0.0
  0
ARC
  5
ED
330
B7
100
AcDbEntity
  8
AM_4
100
AcDbCircle
 10
0.0000000000000063
 20
-0.0000000000000071
 30
0.0
 40
19.04999999999999
100
AcDbArc
 50
245.8752130383039
 51
354.1247869616961
  0
ARC
  5
EE
330
B7
100
AcDbEntity
  8
AM_4
100
AcDbCircle
 10
0.0000000000000026
 20
-0.0000000000000071
 30
0.0
 40
18.45
100
AcDbArc
 50
246.0669827554258
 51
353.9330172445742
  0
ARC
  5
EF
330
B7
100
AcDbEntity
  8
AM_4
100
AcDbCircle
 10
0.0
 20
0.0000000000000009
 30
0.0
 40
18.45
100
AcDbArc
 50
126.0669827554259
 51
233.9330172445741
  0
ARC
  5
F0
330
B7
100
AcDbEntity
  8
AM_4
100
AcDbCircle
 10
-0.0000000000000018
 20
-0.0000000000000027
 30
0.0
 40
19.05
100
AcDbArc
 50
125.8752130383039
 51
234.1247869616961
  0
ARC
  5
F1
330
B7
100
AcDbEntity
  8
AM_4
100
AcDbCircle
 10
0.0000000000000036
 20
0.0000000000000053
 30
0.0
 40
19.05
100
AcDbArc
 50
5.87521303830387
 51
114.1247869616962
  0
ARC
  5
F2
330
B7
100
AcDbEntity
  8
AM_4
100
AcDbCircle
 10
-0.0000000000000018
 20
-0.0000000000000018
 30
0.0
 40
18.45000000000001
100
AcDbArc
 50
6.066982755425895
 51
113.9330172445741
  0
ENDBLK
  5
BA
330
B7
100
AcDbEntity
  8
0
100
AcDbBlockEnd
  0
BLOCK
  5
F5
330
F3
100
AcDbEntity
  8
0
100
AcDbBlockBegin
  2
4_P2B_GTEZ_04_SHCR_0_in__129261_0
 70
     2
 10
0.0
 20
0.0
 30
0.0
  3
4_P2B_GTEZ_04_SHCR_0_in__129261_0
  1

  0
ATTDEF
  5
F7
330
F3
100
AcDbEntity
  8
AM_6
100
AcDbText
 10
68.5
 20
30.19999932565042
 30
0.0
 40
0.5
  1
P2B-GTEZ-SHCR-M-Body
100
AcDbAttributeDefinition
  3

  2
NN
 70
     8
280
     0
  0
ATTDEF
  5
F8
330
F3
100
AcDbEntity
  8
AM_6
100
AcDbText
 10
68.5
 20
29.69999932565042
 30
0.0
 40
0.5
  1
GTEZ Normal Duty Stainless Steel Housed Pillow Blocks
100
AcDbAttributeDefinition
  3

  2
NT
 70
     8
280
     0
  0
ATTDEF
  5
F9
330
F3
100
AcDbEntity
  8
AM_6
100
AcDbText
 10
68.5
 20
29.19999932565042
 30
0.0
 40
0.5
  1
P2B-GTEZ-04-SHCR
100
AcDbAttributeDefinition
  3

  2
NB
 70
     8
280
     0
  0
ATTDEF
  5
FA
330
F3
100
AcDbEntity
  8
AM_6
100
AcDbText
 10
68.5
 20
28.69999932565042
 30
0.0
 40
0.5
  1
$PN.$LUBE.
100
AcDbAttributeDefinition
  3

  2
NBSYN
 70
     8
280
     0
  0
ATTDEF
  5
FB
330
F3
100
AcDbEntity
  8
AM_6
100
AcDbText
 10
68.5
 20
28.19999932565042
 30
0.0
 40
0.5
  1
P2B-GTEZ-04-SHCR
100
AcDbAttributeDefinition
  3

  2
LINA
 70
     8
280
     0
  0
ATTDEF
  5
FC
330
F3
100
AcDbEntity
  8
AM_6
100
AcDbText
 10
68.5
 20
27.69999932565042
 30
0.0
 40
0.5
  1
204
100
AcDbAttributeDefinition
  3

  2
SERIES
 70
     8
280
     0
  0
ATTDEF
  5
FD
330
F3
100
AcDbEntity
  8
AM_6
100
AcDbText
 10
68.5
 20
27.19999932565042
 30
0.0
 40
0.5
  1
P2B-GTEZ-04-SHCR
100
AcDbAttributeDefinition
  3

  2
PN
 70
     8
280
     0
  0
ATTDEF
  5
FE
330
F3
100
AcDbEntity
  8
AM_6
100
AcDbText
 10
68.5
 20
26.69999932565042
 30
0.0
 40
0.5
  1
P2B-GTEZ-04-SHCR
100
AcDbAttributeDefinition
  3

  2
DESCRIPTION
 70
     8
280
     0
  0
ATTDEF
  5
FF
330
F3
100
AcDbEntity
  8
AM_6
100
AcDbText
 10
68.5
 20
26.19999932565042
 30
0.0
 40
0.5
  1
37.3
100
AcDbAttributeDefinition
  3

  2
A
 70
     8
280
     0
  0
ATTDEF
  5
100
330
F3
100
AcDbEntity
  8
AM_6
100
AcDbText
 10
68.5
 20
25.69999932565042
 30
0.0
 40
0.5
  1
127.0
100
AcDbAttributeDefinition
  3

  2
B
 70
     8
280
     0
  0
ATTDEF
  5
101
330
F3
100
AcDbEntity
  8
AM_6
100
AcDbText
 10
68.5
 20
25.19999932565042
 30
0.0
 40
0.5
  1
25.4
100
AcDbAttributeDefinition
  3

  2
C
 70
     8
280
     0
  0
ATTDEF
  5
102
330
F3
100
AcDbEntity
  8
AM_6
100
AcDbText
 10
68.5
 20
24.69999932565042
 30
0.0
 40
0.5
  1
85.7
100
AcDbAttributeDefinition
  3

  2
DMIN
 70
     8
280
     0
  0
ATTDEF
  5
103
330
F3
100
AcDbEntity
  8
AM_6
100
AcDbText
 10
68.5
 20
24.19999932565042
 30
0.0
 40
0.5
  1
106.4
100
AcDbAttributeDefinition
  3

  2
DMAX
 70
     8
280
     0
  0
ATTDEF
  5
104
330
F3
100
AcDbEntity
  8
AM_6
100
AcDbText
 10
68.5
 20
23.69999932565042
 30
0.0
 40
0.5
  1
M10
100
AcDbAttributeDefinition
  3

  2
F
 70
     8
280
     0
  0
ATTDEF
  5
105
330
F3
100
AcDbEntity
  8
AM_6
100
AcDbText
 10
68.5
 20
23.19999932565042
 30
0.0
 40
0.5
  1
21.4
100
AcDbAttributeDefinition
  3

  2
G
 70
     8
280
     0
  0
ATTDEF
  5
106
330
F3
100
AcDbEntity
  8
AM_6
100
AcDbText
 10
68.5
 20
22.69999932565042
 30
0.0
 40
0.5
  1
12.7
100
AcDbAttributeDefinition
  3

  2
H
 70
     8
280
     0
  0
ATTDEF
  5
107
330
F3
100
AcDbEntity
  8
AM_6
100
AcDbText
 10
68.5
 20
22.19999932565042
 30
0.0
 40
0.5
  1
63.5
100
AcDbAttributeDefinition
  3

  2
J
 70
     8
280
     0
  0
ATTDEF
  5
108
330
F3
100
AcDbEntity
  8
AM_6
100
AcDbText
 10
68.5
 20
21.69999932565042
 30
0.0
 40
0.5
  1
38.1
100
AcDbAttributeDefinition
  3

  2
L
 70
     8
280
     0
  0
ATTDEF
  5
109
330
F3
100
AcDbEntity
  8
AM_6
100
AcDbText
 10
68.5
 20
21.19999932565042
 30
0.0
 40
0.5
  1
33.3
100
AcDbAttributeDefinition
  3

  2
M
 70
     8
280
     0
  0
ATTDEF
  5
10A
330
F3
100
AcDbEntity
  8
AM_6
100
AcDbText
 10
68.5
 20
20.69999932565042
 30
0.0
 40
0.5
  1
12.3
100
AcDbAttributeDefinition
  3

  2
R
 70
     8
280
     0
  0
ATTDEF
  5
10B
330
F3
100
AcDbEntity
  8
AM_6
100
AcDbText
 10
68.5
 20
20.19999932565042
 30
0.0
 40
0.5
  1
25.0
100
AcDbAttributeDefinition
  3

  2
S
 70
     8
280
     0
  0
ATTDEF
  5
10C
330
F3
100
AcDbEntity
  8
AM_6
100
AcDbText
 10
68.5
 20
19.69999932565042
 30
0.0
 40
0.5
  1
25.0
100
AcDbAttributeDefinition
  3

  2
Z
 70
     8
280
     0
  0
ATTDEF
  5
10D
330
F3
100
AcDbEntity
  8
AM_6
100
AcDbText
 10
68.5
 20
19.19999932565042
 30
0.0
 40
0.5
  1
baldor
100
AcDbAttributeDefinition
  3

  2
COMPANY
 70
     8
280
     0
  0
LINE
  5
10E
330
F3
100
AcDbEntity
  8
AM_9
100
AcDbLine
 10
-53.2
 20
-33.3
 30
0.0
 11
-53.2
 21
-20.6
 31
0.0
  0
LINE
  5
10F
330
F3
100
AcDbEntity
  8
AM_9
100
AcDbLine
 10
-58.725
 20
-20.6
 30
0.0
 11
-58.725
 21
-33.3
 31
0.0
  0
LINE
  5
110
330
F3
100
AcDbEntity
  8
AM_9
100
AcDbLine
 10
-42.85
 20
-33.3
 30
0.0
 11
-42.85
 21
-20.6
 31
0.0
  0
LINE
  5
111
330
F3
100
AcDbEntity
  8
AM_9
100
AcDbLine
 10
-37.325
 20
-33.3
 30
0.0
 11
-37.325
 21
-20.6
 31
0.0
  0
LINE
  5
112
330
F3
100
AcDbEntity
  8
AM_9
100
AcDbLine
 10
42.85
 20
-33.3
 30
0.0
 11
42.85
 21
-20.59999999999999
 31
0.0
  0
LINE
  5
113
330
F3
100
AcDbEntity
  8
AM_9
100
AcDbLine
 10
37.325
 20
-20.59999999999999
 30
0.0
 11
37.325
 21
-33.3
 31
0.0
  0
LINE
  5
114
330
F3
100
AcDbEntity
  8
AM_9
100
AcDbLine
 10
53.2
 20
-33.3
 30
0.0
 11
53.2
 21
-20.59999999999999
 31
0.0
  0
LINE
  5
115
330
F3
100
AcDbEntity
  8
AM_9
100
AcDbLine
 10
58.725
 20
-33.3
 30
0.0
 11
58.725
 21
-20.59999999999999
 31
0.0
  0
LINE
  5
116
330
F3
100
AcDbEntity
  8
AM_7
100
AcDbLine
 10
18.53195033799643
 20
18.53195033799643
 30
0.0
 11
28.84809695132266
 21
28.84809695132266
 31
0.0
  0
LINE
  5
117
330
F3
100
AcDbEntity
  8
AM_4
100
AcDbLine
 10
26.54373955919545
 20
28.89343208582987
 30
0.0
 11
28.89343208078965
 21
26.54373956423567
 31
0.0
  0
ARC
  5
118
330
F3
100
AcDbEntity
  8
AM_4
100
AcDbCircle
 10
28.53987869523662
 20
26.19018616860219
 30
0.0
 40
0.4999999999999841
100
AcDbArc
 50
336.8014094863509
 51
45.00000000000057
  0
ARC
  5
119
330
F3
100
AcDbEntity
  8
AM_4
100
AcDbCircle
 10
26.19018616860218
 20
28.53987869523662
 30
0.0
 40
0.4999999999999839
100
AcDbArc
 50
44.99999999999942
 51
113.1985905136492
  0
LINE
  5
11A
330
F3
100
AcDbEntity
  8
AM_4
100
AcDbLine
 10
25.9932265193126
 20
28.99945121024563
 30
0.0
 11
28.99945121024563
 21
25.9932265193126
 31
0.0
  0
LINE
  5
11B
330
F3
100
AcDbEntity
  8
AM_4
100
AcDbLine
 10
25.9932265193126
 20
28.99945121024563
 30
0.0
 11
24.66132768209854
 21
28.42863742286818
 31
0.0
  0
LINE
  5
11C
330
F3
100
AcDbEntity
  8
AM_4
100
AcDbLine
 10
28.42863742286818
 20
24.66132768209854
 30
0.0
 11
28.99945121024563
 21
25.9932265193126
 31
0.0
  0
LINE
  5
11D
330
F3
100
AcDbEntity
  8
AM_4
100
AcDbLine
 10
24.66132768209854
 20
28.42863742286818
 30
0.0
 11
28.42863742286818
 21
24.66132768209854
 31
0.0
  0
ARC
  5
11E
330
F3
100
AcDbEntity
  8
AM_4
100
AcDbCircle
 10
27.96906490785915
 20
24.85828733138813
 30
0.0
 40
0.5000000000000028
100
AcDbArc
 50
269.1570889408602
 51
336.8014094863514
  0
ARC
  5
11F
330
F3
100
AcDbEntity
  8
AM_4
100
AcDbCircle
 10
24.85828733138813
 20
27.96906490785915
 30
0.0
 40
0.5000000000000051
100
AcDbArc
 50
113.1985905136486
 51
180.8429110591401
  0
LINE
  5
120
330
F3
100
AcDbEntity
  8
AM_4
100
AcDbLine
 10
24.35834143800938
 20
27.96170938655051
 30
0.0
 11
27.9617093865505
 21
24.35834143800938
 31
0.0
  0
ARC
  5
121
330
F3
100
AcDbEntity
  8
AM_4
100
AcDbCircle
 10
27.93513727425104
 20
22.55228690246845
 30
0.0
 40
1.806250000000002
100
AcDbArc
 50
89.15707969094875
 51
191.1449738717057
  0
ARC
  5
122
330
F3
100
AcDbEntity
  8
AM_4
100
AcDbCircle
 10
22.55228690246845
 20
27.93513727425105
 30
0.0
 40
1.806250000000004
100
AcDbArc
 50
258.8550261282944
 51
0.8429203090516575
  0
LINE
  5
123
330
F3
100
AcDbEntity
  8
AM_4
100
AcDbLine
 10
22.20315292925759
 20
26.16295090390226
 30
0.0
 11
26.16295090390226
 21
22.20315292925759
 31
0.0
  0
LINE
  5
124
330
F3
100
AcDbEntity
  8
AM_4
100
AcDbLine
 10
25.80939751330898
 20
21.84959953866432
 30
0.0
 11
26.16295090390226
 21
22.20315292925759
 31
0.0
  0
LINE
  5
125
330
F3
100
AcDbEntity
  8
AM_4
100
AcDbLine
 10
22.20315292925759
 20
26.16295090390226
 30
0.0
 11
21.84959953866432
 21
25.80939751330899
 31
0.0
  0
LINE
  5
126
330
F3
100
AcDbEntity
  8
AM_4
100
AcDbLine
 10
23.24315762296407
 20
19.2833596483194
 30
0.0
 11
23.68807716974934
 21
19.72827919510468
 31
0.0
  0
LINE
  5
127
330
F3
100
AcDbEntity
  8
AM_4
100
AcDbLine
 10
19.72827919510468
 20
23.68807716974934
 30
0.0
 11
19.2827439416835
 21
23.24254191632817
 31
0.0
  0
LINE
  5
128
330
F3
100
AcDbEntity
  8
AM_4
100
AcDbLine
 10
21.00107140124046
 20
26.65792565073284
 30
0.0
 11
26.65792565073284
 21
21.00107140124046
 31
0.0
  0
LINE
  5
129
330
F3
100
AcDbEntity
  8
AM_4
100
AcDbLine
 10
21.00107140124046
 20
26.65792565073284
 30
0.0
 11
18.87975105768082
 21
24.5366053071732
 31
0.0
  0
LINE
  5
12A
330
F3
100
AcDbEntity
  8
AM_4
100
AcDbLine
 10
18.87975105768082
 20
24.5366053071732
 30
0.0
 11
24.5366053071732
 21
18.87975105768082
 31
0.0
  0
LINE
  5
12B
330
F3
100
AcDbEntity
  8
AM_4
100
AcDbLine
 10
24.5366053071732
 20
18.87975105768082
 30
0.0
 11
26.65792565073284
 21
21.00107140124046
 31
0.0
  0
LWPOLYLINE
  5
12C
330
F3
100
AcDbEntity
  8
AM_4
100
AcDbPolyline
 90
        3
 70
     0
 43
0.0
 10
25.24371208835974
 20
22.41528496361356
 10
25.9198725695132
 20
21.67723188239392
 10
26.54068201672943
 20
20.88382776723705
  0
LWPOLYLINE
  5
12D
330
F3
100
AcDbEntity
  8
AM_4
100
AcDbPolyline
 90
        3
 70
     0
 43
0.0
 10
23.1223917448001
 20
20.29396462005392
 10
22.44623126364665
 20
21.03201770127355
 10
21.82542181643041
 20
21.82542181643041
  0
LWPOLYLINE
  5
12E
330
F3
100
AcDbEntity
  8
AM_4
100
AcDbPolyline
 90
        3
 70
     0
 43
0.0
 10
24.65384894117661
 20
18.99699469168422
 10
23.86389756155772
 20
19.61489818945292
 10
23.1223917448001
 20
20.29396462005392
  0
LWPOLYLINE
  5
12F
330
F3
100
AcDbEntity
  8
AM_4
100
AcDbPolyline
 90
        3
 70
     0
 43
0.0
 10
23.71225489198324
 20
23.71225489198325
 10
24.50220627160212
 20
23.09435139421455
 10
25.24371208835974
 20
22.41528496361356
  0
LINE
  5
130
330
F3
100
AcDbEntity
  8
AM_4
100
AcDbLine
 10
23.71225489198324
 20
23.71225489198325
 30
0.0
 11
21.82542181643041
 21
21.82542181643041
 31
0.0
  0
LWPOLYLINE
  5
131
330
F3
100
AcDbEntity
  8
AM_4
100
AcDbPolyline
 90
        3
 70
     0
 43
0.0
 10
22.41528496361355
 20
25.24371208835975
 10
23.09144544476701
 20
24.50565900714011
 10
23.71225489198324
 20
23.71225489198325
  0
LWPOLYLINE
  5
132
330
F3
100
AcDbEntity
  8
AM_4
100
AcDbPolyline
 90
        3
 70
     0
 43
0.0
 10
20.88382776723705
 20
26.54068201672944
 10
21.67377914685593
 20
25.92277851896074
 10
22.41528496361355
 20
25.24371208835975
  0
LWPOLYLINE
  5
133
330
F3
100
AcDbEntity
  8
AM_4
100
AcDbPolyline
 90
        3
 70
     0
 43
0.0
 10
20.29396462005391
 20
23.1223917448001
 10
19.61780413890045
 20
23.86044482601974
 10
18.99699469168422
 20
24.65384894117661
  0
LWPOLYLINE
  5
134
330
F3
100
AcDbEntity
  8
AM_4
100
AcDbPolyline
 90
        3
 70
     0
 43
0.0
 10
21.82542181643041
 20
21.82542181643041
 10
21.03547043681154
 20
22.44332531419911
 10
20.29396462005391
 20
23.1223917448001
  0
ARC
  5
135
330
F3
100
AcDbEntity
  8
AM_4
100
AcDbCircle
 10
0.0000000000000018
 20
0.0000000000000071
 30
0.0
 40
23.50000000000001
100
AcDbArc
 50
205.7485518202385
 51
334.2514481797615
  0
LINE
  5
136
330
F3
100
AcDbEntity
  8
AM_4
100
AcDbLine
 10
-43.744082
 20
-25.65497
 30
0.0
 11
-43.744082
 21
-28.24503
 31
0.0
  0
LINE
  5
137
330
F3
100
AcDbEntity
  8
AM_4
100
AcDbLine
 10
-42.03366400000001
 20
-25.72897
 30
0.0
 11
-42.344649
 21
-25.65497
 31
0.0
  0
LINE
  5
138
330
F3
100
AcDbEntity
  8
AM_4
100
AcDbLine
 10
-41.56719
 20
-27.505012
 30
0.0
 11
-41.56719
 21
-26.39498799999999
 31
0.0
  0
LINE
  5
139
330
F3
100
AcDbEntity
  8
AM_4
100
AcDbLine
 10
-41.64493
 20
-27.801019
 30
0.0
 11
-41.56719
 21
-27.505012
 31
0.0
  0
LINE
  5
13A
330
F3
100
AcDbEntity
  8
AM_4
100
AcDbLine
 10
-41.80043
 20
-28.02302
 30
0.0
 11
-41.64493
 21
-27.801019
 31
0.0
  0
LINE
  5
13B
330
F3
100
AcDbEntity
  8
AM_4
100
AcDbLine
 10
-43.744082
 20
-28.24503
 30
0.0
 11
-42.344649
 21
-28.24503
 31
0.0
  0
LINE
  5
13C
330
F3
100
AcDbEntity
  8
AM_4
100
AcDbLine
 10
-42.344649
 20
-25.65497
 30
0.0
 11
-43.744082
 21
-25.65497
 31
0.0
  0
LINE
  5
13D
330
F3
100
AcDbEntity
  8
AM_4
100
AcDbLine
 10
-41.80043
 20
-25.87698
 30
0.0
 11
-42.03366400000001
 21
-25.72897
 31
0.0
  0
LINE
  5
13E
330
F3
100
AcDbEntity
  8
AM_4
100
AcDbLine
 10
-41.64493
 20
-26.098981
 30
0.0
 11
-41.80043
 21
-25.87698
 31
0.0
  0
LINE
  5
13F
330
F3
100
AcDbEntity
  8
AM_4
100
AcDbLine
 10
-41.56719
 20
-26.39498799999999
 30
0.0
 11
-41.64493
 21
-26.098981
 31
0.0
  0
LINE
  5
140
330
F3
100
AcDbEntity
  8
AM_4
100
AcDbLine
 10
-42.03366400000001
 20
-28.17102999999999
 30
0.0
 11
-41.80043
 21
-28.02302
 31
0.0
  0
LINE
  5
141
330
F3
100
AcDbEntity
  8
AM_4
100
AcDbLine
 10
-42.344649
 20
-28.24503
 30
0.0
 11
-42.03366400000001
 21
-28.17102999999999
 31
0.0
  0
LINE
  5
142
330
F3
100
AcDbEntity
  8
AM_4
100
AcDbLine
 10
-51.20773
 20
-25.65497
 30
0.0
 11
-51.20773
 21
-28.24503
 31
0.0
  0
LINE
  5
143
330
F3
100
AcDbEntity
  8
AM_4
100
AcDbLine
 10
-49.80829
 20
-25.65497
 30
0.0
 11
-51.20773
 21
-25.65497
 31
0.0
  0
LINE
  5
144
330
F3
100
AcDbEntity
  8
AM_4
100
AcDbLine
 10
-49.49731000000001
 20
-25.72897
 30
0.0
 11
-49.80829
 21
-25.65497
 31
0.0
  0
LINE
  5
145
330
F3
100
AcDbEntity
  8
AM_4
100
AcDbLine
 10
-49.26407
 20
-25.87698
 30
0.0
 11
-49.49731000000001
 21
-25.72897
 31
0.0
  0
LINE
  5
146
330
F3
100
AcDbEntity
  8
AM_4
100
AcDbLine
 10
-49.10858
 20
-26.098981
 30
0.0
 11
-49.26407
 21
-25.87698
 31
0.0
  0
LINE
  5
147
330
F3
100
AcDbEntity
  8
AM_4
100
AcDbLine
 10
-49.03083
 20
-26.39498799999999
 30
0.0
 11
-49.10858
 21
-26.098981
 31
0.0
  0
LINE
  5
148
330
F3
100
AcDbEntity
  8
AM_4
100
AcDbLine
 10
-49.49731000000001
 20
-28.17102999999999
 30
0.0
 11
-49.26407
 21
-28.02302
 31
0.0
  0
LINE
  5
149
330
F3
100
AcDbEntity
  8
AM_4
100
AcDbLine
 10
-49.80829
 20
-28.24503
 30
0.0
 11
-49.49731000000001
 21
-28.17102999999999
 31
0.0
  0
LINE
  5
14A
330
F3
100
AcDbEntity
  8
AM_4
100
AcDbLine
 10
-51.20773
 20
-28.24503
 30
0.0
 11
-49.80829
 21
-28.24503
 31
0.0
  0
LINE
  5
14B
330
F3
100
AcDbEntity
  8
AM_4
100
AcDbLine
 10
-49.26407
 20
-28.02302
 30
0.0
 11
-49.10858
 21
-27.801019
 31
0.0
  0
LINE
  5
14C
330
F3
100
AcDbEntity
  8
AM_4
100
AcDbLine
 10
-49.10858
 20
-27.801019
 30
0.0
 11
-49.03083
 21
-27.505012
 31
0.0
  0
LINE
  5
14D
330
F3
100
AcDbEntity
  8
AM_4
100
AcDbLine
 10
-49.03083
 20
-27.505012
 30
0.0
 11
-49.03083
 21
-26.39498799999999
 31
0.0
  0
LINE
  5
14E
330
F3
100
AcDbEntity
  8
AM_4
100
AcDbLine
 10
-45.53225
 20
-25.87698
 30
0.0
 11
-45.76549
 21
-25.72897
 31
0.0
  0
LINE
  5
14F
330
F3
100
AcDbEntity
  8
AM_4
100
AcDbLine
 10
-45.37675
 20
-26.098981
 30
0.0
 11
-45.53225
 21
-25.87698
 31
0.0
  0
LINE
  5
150
330
F3
100
AcDbEntity
  8
AM_4
100
AcDbLine
 10
-45.29901
 20
-26.39498799999999
 30
0.0
 11
-45.37675
 21
-26.098981
 31
0.0
  0
LINE
  5
151
330
F3
100
AcDbEntity
  8
AM_4
100
AcDbLine
 10
-45.29901
 20
-27.505012
 30
0.0
 11
-45.29901
 21
-26.39498799999999
 31
0.0
  0
LINE
  5
152
330
F3
100
AcDbEntity
  8
AM_4
100
AcDbLine
 10
-45.37675
 20
-27.801019
 30
0.0
 11
-45.29901
 21
-27.505012
 31
0.0
  0
LINE
  5
153
330
F3
100
AcDbEntity
  8
AM_4
100
AcDbLine
 10
-45.53225
 20
-28.02302
 30
0.0
 11
-45.37675
 21
-27.801019
 31
0.0
  0
LINE
  5
154
330
F3
100
AcDbEntity
  8
AM_4
100
AcDbLine
 10
-45.76549
 20
-28.17102999999999
 30
0.0
 11
-45.53225
 21
-28.02302
 31
0.0
  0
LINE
  5
155
330
F3
100
AcDbEntity
  8
AM_4
100
AcDbLine
 10
-46.07647
 20
-28.24503
 30
0.0
 11
-45.76549
 21
-28.17102999999999
 31
0.0
  0
LINE
  5
156
330
F3
100
AcDbEntity
  8
AM_4
100
AcDbLine
 10
-46.69844000000001
 20
-28.24503
 30
0.0
 11
-46.07647
 21
-28.24503
 31
0.0
  0
LINE
  5
157
330
F3
100
AcDbEntity
  8
AM_4
100
AcDbLine
 10
-47.00943
 20
-28.17102999999999
 30
0.0
 11
-46.69844000000001
 21
-28.24503
 31
0.0
  0
LINE
  5
158
330
F3
100
AcDbEntity
  8
AM_4
100
AcDbLine
 10
-47.24266
 20
-28.02302
 30
0.0
 11
-47.00943
 21
-28.17102999999999
 31
0.0
  0
LINE
  5
159
330
F3
100
AcDbEntity
  8
AM_4
100
AcDbLine
 10
-47.39816000000001
 20
-27.801019
 30
0.0
 11
-47.24266
 21
-28.02302
 31
0.0
  0
LINE
  5
15A
330
F3
100
AcDbEntity
  8
AM_4
100
AcDbLine
 10
-47.4759
 20
-27.505012
 30
0.0
 11
-47.39816000000001
 21
-27.801019
 31
0.0
  0
LINE
  5
15B
330
F3
100
AcDbEntity
  8
AM_4
100
AcDbLine
 10
-47.4759
 20
-26.39498799999999
 30
0.0
 11
-47.4759
 21
-27.505012
 31
0.0
  0
LINE
  5
15C
330
F3
100
AcDbEntity
  8
AM_4
100
AcDbLine
 10
-47.24266
 20
-25.87698
 30
0.0
 11
-47.39816000000001
 21
-26.098981
 31
0.0
  0
LINE
  5
15D
330
F3
100
AcDbEntity
  8
AM_4
100
AcDbLine
 10
-47.39816000000001
 20
-26.098981
 30
0.0
 11
-47.4759
 21
-26.39498799999999
 31
0.0
  0
LINE
  5
15E
330
F3
100
AcDbEntity
  8
AM_4
100
AcDbLine
 10
-45.76549
 20
-25.72897
 30
0.0
 11
-46.07647
 21
-25.65497
 31
0.0
  0
LINE
  5
15F
330
F3
100
AcDbEntity
  8
AM_4
100
AcDbLine
 10
-46.07647
 20
-25.65497
 30
0.0
 11
-46.69844000000001
 21
-25.65497
 31
0.0
  0
LINE
  5
160
330
F3
100
AcDbEntity
  8
AM_4
100
AcDbLine
 10
-46.69844000000001
 20
-25.65497
 30
0.0
 11
-47.00943
 21
-25.72897
 31
0.0
  0
LINE
  5
161
330
F3
100
AcDbEntity
  8
AM_4
100
AcDbLine
 10
-47.00943
 20
-25.72897
 30
0.0
 11
-47.24266
 21
-25.87698
 31
0.0
  0
LINE
  5
162
330
F3
100
AcDbEntity
  8
AM_4
100
AcDbLine
 10
-63.5
 20
-33.3
 30
0.0
 11
63.5
 21
-33.3
 31
0.0
  0
LWPOLYLINE
  5
163
330
F3
100
AcDbEntity
  8
AM_4
100
AcDbPolyline
 90
       19
 70
     0
 43
0.0
 10
63.49999999999997
 20
-22.09999996838988
 10
63.49429204438259
 20
-21.96926635438868
 10
63.47721162402924
 20
-21.83952770236971
 10
63.44888873125227
 20
-21.71177140181318
 10
63.40953892036753
 20
-21.5869697553077
 10
63.35946166719593
 20
-21.46607257874045
 10
63.29903808987156
 20
-21.34999997262483
 10
63.22872804830262
 20
-21.23963531957993
 10
63.14906664435983
 20
-21.13581856125543
 10
63.06066014942805
 20
-21.03933980586844
 10
62.96418139031501
 20
-20.95093331500293
 10
62.86036462863302
 20
-20.87127191543568
 10
62.74999997262479
 20
-20.80096187851828
 10
62.63392736396249
 20
-20.740538306086
 10
62.51303018528465
 20
-20.69046105800983
 10
62.38822853712069
 20
-20.65111125238509
 10
62.26047223537044
 20
-20.62278836499264
 10
62.13073358263159
 20
-20.60570795010738
 10
61.99999999999995
 20
-20.6
  0
LINE
  5
164
330
F3
100
AcDbEntity
  8
AM_4
100
AcDbLine
 10
63.5
 20
-33.3
 30
0.0
 11
63.49999999999997
 21
-22.10000000000002
 31
0.0
  0
LWPOLYLINE
  5
165
330
F3
100
AcDbEntity
  8
AM_4
100
AcDbPolyline
 90
       19
 70
     0
 43
0.0
 10
-62.0
 20
-20.6
 10
-62.13073361412148
 20
-20.60570795286238
 10
-62.26047226650039
 20
-20.62278837048168
 10
-62.38822856765378
 20
-20.65111126056639
 10
-62.5130302149885
 20
-20.69046106882113
 10
-62.63392739261105
 20
-20.74053831944502
 10
-62.75
 20
-20.80096189432333
 10
-62.86036465452656
 20
-20.8712719335665
 10
-62.9641814145298
 20
-20.95093333532152
 10
-63.06066017177982
 20
-21.03933982822017
 10
-63.14906666467847
 20
-21.13581858547018
 10
-63.22872806643348
 20
-21.23963534547342
 10
-63.29903810567665
 20
-21.34999999999999
 10
-63.35946168055498
 20
-21.46607260738894
 10
-63.40953893117886
 20
-21.58696978501148
 10
-63.44888873943361
 20
-21.7117714323462
 10
-63.47721162951832
 20
-21.83952773349959
 10
-63.49429204713762
 20
-21.96926638587849
 10
-63.5
 20
-22.09999999999998
  0
LINE
  5
166
330
F3
100
AcDbEntity
  8
AM_4
100
AcDbLine
 10
-63.5
 20
-33.3
 30
0.0
 11
-63.5
 21
-22.1
 31
0.0
  0
LINE
  5
167
330
F3
100
AcDbEntity
  8
AM_4
100
AcDbLine
 10
-21.16666666666667
 20
-33.3
 30
0.0
 11
-21.16666666666667
 21
-10.2089285540757
 31
0.0
  0
LWPOLYLINE
  5
168
330
F3
100
AcDbEntity
  8
AM_4
100
AcDbPolyline
 90
        3
 70
     0
 43
0.0
 10
-22.00871719263573
 20
-8.238104608135345
 10
-21.20696925314942
 20
-10.12494222679693
 10
-21.16666666666668
 20
-10.20892855407569
  0
LWPOLYLINE
  5
169
330
F3
100
AcDbEntity
  8
AM_4
100
AcDbPolyline
 90
       19
 70
     0
 43
0.0
 10
-30.2
 20
-19.1
 10
-30.20570795286238
 20
-19.23073361412149
 10
-30.22278837048169
 20
-19.36047226650039
 10
-30.2511112605664
 20
-19.48822856765378
 10
-30.29046106882114
 20
-19.6130302149885
 10
-30.34053831944502
 20
-19.73392739261105
 10
-30.40096189432334
 20
-19.85
 10
-30.47127193356651
 20
-19.96036465452656
 10
-30.55093333532153
 20
-20.06418141452981
 10
-30.63933982822018
 20
-20.16066017177982
 10
-30.73581858547019
 20
-20.24906666467847
 10
-30.83963534547343
 20
-20.32872806643348
 10
-30.95
 20
-20.39903810567666
 10
-31.06607260738895
 20
-20.45946168055497
 10
-31.1869697850115
 20
-20.50953893117886
 10
-31.31177143234622
 20
-20.5488887394336
 10
-31.4395277334996
 20
-20.57721162951831
 10
-31.56926638587851
 20
-20.59429204713762
 10
-31.7
 20
-20.6
  0
LWPOLYLINE
  5
16A
330
F3
100
AcDbEntity
  8
AM_4
100
AcDbPolyline
 90
       19
 70
     0
 43
0.0
 10
31.70000002235174
 20
-20.59999999999999
 10
31.5692664081452
 20
-20.59429204908569
 10
31.43952775551177
 20
-20.57721163339964
 10
31.31177145393635
 20
-20.54888874521865
 10
31.18696980601527
 20
-20.5095389388236
 10
31.06607262764651
 20
-20.45946169000122
 10
30.95000001935718
 20
-20.39903811685253
 10
30.83963536378291
 20
-20.32872807925392
 10
30.73581860259262
 20
-20.24906667904589
 10
30.63933984402525
 20
-20.16066018758488
 10
30.55093334968896
 20
-20.06418143165223
 10
30.47127194638695
 20
-19.96036467283604
 10
30.40096190549922
 20
-19.85000001935718
 10
30.34053832889129
 20
-19.73392741286861
 10
30.29046107646589
 20
-19.61303023599227
 10
30.25111126635146
 20
-19.48822858924391
 10
30.22278837436303
 20
-19.36047228851257
 10
30.20570795481047
 20
-19.23073363638818
 10
30.20000000000001
 20
-19.10000002235175
  0
LINE
  5
16B
330
F3
100
AcDbEntity
  8
AM_4
100
AcDbLine
 10
30.2
 20
0.0
 30
0.0
 11
30.2
 21
-19.1
 31
0.0
  0
LWPOLYLINE
  5
16C
330
F3
100
AcDbEntity
  8
AM_4
100
AcDbPolyline
 90
       37
 70
     0
 43
0.0
 10
-30.19999999999999
 20
-0.0000000379321784
 10
-30.08507982690328
 20
2.632103390625335
 10
-29.74119403045595
 20
5.244174917940502
 10
-29.17095978921292
 20
7.816335102478542
 10
-28.37871693006686
 20
10.32900825212234
 10
-27.37049489954521
 20
12.76307140700957
 10
-26.15396687608135
 20
15.09999987680404
 10
-24.73839137249353
 20
17.32200822477461
 10
-23.13454177311193
 20
19.4121856257079
 10
-21.35462434181869
 20
21.3546245674992
 10
-19.4121853250095
 20
23.13454191692476
 10
-17.322007856479
 20
24.73839142821198
 10
-15.09999944884639
 20
26.15396683814915
 10
-12.76307092777911
 20
27.37049476311885
 10
-10.3290077303985
 20
28.37871669105241
 10
-7.816334547364166
 20
29.17095944429722
 10
-5.244174338792554
 20
29.74119357713182
 10
-2.632102796983688
 20
30.08507926348857
 10
0.0000006364173458
 20
30.19999932565042
 10
2.632104064974859
 20
30.08507915255371
 10
5.244175592290026
 20
29.7411933561064
 10
7.81633577682807
 20
29.17095911486336
 10
10.32900892647187
 20
28.37871625571731
 10
12.7630720813591
 20
27.37049422519567
 10
15.10000055115357
 20
26.15396620173181
 10
17.32200889912414
 20
24.738390698144
 10
19.41218630005744
 20
23.13454109876239
 10
21.35462524184874
 20
21.35462366746916
 10
23.1345425912743
 20
19.41218465065997
 10
24.73839210256153
 20
17.32200718212948
 10
26.1539675124987
 20
15.09999877449687
 10
27.3704954374684
 20
12.76307025342959
 10
28.37871736540197
 20
10.32900705604898
 10
29.17096011864678
 20
7.81633387301465
 10
29.74119425148139
 20
5.244173664443039
 10
30.08507993783814
 20
2.632102122634175
 10
30.2
 20
-0.0000000000000055
  0
LINE
  5
16D
330
F3
100
AcDbEntity
  8
AM_4
100
AcDbLine
 10
-30.2
 20
-19.1
 30
0.0
 11
-30.19999999999999
 21
-0.0000000379321691
 31
0.0
  0
LINE
  5
16E
330
F3
100
AcDbEntity
  8
AM_4
100
AcDbLine
 10
-22.00871719263572
 20
-8.238104608135364
 30
0.0
 11
-22.63313635040831
 21
-20.6
 31
0.0
  0
LWPOLYLINE
  5
16F
330
F3
100
AcDbEntity
  8
AM_4
100
AcDbPolyline
 90
       46
 70
     0
 43
0.0
 10
-22.00871719263572
 20
-8.238104608135359
 10
-22.64296550505929
 20
-6.288570039102305
 10
-23.10488717779297
 20
-4.291175654929273
 10
-23.39096670799135
 20
-2.261122832939528
 10
-23.49902685769004
 20
-0.2138615008878172
 10
-23.42824522390136
 20
1.835027446318755
 10
-23.17916049759754
 20
3.869950726638974
 10
-22.75366836394724
 20
5.875421345189334
 10
-22.1550070750067
 20
7.836176459626398
 10
-21.38773280466634
 20
9.737293539592992
 10
-20.4576849734163
 20
11.56430393618469
 10
-19.37194180683065
 20
13.3033029971044
 10
-18.13876646599675
 20
14.94105588946216
 10
-16.76754415986996
 20
16.46509832484491
 10
-15.26871071816659
 20
17.86383142007741
 10
-13.65367316839836
 20
19.12660997172679
 10
-11.93472292150537
 20
20.24382347252847
 10
-10.12494222679698
 20
21.20696925314938
 10
-8.238104608135401
 20
22.0087171926357
 10
-6.288570039102345
 20
22.64296550505928
 10
-4.291175654929316
 20
23.10488717779297
 10
-2.261122832939571
 20
23.39096670799134
 10
-0.2138615008878604
 20
23.49902685769005
 10
1.835027446318712
 20
23.42824522390136
 10
3.869950726638932
 20
23.17916049759755
 10
5.875421345189292
 20
22.75366836394725
 10
7.836176459626357
 20
22.15500707500672
 10
9.737293539592951
 20
21.38773280466636
 10
11.56430393618465
 20
20.45768497341633
 10
13.30330299710436
 20
19.37194180683068
 10
14.94105588946213
 20
18.13876646599677
 10
16.46509832484488
 20
16.76754415986999
 10
17.86383142007738
 20
15.26871071816662
 10
19.12660997172676
 20
13.6536731683984
 10
20.24382347252844
 20
11.9347229215054
 10
21.20696925314937
 20
10.12494222679702
 10
22.00871719263569
 20
8.23810460813544
 10
22.64296550505927
 20
6.288570039102387
 10
23.10488717779296
 20
4.291175654929359
 10
23.39096670799134
 20
2.261122832939614
 10
23.49902685769004
 20
0.2138615008879036
 10
23.42824522390137
 20
-1.835027446318669
 10
23.17916049759756
 20
-3.869950726638889
 10
22.75366836394726
 20
-5.87542134518925
 10
22.15500707500673
 20
-7.836176459626317
 10
22.00871719263572
 20
-8.238104608135346
  0
LINE
  5
170
330
F3
100
AcDbEntity
  8
AM_4
100
AcDbLine
 10
-40.24550000000001
 20
-28.17102999999999
 30
0.0
 11
-39.93451
 21
-28.46702999999999
 31
0.0
  0
LINE
  5
171
330
F3
100
AcDbEntity
  8
AM_4
100
AcDbLine
 10
-41.33395
 20
-28.17102999999999
 30
0.0
 11
-41.17845
 21
-27.87502
 31
0.0
  0
LINE
  5
172
330
F3
100
AcDbEntity
  8
AM_4
100
AcDbLine
 10
-41.17845
 20
-27.87502
 30
0.0
 11
-41.10071
 21
-27.505012
 31
0.0
  0
LINE
  5
173
330
F3
100
AcDbEntity
  8
AM_4
100
AcDbLine
 10
-41.10071
 20
-27.505012
 30
0.0
 11
-41.10071
 21
-26.39498799999999
 31
0.0
  0
LINE
  5
174
330
F3
100
AcDbEntity
  8
AM_4
100
AcDbLine
 10
-41.64493
 20
-28.46702999999999
 30
0.0
 11
-41.33395
 21
-28.17102999999999
 31
0.0
  0
LINE
  5
175
330
F3
100
AcDbEntity
  8
AM_4
100
AcDbLine
 10
-41.10071
 20
-26.39498799999999
 30
0.0
 11
-41.17845
 21
-26.02498
 31
0.0
  0
LINE
  5
176
330
F3
100
AcDbEntity
  8
AM_4
100
AcDbLine
 10
-41.17845
 20
-26.02498
 30
0.0
 11
-41.33395
 21
-25.72897
 31
0.0
  0
LINE
  5
177
330
F3
100
AcDbEntity
  8
AM_4
100
AcDbLine
 10
-41.33395
 20
-25.72897
 30
0.0
 11
-41.64493
 21
-25.43297
 31
0.0
  0
LINE
  5
178
330
F3
100
AcDbEntity
  8
AM_4
100
AcDbLine
 10
-41.955918
 20
-25.28495999999999
 30
0.0
 11
-42.344649
 21
-25.21096
 31
0.0
  0
LINE
  5
179
330
F3
100
AcDbEntity
  8
AM_4
100
AcDbLine
 10
-39.77902
 20
-25.87698
 30
0.0
 11
-39.54578
 21
-25.72897
 31
0.0
  0
LINE
  5
17A
330
F3
100
AcDbEntity
  8
AM_4
100
AcDbLine
 10
-39.54578
 20
-25.72897
 30
0.0
 11
-39.2348
 21
-25.65497
 31
0.0
  0
LINE
  5
17B
330
F3
100
AcDbEntity
  8
AM_4
100
AcDbLine
 10
-39.2348
 20
-25.65497
 30
0.0
 11
-38.53508
 21
-25.65497
 31
0.0
  0
LINE
  5
17C
330
F3
100
AcDbEntity
  8
AM_4
100
AcDbLine
 10
-38.53508
 20
-25.65497
 30
0.0
 11
-38.22410000000001
 21
-25.72897
 31
0.0
  0
LINE
  5
17D
330
F3
100
AcDbEntity
  8
AM_4
100
AcDbLine
 10
-38.22410000000001
 20
-25.72897
 30
0.0
 11
-37.99086
 21
-25.87698
 31
0.0
  0
LINE
  5
17E
330
F3
100
AcDbEntity
  8
AM_4
100
AcDbLine
 10
-37.99086
 20
-25.87698
 30
0.0
 11
-37.91311000000001
 21
-26.098981
 31
0.0
  0
LINE
  5
17F
330
F3
100
AcDbEntity
  8
AM_4
100
AcDbLine
 10
-37.91311000000001
 20
-26.098981
 30
0.0
 11
-37.44663
 21
-26.098981
 31
0.0
  0
LINE
  5
180
330
F3
100
AcDbEntity
  8
AM_4
100
AcDbLine
 10
-37.44663
 20
-26.098981
 30
0.0
 11
-37.52438
 21
-25.72897
 31
0.0
  0
LINE
  5
181
330
F3
100
AcDbEntity
  8
AM_4
100
AcDbLine
 10
-37.52438
 20
-25.72897
 30
0.0
 11
-37.83536000000001
 21
-25.43297
 31
0.0
  0
LINE
  5
182
330
F3
100
AcDbEntity
  8
AM_4
100
AcDbLine
 10
-37.83536000000001
 20
-25.43297
 30
0.0
 11
-38.14635
 21
-25.28495999999999
 31
0.0
  0
LINE
  5
183
330
F3
100
AcDbEntity
  8
AM_4
100
AcDbLine
 10
-38.14635
 20
-25.28495999999999
 30
0.0
 11
-38.53508
 21
-25.21096
 31
0.0
  0
LINE
  5
184
330
F3
100
AcDbEntity
  8
AM_4
100
AcDbLine
 10
-49.80829
 20
-25.21096
 30
0.0
 11
-51.67420000000001
 21
-25.21096
 31
0.0
  0
LINE
  5
185
330
F3
100
AcDbEntity
  8
AM_4
100
AcDbLine
 10
-51.67420000000001
 20
-25.21096
 30
0.0
 11
-51.67420000000001
 21
-28.68903999999999
 31
0.0
  0
LINE
  5
186
330
F3
100
AcDbEntity
  8
AM_4
100
AcDbLine
 10
-51.67420000000001
 20
-28.68903999999999
 30
0.0
 11
-49.80829
 21
-28.68903999999999
 31
0.0
  0
LINE
  5
187
330
F3
100
AcDbEntity
  8
AM_4
100
AcDbLine
 10
-49.80829
 20
-28.68903999999999
 30
0.0
 11
-49.41956000000001
 21
-28.61504
 31
0.0
  0
LINE
  5
188
330
F3
100
AcDbEntity
  8
AM_4
100
AcDbLine
 10
-40.01226
 20
-26.39498799999999
 30
0.0
 11
-39.93451
 21
-26.098981
 31
0.0
  0
LINE
  5
189
330
F3
100
AcDbEntity
  8
AM_4
100
AcDbLine
 10
-39.93451
 20
-26.098981
 30
0.0
 11
-39.77902
 21
-25.87698
 31
0.0
  0
LINE
  5
18A
330
F3
100
AcDbEntity
  8
AM_4
100
AcDbLine
 10
-41.955918
 20
-28.61504
 30
0.0
 11
-41.64493
 21
-28.46702999999999
 31
0.0
  0
LINE
  5
18B
330
F3
100
AcDbEntity
  8
AM_4
100
AcDbLine
 10
-48.6421
 20
-27.87502
 30
0.0
 11
-48.56435
 21
-27.505012
 31
0.0
  0
LINE
  5
18C
330
F3
100
AcDbEntity
  8
AM_4
100
AcDbLine
 10
-48.56435
 20
-27.505012
 30
0.0
 11
-48.56435
 21
-26.39498799999999
 31
0.0
  0
LINE
  5
18D
330
F3
100
AcDbEntity
  8
AM_4
100
AcDbLine
 10
-48.56435
 20
-26.39498799999999
 30
0.0
 11
-48.6421
 21
-26.02498
 31
0.0
  0
LINE
  5
18E
330
F3
100
AcDbEntity
  8
AM_4
100
AcDbLine
 10
-48.6421
 20
-26.02498
 30
0.0
 11
-48.79759
 21
-25.72897
 31
0.0
  0
LINE
  5
18F
330
F3
100
AcDbEntity
  8
AM_4
100
AcDbLine
 10
-48.79759
 20
-25.72897
 30
0.0
 11
-49.10858
 21
-25.43297
 31
0.0
  0
LINE
  5
190
330
F3
100
AcDbEntity
  8
AM_4
100
AcDbLine
 10
-49.10858
 20
-25.43297
 30
0.0
 11
-49.41956000000001
 21
-25.28495999999999
 31
0.0
  0
LINE
  5
191
330
F3
100
AcDbEntity
  8
AM_4
100
AcDbLine
 10
-36.82466
 20
-25.21096
 30
0.0
 11
-36.82466
 21
-28.68903999999999
 31
0.0
  0
LINE
  5
192
330
F3
100
AcDbEntity
  8
AM_4
100
AcDbLine
 10
-34.0258
 20
-25.21096
 30
0.0
 11
-36.82466
 21
-25.21096
 31
0.0
  0
LINE
  5
193
330
F3
100
AcDbEntity
  8
AM_4
100
AcDbLine
 10
-34.0258
 20
-25.65497
 30
0.0
 11
-34.0258
 21
-25.21096
 31
0.0
  0
LINE
  5
194
330
F3
100
AcDbEntity
  8
AM_4
100
AcDbLine
 10
-36.35819
 20
-25.65497
 30
0.0
 11
-34.0258
 21
-25.65497
 31
0.0
  0
LINE
  5
195
330
F3
100
AcDbEntity
  8
AM_4
100
AcDbLine
 10
-36.35819
 20
-26.616993
 30
0.0
 11
-36.35819
 21
-25.65497
 31
0.0
  0
LINE
  5
196
330
F3
100
AcDbEntity
  8
AM_4
100
AcDbLine
 10
-34.33678
 20
-26.616993
 30
0.0
 11
-36.35819
 21
-26.616993
 31
0.0
  0
LINE
  5
197
330
F3
100
AcDbEntity
  8
AM_4
100
AcDbLine
 10
-34.33678
 20
-27.06100199999999
 30
0.0
 11
-34.33678
 21
-26.616993
 31
0.0
  0
LINE
  5
198
330
F3
100
AcDbEntity
  8
AM_4
100
AcDbLine
 10
-36.35819
 20
-27.06100199999999
 30
0.0
 11
-34.33678
 21
-27.06100199999999
 31
0.0
  0
LINE
  5
199
330
F3
100
AcDbEntity
  8
AM_4
100
AcDbLine
 10
-36.35819
 20
-28.24503
 30
0.0
 11
-36.35819
 21
-27.06100199999999
 31
0.0
  0
LINE
  5
19A
330
F3
100
AcDbEntity
  8
AM_4
100
AcDbLine
 10
-34.0258
 20
-28.24503
 30
0.0
 11
-36.35819
 21
-28.24503
 31
0.0
  0
LINE
  5
19B
330
F3
100
AcDbEntity
  8
AM_4
100
AcDbLine
 10
-34.0258
 20
-28.68903999999999
 30
0.0
 11
-34.0258
 21
-28.24503
 31
0.0
  0
LINE
  5
19C
330
F3
100
AcDbEntity
  8
AM_4
100
AcDbLine
 10
-36.82466
 20
-28.68903999999999
 30
0.0
 11
-34.0258
 21
-28.68903999999999
 31
0.0
  0
LINE
  5
19D
330
F3
100
AcDbEntity
  8
AM_4
100
AcDbLine
 10
-40.40099
 20
-26.02498
 30
0.0
 11
-40.47874000000001
 21
-26.39498799999999
 31
0.0
  0
LINE
  5
19E
330
F3
100
AcDbEntity
  8
AM_4
100
AcDbLine
 10
-40.2455
 20
-25.72897
 30
0.0
 11
-40.40099
 21
-26.02498
 31
0.0
  0
LINE
  5
19F
330
F3
100
AcDbEntity
  8
AM_4
100
AcDbLine
 10
-39.93451
 20
-25.43297
 30
0.0
 11
-40.2455
 21
-25.72897
 31
0.0
  0
LINE
  5
1A0
330
F3
100
AcDbEntity
  8
AM_4
100
AcDbLine
 10
-39.62353
 20
-25.28495999999999
 30
0.0
 11
-39.93451
 21
-25.43297
 31
0.0
  0
LINE
  5
1A1
330
F3
100
AcDbEntity
  8
AM_4
100
AcDbLine
 10
-39.2348
 20
-25.21096
 30
0.0
 11
-39.62353
 21
-25.28495999999999
 31
0.0
  0
LINE
  5
1A2
330
F3
100
AcDbEntity
  8
AM_4
100
AcDbLine
 10
-38.53508
 20
-25.21096
 30
0.0
 11
-39.2348
 21
-25.21096
 31
0.0
  0
LINE
  5
1A3
330
F3
100
AcDbEntity
  8
AM_4
100
AcDbLine
 10
-40.01226
 20
-27.505012
 30
0.0
 11
-40.01226
 21
-26.39498799999999
 31
0.0
  0
LINE
  5
1A4
330
F3
100
AcDbEntity
  8
AM_4
100
AcDbLine
 10
-39.93451
 20
-27.801019
 30
0.0
 11
-40.01226
 21
-27.505012
 31
0.0
  0
LINE
  5
1A5
330
F3
100
AcDbEntity
  8
AM_4
100
AcDbLine
 10
-39.77902
 20
-28.02302
 30
0.0
 11
-39.93451
 21
-27.801019
 31
0.0
  0
LINE
  5
1A6
330
F3
100
AcDbEntity
  8
AM_4
100
AcDbLine
 10
-39.54578
 20
-28.17102999999999
 30
0.0
 11
-39.77902
 21
-28.02302
 31
0.0
  0
LINE
  5
1A7
330
F3
100
AcDbEntity
  8
AM_4
100
AcDbLine
 10
-39.2348
 20
-28.24503
 30
0.0
 11
-39.54578
 21
-28.17102999999999
 31
0.0
  0
LINE
  5
1A8
330
F3
100
AcDbEntity
  8
AM_4
100
AcDbLine
 10
-38.53508
 20
-28.24503
 30
0.0
 11
-39.2348
 21
-28.24503
 31
0.0
  0
LINE
  5
1A9
330
F3
100
AcDbEntity
  8
AM_4
100
AcDbLine
 10
-38.22410000000001
 20
-28.17102999999999
 30
0.0
 11
-38.53508
 21
-28.24503
 31
0.0
  0
LINE
  5
1AA
330
F3
100
AcDbEntity
  8
AM_4
100
AcDbLine
 10
-37.99086
 20
-28.02302
 30
0.0
 11
-38.22410000000001
 21
-28.17102999999999
 31
0.0
  0
LINE
  5
1AB
330
F3
100
AcDbEntity
  8
AM_4
100
AcDbLine
 10
-37.91311000000001
 20
-27.801019
 30
0.0
 11
-37.99086
 21
-28.02302
 31
0.0
  0
LINE
  5
1AC
330
F3
100
AcDbEntity
  8
AM_4
100
AcDbLine
 10
-37.91311000000001
 20
-27.209006
 30
0.0
 11
-37.91311000000001
 21
-27.801019
 31
0.0
  0
LINE
  5
1AD
330
F3
100
AcDbEntity
  8
AM_4
100
AcDbLine
 10
-38.61283
 20
-27.209006
 30
0.0
 11
-37.91311000000001
 21
-27.209006
 31
0.0
  0
LINE
  5
1AE
330
F3
100
AcDbEntity
  8
AM_4
100
AcDbLine
 10
-38.61283
 20
-26.764996
 30
0.0
 11
-38.61283
 21
-27.209006
 31
0.0
  0
LINE
  5
1AF
330
F3
100
AcDbEntity
  8
AM_4
100
AcDbLine
 10
-37.44663
 20
-26.764996
 30
0.0
 11
-38.61283
 21
-26.764996
 31
0.0
  0
LINE
  5
1B0
330
F3
100
AcDbEntity
  8
AM_4
100
AcDbLine
 10
-37.44663
 20
-27.87502
 30
0.0
 11
-37.44663
 21
-26.764996
 31
0.0
  0
LINE
  5
1B1
330
F3
100
AcDbEntity
  8
AM_4
100
AcDbLine
 10
-37.52438
 20
-28.17102999999999
 30
0.0
 11
-37.44663
 21
-27.87502
 31
0.0
  0
LINE
  5
1B2
330
F3
100
AcDbEntity
  8
AM_4
100
AcDbLine
 10
-37.83536000000001
 20
-28.46702999999999
 30
0.0
 11
-37.52438
 21
-28.17102999999999
 31
0.0
  0
LINE
  5
1B3
330
F3
100
AcDbEntity
  8
AM_4
100
AcDbLine
 10
-38.14635
 20
-28.61504
 30
0.0
 11
-37.83536000000001
 21
-28.46702999999999
 31
0.0
  0
LINE
  5
1B4
330
F3
100
AcDbEntity
  8
AM_4
100
AcDbLine
 10
-38.53508
 20
-28.68903999999999
 30
0.0
 11
-38.14635
 21
-28.61504
 31
0.0
  0
LINE
  5
1B5
330
F3
100
AcDbEntity
  8
AM_4
100
AcDbLine
 10
-39.2348
 20
-28.68903999999999
 30
0.0
 11
-38.53508
 21
-28.68903999999999
 31
0.0
  0
LINE
  5
1B6
330
F3
100
AcDbEntity
  8
AM_4
100
AcDbLine
 10
-39.62353
 20
-28.61504
 30
0.0
 11
-39.2348
 21
-28.68903999999999
 31
0.0
  0
LINE
  5
1B7
330
F3
100
AcDbEntity
  8
AM_4
100
AcDbLine
 10
-39.93451
 20
-28.46702999999999
 30
0.0
 11
-39.62353
 21
-28.61504
 31
0.0
  0
LINE
  5
1B8
330
F3
100
AcDbEntity
  8
AM_4
100
AcDbLine
 10
-40.40099
 20
-27.87502
 30
0.0
 11
-40.24550000000001
 21
-28.17102999999999
 31
0.0
  0
LINE
  5
1B9
330
F3
100
AcDbEntity
  8
AM_4
100
AcDbLine
 10
-40.47874000000001
 20
-27.505012
 30
0.0
 11
-40.40099
 21
-27.87502
 31
0.0
  0
LINE
  5
1BA
330
F3
100
AcDbEntity
  8
AM_4
100
AcDbLine
 10
-40.47874000000001
 20
-26.39498799999999
 30
0.0
 11
-40.47874000000001
 21
-27.505012
 31
0.0
  0
LINE
  5
1BB
330
F3
100
AcDbEntity
  8
AM_4
100
AcDbLine
 10
-44.21056
 20
-25.21096
 30
0.0
 11
-44.21056
 21
-28.68903999999999
 31
0.0
  0
LINE
  5
1BC
330
F3
100
AcDbEntity
  8
AM_4
100
AcDbLine
 10
-42.344649
 20
-25.21096
 30
0.0
 11
-44.21056
 21
-25.21096
 31
0.0
  0
LINE
  5
1BD
330
F3
100
AcDbEntity
  8
AM_4
100
AcDbLine
 10
-41.64493
 20
-25.43297
 30
0.0
 11
-41.955918
 21
-25.28495999999999
 31
0.0
  0
LINE
  5
1BE
330
F3
100
AcDbEntity
  8
AM_4
100
AcDbLine
 10
-42.344649
 20
-28.68903999999999
 30
0.0
 11
-41.955918
 21
-28.61504
 31
0.0
  0
LINE
  5
1BF
330
F3
100
AcDbEntity
  8
AM_4
100
AcDbLine
 10
-44.21056
 20
-28.68903999999999
 30
0.0
 11
-42.344649
 21
-28.68903999999999
 31
0.0
  0
LINE
  5
1C0
330
F3
100
AcDbEntity
  8
AM_4
100
AcDbLine
 10
-47.86464
 20
-26.02498
 30
0.0
 11
-47.94238
 21
-26.39498799999999
 31
0.0
  0
LINE
  5
1C1
330
F3
100
AcDbEntity
  8
AM_4
100
AcDbLine
 10
-47.70914
 20
-25.72897
 30
0.0
 11
-47.86464
 21
-26.02498
 31
0.0
  0
LINE
  5
1C2
330
F3
100
AcDbEntity
  8
AM_4
100
AcDbLine
 10
-47.39816000000001
 20
-25.43297
 30
0.0
 11
-47.70914
 21
-25.72897
 31
0.0
  0
LINE
  5
1C3
330
F3
100
AcDbEntity
  8
AM_4
100
AcDbLine
 10
-47.08717000000001
 20
-25.28495999999999
 30
0.0
 11
-47.39816000000001
 21
-25.43297
 31
0.0
  0
LINE
  5
1C4
330
F3
100
AcDbEntity
  8
AM_4
100
AcDbLine
 10
-46.69844000000001
 20
-25.21096
 30
0.0
 11
-47.08717000000001
 21
-25.28495999999999
 31
0.0
  0
LINE
  5
1C5
330
F3
100
AcDbEntity
  8
AM_4
100
AcDbLine
 10
-46.07647
 20
-25.21096
 30
0.0
 11
-46.69844000000001
 21
-25.21096
 31
0.0
  0
LINE
  5
1C6
330
F3
100
AcDbEntity
  8
AM_4
100
AcDbLine
 10
-45.68774000000001
 20
-25.28495999999999
 30
0.0
 11
-46.07647
 21
-25.21096
 31
0.0
  0
LINE
  5
1C7
330
F3
100
AcDbEntity
  8
AM_4
100
AcDbLine
 10
-45.37675
 20
-25.43297
 30
0.0
 11
-45.68774000000001
 21
-25.28495999999999
 31
0.0
  0
LINE
  5
1C8
330
F3
100
AcDbEntity
  8
AM_4
100
AcDbLine
 10
-45.06577
 20
-25.72897
 30
0.0
 11
-45.37675
 21
-25.43297
 31
0.0
  0
LINE
  5
1C9
330
F3
100
AcDbEntity
  8
AM_4
100
AcDbLine
 10
-44.91028000000001
 20
-26.02498
 30
0.0
 11
-45.06577
 21
-25.72897
 31
0.0
  0
LINE
  5
1CA
330
F3
100
AcDbEntity
  8
AM_4
100
AcDbLine
 10
-44.83253000000001
 20
-26.39498799999999
 30
0.0
 11
-44.91028000000001
 21
-26.02498
 31
0.0
  0
LINE
  5
1CB
330
F3
100
AcDbEntity
  8
AM_4
100
AcDbLine
 10
-44.83253000000001
 20
-27.505012
 30
0.0
 11
-44.83253000000001
 21
-26.39498799999999
 31
0.0
  0
LINE
  5
1CC
330
F3
100
AcDbEntity
  8
AM_4
100
AcDbLine
 10
-44.91028000000001
 20
-27.87502
 30
0.0
 11
-44.83253000000001
 21
-27.505012
 31
0.0
  0
LINE
  5
1CD
330
F3
100
AcDbEntity
  8
AM_4
100
AcDbLine
 10
-45.06577
 20
-28.17102999999999
 30
0.0
 11
-44.91028000000001
 21
-27.87502
 31
0.0
  0
LINE
  5
1CE
330
F3
100
AcDbEntity
  8
AM_4
100
AcDbLine
 10
-45.37675
 20
-28.46702999999999
 30
0.0
 11
-45.06577
 21
-28.17102999999999
 31
0.0
  0
LINE
  5
1CF
330
F3
100
AcDbEntity
  8
AM_4
100
AcDbLine
 10
-45.68774000000001
 20
-28.61504
 30
0.0
 11
-45.37675
 21
-28.46702999999999
 31
0.0
  0
LINE
  5
1D0
330
F3
100
AcDbEntity
  8
AM_4
100
AcDbLine
 10
-46.07647
 20
-28.68903999999999
 30
0.0
 11
-45.68774000000001
 21
-28.61504
 31
0.0
  0
LINE
  5
1D1
330
F3
100
AcDbEntity
  8
AM_4
100
AcDbLine
 10
-46.69844000000001
 20
-28.68903999999999
 30
0.0
 11
-46.07647
 21
-28.68903999999999
 31
0.0
  0
LINE
  5
1D2
330
F3
100
AcDbEntity
  8
AM_4
100
AcDbLine
 10
-47.08717000000001
 20
-28.61504
 30
0.0
 11
-46.69844000000001
 21
-28.68903999999999
 31
0.0
  0
LINE
  5
1D3
330
F3
100
AcDbEntity
  8
AM_4
100
AcDbLine
 10
-47.39816000000001
 20
-28.46702999999999
 30
0.0
 11
-47.08717000000001
 21
-28.61504
 31
0.0
  0
LINE
  5
1D4
330
F3
100
AcDbEntity
  8
AM_4
100
AcDbLine
 10
-47.70914
 20
-28.17102999999999
 30
0.0
 11
-47.39816000000001
 21
-28.46702999999999
 31
0.0
  0
LINE
  5
1D5
330
F3
100
AcDbEntity
  8
AM_4
100
AcDbLine
 10
-47.86464
 20
-27.87502
 30
0.0
 11
-47.70914
 21
-28.17102999999999
 31
0.0
  0
LINE
  5
1D6
330
F3
100
AcDbEntity
  8
AM_4
100
AcDbLine
 10
-47.94238
 20
-27.505012
 30
0.0
 11
-47.86464
 21
-27.87502
 31
0.0
  0
LINE
  5
1D7
330
F3
100
AcDbEntity
  8
AM_4
100
AcDbLine
 10
-47.94238
 20
-26.39498799999999
 30
0.0
 11
-47.94238
 21
-27.505012
 31
0.0
  0
LINE
  5
1D8
330
F3
100
AcDbEntity
  8
AM_4
100
AcDbLine
 10
-49.41956000000001
 20
-25.28495999999999
 30
0.0
 11
-49.80829
 21
-25.21096
 31
0.0
  0
LINE
  5
1D9
330
F3
100
AcDbEntity
  8
AM_4
100
AcDbLine
 10
-48.79759
 20
-28.17102999999999
 30
0.0
 11
-48.6421
 21
-27.87502
 31
0.0
  0
LINE
  5
1DA
330
F3
100
AcDbEntity
  8
AM_4
100
AcDbLine
 10
-49.10858
 20
-28.46702999999999
 30
0.0
 11
-48.79759
 21
-28.17102999999999
 31
0.0
  0
LINE
  5
1DB
330
F3
100
AcDbEntity
  8
AM_4
100
AcDbLine
 10
-49.41956000000001
 20
-28.61504
 30
0.0
 11
-49.10858
 21
-28.46702999999999
 31
0.0
  0
LINE
  5
1DC
330
F3
100
AcDbEntity
  8
AM_4
100
AcDbLine
 10
-22.63313635040831
 20
-33.3
 30
0.0
 11
-22.63313635040831
 21
-20.6
 31
0.0
  0
LINE
  5
1DD
330
F3
100
AcDbEntity
  8
AM_4
100
AcDbLine
 10
-62.0
 20
-20.6
 30
0.0
 11
-22.63313635040831
 21
-20.6
 31
0.0
  0
LINE
  5
1DE
330
F3
100
AcDbEntity
  8
AM_4
100
AcDbLine
 10
-60.325
 20
-33.3
 30
0.0
 11
-60.325
 21
-20.59999999999999
 31
0.0
  0
LINE
  5
1DF
330
F3
100
AcDbEntity
  8
AM_4
100
AcDbLine
 10
60.325
 20
-33.3
 30
0.0
 11
60.32500000000001
 21
-20.6
 31
0.0
  0
LINE
  5
1E0
330
F3
100
AcDbEntity
  8
AM_4
100
AcDbLine
 10
22.6331363504083
 20
-20.59999999999927
 30
0.0
 11
61.99999999999995
 21
-20.6
 31
0.0
  0
LINE
  5
1E1
330
F3
100
AcDbEntity
  8
AM_4
100
AcDbLine
 10
21.16666666666667
 20
-33.3
 30
0.0
 11
21.16666666666667
 21
-10.2089285540757
 31
0.0
  0
LINE
  5
1E2
330
F3
100
AcDbEntity
  8
AM_4
100
AcDbLine
 10
22.63313635040832
 20
-33.3
 30
0.0
 11
22.6331363504083
 21
-20.59999999999927
 31
0.0
  0
LINE
  5
1E3
330
F3
100
AcDbEntity
  8
AM_4
100
AcDbLine
 10
22.6331363504083
 20
-20.59999999999927
 30
0.0
 11
22.00871719263571
 21
-8.238104608135354
 31
0.0
  0
LWPOLYLINE
  5
1E4
330
F3
100
AcDbEntity
  8
AM_4
100
AcDbPolyline
 90
        3
 70
     0
 43
0.0
 10
21.16666666666666
 20
-10.2089285540757
 10
21.97588786039686
 20
-8.325283943942217
 10
22.00871719263572
 20
-8.238104608135359
  0
ENDBLK
  5
F6
330
F3
100
AcDbEntity
  8
0
100
AcDbBlockEnd
  0
ENDSEC
  0
SECTION
  2
ENTITIES
  0
INSERT
  5
6F
330
1F
100
AcDbEntity
  8
0
100
AcDbBlockReference
  2
1__129261_0
 10
0.0
 20
0.0
 30
0.0
  0
POINT
  5
1E6
330
1F
100
AcDbEntity
  8
ConnectionPoints
100
AcDbPoint
 10
0.0
 20
0.0
 30
0.0
  0
POINT
  5
1E7
330
1F
100
AcDbEntity
  8
ConnectionPoints
100
AcDbPoint
 10
0.0
 20
0.0
 30
-12.3
  0
POINT
  5
1E8
330
1F
100
AcDbEntity
  8
ConnectionPoints
100
AcDbPoint
 10
0.0
 20
0.0
 30
0.0
  0
ENDSEC
  0
SECTION
  2
OBJECTS
  0
DICTIONARY
  5
C
330
0
100
AcDbDictionary
281
     1
  3
ACAD_DETAILVIEWSTYLE
350
1F0
  3
ACAD_GROUP
350
D
  3
ACAD_LAYOUT
350
1A
  3
ACAD_MATERIAL
350
43
  3
ACAD_MLEADERSTYLE
350
6B
  3
ACAD_MLINESTYLE
350
17
  3
ACAD_PLOTSETTINGS
350
19
  3
ACAD_PLOTSTYLENAME
350
E
  3
ACAD_SCALELIST
350
47
  3
ACAD_SECTIONVIEWSTYLE
350
1F1
  3
ACAD_TABLESTYLE
350
69
  3
ACAD_VISUALSTYLE
350
2A
  3
ACDB_RECOMPOSE_DATA
350
1ED
  3
AcDbVariableDictionary
350
1E9
  0
SUN
  5
6D
330
29
100
AcDbSun
 90
        1
290
     0
 63
     7
421
 16777215
 40
1.0
291
     1
 91
  2455826
 92
 54000000
292
     0
 70
     2
 71
   256
280
     1
  0
DICTIONARY
  5
1F0
102
{ACAD_REACTORS
330
C
102
}
330
C
100
AcDbDictionary
281
     1
  0
DICTIONARY
  5
D
102
{ACAD_REACTORS
330
C
102
}
330
C
100
AcDbDictionary
281
     1
  0
DICTIONARY
  5
1A
102
{ACAD_REACTORS
330
C
102
}
330
C
100
AcDbDictionary
281
     1
  3
Layout1
350
1E
  3
Layout2
350
26
  3
Model
350
22
  0
DICTIONARY
  5
43
102
{ACAD_REACTORS
330
C
102
}
330
C
100
AcDbDictionary
281
     1
  3
ByBlock
350
45
  3
ByLayer
350
44
  3
Global
350
46
  0
DICTIONARY
  5
6B
102
{ACAD_REACTORS
330
C
102
}
330
C
100
AcDbDictionary
281
     1
  3
Standard
350
6C
  0
DICTIONARY
  5
17
102
{ACAD_REACTORS
330
C
102
}
330
C
100
AcDbDictionary
281
     1
  3
Standard
350
18
  0
DICTIONARY
  5
19
102
{ACAD_REACTORS
330
C
102
}
330
C
100
AcDbDictionary
281
     1
  0
ACDBDICTIONARYWDFLT
  5
E
102
{ACAD_REACTORS
330
C
102
}
330
C
100
AcDbDictionary
281
     1
  3
Normal
350
F
100
AcDbDictionaryWithDefault
340
F
  0
DICTIONARY
  5
47
102
{ACAD_REACTORS
330
C
102
}
330
C
100
AcDbDictionary
281
     1
  3
A0
350
48
  3
A1
350
49
  3
A2
350
4A
  3
A3
350
4B
  3
A4
350
4C
  3
A5
350
4D
  3
A6
350
4E
  3
A7
350
4F
  3
A8
350
50
  3
A9
350
51
  3
B0
350
52
  3
B1
350
53
  3
B2
350
54
  3
B3
350
55
  3
B4
350
56
  3
B5
350
57
  3
B6
350
58
  3
B7
350
59
  3
B8
350
5A
  3
B9
350
5B
  3
C0
350
5C
  3
C1
350
5D
  3
C2
350
5E
  3
C3
350
5F
  3
C4
350
60
  3
C5
350
61
  3
C6
350
62
  3
C7
350
63
  3
C8
350
64
  3
C9
350
65
  3
D0
350
66
  3
D1
350
67
  3
D2
350
68
  0
DICTIONARY
  5
1F1
102
{ACAD_REACTORS
330
C
102
}
330
C
100
AcDbDictionary
281
     1
  0
DICTIONARY
  5
69
102
{ACAD_REACTORS
330
C
102
}
330
C
100
AcDbDictionary
281
     1
  3
Standard
350
6A
  0
DICTIONARY
  5
2A
102
{ACAD_REACTORS
330
C
102
}
330
C
100
AcDbDictionary
281
     1
  3
2dWireframe
350
2F
  3
Basic
350
32
  3
Brighten
350
36
  3
ColorChange
350
3A
  3
Conceptual
350
34
  3
Dim
350
35
  3
EdgeColorOff
350
3D
  3
Facepattern
350
39
  3
Flat
350
2B
  3
FlatWithEdges
350
2C
  3
Gouraud
350
2D
  3
GouraudWithEdges
350
2E
  3
Hidden
350
31
  3
JitterOff
350
3B
  3
Linepattern
350
38
  3
OverhangOff
350
3C
  3
Realistic
350
33
  3
Shaded
350
42
  3
Shaded with edges
350
41
  3
Shades of Gray
350
3E
  3
Sketchy
350
3F
  3
Thicken
350
37
  3
Wireframe
350
30
  3
X-Ray
350
40
  0
XRECORD
  5
1ED
102
{ACAD_REACTORS
330
C
102
}
330
C
100
AcDbXrecord
280
     1
 90
        1
330
6A
  0
DICTIONARY
  5
1E9
102
{ACAD_REACTORS
330
C
102
}
330
C
100
AcDbDictionary
281
     1
  3
CANNOSCALE
350
1EA
  3
CMLEADERSTYLE
350
1EF
  3
CTABLESTYLE
350
1EE
  0
LAYOUT
  5
1E
102
{ACAD_REACTORS
330
1A
102
}
330
1A
100
AcDbPlotSettings
  1

  2
none_device
  4

  6

 40
0.0
 41
0.0
 42
0.0
 43
0.0
 44
0.0
 45
0.0
 46
0.0
 47
0.0
 48
0.0
 49
0.0
140
0.0
141
0.0
142
1.0
143
1.0
 70
   688
 72
     1
 73
     0
 74
     5
  7

 75
    16
 76
     0
 77
     2
 78
   300
147
1.0
148
0.0
149
0.0
100
AcDbLayout
  1
Layout1
 70
     1
 71
     1
 10
0.0
 20
0.0
 11
420.0
 21
297.0
 12
0.0
 22
0.0
 32
0.0
 14
1.000000000000000E+20
 24
1.000000000000000E+20
 34
1.000000000000000E+20
 15
-1.000000000000000E+20
 25
-1.000000000000000E+20
 35
-1.000000000000000E+20
146
0.0
 13
0.0
 23
0.0
 33
0.0
 16
1.0
 26
0.0
 36
0.0
 17
0.0
 27
1.0
 37
0.0
 76
     0
330
1B
  0
LAYOUT
  5
26
102
{ACAD_REACTORS
330
1A
102
}
330
1A
100
AcDbPlotSettings
  1

  2
none_device
  4

  6

 40
0.0
 41
0.0
 42
0.0
 43
0.0
 44
0.0
 45
0.0
 46
0.0
 47
0.0
 48
0.0
 49
0.0
140
0.0
141
0.0
142
1.0
143
1.0
 70
   688
 72
     1
 73
     0
 74
     5
  7

 75
    16
 76
     0
 77
     2
 78
   300
147
1.0
148
0.0
149
0.0
100
AcDbLayout
  1
Layout2
 70
     1
 71
     2
 10
0.0
 20
0.0
 11
0.0
 21
0.0
 12
0.0
 22
0.0
 32
0.0
 14
0.0
 24
0.0
 34
0.0
 15
0.0
 25
0.0
 35
0.0
146
0.0
 13
0.0
 23
0.0
 33
0.0
 16
1.0
 26
0.0
 36
0.0
 17
0.0
 27
1.0
 37
0.0
 76
     0
330
23
  0
LAYOUT
  5
22
102
{ACAD_REACTORS
330
1A
102
}
330
1A
100
AcDbPlotSettings
  1

  2
none_device
  4
Letter_(8.50_x_11.00_Inches)
  6

 40
6.35
 41
6.35
 42
6.35000508
 43
6.35000508
 44
215.9
 45
279.4
 46
0.0
 47
0.0
 48
0.0
 49
0.0
140
0.0
141
0.0
142
1.0
143
1.0
 70
  1712
 72
     1
 73
     0
 74
     0
  7

 75
     0
 76
     0
 77
     2
 78
   300
147
1.0
148
0.0
149
0.0
100
AcDbLayout
  1
Model
 70
     1
 71
     0
 10
0.0
 20
0.0
 11
420.0
 21
297.0
 12
0.0
 22
0.0
 32
0.0
 14
1.000000000000000E+20
 24
1.000000000000000E+20
 34
1.000000000000000E+20
 15
-1.000000000000000E+20
 25
-1.000000000000000E+20
 35
-1.000000000000000E+20
146
0.0
 13
0.0
 23
0.0
 33
0.0
 16
1.0
 26
0.0
 36
0.0
 17
0.0
 27
1.0
 37
0.0
 76
     0
330
1F
331
29
  0
MATERIAL
  5
45
102
{ACAD_REACTORS
330
43
102
}
330
43
100
AcDbMaterial
  1
ByBlock
 72
     1
 94
      127
  0
MATERIAL
  5
44
102
{ACAD_REACTORS
330
43
102
}
330
43
100
AcDbMaterial
  1
ByLayer
 72
     1
 94
      127
  0
MATERIAL
  5
46
102
{ACAD_REACTORS
330
43
102
}
330
43
100
AcDbMaterial
  1
Global
 72
     1
 94
      127
  0
MLEADERSTYLE
  5
6C
102
{ACAD_REACTORS
330
6B
102
}
330
6B
100
AcDbMLeaderStyle
179
     2
170
     2
171
     1
172
     0
 90
        2
 40
0.0
 41
0.0
173
     1
 91
-1056964608
340
14
 92
       -2
290
     1
 42
2.0
291
     1
 43
8.0
  3
Standard
341
0
 44
4.0
300

342
11
174
     1
178
     6
175
     1
176
     0
 93
-1056964608
 45
4.0
292
     0
297
     0
 46
4.0
343
0
 94
-1056964608
 47
1.0
 49
1.0
140
1.0
293
     1
141
0.0
294
     1
177
     0
142
1.0
295
     0
296
     0
143
3.75
271
     0
272
     9
273
     9
298
     0
  0
MLINESTYLE
  5
18
102
{ACAD_REACTORS
330
17
102
}
330
17
100
AcDbMlineStyle
  2
Standard
 70
     0
  3

 62
   256
 51
90.0
 52
90.0
 71
     2
 49
0.5
 62
   256
  6
BYLAYER
 49
-0.5
 62
   256
  6
BYLAYER
  0
ACDBPLACEHOLDER
  5
F
102
{ACAD_REACTORS
330
E
102
}
330
E
  0
SCALE
  5
48
102
{ACAD_REACTORS
330
47
102
}
330
47
100
AcDbScale
 70
     0
300
1:1
140
1.0
141
1.0
290
     1
  0
SCALE
  5
49
102
{ACAD_REACTORS
330
47
102
}
330
47
100
AcDbScale
 70
     0
300
1:2
140
1.0
141
2.0
290
     0
  0
SCALE
  5
4A
102
{ACAD_REACTORS
330
47
102
}
330
47
100
AcDbScale
 70
     0
300
1:4
140
1.0
141
4.0
290
     0
  0
SCALE
  5
4B
102
{ACAD_REACTORS
330
47
102
}
330
47
100
AcDbScale
 70
     0
300
1:5
140
1.0
141
5.0
290
     0
  0
SCALE
  5
4C
102
{ACAD_REACTORS
330
47
102
}
330
47
100
AcDbScale
 70
     0
300
1:8
140
1.0
141
8.0
290
     0
  0
SCALE
  5
4D
102
{ACAD_REACTORS
330
47
102
}
330
47
100
AcDbScale
 70
     0
300
1:10
140
1.0
141
10.0
290
     0
  0
SCALE
  5
4E
102
{ACAD_REACTORS
330
47
102
}
330
47
100
AcDbScale
 70
     0
300
1:16
140
1.0
141
16.0
290
     0
  0
SCALE
  5
4F
102
{ACAD_REACTORS
330
47
102
}
330
47
100
AcDbScale
 70
     0
300
1:20
140
1.0
141
20.0
290
     0
  0
SCALE
  5
50
102
{ACAD_REACTORS
330
47
102
}
330
47
100
AcDbScale
 70
     0
300
1:30
140
1.0
141
30.0
290
     0
  0
SCALE
  5
51
102
{ACAD_REACTORS
330
47
102
}
330
47
100
AcDbScale
 70
     0
300
1:40
140
1.0
141
40.0
290
     0
  0
SCALE
  5
52
102
{ACAD_REACTORS
330
47
102
}
330
47
100
AcDbScale
 70
     0
300
1:50
140
1.0
141
50.0
290
     0
  0
SCALE
  5
53
102
{ACAD_REACTORS
330
47
102
}
330
47
100
AcDbScale
 70
     0
300
1:100
140
1.0
141
100.0
290
     0
  0
SCALE
  5
54
102
{ACAD_REACTORS
330
47
102
}
330
47
100
AcDbScale
 70
     0
300
2:1
140
2.0
141
1.0
290
     0
  0
SCALE
  5
55
102
{ACAD_REACTORS
330
47
102
}
330
47
100
AcDbScale
 70
     0
300
4:1
140
4.0
141
1.0
290
     0
  0
SCALE
  5
56
102
{ACAD_REACTORS
330
47
102
}
330
47
100
AcDbScale
 70
     0
300
8:1
140
8.0
141
1.0
290
     0
  0
SCALE
  5
57
102
{ACAD_REACTORS
330
47
102
}
330
47
100
AcDbScale
 70
     0
300
10:1
140
10.0
141
1.0
290
     0
  0
SCALE
  5
58
102
{ACAD_REACTORS
330
47
102
}
330
47
100
AcDbScale
 70
     0
300
100:1
140
100.0
141
1.0
290
     0
  0
SCALE
  5
59
102
{ACAD_REACTORS
330
47
102
}
330
47
100
AcDbScale
 70
     0
300
1/128" = 1'-0"
140
0.0078125
141
12.0
290
     0
  0
SCALE
  5
5A
102
{ACAD_REACTORS
330
47
102
}
330
47
100
AcDbScale
 70
     0
300
1/64" = 1'-0"
140
0.015625
141
12.0
290
     0
  0
SCALE
  5
5B
102
{ACAD_REACTORS
330
47
102
}
330
47
100
AcDbScale
 70
     0
300
1/32" = 1'-0"
140
0.03125
141
12.0
290
     0
  0
SCALE
  5
5C
102
{ACAD_REACTORS
330
47
102
}
330
47
100
AcDbScale
 70
     0
300
1/16" = 1'-0"
140
0.0625
141
12.0
290
     0
  0
SCALE
  5
5D
102
{ACAD_REACTORS
330
47
102
}
330
47
100
AcDbScale
 70
     0
300
3/32" = 1'-0"
140
0.09375
141
12.0
290
     0
  0
SCALE
  5
5E
102
{ACAD_REACTORS
330
47
102
}
330
47
100
AcDbScale
 70
     0
300
1/8" = 1'-0"
140
0.125
141
12.0
290
     0
  0
SCALE
  5
5F
102
{ACAD_REACTORS
330
47
102
}
330
47
100
AcDbScale
 70
     0
300
3/16" = 1'-0"
140
0.1875
141
12.0
290
     0
  0
SCALE
  5
60
102
{ACAD_REACTORS
330
47
102
}
330
47
100
AcDbScale
 70
     0
300
1/4" = 1'-0"
140
0.25
141
12.0
290
     0
  0
SCALE
  5
61
102
{ACAD_REACTORS
330
47
102
}
330
47
100
AcDbScale
 70
     0
300
3/8" = 1'-0"
140
0.375
141
12.0
290
     0
  0
SCALE
  5
62
102
{ACAD_REACTORS
330
47
102
}
330
47
100
AcDbScale
 70
     0
300
1/2" = 1'-0"
140
0.5
141
12.0
290
     0
  0
SCALE
  5
63
102
{ACAD_REACTORS
330
47
102
}
330
47
100
AcDbScale
 70
     0
300
3/4" = 1'-0"
140
0.75
141
12.0
290
     0
  0
SCALE
  5
64
102
{ACAD_REACTORS
330
47
102
}
330
47
100
AcDbScale
 70
     0
300
1" = 1'-0"
140
1.0
141
12.0
290
     0
  0
SCALE
  5
65
102
{ACAD_REACTORS
330
47
102
}
330
47
100
AcDbScale
 70
     0
300
1-1/2" = 1'-0"
140
1.5
141
12.0
290
     0
  0
SCALE
  5
66
102
{ACAD_REACTORS
330
47
102
}
330
47
100
AcDbScale
 70
     0
300
3" = 1'-0"
140
3.0
141
12.0
290
     0
  0
SCALE
  5
67
102
{ACAD_REACTORS
330
47
102
}
330
47
100
AcDbScale
 70
     0
300
6" = 1'-0"
140
6.0
141
12.0
290
     0
  0
SCALE
  5
68
102
{ACAD_REACTORS
330
47
102
}
330
47
100
AcDbScale
 70
     0
300
1'-0" = 1'-0"
140
12.0
141
12.0
290
     0
  0
TABLESTYLE
  5
6A
102
{ACAD_REACTORS
330
69
102
}
102
{ACAD_XDICTIONARY
360
1EB
102
}
330
69
100
AcDbTableStyle
  3
Standard
 70
     0
 71
     0
 40
0.06
 41
0.06
280
     0
281
     0
  7
Standard
140
4.5
170
     2
 62
     0
 63
   257
283
     0
 90
        4
 91
        0
  1

274
    -2
284
     1
 64
     0
275
    -2
285
     1
 65
     0
276
    -2
286
     1
 66
     0
277
    -2
287
     1
 67
     0
278
    -2
288
     1
 68
     0
279
    -2
289
     1
 69
     0
  7
Standard
140
6.0
170
     5
 62
     0
 63
   257
283
     0
 90
        4
 91
        0
  1

274
    -2
284
     1
 64
     0
275
    -2
285
     1
 65
     0
276
    -2
286
     1
 66
     0
277
    -2
287
     1
 67
     0
278
    -2
288
     1
 68
     0
279
    -2
289
     1
 69
     0
  7
Standard
140
4.5
170
     5
 62
     0
 63
   257
283
     0
 90
        4
 91
        0
  1

274
    -2
284
     1
 64
     0
275
    -2
285
     1
 65
     0
276
    -2
286
     1
 66
     0
277
    -2
287
     1
 67
     0
278
    -2
288
     1
 68
     0
279
    -2
289
     1
 69
     0
  0
VISUALSTYLE
  5
2F
102
{ACAD_REACTORS
330
2A
102
}
330
2A
100
AcDbVisualStyle
  2
2dWireframe
 70
     4
177
     3
291
     0
 70
    58
 90
        0
176
     1
 90
        2
176
     1
 90
        0
176
     1
 90
        0
176
     1
 40
0.6
176
     1
 40
30.0
176
     1
 62
     7
420
 16777215
176
     1
 90
        1
176
     1
 90
        4
176
     1
 62
     7
176
     1
 62
   257
176
     1
 90
        1
176
     1
 90
        1
176
     1
 40
1.0
176
     1
 90
        0
176
     1
 62
   257
176
     1
 40
1.0
176
     1
 90
        1
176
     1
 90
        6
176
     1
 90
        2
176
     1
 62
     7
176
     1
 90
        5
176
     1
 90
        0
176
     1
 90
        0
176
     1
290
     0
176
     1
 90
        1
176
     1
 40
0.0
176
     1
 90
        0
176
     1
290
     1
176
     1
290
     1
176
     1
290
     0
176
     1
290
     0
176
     1
290
     0
176
     1
290
     0
176
     1
290
     0
176
     1
290
     0
176
     1
290
     0
176
     1
 90
       50
176
     1
 40
0.0
176
     1
 40
1.0
176
     1
 90
        0
176
     1
 62
    18
420
        0
176
     1
 90
       50
176
     1
 90
        3
176
     1
 62
     5
420
      255
176
     1
290
     0
176
     1
 90
       50
176
     1
 90
       50
176
     1
 90
       50
176
     1
290
     0
176
     1
 90
       50
176
     1
 62
   256
176
     0
 40
1.0
176
     0
 90
        2
176
     1
  1
strokes_ogs.tif
176
     1
290
     0
176
     1
 40
1.0
176
     1
 40
1.0
176
     1
  0
VISUALSTYLE
  5
32
102
{ACAD_REACTORS
330
2A
102
}
330
2A
100
AcDbVisualStyle
  2
Basic
 70
     7
177
     3
291
     1
 70
    58
 90
        1
176
     1
 90
        0
176
     1
 90
        1
176
     1
 90
        0
176
     1
 40
0.6
176
     1
 40
30.0
176
     1
 62
     7
420
 16777215
176
     1
 90
        0
176
     1
 90
        4
176
     1
 62
     7
176
     1
 62
   257
176
     1
 90
        1
176
     1
 90
        1
176
     1
 40
1.0
176
     1
 90
        8
176
     1
 62
     7
176
     1
 40
1.0
176
     1
 90
        1
176
     1
 90
        6
176
     1
 90
        2
176
     1
 62
     7
176
     1
 90
        5
176
     1
 90
        0
176
     1
 90
        0
176
     1
290
     0
176
     1
 90
        1
176
     1
 40
0.0
176
     1
 90
        0
176
     1
290
     0
176
     1
290
     1
176
     1
290
     1
176
     1
290
     0
176
     1
290
     0
176
     1
290
     0
176
     1
290
     0
176
     1
290
     0
176
     1
290
     0
176
     1
 90
       50
176
     1
 40
0.0
176
     1
 40
1.0
176
     1
 90
        0
176
     1
 62
    18
420
        0
176
     1
 90
       50
176
     1
 90
        3
176
     1
 62
     5
420
      255
176
     1
290
     0
176
     1
 90
       50
176
     1
 90
       50
176
     1
 90
       50
176
     1
290
     0
176
     1
 90
       50
176
     1
 62
   256
176
     0
 40
1.0
176
     0
 90
        2
176
     1
  1
strokes_ogs.tif
176
     1
290
     0
176
     1
 40
1.0
176
     1
 40
1.0
176
     1
  0
VISUALSTYLE
  5
36
102
{ACAD_REACTORS
330
2A
102
}
330
2A
100
AcDbVisualStyle
  2
Brighten
 70
    12
177
     3
291
     1
 70
    58
 90
        2
176
     1
 90
        2
176
     1
 90
        0
176
     1
 90
        0
176
     1
 40
0.6
176
     1
 40
30.0
176
     1
 62
     7
420
 16777215
176
     1
 90
        1
176
     1
 90
        4
176
     1
 62
     7
176
     1
 62
   257
176
     1
 90
        1
176
     1
 90
        1
176
     1
 40
1.0
176
     1
 90
        8
176
     1
 62
     7
176
     1
 40
1.0
176
     1
 90
        1
176
     1
 90
        6
176
     1
 90
        2
176
     1
 62
     7
176
     1
 90
        5
176
     1
 90
        0
176
     1
 90
        0
176
     1
290
     0
176
     1
 90
        1
176
     1
 40
50.0
176
     1
 90
        0
176
     1
290
     0
176
     1
290
     1
176
     1
290
     1
176
     1
290
     0
176
     1
290
     0
176
     1
290
     0
176
     1
290
     0
176
     1
290
     0
176
     1
290
     0
176
     1
 90
       50
176
     1
 40
0.0
176
     1
 40
1.0
176
     1
 90
        0
176
     1
 62
    18
420
        0
176
     1
 90
       50
176
     1
 90
        3
176
     1
 62
     5
420
      255
176
     1
290
     0
176
     1
 90
       50
176
     1
 90
       50
176
     1
 90
       50
176
     1
290
     0
176
     1
 90
       50
176
     1
 62
   256
176
     0
 40
1.0
176
     0
 90
        2
176
     1
  1
strokes_ogs.tif
176
     1
290
     0
176
     1
 40
1.0
176
     1
 40
1.0
176
     1
  0
VISUALSTYLE
  5
3A
102
{ACAD_REACTORS
330
2A
102
}
330
2A
100
AcDbVisualStyle
  2
ColorChange
 70
    16
177
     3
291
     1
 70
    58
 90
        2
176
     1
 90
        2
176
     1
 90
        3
176
     1
 90
        0
176
     1
 40
0.6
176
     1
 40
30.0
176
     1
 62
     8
420
  8421504
176
     1
 90
        1
176
     1
 90
        4
176
     1
 62
     7
176
     1
 62
   257
176
     1
 90
        1
176
     1
 90
        1
176
     1
 40
1.0
176
     1
 90
        8
176
     1
 62
     8
420
  8421504
176
     1
 40
1.0
176
     1
 90
        1
176
     1
 90
        6
176
     1
 90
        2
176
     1
 62
     7
176
     1
 90
        5
176
     1
 90
        0
176
     1
 90
        0
176
     1
290
     0
176
     1
 90
        1
176
     1
 40
0.0
176
     1
 90
        0
176
     1
290
     0
176
     1
290
     1
176
     1
290
     1
176
     1
290
     0
176
     1
290
     0
176
     1
290
     0
176
     1
290
     0
176
     1
290
     0
176
     1
290
     0
176
     1
 90
       50
176
     1
 40
0.0
176
     1
 40
1.0
176
     1
 90
        0
176
     1
 62
    18
420
        0
176
     1
 90
       50
176
     1
 90
        3
176
     1
 62
     5
420
      255
176
     1
290
     0
176
     1
 90
       50
176
     1
 90
       50
176
     1
 90
       50
176
     1
290
     0
176
     1
 90
       50
176
     1
 62
   256
176
     0
 40
1.0
176
     0
 90
        2
176
     1
  1
strokes_ogs.tif
176
     1
290
     0
176
     1
 40
1.0
176
     1
 40
1.0
176
     1
  0
VISUALSTYLE
  5
34
102
{ACAD_REACTORS
330
2A
102
}
330
2A
100
AcDbVisualStyle
  2
Conceptual
 70
     9
177
     3
291
     0
 70
    58
 90
        3
176
     1
 90
        2
176
     1
 90
        0
176
     1
 90
        0
176
     1
 40
0.6
176
     1
 40
30.0
176
     1
 62
     7
420
 16777215
176
     1
 90
        2
176
     1
 90
        2
176
     1
 62
     7
176
     1
 62
   257
176
     1
 90
        1
176
     1
 90
        1
176
     1
 40
179.0
176
     1
 90
        8
176
     1
 62
     7
176
     1
 40
1.0
176
     1
 90
        1
176
     1
 90
        6
176
     1
 90
        2
176
     1
 62
     7
176
     1
 90
        3
176
     1
 90
        0
176
     1
 90
        0
176
     1
290
     0
176
     1
 90
        1
176
     1
 40
0.0
176
     1
 90
        0
176
     1
290
     0
176
     1
290
     1
176
     1
290
     1
176
     1
290
     0
176
     1
290
     0
176
     1
290
     0
176
     1
290
     0
176
     1
290
     0
176
     1
290
     0
176
     1
 90
       50
176
     1
 40
0.0
176
     1
 40
1.0
176
     1
 90
        0
176
     1
 62
    18
420
        0
176
     1
 90
       50
176
     1
 90
        3
176
     1
 62
     5
420
      255
176
     1
290
     0
176
     1
 90
       50
176
     1
 90
       50
176
     1
 90
       50
176
     1
290
     0
176
     1
 90
       50
176
     1
 62
   256
176
     0
 40
1.0
176
     0
 90
        2
176
     1
  1
strokes_ogs.tif
176
     1
290
     0
176
     1
 40
1.0
176
     1
 40
1.0
176
     1
  0
VISUALSTYLE
  5
35
102
{ACAD_REACTORS
330
2A
102
}
330
2A
100
AcDbVisualStyle
  2
Dim
 70
    11
177
     3
291
     1
 70
    58
 90
        2
176
     1
 90
        2
176
     1
 90
        0
176
     1
 90
        0
176
     1
 40
0.6
176
     1
 40
30.0
176
     1
 62
     7
420
 16777215
176
     1
 90
        1
176
     1
 90
        4
176
     1
 62
     7
176
     1
 62
   257
176
     1
 90
        1
176
     1
 90
        1
176
     1
 40
1.0
176
     1
 90
        8
176
     1
 62
     7
176
     1
 40
1.0
176
     1
 90
        1
176
     1
 90
        6
176
     1
 90
        2
176
     1
 62
     7
176
     1
 90
        5
176
     1
 90
        0
176
     1
 90
        0
176
     1
290
     0
176
     1
 90
        1
176
     1
 40
-50.0
176
     1
 90
        0
176
     1
290
     0
176
     1
290
     1
176
     1
290
     1
176
     1
290
     0
176
     1
290
     0
176
     1
290
     0
176
     1
290
     0
176
     1
290
     0
176
     1
290
     0
176
     1
 90
       50
176
     1
 40
0.0
176
     1
 40
1.0
176
     1
 90
        0
176
     1
 62
    18
420
        0
176
     1
 90
       50
176
     1
 90
        3
176
     1
 62
     5
420
      255
176
     1
290
     0
176
     1
 90
       50
176
     1
 90
       50
176
     1
 90
       50
176
     1
290
     0
176
     1
 90
       50
176
     1
 62
   256
176
     0
 40
1.0
176
     0
 90
        2
176
     1
  1
strokes_ogs.tif
176
     1
290
     0
176
     1
 40
1.0
176
     1
 40
1.0
176
     1
  0
VISUALSTYLE
  5
3D
102
{ACAD_REACTORS
330
2A
102
}
330
2A
100
AcDbVisualStyle
  2
EdgeColorOff
 70
    22
177
     3
291
     1
 70
    58
 90
        2
176
     0
 90
        2
176
     0
 90
        0
176
     0
 90
        0
176
     0
 40
0.6
176
     0
 40
30.0
176
     0
 62
     7
420
 16777215
176
     0
 90
        1
176
     0
 90
        4
176
     0
 62
     7
176
     0
 62
   257
176
     0
 90
        1
176
     0
 90
        1
176
     0
 40
1.0
176
     0
 90
        8
176
     2
 62
     7
176
     0
 40
1.0
176
     0
 90
        1
176
     0
 90
        6
176
     0
 90
        2
176
     0
 62
     7
176
     0
 90
        5
176
     0
 90
        0
176
     0
 90
        0
176
     0
290
     0
176
     0
 90
        1
176
     0
 40
0.0
176
     0
 90
        0
176
     0
290
     0
176
     0
290
     1
176
     0
290
     1
176
     0
290
     0
176
     0
290
     0
176
     0
290
     0
176
     0
290
     0
176
     0
290
     0
176
     0
290
     0
176
     0
 90
       50
176
     0
 40
0.0
176
     0
 40
1.0
176
     0
 90
        0
176
     0
 62
    18
420
        0
176
     0
 90
       50
176
     0
 90
        3
176
     0
 62
     5
420
      255
176
     0
290
     0
176
     0
 90
       50
176
     0
 90
       50
176
     0
 90
       50
176
     0
290
     0
176
     0
 90
       50
176
     0
 62
   256
176
     0
 40
1.0
176
     0
 90
        2
176
     0
  1
strokes_ogs.tif
176
     0
290
     0
176
     0
 40
1.0
176
     0
 40
1.0
176
     0
  0
VISUALSTYLE
  5
39
102
{ACAD_REACTORS
330
2A
102
}
330
2A
100
AcDbVisualStyle
  2
Facepattern
 70
    15
177
     3
291
     1
 70
    58
 90
        2
176
     1
 90
        2
176
     1
 90
        0
176
     1
 90
        0
176
     1
 40
0.6
176
     1
 40
30.0
176
     1
 62
     7
420
 16777215
176
     1
 90
        1
176
     1
 90
        4
176
     1
 62
     7
176
     1
 62
   257
176
     1
 90
        1
176
     1
 90
        1
176
     1
 40
1.0
176
     1
 90
        8
176
     1
 62
     7
176
     1
 40
1.0
176
     1
 90
        1
176
     1
 90
        6
176
     1
 90
        2
176
     1
 62
     7
176
     1
 90
        5
176
     1
 90
        0
176
     1
 90
        0
176
     1
290
     0
176
     1
 90
        1
176
     1
 40
0.0
176
     1
 90
        0
176
     1
290
     0
176
     1
290
     1
176
     1
290
     1
176
     1
290
     0
176
     1
290
     0
176
     1
290
     0
176
     1
290
     0
176
     1
290
     0
176
     1
290
     0
176
     1
 90
       50
176
     1
 40
0.0
176
     1
 40
1.0
176
     1
 90
        0
176
     1
 62
    18
420
        0
176
     1
 90
       50
176
     1
 90
        3
176
     1
 62
     5
420
      255
176
     1
290
     0
176
     1
 90
       50
176
     1
 90
       50
176
     1
 90
       50
176
     1
290
     0
176
     1
 90
       50
176
     1
 62
   256
176
     0
 40
1.0
176
     0
 90
        2
176
     1
  1
strokes_ogs.tif
176
     1
290
     0
176
     1
 40
1.0
176
     1
 40
1.0
176
     1
  0
VISUALSTYLE
  5
2B
102
{ACAD_REACTORS
330
2A
102
}
330
2A
100
AcDbVisualStyle
  2
Flat
 70
     0
177
     3
291
     1
 70
    58
 90
        2
176
     1
 90
        1
176
     1
 90
        1
176
     1
 90
        2
176
     1
 40
0.6
176
     1
 40
30.0
176
     1
 62
     7
420
 16777215
176
     1
 90
        0
176
     1
 90
        0
176
     1
 62
     7
176
     1
 62
   257
176
     1
 90
        1
176
     1
 90
        1
176
     1
 40
1.0
176
     1
 90
        8
176
     1
 62
     7
176
     1
 40
1.0
176
     1
 90
        1
176
     1
 90
        6
176
     1
 90
        2
176
     1
 62
     7
176
     1
 90
        5
176
     1
 90
        0
176
     1
 90
        0
176
     1
290
     0
176
     1
 90
       13
176
     1
 40
0.0
176
     1
 90
        0
176
     1
290
     0
176
     1
290
     1
176
     1
290
     1
176
     1
290
     0
176
     1
290
     0
176
     1
290
     0
176
     1
290
     0
176
     1
290
     0
176
     1
290
     0
176
     1
 90
       50
176
     1
 40
0.0
176
     1
 40
1.0
176
     1
 90
        0
176
     1
 62
    18
420
        0
176
     1
 90
       50
176
     1
 90
        3
176
     1
 62
     5
420
      255
176
     1
290
     0
176
     1
 90
       50
176
     1
 90
       50
176
     1
 90
       50
176
     1
290
     0
176
     1
 90
       50
176
     1
 62
   256
176
     0
 40
1.0
176
     0
 90
        2
176
     1
  1
strokes_ogs.tif
176
     1
290
     0
176
     1
 40
1.0
176
     1
 40
1.0
176
     1
  0
VISUALSTYLE
  5
2C
102
{ACAD_REACTORS
330
2A
102
}
330
2A
100
AcDbVisualStyle
  2
FlatWithEdges
 70
     1
177
     3
291
     1
 70
    58
 90
        2
176
     1
 90
        1
176
     1
 90
        1
176
     1
 90
        2
176
     1
 40
0.6
176
     1
 40
30.0
176
     1
 62
     7
420
 16777215
176
     1
 90
        1
176
     1
 90
        0
176
     1
 62
     7
176
     1
 62
   257
176
     1
 90
        1
176
     1
 90
        1
176
     1
 40
1.0
176
     1
 90
        0
176
     1
 62
   257
176
     1
 40
1.0
176
     1
 90
        1
176
     1
 90
        6
176
     1
 90
        2
176
     1
 62
     7
176
     1
 90
        5
176
     1
 90
        0
176
     1
 90
        0
176
     1
290
     0
176
     1
 90
       13
176
     1
 40
0.0
176
     1
 90
        0
176
     1
290
     0
176
     1
290
     1
176
     1
290
     1
176
     1
290
     0
176
     1
290
     0
176
     1
290
     0
176
     1
290
     0
176
     1
290
     0
176
     1
290
     0
176
     1
 90
       50
176
     1
 40
0.0
176
     1
 40
1.0
176
     1
 90
        0
176
     1
 62
    18
420
        0
176
     1
 90
       50
176
     1
 90
        3
176
     1
 62
     5
420
      255
176
     1
290
     0
176
     1
 90
       50
176
     1
 90
       50
176
     1
 90
       50
176
     1
290
     0
176
     1
 90
       50
176
     1
 62
   256
176
     0
 40
1.0
176
     0
 90
        2
176
     1
  1
strokes_ogs.tif
176
     1
290
     0
176
     1
 40
1.0
176
     1
 40
1.0
176
     1
  0
VISUALSTYLE
  5
2D
102
{ACAD_REACTORS
330
2A
102
}
330
2A
100
AcDbVisualStyle
  2
Gouraud
 70
     2
177
     3
291
     1
 70
    58
 90
        2
176
     1
 90
        2
176
     1
 90
        1
176
     1
 90
        2
176
     1
 40
0.6
176
     1
 40
30.0
176
     1
 62
     7
420
 16777215
176
     1
 90
        0
176
     1
 90
        0
176
     1
 62
     7
176
     1
 62
   257
176
     1
 90
        1
176
     1
 90
        1
176
     1
 40
1.0
176
     1
 90
        0
176
     1
 62
     7
176
     1
 40
1.0
176
     1
 90
        1
176
     1
 90
        6
176
     1
 90
        2
176
     1
 62
     7
176
     1
 90
        5
176
     1
 90
        0
176
     1
 90
        0
176
     1
290
     0
176
     1
 90
       13
176
     1
 40
0.0
176
     1
 90
        0
176
     1
290
     0
176
     1
290
     1
176
     1
290
     1
176
     1
290
     0
176
     1
290
     0
176
     1
290
     0
176
     1
290
     0
176
     1
290
     0
176
     1
290
     0
176
     1
 90
       50
176
     1
 40
0.0
176
     1
 40
1.0
176
     1
 90
        0
176
     1
 62
    18
420
        0
176
     1
 90
       50
176
     1
 90
        3
176
     1
 62
     5
420
      255
176
     1
290
     0
176
     1
 90
       50
176
     1
 90
       50
176
     1
 90
       50
176
     1
290
     0
176
     1
 90
       50
176
     1
 62
   256
176
     0
 40
1.0
176
     0
 90
        2
176
     1
  1
strokes_ogs.tif
176
     1
290
     0
176
     1
 40
1.0
176
     1
 40
1.0
176
     1
  0
VISUALSTYLE
  5
2E
102
{ACAD_REACTORS
330
2A
102
}
330
2A
100
AcDbVisualStyle
  2
GouraudWithEdges
 70
     3
177
     3
291
     1
 70
    58
 90
        2
176
     1
 90
        2
176
     1
 90
        1
176
     1
 90
        2
176
     1
 40
0.6
176
     1
 40
30.0
176
     1
 62
     7
420
 16777215
176
     1
 90
        1
176
     1
 90
        0
176
     1
 62
     7
176
     1
 62
   257
176
     1
 90
        1
176
     1
 90
        1
176
     1
 40
1.0
176
     1
 90
        0
176
     1
 62
   257
176
     1
 40
1.0
176
     1
 90
        1
176
     1
 90
        6
176
     1
 90
        2
176
     1
 62
     7
176
     1
 90
        5
176
     1
 90
        0
176
     1
 90
        0
176
     1
290
     0
176
     1
 90
       13
176
     1
 40
0.0
176
     1
 90
        0
176
     1
290
     0
176
     1
290
     1
176
     1
290
     1
176
     1
290
     0
176
     1
290
     0
176
     1
290
     0
176
     1
290
     0
176
     1
290
     0
176
     1
290
     0
176
     1
 90
       50
176
     1
 40
0.0
176
     1
 40
1.0
176
     1
 90
        0
176
     1
 62
    18
420
        0
176
     1
 90
       50
176
     1
 90
        3
176
     1
 62
     5
420
      255
176
     1
290
     0
176
     1
 90
       50
176
     1
 90
       50
176
     1
 90
       50
176
     1
290
     0
176
     1
 90
       50
176
     1
 62
   256
176
     0
 40
1.0
176
     0
 90
        2
176
     1
  1
strokes_ogs.tif
176
     1
290
     0
176
     1
 40
1.0
176
     1
 40
1.0
176
     1
  0
VISUALSTYLE
  5
31
102
{ACAD_REACTORS
330
2A
102
}
330
2A
100
AcDbVisualStyle
  2
Hidden
 70
     6
177
     3
291
     0
 70
    58
 90
        1
176
     1
 90
        2
176
     1
 90
        2
176
     1
 90
        0
176
     1
 40
0.6
176
     1
 40
30.0
176
     1
 62
     7
420
 16777215
176
     1
 90
        2
176
     1
 90
        2
176
     1
 62
     7
176
     1
 62
   257
176
     1
 90
        2
176
     1
 90
        1
176
     1
 40
40.0
176
     1
 90
        0
176
     1
 62
   257
176
     1
 40
1.0
176
     1
 90
        1
176
     1
 90
        6
176
     1
 90
        2
176
     1
 62
     7
176
     1
 90
        3
176
     1
 90
        0
176
     1
 90
        0
176
     1
290
     0
176
     1
 90
        1
176
     1
 40
0.0
176
     1
 90
        0
176
     1
290
     0
176
     1
290
     1
176
     1
290
     1
176
     1
290
     0
176
     1
290
     0
176
     1
290
     0
176
     1
290
     0
176
     1
290
     0
176
     1
290
     0
176
     1
 90
       50
176
     1
 40
0.0
176
     1
 40
1.0
176
     1
 90
        0
176
     1
 62
    18
420
        0
176
     1
 90
       50
176
     1
 90
        3
176
     1
 62
     5
420
      255
176
     1
290
     0
176
     1
 90
       50
176
     1
 90
       50
176
     1
 90
       50
176
     1
290
     0
176
     1
 90
       50
176
     1
 62
   256
176
     0
 40
1.0
176
     0
 90
        2
176
     1
  1
strokes_ogs.tif
176
     1
290
     0
176
     1
 40
1.0
176
     1
 40
1.0
176
     1
  0
VISUALSTYLE
  5
3B
102
{ACAD_REACTORS
330
2A
102
}
330
2A
100
AcDbVisualStyle
  2
JitterOff
 70
    20
177
     3
291
     1
 70
    58
 90
        2
176
     0
 90
        2
176
     0
 90
        0
176
     0
 90
        0
176
     0
 40
0.6
176
     0
 40
30.0
176
     0
 62
     7
420
 16777215
176
     0
 90
        1
176
     0
 90
        4
176
     0
 62
     7
176
     0
 62
   257
176
     0
 90
        1
176
     0
 90
        1
176
     0
 40
1.0
176
     0
 90
       10
176
     2
 62
     7
176
     0
 40
1.0
176
     0
 90
        1
176
     0
 90
        6
176
     0
 90
        2
176
     0
 62
     7
176
     0
 90
        5
176
     0
 90
        0
176
     0
 90
        0
176
     0
290
     0
176
     0
 90
        1
176
     0
 40
0.0
176
     0
 90
        0
176
     0
290
     0
176
     0
290
     1
176
     0
290
     1
176
     0
290
     0
176
     0
290
     0
176
     0
290
     0
176
     0
290
     0
176
     0
290
     0
176
     0
290
     0
176
     0
 90
       50
176
     0
 40
0.0
176
     0
 40
1.0
176
     0
 90
        0
176
     0
 62
    18
420
        0
176
     0
 90
       50
176
     0
 90
        3
176
     0
 62
     5
420
      255
176
     0
290
     0
176
     0
 90
       50
176
     0
 90
       50
176
     0
 90
       50
176
     0
290
     0
176
     0
 90
       50
176
     0
 62
   256
176
     0
 40
1.0
176
     0
 90
        2
176
     0
  1
strokes_ogs.tif
176
     0
290
     0
176
     0
 40
1.0
176
     0
 40
1.0
176
     0
  0
VISUALSTYLE
  5
38
102
{ACAD_REACTORS
330
2A
102
}
330
2A
100
AcDbVisualStyle
  2
Linepattern
 70
    14
177
     3
291
     1
 70
    58
 90
        2
176
     1
 90
        2
176
     1
 90
        0
176
     1
 90
        0
176
     1
 40
0.6
176
     1
 40
30.0
176
     1
 62
     7
420
 16777215
176
     1
 90
        1
176
     1
 90
        4
176
     1
 62
     7
176
     1
 62
   257
176
     1
 90
        7
176
     1
 90
        7
176
     1
 40
1.0
176
     1
 90
        8
176
     1
 62
     7
176
     1
 40
1.0
176
     1
 90
        1
176
     1
 90
        6
176
     1
 90
        2
176
     1
 62
     7
176
     1
 90
        5
176
     1
 90
        0
176
     1
 90
        0
176
     1
290
     0
176
     1
 90
        1
176
     1
 40
0.0
176
     1
 90
        0
176
     1
290
     0
176
     1
290
     1
176
     1
290
     1
176
     1
290
     0
176
     1
290
     0
176
     1
290
     0
176
     1
290
     0
176
     1
290
     0
176
     1
290
     0
176
     1
 90
       50
176
     1
 40
0.0
176
     1
 40
1.0
176
     1
 90
        0
176
     1
 62
    18
420
        0
176
     1
 90
       50
176
     1
 90
        3
176
     1
 62
     5
420
      255
176
     1
290
     0
176
     1
 90
       50
176
     1
 90
       50
176
     1
 90
       50
176
     1
290
     0
176
     1
 90
       50
176
     1
 62
   256
176
     0
 40
1.0
176
     0
 90
        2
176
     1
  1
strokes_ogs.tif
176
     1
290
     0
176
     1
 40
1.0
176
     1
 40
1.0
176
     1
  0
VISUALSTYLE
  5
3C
102
{ACAD_REACTORS
330
2A
102
}
330
2A
100
AcDbVisualStyle
  2
OverhangOff
 70
    21
177
     3
291
     1
 70
    58
 90
        2
176
     0
 90
        2
176
     0
 90
        0
176
     0
 90
        0
176
     0
 40
0.6
176
     0
 40
30.0
176
     0
 62
     7
420
 16777215
176
     0
 90
        1
176
     0
 90
        4
176
     0
 62
     7
176
     0
 62
   257
176
     0
 90
        1
176
     0
 90
        1
176
     0
 40
1.0
176
     0
 90
        9
176
     2
 62
     7
176
     0
 40
1.0
176
     0
 90
        1
176
     0
 90
        6
176
     0
 90
        2
176
     0
 62
     7
176
     0
 90
        5
176
     0
 90
        0
176
     0
 90
        0
176
     0
290
     0
176
     0
 90
        1
176
     0
 40
0.0
176
     0
 90
        0
176
     0
290
     0
176
     0
290
     1
176
     0
290
     1
176
     0
290
     0
176
     0
290
     0
176
     0
290
     0
176
     0
290
     0
176
     0
290
     0
176
     0
290
     0
176
     0
 90
       50
176
     0
 40
0.0
176
     0
 40
1.0
176
     0
 90
        0
176
     0
 62
    18
420
        0
176
     0
 90
       50
176
     0
 90
        3
176
     0
 62
     5
420
      255
176
     0
290
     0
176
     0
 90
       50
176
     0
 90
       50
176
     0
 90
       50
176
     0
290
     0
176
     0
 90
       50
176
     0
 62
   256
176
     0
 40
1.0
176
     0
 90
        2
176
     0
  1
strokes_ogs.tif
176
     0
290
     0
176
     0
 40
1.0
176
     0
 40
1.0
176
     0
  0
VISUALSTYLE
  5
33
102
{ACAD_REACTORS
330
2A
102
}
330
2A
100
AcDbVisualStyle
  2
Realistic
 70
     8
177
     3
291
     0
 70
    58
 90
        2
176
     1
 90
        3
176
     1
 90
        0
176
     1
 90
        2
176
     1
 40
0.6
176
     1
 40
30.0
176
     1
 62
     7
420
 16777215
176
     1
 90
        0
176
     1
 90
        0
176
     1
 62
     7
176
     1
 62
   257
176
     1
 90
        1
176
     1
 90
        1
176
     1
 40
1.0
176
     1
 90
        8
176
     1
 62
   257
176
     1
 40
1.0
176
     1
 90
        1
176
     1
 90
        6
176
     1
 90
        2
176
     1
 62
     7
176
     1
 90
        3
176
     1
 90
        0
176
     1
 90
        0
176
     1
290
     0
176
     1
 90
       13
176
     1
 40
0.0
176
     1
 90
        0
176
     1
290
     0
176
     1
290
     1
176
     1
290
     1
176
     1
290
     0
176
     1
290
     0
176
     1
290
     0
176
     1
290
     0
176
     1
290
     0
176
     1
290
     0
176
     1
 90
       50
176
     1
 40
0.0
176
     1
 40
1.0
176
     1
 90
        0
176
     1
 62
    18
420
        0
176
     1
 90
       50
176
     1
 90
        3
176
     1
 62
     5
420
      255
176
     1
290
     0
176
     1
 90
       50
176
     1
 90
       50
176
     1
 90
       50
176
     1
290
     0
176
     1
 90
       50
176
     1
 62
   256
176
     0
 40
1.0
176
     0
 90
        2
176
     1
  1
strokes_ogs.tif
176
     1
290
     0
176
     1
 40
1.0
176
     1
 40
1.0
176
     1
  0
VISUALSTYLE
  5
42
102
{ACAD_REACTORS
330
2A
102
}
330
2A
100
AcDbVisualStyle
  2
Shaded
 70
    27
177
     3
291
     0
 70
    58
 90
        2
176
     1
 90
        2
176
     1
 90
        1
176
     1
 90
        2
176
     1
 40
0.6
176
     1
 40
30.0
176
     1
 62
     7
420
 16777215
176
     1
 90
        0
176
     1
 90
        4
176
     1
 62
     7
176
     1
 62
   257
176
     1
 90
        1
176
     1
 90
        1
176
     1
 40
1.0
176
     1
 90
        8
176
     1
 62
   257
176
     1
 40
1.0
176
     1
 90
        1
176
     1
 90
        6
176
     1
 90
        2
176
     1
 62
     8
420
  7895160
176
     1
 90
        3
176
     1
 90
        0
176
     1
 90
        0
176
     1
290
     0
176
     1
 90
        5
176
     1
 40
0.0
176
     1
 90
        0
176
     1
290
     0
176
     1
290
     1
176
     1
290
     1
176
     1
290
     0
176
     1
290
     0
176
     1
290
     0
176
     1
290
     0
176
     1
290
     0
176
     1
290
     0
176
     1
 90
       50
176
     1
 40
0.0
176
     1
 40
1.0
176
     1
 90
        0
176
     1
 62
    18
420
        0
176
     1
 90
       50
176
     1
 90
        3
176
     1
 62
     5
420
      255
176
     1
290
     0
176
     1
 90
       50
176
     1
 90
       50
176
     1
 90
       50
176
     1
290
     0
176
     1
 90
       50
176
     1
 62
   256
176
     0
 40
1.0
176
     0
 90
        2
176
     1
  1
strokes_ogs.tif
176
     1
290
     0
176
     1
 40
1.0
176
     1
 40
1.0
176
     1
  0
VISUALSTYLE
  5
41
102
{ACAD_REACTORS
330
2A
102
}
330
2A
100
AcDbVisualStyle
  2
Shaded with edges
 70
    26
177
     3
291
     0
 70
    58
 90
        2
176
     1
 90
        2
176
     1
 90
        1
176
     1
 90
        2
176
     1
 40
0.6
176
     1
 40
30.0
176
     1
 62
     7
420
 16777215
176
     1
 90
        1
176
     1
 90
       10
176
     1
 62
     7
176
     1
 62
   257
176
     1
 90
        2
176
     1
 90
        1
176
     1
 40
1.0
176
     1
 90
        8
176
     1
 62
   257
176
     1
 40
1.0
176
     1
 90
        1
176
     1
 90
        6
176
     1
 90
        2
176
     1
 62
     7
176
     1
 90
        3
176
     1
 90
        0
176
     1
 90
        0
176
     1
290
     0
176
     1
 90
        5
176
     1
 40
0.0
176
     1
 90
        0
176
     1
290
     0
176
     1
290
     1
176
     1
290
     1
176
     1
290
     0
176
     1
290
     0
176
     1
290
     0
176
     1
290
     0
176
     1
290
     0
176
     1
290
     0
176
     1
 90
       50
176
     1
 40
0.0
176
     1
 40
1.0
176
     1
 90
        0
176
     1
 62
    18
420
        0
176
     1
 90
       50
176
     1
 90
        3
176
     1
 62
     5
420
      255
176
     1
290
     0
176
     1
 90
       50
176
     1
 90
       50
176
     1
 90
       50
176
     1
290
     0
176
     1
 90
       50
176
     1
 62
   256
176
     0
 40
1.0
176
     0
 90
        2
176
     1
  1
strokes_ogs.tif
176
     1
290
     0
176
     1
 40
1.0
176
     1
 40
1.0
176
     1
  0
VISUALSTYLE
  5
3E
102
{ACAD_REACTORS
330
2A
102
}
330
2A
100
AcDbVisualStyle
  2
Shades of Gray
 70
    23
177
     3
291
     0
 70
    58
 90
        2
176
     1
 90
        2
176
     1
 90
        3
176
     1
 90
        0
176
     1
 40
0.6
176
     1
 40
30.0
176
     1
 62
     7
420
 16777215
176
     1
 90
        2
176
     1
 90
        2
176
     1
 62
     7
176
     1
 62
     7
176
     1
 90
        1
176
     1
 90
        1
176
     1
 40
40.0
176
     1
 90
        8
176
     1
 62
     7
176
     1
 40
1.0
176
     1
 90
        1
176
     1
 90
        6
176
     1
 90
        2
176
     1
 62
     7
176
     1
 90
        3
176
     1
 90
        0
176
     1
 90
        0
176
     1
290
     0
176
     1
 90
        1
176
     1
 40
0.0
176
     1
 90
        0
176
     1
290
     0
176
     1
290
     1
176
     1
290
     1
176
     1
290
     0
176
     1
290
     0
176
     1
290
     0
176
     1
290
     0
176
     1
290
     0
176
     1
290
     0
176
     1
 90
       50
176
     1
 40
0.0
176
     1
 40
1.0
176
     1
 90
        0
176
     1
 62
    18
420
        0
176
     1
 90
       50
176
     1
 90
        3
176
     1
 62
     5
420
      255
176
     1
290
     0
176
     1
 90
       50
176
     1
 90
       50
176
     1
 90
       50
176
     1
290
     0
176
     1
 90
       50
176
     1
 62
   256
176
     0
 40
1.0
176
     0
 90
        2
176
     1
  1
strokes_ogs.tif
176
     1
290
     0
176
     1
 40
1.0
176
     1
 40
1.0
176
     1
  0
VISUALSTYLE
  5
3F
102
{ACAD_REACTORS
330
2A
102
}
330
2A
100
AcDbVisualStyle
  2
Sketchy
 70
    24
177
     3
291
     0
 70
    58
 90
        1
176
     1
 90
        2
176
     1
 90
        2
176
     1
 90
        0
176
     1
 40
0.6
176
     1
 40
30.0
176
     1
 62
     7
420
 16777215
176
     1
 90
        2
176
     1
 90
        2
176
     1
 62
     7
176
     1
 62
     7
176
     1
 90
        1
176
     1
 90
        1
176
     1
 40
40.0
176
     1
 90
       11
176
     1
 62
     7
176
     1
 40
1.0
176
     1
 90
        1
176
     1
 90
        6
176
     1
 90
        2
176
     1
 62
     7
176
     1
 90
        6
176
     1
 90
        0
176
     1
 90
        0
176
     1
290
     0
176
     1
 90
        1
176
     1
 40
0.0
176
     1
 90
        0
176
     1
290
     0
176
     1
290
     1
176
     1
290
     1
176
     1
290
     0
176
     1
290
     0
176
     1
290
     0
176
     1
290
     0
176
     1
290
     0
176
     1
290
     0
176
     1
 90
       50
176
     1
 40
0.0
176
     1
 40
1.0
176
     1
 90
        0
176
     1
 62
    18
420
        0
176
     1
 90
       50
176
     1
 90
        3
176
     1
 62
     5
420
      255
176
     1
290
     0
176
     1
 90
       50
176
     1
 90
       50
176
     1
 90
       50
176
     1
290
     0
176
     1
 90
       50
176
     1
 62
   256
176
     0
 40
1.0
176
     0
 90
        2
176
     1
  1
strokes_ogs.tif
176
     1
290
     0
176
     1
 40
1.0
176
     1
 40
1.0
176
     1
  0
VISUALSTYLE
  5
37
102
{ACAD_REACTORS
330
2A
102
}
330
2A
100
AcDbVisualStyle
  2
Thicken
 70
    13
177
     3
291
     1
 70
    58
 90
        2
176
     1
 90
        2
176
     1
 90
        0
176
     1
 90
        0
176
     1
 40
0.6
176
     1
 40
30.0
176
     1
 62
     7
420
 16777215
176
     1
 90
        1
176
     1
 90
        4
176
     1
 62
     7
176
     1
 62
   257
176
     1
 90
        1
176
     1
 90
        1
176
     1
 40
1.0
176
     1
 90
       12
176
     1
 62
     7
176
     1
 40
1.0
176
     1
 90
        1
176
     1
 90
        6
176
     1
 90
        2
176
     1
 62
     7
176
     1
 90
        5
176
     1
 90
        0
176
     1
 90
        0
176
     1
290
     0
176
     1
 90
        1
176
     1
 40
0.0
176
     1
 90
        0
176
     1
290
     0
176
     1
290
     1
176
     1
290
     1
176
     1
290
     0
176
     1
290
     0
176
     1
290
     0
176
     1
290
     0
176
     1
290
     0
176
     1
290
     0
176
     1
 90
       50
176
     1
 40
0.0
176
     1
 40
1.0
176
     1
 90
        0
176
     1
 62
    18
420
        0
176
     1
 90
       50
176
     1
 90
        3
176
     1
 62
     5
420
      255
176
     1
290
     0
176
     1
 90
       50
176
     1
 90
       50
176
     1
 90
       50
176
     1
290
     0
176
     1
 90
       50
176
     1
 62
   256
176
     0
 40
1.0
176
     0
 90
        2
176
     1
  1
strokes_ogs.tif
176
     1
290
     0
176
     1
 40
1.0
176
     1
 40
1.0
176
     1
  0
VISUALSTYLE
  5
30
102
{ACAD_REACTORS
330
2A
102
}
330
2A
100
AcDbVisualStyle
  2
Wireframe
 70
     5
177
     3
291
     0
 70
    58
 90
        0
176
     1
 90
        2
176
     1
 90
        0
176
     1
 90
        0
176
     1
 40
0.6
176
     1
 40
30.0
176
     1
 62
     7
420
 16777215
176
     1
 90
        1
176
     1
 90
        4
176
     1
 62
     7
176
     1
 62
   257
176
     1
 90
        1
176
     1
 90
        1
176
     1
 40
1.0
176
     1
 90
        0
176
     1
 62
   257
176
     1
 40
1.0
176
     1
 90
        1
176
     1
 90
        6
176
     1
 90
        2
176
     1
 62
     7
176
     1
 90
        3
176
     1
 90
        0
176
     1
 90
        0
176
     1
290
     0
176
     1
 90
        1
176
     1
 40
0.0
176
     1
 90
        0
176
     1
290
     0
176
     1
290
     1
176
     1
290
     1
176
     1
290
     0
176
     1
290
     0
176
     1
290
     0
176
     1
290
     0
176
     1
290
     0
176
     1
290
     0
176
     1
 90
       50
176
     1
 40
0.0
176
     1
 40
1.0
176
     1
 90
        0
176
     1
 62
    18
420
        0
176
     1
 90
       50
176
     1
 90
        3
176
     1
 62
     5
420
      255
176
     1
290
     0
176
     1
 90
       50
176
     1
 90
       50
176
     1
 90
       50
176
     1
290
     0
176
     1
 90
       50
176
     1
 62
   256
176
     0
 40
1.0
176
     0
 90
        2
176
     1
  1
strokes_ogs.tif
176
     1
290
     0
176
     1
 40
1.0
176
     1
 40
1.0
176
     1
  0
VISUALSTYLE
  5
40
102
{ACAD_REACTORS
330
2A
102
}
330
2A
100
AcDbVisualStyle
  2
X-Ray
 70
    25
177
     3
291
     0
 70
    58
 90
        2
176
     1
 90
        2
176
     1
 90
        1
176
     1
 90
        1
176
     1
 40
0.5
176
     1
 40
30.0
176
     1
 62
     7
420
 16777215
176
     1
 90
        1
176
     1
 90
        0
176
     1
 62
     7
176
     1
 62
   257
176
     1
 90
        1
176
     1
 90
        1
176
     1
 40
1.0
176
     1
 90
        8
176
     1
 62
     7
176
     1
 40
1.0
176
     1
 90
        1
176
     1
 90
        6
176
     1
 90
        2
176
     1
 62
     7
176
     1
 90
        3
176
     1
 90
        0
176
     1
 90
        0
176
     1
290
     0
176
     1
 90
       13
176
     1
 40
0.0
176
     1
 90
        0
176
     1
290
     0
176
     1
290
     1
176
     1
290
     1
176
     1
290
     0
176
     1
290
     0
176
     1
290
     0
176
     1
290
     0
176
     1
290
     0
176
     1
290
     0
176
     1
 90
       50
176
     1
 40
0.0
176
     1
 40
1.0
176
     1
 90
        0
176
     1
 62
    18
420
        0
176
     1
 90
       50
176
     1
 90
        3
176
     1
 62
     5
420
      255
176
     1
290
     0
176
     1
 90
       50
176
     1
 90
       50
176
     1
 90
       50
176
     1
290
     0
176
     1
 90
       50
176
     1
 62
   256
176
     0
 40
1.0
176
     0
 90
        2
176
     1
  1
strokes_ogs.tif
176
     1
290
     0
176
     1
 40
1.0
176
     1
 40
1.0
176
     1
  0
DICTIONARYVAR
  5
1EA
102
{ACAD_REACTORS
330
1E9
102
}
330
1E9
100
DictionaryVariables
280
     0
  1
1:1
  0
DICTIONARYVAR
  5
1EF
102
{ACAD_REACTORS
330
1E9
102
}
330
1E9
100
DictionaryVariables
280
     0
  1
Standard
  0
DICTIONARYVAR
  5
1EE
102
{ACAD_REACTORS
330
1E9
102
}
330
1E9
100
DictionaryVariables
280
     0
  1
Standard
  0
DICTIONARY
  5
1EB
330
6A
100
AcDbDictionary
280
     1
281
     1
  3
ACAD_ROUNDTRIP_2008_TABLESTYLE_CELLSTYLEMAP
360
1EC
  0
CELLSTYLEMAP
  5
1EC
102
{ACAD_REACTORS
330
1EB
102
}
330
1EB
100
AcDbCellStyleMap
 90
        3
300
CELLSTYLE
  1
TABLEFORMAT_BEGIN
 90
        5
170
     1
 91
        0
 92
    32768
 62
   257
 93
        1
300
CONTENTFORMAT
  1
CONTENTFORMAT_BEGIN
 90
        0
 91
        0
 92
        4
 93
        0
300

 40
0.0
140
1.0
 94
        5
 62
     0
340
11
144
6.0
309
CONTENTFORMAT_END
171
     1
301
MARGIN
  1
CELLMARGIN_BEGIN
 40
1.5
 40
1.5
 40
1.5
 40
1.5
 40
1.5
 40
1.5
309
CELLMARGIN_END
 94
        6
 95
        1
302
GRIDFORMAT
  1
GRIDFORMAT_BEGIN
 90
        0
 91
        1
 62
     0
 92
       -2
340
14
 93
        0
 40
0.045
309
GRIDFORMAT_END
 95
        2
302
GRIDFORMAT
  1
GRIDFORMAT_BEGIN
 90
        0
 91
        1
 62
     0
 92
       -2
340
14
 93
        0
 40
0.045
309
GRIDFORMAT_END
 95
        4
302
GRIDFORMAT
  1
GRIDFORMAT_BEGIN
 90
        0
 91
        1
 62
     0
 92
       -2
340
14
 93
        0
 40
0.045
309
GRIDFORMAT_END
 95
        8
302
GRIDFORMAT
  1
GRIDFORMAT_BEGIN
 90
        0
 91
        1
 62
     0
 92
       -2
340
14
 93
        0
 40
0.045
309
GRIDFORMAT_END
 95
       16
302
GRIDFORMAT
  1
GRIDFORMAT_BEGIN
 90
        0
 91
        1
 62
     0
 92
       -2
340
14
 93
        0
 40
0.045
309
GRIDFORMAT_END
 95
       32
302
GRIDFORMAT
  1
GRIDFORMAT_BEGIN
 90
        0
 91
        1
 62
     0
 92
       -2
340
14
 93
        0
 40
0.045
309
GRIDFORMAT_END
309
TABLEFORMAT_END
  1
CELLSTYLE_BEGIN
 90
        1
 91
        1
300
_TITLE
309
CELLSTYLE_END
300
CELLSTYLE
  1
TABLEFORMAT_BEGIN
 90
        5
170
     1
 91
        0
 92
        0
 62
   257
 93
        1
300
CONTENTFORMAT
  1
CONTENTFORMAT_BEGIN
 90
        0
 91
        0
 92
        4
 93
        0
300

 40
0.0
140
1.0
 94
        5
 62
     0
340
11
144
4.5
309
CONTENTFORMAT_END
171
     1
301
MARGIN
  1
CELLMARGIN_BEGIN
 40
1.5
 40
1.5
 40
1.5
 40
1.5
 40
1.5
 40
1.5
309
CELLMARGIN_END
 94
        6
 95
        1
302
GRIDFORMAT
  1
GRIDFORMAT_BEGIN
 90
        0
 91
        1
 62
     0
 92
       -2
340
14
 93
        0
 40
0.045
309
GRIDFORMAT_END
 95
        2
302
GRIDFORMAT
  1
GRIDFORMAT_BEGIN
 90
        0
 91
        1
 62
     0
 92
       -2
340
14
 93
        0
 40
0.045
309
GRIDFORMAT_END
 95
        4
302
GRIDFORMAT
  1
GRIDFORMAT_BEGIN
 90
        0
 91
        1
 62
     0
 92
       -2
340
14
 93
        0
 40
0.045
309
GRIDFORMAT_END
 95
        8
302
GRIDFORMAT
  1
GRIDFORMAT_BEGIN
 90
        0
 91
        1
 62
     0
 92
       -2
340
14
 93
        0
 40
0.045
309
GRIDFORMAT_END
 95
       16
302
GRIDFORMAT
  1
GRIDFORMAT_BEGIN
 90
        0
 91
        1
 62
     0
 92
       -2
340
14
 93
        0
 40
0.045
309
GRIDFORMAT_END
 95
       32
302
GRIDFORMAT
  1
GRIDFORMAT_BEGIN
 90
        0
 91
        1
 62
     0
 92
       -2
340
14
 93
        0
 40
0.045
309
GRIDFORMAT_END
309
TABLEFORMAT_END
  1
CELLSTYLE_BEGIN
 90
        2
 91
        1
300
_HEADER
309
CELLSTYLE_END
300
CELLSTYLE
  1
TABLEFORMAT_BEGIN
 90
        5
170
     1
 91
        0
 92
        0
 62
   257
 93
        1
300
CONTENTFORMAT
  1
CONTENTFORMAT_BEGIN
 90
        0
 91
        0
 92
        4
 93
        0
300

 40
0.0
140
1.0
 94
        2
 62
     0
340
11
144
4.5
309
CONTENTFORMAT_END
171
     1
301
MARGIN
  1
CELLMARGIN_BEGIN
 40
1.5
 40
1.5
 40
1.5
 40
1.5
 40
1.5
 40
1.5
309
CELLMARGIN_END
 94
        6
 95
        1
302
GRIDFORMAT
  1
GRIDFORMAT_BEGIN
 90
        0
 91
        1
 62
     0
 92
       -2
340
14
 93
        0
 40
0.045
309
GRIDFORMAT_END
 95
        2
302
GRIDFORMAT
  1
GRIDFORMAT_BEGIN
 90
        0
 91
        1
 62
     0
 92
       -2
340
14
 93
        0
 40
0.045
309
GRIDFORMAT_END
 95
        4
302
GRIDFORMAT
  1
GRIDFORMAT_BEGIN
 90
        0
 91
        1
 62
     0
 92
       -2
340
14
 93
        0
 40
0.045
309
GRIDFORMAT_END
 95
        8
302
GRIDFORMAT
  1
GRIDFORMAT_BEGIN
 90
        0
 91
        1
 62
     0
 92
       -2
340
14
 93
        0
 40
0.045
309
GRIDFORMAT_END
 95
       16
302
GRIDFORMAT
  1
GRIDFORMAT_BEGIN
 90
        0
 91
        1
 62
     0
 92
       -2
340
14
 93
        0
 40
0.045
309
GRIDFORMAT_END
 95
       32
302
GRIDFORMAT
  1
GRIDFORMAT_BEGIN
 90
        0
 91
        1
 62
     0
 92
       -2
340
14
 93
        0
 40
0.045
309
GRIDFORMAT_END
309
TABLEFORMAT_END
  1
CELLSTYLE_BEGIN
 90
        3
 91
        2
300
_DATA
309
CELLSTYLE_END
  0
ENDSEC
  0
EOF