0
SECTION
  2
HEADER
  9
$ACADVER
  1
AC1027
  9
$ACADMAINTVER
 70
     8
  9
$DWGCODEPAGE
  3
ANSI_1252
  9
$REQUIREDVERSIONS
160
                 0
  9
$COMMENTS
  1
File was created by Cadenas
  9
$CUSTOMPROPERTYTAG
  1
NN
  9
$CUSTOMPROPERTY
  1
Grip Tight Two-Bolt Pillow Block - Stainless Housing, Corrision Resistant Insert Inch Bore
  9
$CUSTOMPROPERTYTAG
  1
NT
  9
$CUSTOMPROPERTY
  1
GTEZ Normal Duty Stainless Steel Housed Pillow Blocks
  9
$CUSTOMPROPERTYTAG
  1
NB
  9
$CUSTOMPROPERTY
  1
 129260
  9
$CUSTOMPROPERTYTAG
  1
NBSYN
  9
$CUSTOMPROPERTY
  1
 $PN.$LUBE.
  9
$CUSTOMPROPERTYTAG
  1
LINA
  9
$CUSTOMPROPERTY
  1
129260
  9
$CUSTOMPROPERTYTAG
  1
SERIES
  9
$CUSTOMPROPERTY
  1
204
  9
$CUSTOMPROPERTYTAG
  1
SS
  9
$CUSTOMPROPERTY
  1
3/4
  9
$CUSTOMPROPERTYTAG
  1
PN
  9
$CUSTOMPROPERTY
  1
129260
  9
$CUSTOMPROPERTYTAG
  1
DESCRIPTION
  9
$CUSTOMPROPERTY
  1
P2B-GTEZ-012-SHCR
  9
$CUSTOMPROPERTYTAG
  1
A
  9
$CUSTOMPROPERTY
  1
1-15/32
  9
$CUSTOMPROPERTYTAG
  1
B
  9
$CUSTOMPROPERTY
  1
5
  9
$CUSTOMPROPERTYTAG
  1
C
  9
$CUSTOMPROPERTY
  1
1
  9
$CUSTOMPROPERTYTAG
  1
DMIN
  9
$CUSTOMPROPERTY
  1
3-3/8
  9
$CUSTOMPROPERTYTAG
  1
DMAX
  9
$CUSTOMPROPERTY
  1
4-3/16
  9
$CUSTOMPROPERTYTAG
  1
F
  9
$CUSTOMPROPERTY
  1
3/8
  9
$CUSTOMPROPERTYTAG
  1
G
  9
$CUSTOMPROPERTY
  1
27/32
  9
$CUSTOMPROPERTYTAG
  1
H
  9
$CUSTOMPROPERTY
  1
1/2
  9
$CUSTOMPROPERTYTAG
  1
J
  9
$CUSTOMPROPERTY
  1
2-1/2
  9
$CUSTOMPROPERTYTAG
  1
L
  9
$CUSTOMPROPERTY
  1
1-1/2
  9
$CUSTOMPROPERTYTAG
  1
M
  9
$CUSTOMPROPERTY
  1
1-5/16
  9
$CUSTOMPROPERTYTAG
  1
R
  9
$CUSTOMPROPERTY
  1
31/64
  9
$CUSTOMPROPERTYTAG
  1
S
  9
$CUSTOMPROPERTY
  1
63/64
  9
$CUSTOMPROPERTYTAG
  1
Z
  9
$CUSTOMPROPERTY
  1
63/64
  9
$CUSTOMPROPERTYTAG
  1
COMPANY
  9
$CUSTOMPROPERTY
  1
baldor
  9
$INSBASE
 10
0.0
 20
0.0
 30
0.0
  9
$EXTMIN
 10
1.000000000000000E+20
 20
1.000000000000000E+20
 30
1.000000000000000E+20
  9
$EXTMAX
 10
-1.000000000000000E+20
 20
-1.000000000000000E+20
 30
-1.000000000000000E+20
  9
$LIMMIN
 10
0.0
 20
0.0
  9
$LIMMAX
 10
12.0
 20
9.0
  9
$ORTHOMODE
 70
     0
  9
$REGENMODE
 70
     1
  9
$FILLMODE
 70
     1
  9
$QTEXTMODE
 70
     0
  9
$MIRRTEXT
 70
     1
  9
$LTSCALE
 40
1.0
  9
$ATTMODE
 70
     1
  9
$TEXTSIZE
 40
0.2
  9
$TRACEWID
 40
0.05
  9
$TEXTSTYLE
  7
Standard
  9
$CLAYER
  8
0
  9
$CELTYPE
  6
ByLayer
  9
$CECOLOR
 62
   256
  9
$CELTSCALE
 40
1.0
  9
$DISPSILH
 70
     0
  9
$DIMSCALE
 40
1.0
  9
$DIMASZ
 40
0.18
  9
$DIMEXO
 40
0.0625
  9
$DIMDLI
 40
0.38
  9
$DIMRND
 40
0.0
  9
$DIMDLE
 40
0.0
  9
$DIMEXE
 40
0.18
  9
$DIMTP
 40
0.0
  9
$DIMTM
 40
0.0
  9
$DIMTXT
 40
0.18
  9
$DIMCEN
 40
0.09
  9
$DIMTSZ
 40
0.0
  9
$DIMTOL
 70
     0
  9
$DIMLIM
 70
     0
  9
$DIMTIH
 70
     1
  9
$DIMTOH
 70
     1
  9
$DIMSE1
 70
     0
  9
$DIMSE2
 70
     0
  9
$DIMTAD
 70
     0
  9
$DIMZIN
 70
     0
  9
$DIMBLK
  1

  9
$DIMASO
 70
     1
  9
$DIMSHO
 70
     1
  9
$DIMPOST
  1

  9
$DIMAPOST
  1

  9
$DIMALT
 70
     0
  9
$DIMALTD
 70
     2
  9
$DIMALTF
 40
25.4
  9
$DIMLFAC
 40
1.0
  9
$DIMTOFL
 70
     0
  9
$DIMTVP
 40
0.0
  9
$DIMTIX
 70
     0
  9
$DIMSOXD
 70
     0
  9
$DIMSAH
 70
     0
  9
$DIMBLK1
  1

  9
$DIMBLK2
  1

  9
$DIMSTYLE
  2
Standard
  9
$DIMCLRD
 70
     0
  9
$DIMCLRE
 70
     0
  9
$DIMCLRT
 70
     0
  9
$DIMTFAC
 40
1.0
  9
$DIMGAP
 40
0.09
  9
$DIMJUST
 70
     0
  9
$DIMSD1
 70
     0
  9
$DIMSD2
 70
     0
  9
$DIMTOLJ
 70
     1
  9
$DIMTZIN
 70
     0
  9
$DIMALTZ
 70
     0
  9
$DIMALTTZ
 70
     0
  9
$DIMUPT
 70
     0
  9
$DIMDEC
 70
     4
  9
$DIMTDEC
 70
     4
  9
$DIMALTU
 70
     2
  9
$DIMALTTD
 70
     2
  9
$DIMTXSTY
  7
Standard
  9
$DIMAUNIT
 70
     0
  9
$DIMADEC
 70
     0
  9
$DIMALTRND
 40
0.0
  9
$DIMAZIN
 70
     0
  9
$DIMDSEP
 70
    46
  9
$DIMATFIT
 70
     3
  9
$DIMFRAC
 70
     0
  9
$DIMLDRBLK
  1

  9
$DIMLUNIT
 70
     2
  9
$DIMLWD
 70
    -2
  9
$DIMLWE
 70
    -2
  9
$DIMTMOVE
 70
     0
  9
$DIMFXL
 40
1.0
  9
$DIMFXLON
 70
     0
  9
$DIMJOGANG
 40
0.7853981633974483
  9
$DIMTFILL
 70
     0
  9
$DIMTFILLCLR
 70
     0
  9
$DIMARCSYM
 70
     0
  9
$DIMLTYPE
  6

  9
$DIMLTEX1
  6

  9
$DIMLTEX2
  6

  9
$DIMTXTDIRECTION
 70
     0
  9
$LUNITS
 70
     2
  9
$LUPREC
 70
     4
  9
$SKETCHINC
 40
0.1
  9
$FILLETRAD
 40
0.5
  9
$AUNITS
 70
     0
  9
$AUPREC
 70
     0
  9
$MENU
  1
.
  9
$ELEVATION
 40
0.0
  9
$PELEVATION
 40
0.0
  9
$THICKNESS
 40
0.0
  9
$LIMCHECK
 70
     0
  9
$CHAMFERA
 40
0.0
  9
$CHAMFERB
 40
0.0
  9
$CHAMFERC
 40
0.0
  9
$CHAMFERD
 40
0.0
  9
$SKPOLY
 70
     0
  9
$TDCREATE
 40
2458168.992142384
  9
$TDUCREATE
 40
2458168.950475717
  9
$TDUPDATE
 40
2458168.992142558
  9
$TDUUPDATE
 40
2458168.950475891
  9
$TDINDWG
 40
0.0000000116
  9
$TDUSRTIMER
 40
0.0000000116
  9
$USRTIMER
 70
     1
  9
$ANGBASE
 50
0.0
  9
$ANGDIR
 70
     0
  9
$PDMODE
 70
     0
  9
$PDSIZE
 40
0.0
  9
$PLINEWID
 40
0.0
  9
$SPLFRAME
 70
     0
  9
$SPLINETYPE
 70
     6
  9
$SPLINESEGS
 70
     8
  9
$HANDSEED
  5
1EF
  9
$SURFTAB1
 70
     6
  9
$SURFTAB2
 70
     6
  9
$SURFTYPE
 70
     6
  9
$SURFU
 70
     6
  9
$SURFV
 70
     6
  9
$UCSBASE
  2

  9
$UCSNAME
  2

  9
$UCSORG
 10
0.0
 20
0.0
 30
0.0
  9
$UCSXDIR
 10
1.0
 20
0.0
 30
0.0
  9
$UCSYDIR
 10
0.0
 20
1.0
 30
0.0
  9
$UCSORTHOREF
  2

  9
$UCSORTHOVIEW
 70
     0
  9
$UCSORGTOP
 10
0.0
 20
0.0
 30
0.0
  9
$UCSORGBOTTOM
 10
0.0
 20
0.0
 30
0.0
  9
$UCSORGLEFT
 10
0.0
 20
0.0
 30
0.0
  9
$UCSORGRIGHT
 10
0.0
 20
0.0
 30
0.0
  9
$UCSORGFRONT
 10
0.0
 20
0.0
 30
0.0
  9
$UCSORGBACK
 10
0.0
 20
0.0
 30
0.0
  9
$PUCSBASE
  2

  9
$PUCSNAME
  2

  9
$PUCSORG
 10
0.0
 20
0.0
 30
0.0
  9
$PUCSXDIR
 10
1.0
 20
0.0
 30
0.0
  9
$PUCSYDIR
 10
0.0
 20
1.0
 30
0.0
  9
$PUCSORTHOREF
  2

  9
$PUCSORTHOVIEW
 70
     0
  9
$PUCSORGTOP
 10
0.0
 20
0.0
 30
0.0
  9
$PUCSORGBOTTOM
 10
0.0
 20
0.0
 30
0.0
  9
$PUCSORGLEFT
 10
0.0
 20
0.0
 30
0.0
  9
$PUCSORGRIGHT
 10
0.0
 20
0.0
 30
0.0
  9
$PUCSORGFRONT
 10
0.0
 20
0.0
 30
0.0
  9
$PUCSORGBACK
 10
0.0
 20
0.0
 30
0.0
  9
$USERI1
 70
     0
  9
$USERI2
 70
     0
  9
$USERI3
 70
     0
  9
$USERI4
 70
     0
  9
$USERI5
 70
     0
  9
$USERR1
 40
0.0
  9
$USERR2
 40
0.0
  9
$USERR3
 40
0.0
  9
$USERR4
 40
0.0
  9
$USERR5
 40
0.0
  9
$WORLDVIEW
 70
     1
  9
$SHADEDGE
 70
     3
  9
$SHADEDIF
 70
    70
  9
$TILEMODE
 70
     1
  9
$MAXACTVP
 70
    64
  9
$PINSBASE
 10
0.0
 20
0.0
 30
0.0
  9
$PLIMCHECK
 70
     0
  9
$PEXTMIN
 10
1.000000000000000E+20
 20
1.000000000000000E+20
 30
1.000000000000000E+20
  9
$PEXTMAX
 10
-1.000000000000000E+20
 20
-1.000000000000000E+20
 30
-1.000000000000000E+20
  9
$PLIMMIN
 10
0.0
 20
0.0
  9
$PLIMMAX
 10
12.0
 20
9.0
  9
$UNITMODE
 70
     0
  9
$VISRETAIN
 70
     1
  9
$PLINEGEN
 70
     0
  9
$PSLTSCALE
 70
     1
  9
$TREEDEPTH
 70
  3020
  9
$CMLSTYLE
  2
Standard
  9
$CMLJUST
 70
     0
  9
$CMLSCALE
 40
1.0
  9
$PROXYGRAPHICS
 70
     1
  9
$MEASUREMENT
 70
     0
  9
$CELWEIGHT
370
    -1
  9
$ENDCAPS
280
     0
  9
$JOINSTYLE
280
     0
  9
$LWDISPLAY
290
     0
  9
$INSUNITS
 70
     1
  9
$HYPERLINKBASE
  1

  9
$STYLESHEET
  1

  9
$XEDIT
290
     1
  9
$CEPSNTYPE
380
     0
  9
$PSTYLEMODE
290
     1
  9
$FINGERPRINTGUID
  2
{D9897E0B-C0BB-49B2-99AB-4231703CB5EB}
  9
$VERSIONGUID
  2
{FAEB1C32-E019-11D5-929B-00C0DF256EC4}
  9
$EXTNAMES
290
     1
  9
$PSVPSCALE
 40
0.0
  9
$OLESTARTUP
290
     0
  9
$SORTENTS
280
   127
  9
$INDEXCTL
280
     0
  9
$HIDETEXT
280
     1
  9
$XCLIPFRAME
280
     2
  9
$HALOGAP
280
     0
  9
$OBSCOLOR
 70
   257
  9
$OBSLTYPE
280
     0
  9
$INTERSECTIONDISPLAY
280
     0
  9
$INTERSECTIONCOLOR
 70
   257
  9
$DIMASSOC
280
     2
  9
$PROJECTNAME
  1

  9
$CAMERADISPLAY
290
     0
  9
$LENSLENGTH
 40
50.0
  9
$CAMERAHEIGHT
 40
0.0
  9
$STEPSPERSEC
 40
2.0
  9
$STEPSIZE
 40
6.0
  9
$3DDWFPREC
 40
2.0
  9
$PSOLWIDTH
 40
0.25
  9
$PSOLHEIGHT
 40
4.0
  9
$LOFTANG1
 40
1.570796326794897
  9
$LOFTANG2
 40
1.570796326794897
  9
$LOFTMAG1
 40
0.0
  9
$LOFTMAG2
 40
0.0
  9
$LOFTPARAM
 70
     7
  9
$LOFTNORMALS
280
     1
  9
$LATITUDE
 40
37.795
  9
$LONGITUDE
 40
-122.394
  9
$NORTHDIRECTION
 40
0.0
  9
$TIMEZONE
 70
 -8000
  9
$LIGHTGLYPHDISPLAY
280
     1
  9
$TILEMODELIGHTSYNCH
280
     1
  9
$CMATERIAL
347
44
  9
$SOLIDHIST
280
     0
  9
$SHOWHIST
280
     1
  9
$DWFFRAME
280
     2
  9
$DGNFRAME
280
     2
  9
$REALWORLDSCALE
290
     1
  9
$INTERFERECOLOR
 62
   256
  9
$CSHADOW
280
     0
  9
$SHADOWPLANELOCATION
 40
0.0
  0
ENDSEC
  0
SECTION
  2
CLASSES
  0
CLASS
  1
ACDBDICTIONARYWDFLT
  2
AcDbDictionaryWithDefault
  3
ObjectDBX Classes
 90
        0
 91
        4
280
     0
281
     0
  0
CLASS
  1
VISUALSTYLE
  2
AcDbVisualStyle
  3
ObjectDBX Classes
 90
     4095
 91
        4
280
     0
281
     0
  0
CLASS
  1
MATERIAL
  2
AcDbMaterial
  3
ObjectDBX Classes
 90
     1153
 91
        4
280
     0
281
     0
  0
CLASS
  1
SCALE
  2
AcDbScale
  3
ObjectDBX Classes
 90
     1153
 91
        4
280
     0
281
     0
  0
CLASS
  1
TABLESTYLE
  2
AcDbTableStyle
  3
ObjectDBX Classes
 90
     4095
 91
        4
280
     0
281
     0
  0
CLASS
  1
MLEADERSTYLE
  2
AcDbMLeaderStyle
  3
ACDB_MLEADERSTYLE_CLASS
 90
     4095
 91
        4
280
     0
281
     0
  0
CLASS
  1
SUN
  2
AcDbSun
  3
SCENEOE
 90
     1153
 91
        4
280
     0
281
     0
  0
CLASS
  1
DICTIONARYVAR
  2
AcDbDictionaryVar
  3
ObjectDBX Classes
 90
        0
 91
        4
280
     0
281
     0
  0
CLASS
  1
CELLSTYLEMAP
  2
AcDbCellStyleMap
  3
ObjectDBX Classes
 90
     1152
 91
        4
280
     0
281
     0
  0
ENDSEC
  0
SECTION
  2
TABLES
  0
TABLE
  2
VPORT
  5
8
330
0
100
AcDbSymbolTable
 70
     1
  0
VPORT
  5
29
330
8
100
AcDbSymbolTableRecord
100
AcDbViewportTableRecord
  2
*Active
 70
     0
 10
0.0
 20
0.0
 11
1.0
 21
1.0
 12
0.0
 22
-0.0629999999999997
 13
0.0
 23
0.0
 14
0.5
 24
0.5
 15
0.5
 25
0.5
 16
0.0
 26
0.0
 36
1.0
 17
0.0
 27
0.0
 37
0.0
 40
2.55
 41
2.0
 42
50.0
 43
0.0
 44
0.0
 50
0.0
 51
0.0
 71
     0
 72
   100
 73
     1
 74
     3
 75
     0
 76
     0
 77
     0
 78
     0
281
     0
 65
     1
110
0.0
120
0.0
130
0.0
111
1.0
121
0.0
131
0.0
112
0.0
122
1.0
132
0.0
 79
     0
146
0.0
348
2F
 60
     3
 61
     5
292
     1
282
     1
141
0.0
142
0.0
 63
   250
361
6D
  0
ENDTAB
  0
TABLE
  2
LTYPE
  5
5
330
0
100
AcDbSymbolTable
 70
     3
  0
LTYPE
  5
14
330
5
100
AcDbSymbolTableRecord
100
AcDbLinetypeTableRecord
  2
ByBlock
 70
     0
  3

 72
    65
 73
     0
 40
0.0
  0
LTYPE
  5
15
330
5
100
AcDbSymbolTableRecord
100
AcDbLinetypeTableRecord
  2
ByLayer
 70
     0
  3

 72
    65
 73
     0
 40
0.0
  0
LTYPE
  5
16
330
5
100
AcDbSymbolTableRecord
100
AcDbLinetypeTableRecord
  2
Continuous
 70
     0
  3
Solid line
 72
    65
 73
     0
 40
0.0
  0
LTYPE
  5
A1
330
5
100
AcDbSymbolTableRecord
100
AcDbLinetypeTableRecord
  2
Dashed
 70
     0
  3

 72
    65
 73
     2
 40
2.0
 49
1.0
 74
     0
 49
-1.0
 74
     0
  0
LTYPE
  5
A8
330
5
100
AcDbSymbolTableRecord
100
AcDbLinetypeTableRecord
  2
Center
 70
     0
  3

 72
    65
 73
     4
 40
1.5
 49
0.45
 74
     0
 49
-0.5
 74
     0
 49
0.05
 74
     0
 49
-0.5
 74
     0
  0
ENDTAB
  0
TABLE
  2
LAYER
  5
2
330
0
100
AcDbSymbolTable
 70
     7
  0
LAYER
  5
10
330
2
100
AcDbSymbolTableRecord
100
AcDbLayerTableRecord
  2
0
 70
     0
 62
     7
  6
Continuous
370
    -3
390
F
347
46
348
0
  0
LAYER
  5
72
330
2
100
AcDbSymbolTableRecord
100
AcDbLayerTableRecord
  2
AM_6
 70
     0
 62
    -2
  6
Continuous
370
    35
390
F
347
46
348
0
  0
LAYER
  5
A2
330
2
100
AcDbSymbolTableRecord
100
AcDbLayerTableRecord
  2
AM_9
 70
     0
 62
     6
  6
Dashed
370
    25
390
F
347
46
348
0
  0
LAYER
  5
A9
330
2
100
AcDbSymbolTableRecord
100
AcDbLayerTableRecord
  2
AM_7
 70
     0
 62
     7
  6
Center
370
    25
390
F
347
46
348
0
  0
LAYER
  5
AC
330
2
100
AcDbSymbolTableRecord
100
AcDbLayerTableRecord
  2
AM_4
 70
     0
 62
     3
  6
Continuous
370
    25
390
F
347
46
348
0
  0
LAYER
  5
D9
330
2
100
AcDbSymbolTableRecord
100
AcDbLayerTableRecord
  2
AM_5
 70
     0
 62
     3
  6
Continuous
370
    25
390
F
347
46
348
0
  0
LAYER
  5
1E2
330
2
100
AcDbSymbolTableRecord
100
AcDbLayerTableRecord
  2
ConnectionPoints
 70
     0
 62
     7
  6
Continuous
370
    50
390
F
347
46
348
0
  0
ENDTAB
  0
TABLE
  2
STYLE
  5
3
330
0
100
AcDbSymbolTable
 70
     1
  0
STYLE
  5
11
330
3
100
AcDbSymbolTableRecord
100
AcDbTextStyleTableRecord
  2
Standard
 70
     0
 40
0.0
 41
1.0
 50
0.0
 71
     0
 42
0.2
  3
txt
  4

  0
ENDTAB
  0
TABLE
  2
VIEW
  5
6
330
0
100
AcDbSymbolTable
 70
     0
  0
ENDTAB
  0
TABLE
  2
UCS
  5
7
330
0
100
AcDbSymbolTable
 70
     0
  0
ENDTAB
  0
TABLE
  2
APPID
  5
9
330
0
100
AcDbSymbolTable
 70
     1
  0
APPID
  5
12
330
9
100
AcDbSymbolTableRecord
100
AcDbRegAppTableRecord
  2
ACAD
 70
     0
  0
ENDTAB
  0
TABLE
  2
DIMSTYLE
  5
A
330
0
100
AcDbSymbolTable
 70
     1
100
AcDbDimStyleTable
  0
DIMSTYLE
105
27
330
A
100
AcDbSymbolTableRecord
100
AcDbDimStyleTableRecord
  2
Standard
 70
     0
178
     0
340
11
  0
ENDTAB
  0
TABLE
  2
BLOCK_RECORD
  5
1
330
0
100
AcDbSymbolTable
 70
     5
  0
BLOCK_RECORD
  5
1F
330
1
100
AcDbSymbolTableRecord
100
AcDbBlockTableRecord
  2
*Model_Space
340
22
 70
     0
280
     1
281
     0
  0
BLOCK_RECORD
  5
1B
330
1
100
AcDbSymbolTableRecord
100
AcDbBlockTableRecord
  2
*Paper_Space
340
1E
 70
     0
280
     1
281
     0
  0
BLOCK_RECORD
  5
23
330
1
100
AcDbSymbolTableRecord
100
AcDbBlockTableRecord
  2
*Paper_Space0
340
26
 70
     0
280
     1
281
     0
  0
BLOCK_RECORD
  5
6E
330
1
100
AcDbSymbolTableRecord
100
AcDbBlockTableRecord
  2
1__129260_0
340
0
102
{BLKREFS
331
6F
102
}
 70
     0
280
     1
281
     0
  0
BLOCK_RECORD
  5
8B
330
1
100
AcDbSymbolTableRecord
100
AcDbBlockTableRecord
  2
2_INS_GT_04_CRI_0_in__129260_0
340
0
102
{BLKREFS
331
8C
102
}
 70
     0
280
     1
281
     0
  0
BLOCK_RECORD
  5
B3
330
1
100
AcDbSymbolTableRecord
100
AcDbBlockTableRecord
  2
3_129967_0_in__129260_0
340
0
102
{BLKREFS
331
B4
102
}
 70
     0
280
     1
281
     0
  0
BLOCK_RECORD
  5
EF
330
1
100
AcDbSymbolTableRecord
100
AcDbBlockTableRecord
  2
4_P2B_GTEZ_04_SHCRI_0_in__129260_0
340
0
102
{BLKREFS
331
F0
102
}
 70
     0
280
     1
281
     0
  0
ENDTAB
  0
ENDSEC
  0
SECTION
  2
BLOCKS
  0
BLOCK
  5
20
330
1F
100
AcDbEntity
  8
0
100
AcDbBlockBegin
  2
*Model_Space
 70
     0
 10
0.0
 20
0.0
 30
0.0
  3
*Model_Space
  1

  0
ENDBLK
  5
21
330
1F
100
AcDbEntity
  8
0
100
AcDbBlockEnd
  0
BLOCK
  5
1C
330
1B
100
AcDbEntity
 67
     1
  8
0
100
AcDbBlockBegin
  2
*Paper_Space
 70
     0
 10
0.0
 20
0.0
 30
0.0
  3
*Paper_Space
  1

  0
ENDBLK
  5
1D
330
1B
100
AcDbEntity
 67
     1
  8
0
100
AcDbBlockEnd
  0
BLOCK
  5
24
330
23
100
AcDbEntity
  8
0
100
AcDbBlockBegin
  2
*Paper_Space0
 70
     0
 10
0.0
 20
0.0
 30
0.0
  3
*Paper_Space0
  1

  0
ENDBLK
  5
25
330
23
100
AcDbEntity
  8
0
100
AcDbBlockEnd
  0
BLOCK
  5
70
330
6E
100
AcDbEntity
  8
0
100
AcDbBlockBegin
  2
1__129260_0
 70
     2
 10
0.0
 20
0.0
 30
0.0
  3
1__129260_0
  1

  0
ATTDEF
  5
73
330
6E
100
AcDbEntity
  8
AM_6
100
AcDbText
 10
7.5
 20
1.187
 30
0.0
 40
0.5
  1
Grip Tight Two-Bolt Pillow Block - Stainless Housing, Corrision Resistant Insert Inch Bore
100
AcDbAttributeDefinition
  3

  2
NN
 70
     8
280
     0
  0
ATTDEF
  5
74
330
6E
100
AcDbEntity
  8
AM_6
100
AcDbText
 10
7.5
 20
0.6870000000000003
 30
0.0
 40
0.5
  1
GTEZ Normal Duty Stainless Steel Housed Pillow Blocks
100
AcDbAttributeDefinition
  3

  2
NT
 70
     8
280
     0
  0
ATTDEF
  5
75
330
6E
100
AcDbEntity
  8
AM_6
100
AcDbText
 10
7.5
 20
0.1870000000000003
 30
0.0
 40
0.5
  1
 129260
100
AcDbAttributeDefinition
  3

  2
NB
 70
     8
280
     0
  0
ATTDEF
  5
76
330
6E
100
AcDbEntity
  8
AM_6
100
AcDbText
 10
7.5
 20
-0.3129999999999997
 30
0.0
 40
0.5
  1
 $PN.$LUBE.
100
AcDbAttributeDefinition
  3

  2
NBSYN
 70
     8
280
     0
  0
ATTDEF
  5
77
330
6E
100
AcDbEntity
  8
AM_6
100
AcDbText
 10
7.5
 20
-0.8129999999999997
 30
0.0
 40
0.5
  1
129260
100
AcDbAttributeDefinition
  3

  2
LINA
 70
     8
280
     0
  0
ATTDEF
  5
78
330
6E
100
AcDbEntity
  8
AM_6
100
AcDbText
 10
7.5
 20
-1.313
 30
0.0
 40
0.5
  1
204
100
AcDbAttributeDefinition
  3

  2
SERIES
 70
     8
280
     0
  0
ATTDEF
  5
79
330
6E
100
AcDbEntity
  8
AM_6
100
AcDbText
 10
7.5
 20
-1.813
 30
0.0
 40
0.5
  1
3/4
100
AcDbAttributeDefinition
  3

  2
SS
 70
     8
280
     0
  0
ATTDEF
  5
7A
330
6E
100
AcDbEntity
  8
AM_6
100
AcDbText
 10
7.5
 20
-2.313
 30
0.0
 40
0.5
  1
129260
100
AcDbAttributeDefinition
  3

  2
PN
 70
     8
280
     0
  0
ATTDEF
  5
7B
330
6E
100
AcDbEntity
  8
AM_6
100
AcDbText
 10
7.5
 20
-2.813
 30
0.0
 40
0.5
  1
P2B-GTEZ-012-SHCR
100
AcDbAttributeDefinition
  3

  2
DESCRIPTION
 70
     8
280
     0
  0
ATTDEF
  5
7C
330
6E
100
AcDbEntity
  8
AM_6
100
AcDbText
 10
7.5
 20
-3.313
 30
0.0
 40
0.5
  1
1-15/32
100
AcDbAttributeDefinition
  3

  2
A
 70
     8
280
     0
  0
ATTDEF
  5
7D
330
6E
100
AcDbEntity
  8
AM_6
100
AcDbText
 10
7.5
 20
-3.813
 30
0.0
 40
0.5
  1
5
100
AcDbAttributeDefinition
  3

  2
B
 70
     8
280
     0
  0
ATTDEF
  5
7E
330
6E
100
AcDbEntity
  8
AM_6
100
AcDbText
 10
7.5
 20
-4.313
 30
0.0
 40
0.5
  1
1
100
AcDbAttributeDefinition
  3

  2
C
 70
     8
280
     0
  0
ATTDEF
  5
7F
330
6E
100
AcDbEntity
  8
AM_6
100
AcDbText
 10
7.5
 20
-4.813
 30
0.0
 40
0.5
  1
3-3/8
100
AcDbAttributeDefinition
  3

  2
DMIN
 70
     8
280
     0
  0
ATTDEF
  5
80
330
6E
100
AcDbEntity
  8
AM_6
100
AcDbText
 10
7.5
 20
-5.313
 30
0.0
 40
0.5
  1
4-3/16
100
AcDbAttributeDefinition
  3

  2
DMAX
 70
     8
280
     0
  0
ATTDEF
  5
81
330
6E
100
AcDbEntity
  8
AM_6
100
AcDbText
 10
7.5
 20
-5.813
 30
0.0
 40
0.5
  1
3/8
100
AcDbAttributeDefinition
  3

  2
F
 70
     8
280
     0
  0
ATTDEF
  5
82
330
6E
100
AcDbEntity
  8
AM_6
100
AcDbText
 10
7.5
 20
-6.313
 30
0.0
 40
0.5
  1
27/32
100
AcDbAttributeDefinition
  3

  2
G
 70
     8
280
     0
  0
ATTDEF
  5
83
330
6E
100
AcDbEntity
  8
AM_6
100
AcDbText
 10
7.5
 20
-6.813
 30
0.0
 40
0.5
  1
1/2
100
AcDbAttributeDefinition
  3

  2
H
 70
     8
280
     0
  0
ATTDEF
  5
84
330
6E
100
AcDbEntity
  8
AM_6
100
AcDbText
 10
7.5
 20
-7.313
 30
0.0
 40
0.5
  1
2-1/2
100
AcDbAttributeDefinition
  3

  2
J
 70
     8
280
     0
  0
ATTDEF
  5
85
330
6E
100
AcDbEntity
  8
AM_6
100
AcDbText
 10
7.5
 20
-7.813
 30
0.0
 40
0.5
  1
1-1/2
100
AcDbAttributeDefinition
  3

  2
L
 70
     8
280
     0
  0
ATTDEF
  5
86
330
6E
100
AcDbEntity
  8
AM_6
100
AcDbText
 10
7.5
 20
-8.312999999999999
 30
0.0
 40
0.5
  1
1-5/16
100
AcDbAttributeDefinition
  3

  2
M
 70
     8
280
     0
  0
ATTDEF
  5
87
330
6E
100
AcDbEntity
  8
AM_6
100
AcDbText
 10
7.5
 20
-8.812999999999999
 30
0.0
 40
0.5
  1
31/64
100
AcDbAttributeDefinition
  3

  2
R
 70
     8
280
     0
  0
ATTDEF
  5
88
330
6E
100
AcDbEntity
  8
AM_6
100
AcDbText
 10
7.5
 20
-9.312999999999999
 30
0.0
 40
0.5
  1
63/64
100
AcDbAttributeDefinition
  3

  2
S
 70
     8
280
     0
  0
ATTDEF
  5
89
330
6E
100
AcDbEntity
  8
AM_6
100
AcDbText
 10
7.5
 20
-9.812999999999999
 30
0.0
 40
0.5
  1
63/64
100
AcDbAttributeDefinition
  3

  2
Z
 70
     8
280
     0
  0
ATTDEF
  5
8A
330
6E
100
AcDbEntity
  8
AM_6
100
AcDbText
 10
7.5
 20
-10.313
 30
0.0
 40
0.5
  1
baldor
100
AcDbAttributeDefinition
  3

  2
COMPANY
 70
     8
280
     0
  0
INSERT
  5
8C
330
6E
100
AcDbEntity
  8
0
100
AcDbBlockReference
  2
2_INS_GT_04_CRI_0_in__129260_0
 10
0.0
 20
0.0
 30
0.0
  0
INSERT
  5
B4
330
6E
100
AcDbEntity
  8
0
100
AcDbBlockReference
  2
3_129967_0_in__129260_0
 10
0.0
 20
0.0
 30
0.0
  0
INSERT
  5
F0
330
6E
100
AcDbEntity
  8
0
100
AcDbBlockReference
  2
4_P2B_GTEZ_04_SHCRI_0_in__129260_0
 10
0.0
 20
0.0
 30
0.0
  0
ENDBLK
  5
71
330
6E
100
AcDbEntity
  8
0
100
AcDbBlockEnd
  0
BLOCK
  5
8D
330
8B
100
AcDbEntity
  8
0
100
AcDbBlockBegin
  2
2_INS_GT_04_CRI_0_in__129260_0
 70
     2
 10
0.0
 20
0.0
 30
0.0
  3
2_INS_GT_04_CRI_0_in__129260_0
  1

  0
ATTDEF
  5
8F
330
8B
100
AcDbEntity
  8
AM_6
100
AcDbText
 10
5.962110740956025
 20
0.9621107409560257
 30
0.0
 40
0.5
  1
INS-GT-CR-I
100
AcDbAttributeDefinition
  3

  2
NN
 70
     8
280
     0
  0
ATTDEF
  5
90
330
8B
100
AcDbEntity
  8
AM_6
100
AcDbText
 10
5.962110740956025
 20
0.4621107409560257
 30
0.0
 40
0.5
  1
GT Normal Duty Corrosion Resistant Bearing Inserts
100
AcDbAttributeDefinition
  3

  2
NT
 70
     8
280
     0
  0
ATTDEF
  5
91
330
8B
100
AcDbEntity
  8
AM_6
100
AcDbText
 10
5.962110740956025
 20
-0.0378892590439743
 30
0.0
 40
0.5
  1
INS-GT-04-CRI
100
AcDbAttributeDefinition
  3

  2
NB
 70
     8
280
     0
  0
ATTDEF
  5
92
330
8B
100
AcDbEntity
  8
AM_6
100
AcDbText
 10
5.962110740956025
 20
-0.5378892590439743
 30
0.0
 40
0.5
  1
$PN.I
100
AcDbAttributeDefinition
  3

  2
NBSYN
 70
     8
280
     0
  0
ATTDEF
  5
93
330
8B
100
AcDbEntity
  8
AM_6
100
AcDbText
 10
5.962110740956025
 20
-1.037889259043974
 30
0.0
 40
0.5
  1
INS-GT-04-CR
100
AcDbAttributeDefinition
  3

  2
LINA
 70
     8
280
     0
  0
ATTDEF
  5
94
330
8B
100
AcDbEntity
  8
AM_6
100
AcDbText
 10
5.962110740956025
 20
-1.537889259043974
 30
0.0
 40
0.5
  1
204
100
AcDbAttributeDefinition
  3

  2
SERIES
 70
     8
280
     0
  0
ATTDEF
  5
95
330
8B
100
AcDbEntity
  8
AM_6
100
AcDbText
 10
5.962110740956025
 20
-2.037889259043975
 30
0.0
 40
0.5
  1
INS-GT-04-CR
100
AcDbAttributeDefinition
  3

  2
PN
 70
     8
280
     0
  0
ATTDEF
  5
96
330
8B
100
AcDbEntity
  8
AM_6
100
AcDbText
 10
5.962110740956025
 20
-2.537889259043975
 30
0.0
 40
0.5
  1
INS-GT-04-CR
100
AcDbAttributeDefinition
  3

  2
DESCRIPTION
 70
     8
280
     0
  0
ATTDEF
  5
97
330
8B
100
AcDbEntity
  8
AM_6
100
AcDbText
 10
5.962110740956025
 20
-3.037889259043975
 30
0.0
 40
0.5
  1
1-15/32
100
AcDbAttributeDefinition
  3

  2
A
 70
     8
280
     0
  0
ATTDEF
  5
98
330
8B
100
AcDbEntity
  8
AM_6
100
AcDbText
 10
5.962110740956025
 20
-3.537889259043975
 30
0.0
 40
0.5
  1
0.5906
100
AcDbAttributeDefinition
  3

  2
C
 70
     8
280
     0
  0
ATTDEF
  5
99
330
8B
100
AcDbEntity
  8
AM_6
100
AcDbText
 10
5.962110740956025
 20
-4.037889259043975
 30
0.0
 40
0.5
  1
1.8504
100
AcDbAttributeDefinition
  3

  2
D
 70
     8
280
     0
  0
ATTDEF
  5
9A
330
8B
100
AcDbEntity
  8
AM_6
100
AcDbText
 10
5.962110740956025
 20
-4.537889259043975
 30
0.0
 40
0.5
  1
0.152
100
AcDbAttributeDefinition
  3

  2
J
 70
     8
280
     0
  0
ATTDEF
  5
9B
330
8B
100
AcDbEntity
  8
AM_6
100
AcDbText
 10
5.962110740956025
 20
-5.037889259043975
 30
0.0
 40
0.5
  1
1-1/2
100
AcDbAttributeDefinition
  3

  2
L
 70
     8
280
     0
  0
ATTDEF
  5
9C
330
8B
100
AcDbEntity
  8
AM_6
100
AcDbText
 10
5.962110740956025
 20
-5.537889259043975
 30
0.0
 40
0.5
  1
10 - 32 x 1/4
100
AcDbAttributeDefinition
  3

  2
N
 70
     8
280
     0
  0
ATTDEF
  5
9D
330
8B
100
AcDbEntity
  8
AM_6
100
AcDbText
 10
5.962110740956025
 20
-6.037889259043975
 30
0.0
 40
0.5
  1
31/64
100
AcDbAttributeDefinition
  3

  2
W
 70
     8
280
     0
  0
ATTDEF
  5
9E
330
8B
100
AcDbEntity
  8
AM_6
100
AcDbText
 10
5.962110740956025
 20
-6.537889259043975
 30
0.0
 40
0.5
  1
63/64
100
AcDbAttributeDefinition
  3

  2
X
 70
     8
280
     0
  0
ATTDEF
  5
9F
330
8B
100
AcDbEntity
  8
AM_6
100
AcDbText
 10
5.962110740956025
 20
-7.037889259043975
 30
0.0
 40
0.5
  1
63/64
100
AcDbAttributeDefinition
  3

  2
Y
 70
     8
280
     0
  0
ATTDEF
  5
A0
330
8B
100
AcDbEntity
  8
AM_6
100
AcDbText
 10
5.962110740956025
 20
-7.537889259043975
 30
0.0
 40
0.5
  1
baldor
100
AcDbAttributeDefinition
  3

  2
COMPANY
 70
     8
280
     0
  0
CIRCLE
  5
A3
330
8B
100
AcDbEntity
  8
AM_9
100
AcDbCircle
 10
0.0
 20
0.0
 30
0.0
 40
0.5876376924643872
  0
ARC
  5
A4
330
8B
100
AcDbEntity
  8
AM_9
100
AcDbCircle
 10
0.0
 20
-0.0000000000000002
 30
0.0
 40
0.9251999999999997
100
AcDbArc
 50
205.7486544875434
 51
334.2505044676783
  0
CIRCLE
  5
A5
330
8B
100
AcDbEntity
  8
AM_9
100
AcDbCircle
 10
0.0
 20
0.0
 30
0.0
 40
0.86614
  0
CIRCLE
  5
A6
330
8B
100
AcDbEntity
  8
AM_9
100
AcDbCircle
 10
0.0
 20
0.0
 30
0.0
 40
0.8956563051489678
  0
CIRCLE
  5
A7
330
8B
100
AcDbEntity
  8
AM_9
100
AcDbCircle
 10
0.0
 20
0.0
 30
0.0
 40
0.6430426666666667
  0
LINE
  5
AA
330
8B
100
AcDbEntity
  8
AM_7
100
AcDbLine
 10
-0.9621107409560257
 20
0.0
 30
0.0
 11
0.9621107409560257
 21
0.0
 31
0.0
  0
LINE
  5
AB
330
8B
100
AcDbEntity
  8
AM_7
100
AcDbLine
 10
0.0
 20
-0.9621107409560257
 30
0.0
 11
0.0
 21
0.9621107409560257
 31
0.0
  0
CIRCLE
  5
AD
330
8B
100
AcDbEntity
  8
AM_4
100
AcDbCircle
 10
0.0
 20
0.0
 30
0.0
 40
0.9162959437676435
  0
CIRCLE
  5
AE
330
8B
100
AcDbEntity
  8
AM_4
100
AcDbCircle
 10
0.0
 20
0.0
 30
0.0
 40
0.9104584387533141
  0
CIRCLE
  5
AF
330
8B
100
AcDbEntity
  8
AM_4
100
AcDbCircle
 10
0.0
 20
0.0
 30
0.0
 40
0.9013790672043863
  0
CIRCLE
  5
B0
330
8B
100
AcDbEntity
  8
AM_4
100
AcDbCircle
 10
0.0
 20
0.0
 30
0.0
 40
0.8502116738529749
  0
CIRCLE
  5
B1
330
8B
100
AcDbEntity
  8
AM_4
100
AcDbCircle
 10
0.0
 20
0.0
 30
0.0
 40
0.8722050548843863
  0
ARC
  5
B2
330
8B
100
AcDbEntity
  8
AM_4
100
AcDbCircle
 10
-0.0000000000000001
 20
0.0000000000000036
 30
0.0
 40
0.559523766666663
100
AcDbArc
 50
84.90649351001292
 51
95.12688735586832
  0
ENDBLK
  5
8E
330
8B
100
AcDbEntity
  8
0
100
AcDbBlockEnd
  0
BLOCK
  5
B5
330
B3
100
AcDbEntity
  8
0
100
AcDbBlockBegin
  2
3_129967_0_in__129260_0
 70
     2
 10
0.0
 20
0.0
 30
0.0
  3
3_129967_0_in__129260_0
  1

  0
ATTDEF
  5
B7
330
B3
100
AcDbEntity
  8
AM_6
100
AcDbText
 10
5.746139397163827
 20
0.7499773726724237
 30
0.0
 40
0.5
  1
Grip Tight Adapter and Nut - Corrosion Resistant Inch Bore
100
AcDbAttributeDefinition
  3

  2
NN
 70
     8
280
     0
  0
ATTDEF
  5
B8
330
B3
100
AcDbEntity
  8
AM_6
100
AcDbText
 10
5.746139397163827
 20
0.2499773726724237
 30
0.0
 40
0.5
  1
GT and GTM Adapter & Lock Nut Assemblies
100
AcDbAttributeDefinition
  3

  2
NT
 70
     8
280
     0
  0
ATTDEF
  5
B9
330
B3
100
AcDbEntity
  8
AM_6
100
AcDbText
 10
5.746139397163827
 20
-0.2500226273275763
 30
0.0
 40
0.5
  1
129967
100
AcDbAttributeDefinition
  3

  2
NB
 70
     8
280
     0
  0
ATTDEF
  5
BA
330
B3
100
AcDbEntity
  8
AM_6
100
AcDbText
 10
5.746139397163827
 20
-0.7500226273275763
 30
0.0
 40
0.5
  1
$PN.
100
AcDbAttributeDefinition
  3

  2
NBSYN
 70
     8
280
     0
  0
ATTDEF
  5
BB
330
B3
100
AcDbEntity
  8
AM_6
100
AcDbText
 10
5.746139397163827
 20
-1.250022627327576
 30
0.0
 40
0.5
  1
129967
100
AcDbAttributeDefinition
  3

  2
LINA
 70
     8
280
     0
  0
ATTDEF
  5
BC
330
B3
100
AcDbEntity
  8
AM_6
100
AcDbText
 10
5.746139397163827
 20
-1.750022627327576
 30
0.0
 40
0.5
  1
204
100
AcDbAttributeDefinition
  3

  2
SERIES
 70
     8
280
     0
  0
ATTDEF
  5
BD
330
B3
100
AcDbEntity
  8
AM_6
100
AcDbText
 10
5.746139397163827
 20
-2.250022627327576
 30
0.0
 40
0.5
  1
3/4
100
AcDbAttributeDefinition
  3

  2
SS
 70
     8
280
     0
  0
ATTDEF
  5
BE
330
B3
100
AcDbEntity
  8
AM_6
100
AcDbText
 10
5.746139397163827
 20
-2.750022627327576
 30
0.0
 40
0.5
  1
129967
100
AcDbAttributeDefinition
  3

  2
PN
 70
     8
280
     0
  0
ATTDEF
  5
BF
330
B3
100
AcDbEntity
  8
AM_6
100
AcDbText
 10
5.746139397163827
 20
-3.250022627327576
 30
0.0
 40
0.5
  1
AN-GT-04-012-CR
100
AcDbAttributeDefinition
  3

  2
DESCRIPTION
 70
     8
280
     0
  0
ATTDEF
  5
C0
330
B3
100
AcDbEntity
  8
AM_6
100
AcDbText
 10
5.746139397163827
 20
-3.750022627327576
 30
0.0
 40
0.5
  1
1-15/32
100
AcDbAttributeDefinition
  3

  2
A
 70
     8
280
     0
  0
ATTDEF
  5
C1
330
B3
100
AcDbEntity
  8
AM_6
100
AcDbText
 10
5.746139397163827
 20
-4.250022627327576
 30
0.0
 40
0.5
  1
0.5906
100
AcDbAttributeDefinition
  3

  2
C
 70
     8
280
     0
  0
ATTDEF
  5
C2
330
B3
100
AcDbEntity
  8
AM_6
100
AcDbText
 10
5.746139397163827
 20
-4.750022627327576
 30
0.0
 40
0.5
  1
1.8504
100
AcDbAttributeDefinition
  3

  2
D
 70
     8
280
     0
  0
ATTDEF
  5
C3
330
B3
100
AcDbEntity
  8
AM_6
100
AcDbText
 10
5.746139397163827
 20
-5.250022627327576
 30
0.0
 40
0.5
  1
0.152
100
AcDbAttributeDefinition
  3

  2
J
 70
     8
280
     0
  0
ATTDEF
  5
C4
330
B3
100
AcDbEntity
  8
AM_6
100
AcDbText
 10
5.746139397163827
 20
-5.750022627327576
 30
0.0
 40
0.5
  1
1-1/2
100
AcDbAttributeDefinition
  3

  2
L
 70
     8
280
     0
  0
ATTDEF
  5
C5
330
B3
100
AcDbEntity
  8
AM_6
100
AcDbText
 10
5.746139397163827
 20
-6.250022627327576
 30
0.0
 40
0.5
  1
10 - 32 x 1/4
100
AcDbAttributeDefinition
  3

  2
N
 70
     8
280
     0
  0
ATTDEF
  5
C6
330
B3
100
AcDbEntity
  8
AM_6
100
AcDbText
 10
5.746139397163827
 20
-6.750022627327576
 30
0.0
 40
0.5
  1
31/64
100
AcDbAttributeDefinition
  3

  2
W
 70
     8
280
     0
  0
ATTDEF
  5
C7
330
B3
100
AcDbEntity
  8
AM_6
100
AcDbText
 10
5.746139397163827
 20
-7.250022627327576
 30
0.0
 40
0.5
  1
63/64
100
AcDbAttributeDefinition
  3

  2
X
 70
     8
280
     0
  0
ATTDEF
  5
C8
330
B3
100
AcDbEntity
  8
AM_6
100
AcDbText
 10
5.746139397163827
 20
-7.750022627327576
 30
0.0
 40
0.5
  1
63/64
100
AcDbAttributeDefinition
  3

  2
Y
 70
     8
280
     0
  0
ATTDEF
  5
C9
330
B3
100
AcDbEntity
  8
AM_6
100
AcDbText
 10
5.746139397163827
 20
-8.250022627327576
 30
0.0
 40
0.5
  1
baldor
100
AcDbAttributeDefinition
  3

  2
COMPANY
 70
     8
280
     0
  0
LINE
  5
CA
330
B3
100
AcDbEntity
  8
AM_9
100
AcDbLine
 10
0.05
 20
0.5595494500621679
 30
0.0
 11
0.05
 21
0.5872043456905109
 31
0.0
  0
LINE
  5
CB
330
B3
100
AcDbEntity
  8
AM_9
100
AcDbLine
 10
-0.05
 20
0.5595494500621679
 30
0.0
 11
-0.05
 21
0.5872043456905109
 31
0.0
  0
ARC
  5
CC
330
B3
100
AcDbEntity
  8
AM_9
100
AcDbCircle
 10
0.0
 20
0.0
 30
0.0
 40
0.5893292319220396
100
AcDbArc
 50
94.86695193339413
 51
85.13304806660588
  0
CIRCLE
  5
CD
330
B3
100
AcDbEntity
  8
AM_9
100
AcDbCircle
 10
0.0
 20
0.0
 30
0.0
 40
0.6130952380952381
  0
ARC
  5
CE
330
B3
100
AcDbEntity
  8
AM_9
100
AcDbCircle
 10
0.0
 20
0.0000000000000001
 30
0.0
 40
0.5595238095238098
100
AcDbArc
 50
95.12688735586829
 51
84.8731126441317
  0
CIRCLE
  5
CF
330
B3
100
AcDbEntity
  8
AM_9
100
AcDbCircle
 10
0.0
 20
0.0
 30
0.0
 40
0.6666666666666665
  0
LINE
  5
D0
330
B3
100
AcDbEntity
  8
AM_9
100
AcDbLine
 10
-0.733
 20
-0.078
 30
0.0
 11
-0.5795
 21
-0.078
 31
0.0
  0
LINE
  5
D1
330
B3
100
AcDbEntity
  8
AM_9
100
AcDbLine
 10
-0.5795
 20
0.078
 30
0.0
 11
-0.733
 21
0.078
 31
0.0
  0
LINE
  5
D2
330
B3
100
AcDbEntity
  8
AM_9
100
AcDbLine
 10
-0.5795
 20
-0.078
 30
0.0
 11
-0.5625
 21
-0.0949999999999999
 31
0.0
  0
LINE
  5
D3
330
B3
100
AcDbEntity
  8
AM_9
100
AcDbLine
 10
-0.5625
 20
0.0949999999999999
 30
0.0
 11
-0.5795
 21
0.078
 31
0.0
  0
LINE
  5
D4
330
B3
100
AcDbEntity
  8
AM_9
100
AcDbLine
 10
-0.5625
 20
0.0949999999999999
 30
0.0
 11
-0.5625
 21
-0.0949999999999999
 31
0.0
  0
LINE
  5
D5
330
B3
100
AcDbEntity
  8
AM_9
100
AcDbLine
 10
-0.5795
 20
0.078
 30
0.0
 11
-0.5795
 21
-0.078
 31
0.0
  0
LINE
  5
D6
330
B3
100
AcDbEntity
  8
AM_9
100
AcDbLine
 10
-0.733
 20
0.078
 30
0.0
 11
-0.7444826730804137
 21
0.0894826730804138
 31
0.0
  0
LINE
  5
D7
330
B3
100
AcDbEntity
  8
AM_9
100
AcDbLine
 10
-0.7445071508886847
 20
-0.0895071508886847
 30
0.0
 11
-0.733
 21
-0.078
 31
0.0
  0
LINE
  5
D8
330
B3
100
AcDbEntity
  8
AM_9
100
AcDbLine
 10
-0.733
 20
0.078
 30
0.0
 11
-0.733
 21
-0.078
 31
0.0
  0
LINE
  5
DA
330
B3
100
AcDbEntity
  8
AM_5
100
AcDbLine
 10
-0.7439590042468738
 20
-0.0949999999999999
 30
0.0
 11
-0.5625
 21
-0.0949999999999999
 31
0.0
  0
LINE
  5
DB
330
B3
100
AcDbEntity
  8
AM_5
100
AcDbLine
 10
-0.7439590042468738
 20
0.0950000000000001
 30
0.0
 11
-0.5625
 21
0.0950000000000001
 31
0.0
  0
LINE
  5
DC
330
B3
100
AcDbEntity
  8
AM_4
100
AcDbLine
 10
-0.3072517678942964
 20
-0.6841756727082815
 30
0.0
 11
-0.2841820058122556
 21
-0.6442176726636608
 31
0.0
  0
LINE
  5
DD
330
B3
100
AcDbEntity
  8
AM_4
100
AcDbLine
 10
0.6999998729997459
 20
-0.076
 30
0.0
 11
0.7461393971638274
 21
-0.076
 31
0.0
  0
ARC
  5
DE
330
B3
100
AcDbEntity
  8
AM_4
100
AcDbCircle
 10
-0.0000000000000004
 20
0.0000000000000002
 30
0.0
 40
0.7500000000000001
100
AcDbArc
 50
245.8159549046888
 51
354.1840450953113
  0
LINE
  5
DF
330
B3
100
AcDbEntity
  8
AM_4
100
AcDbLine
 10
-0.2841820058122558
 20
0.6442176726636606
 30
0.0
 11
-0.3072517678942966
 21
0.6841756727082814
 31
0.0
  0
LINE
  5
E0
330
B3
100
AcDbEntity
  8
AM_4
100
AcDbLine
 10
0.7461393971638276
 20
0.076
 30
0.0
 11
0.6999998729997459
 21
0.076
 31
0.0
  0
ARC
  5
E1
330
B3
100
AcDbEntity
  8
AM_4
100
AcDbCircle
 10
-0.0000000000000001
 20
-0.0000000000000002
 30
0.0
 40
0.7500000000000001
100
AcDbArc
 50
5.815954904688717
 51
114.1840450953113
  0
LINE
  5
E2
330
B3
100
AcDbEntity
  8
AM_4
100
AcDbLine
 10
-0.4158178671874901
 20
-0.5682176726636607
 30
0.0
 11
-0.4388876292695311
 21
-0.6081756727082814
 31
0.0
  0
LINE
  5
E3
330
B3
100
AcDbEntity
  8
AM_4
100
AcDbLine
 10
-0.4388876292695315
 20
0.6081756727082812
 30
0.0
 11
-0.4158178671874905
 21
0.5682176726636604
 31
0.0
  0
ARC
  5
E4
330
B3
100
AcDbEntity
  8
AM_4
100
AcDbCircle
 10
0.0000000000000003
 20
0.0000000000000001
 30
0.0
 40
0.7500000000000001
100
AcDbArc
 50
125.8159549046888
 51
234.1840450953113
  0
LINE
  5
E5
330
B3
100
AcDbEntity
  8
AM_4
100
AcDbLine
 10
0.05
 20
0.5595238095238095
 30
0.0
 11
0.05
 21
0.3716517186829625
 31
0.0
  0
ARC
  5
E6
330
B3
100
AcDbEntity
  8
AM_4
100
AcDbCircle
 10
0.0
 20
0.0
 30
0.0
 40
0.3749999999999999
100
AcDbArc
 50
97.66225566076608
 51
82.33774433923394
  0
LINE
  5
E7
330
B3
100
AcDbEntity
  8
AM_4
100
AcDbLine
 10
-0.05
 20
0.5595238095238095
 30
0.0
 11
-0.05
 21
0.3716517186829625
 31
0.0
  0
LINE
  5
E8
330
B3
100
AcDbEntity
  8
AM_4
100
AcDbLine
 10
0.05
 20
0.5595238095238095
 30
0.0
 11
-0.05
 21
0.5595238095238095
 31
0.0
  0
LINE
  5
E9
330
B3
100
AcDbEntity
  8
AM_4
100
AcDbLine
 10
0.6999998729997459
 20
0.076
 30
0.0
 11
0.6999998729997459
 21
-0.076
 31
0.0
  0
ARC
  5
EA
330
B3
100
AcDbEntity
  8
AM_4
100
AcDbCircle
 10
0.0000000000000001
 20
0.0000000000000003
 30
0.0
 40
0.7263759999999998
100
AcDbArc
 50
6.005792526651968
 51
113.9942074733481
  0
LINE
  5
EB
330
B3
100
AcDbEntity
  8
AM_4
100
AcDbLine
 10
-0.4158178671874905
 20
0.5682176726636604
 30
0.0
 11
-0.2841820058122558
 21
0.6442176726636606
 31
0.0
  0
ARC
  5
EC
330
B3
100
AcDbEntity
  8
AM_4
100
AcDbCircle
 10
0.0000000000000002
 20
0.0
 30
0.0
 40
0.7263760000000001
100
AcDbArc
 50
126.005792526652
 51
233.9942074733481
  0
LINE
  5
ED
330
B3
100
AcDbEntity
  8
AM_4
100
AcDbLine
 10
-0.2841820058122556
 20
-0.6442176726636608
 30
0.0
 11
-0.4158178671874901
 21
-0.5682176726636607
 31
0.0
  0
ARC
  5
EE
330
B3
100
AcDbEntity
  8
AM_4
100
AcDbCircle
 10
-0.0000000000000002
 20
0.0
 30
0.0
 40
0.7263759999999999
100
AcDbArc
 50
246.0057925266519
 51
353.9942074733482
  0
ENDBLK
  5
B6
330
B3
100
AcDbEntity
  8
0
100
AcDbBlockEnd
  0
BLOCK
  5
F1
330
EF
100
AcDbEntity
  8
0
100
AcDbBlockBegin
  2
4_P2B_GTEZ_04_SHCRI_0_in__129260_0
 70
     2
 10
0.0
 20
0.0
 30
0.0
  3
4_P2B_GTEZ_04_SHCRI_0_in__129260_0
  1

  0
ATTDEF
  5
F3
330
EF
100
AcDbEntity
  8
AM_6
100
AcDbText
 10
7.5
 20
1.187
 30
0.0
 40
0.5
  1
P2B-GTEZ-SHCR-I
100
AcDbAttributeDefinition
  3

  2
NN
 70
     8
280
     0
  0
ATTDEF
  5
F4
330
EF
100
AcDbEntity
  8
AM_6
100
AcDbText
 10
7.5
 20
0.6870000000000003
 30
0.0
 40
0.5
  1
GTEZ Normal Duty Stainless Steel Housed Pillow Blocks
100
AcDbAttributeDefinition
  3

  2
NT
 70
     8
280
     0
  0
ATTDEF
  5
F5
330
EF
100
AcDbEntity
  8
AM_6
100
AcDbText
 10
7.5
 20
0.1870000000000003
 30
0.0
 40
0.5
  1
P2B-GTEZ-04-SHCRI
100
AcDbAttributeDefinition
  3

  2
NB
 70
     8
280
     0
  0
ATTDEF
  5
F6
330
EF
100
AcDbEntity
  8
AM_6
100
AcDbText
 10
7.5
 20
-0.3129999999999997
 30
0.0
 40
0.5
  1
$PN.$LUBE.I
100
AcDbAttributeDefinition
  3

  2
NBSYN
 70
     8
280
     0
  0
ATTDEF
  5
F7
330
EF
100
AcDbEntity
  8
AM_6
100
AcDbText
 10
7.5
 20
-0.8129999999999997
 30
0.0
 40
0.5
  1
P2B-GTEZ-04-SHCR
100
AcDbAttributeDefinition
  3

  2
LINA
 70
     8
280
     0
  0
ATTDEF
  5
F8
330
EF
100
AcDbEntity
  8
AM_6
100
AcDbText
 10
7.5
 20
-1.313
 30
0.0
 40
0.5
  1
204
100
AcDbAttributeDefinition
  3

  2
SERIES
 70
     8
280
     0
  0
ATTDEF
  5
F9
330
EF
100
AcDbEntity
  8
AM_6
100
AcDbText
 10
7.5
 20
-1.813
 30
0.0
 40
0.5
  1
P2B-GTEZ-04-SHCR
100
AcDbAttributeDefinition
  3

  2
PN
 70
     8
280
     0
  0
ATTDEF
  5
FA
330
EF
100
AcDbEntity
  8
AM_6
100
AcDbText
 10
7.5
 20
-2.313
 30
0.0
 40
0.5
  1
P2B-GTEZ-04-SHCR
100
AcDbAttributeDefinition
  3

  2
DESCRIPTION
 70
     8
280
     0
  0
ATTDEF
  5
FB
330
EF
100
AcDbEntity
  8
AM_6
100
AcDbText
 10
7.5
 20
-2.813
 30
0.0
 40
0.5
  1
1-15/32
100
AcDbAttributeDefinition
  3

  2
A
 70
     8
280
     0
  0
ATTDEF
  5
FC
330
EF
100
AcDbEntity
  8
AM_6
100
AcDbText
 10
7.5
 20
-3.313
 30
0.0
 40
0.5
  1
5
100
AcDbAttributeDefinition
  3

  2
B
 70
     8
280
     0
  0
ATTDEF
  5
FD
330
EF
100
AcDbEntity
  8
AM_6
100
AcDbText
 10
7.5
 20
-3.813
 30
0.0
 40
0.5
  1
1
100
AcDbAttributeDefinition
  3

  2
C
 70
     8
280
     0
  0
ATTDEF
  5
FE
330
EF
100
AcDbEntity
  8
AM_6
100
AcDbText
 10
7.5
 20
-4.313
 30
0.0
 40
0.5
  1
3-3/8
100
AcDbAttributeDefinition
  3

  2
DMIN
 70
     8
280
     0
  0
ATTDEF
  5
FF
330
EF
100
AcDbEntity
  8
AM_6
100
AcDbText
 10
7.5
 20
-4.813
 30
0.0
 40
0.5
  1
4-3/16
100
AcDbAttributeDefinition
  3

  2
DMAX
 70
     8
280
     0
  0
ATTDEF
  5
100
330
EF
100
AcDbEntity
  8
AM_6
100
AcDbText
 10
7.5
 20
-5.313
 30
0.0
 40
0.5
  1
4.188
100
AcDbAttributeDefinition
  3

  2
DMAX1
 70
     8
280
     0
  0
ATTDEF
  5
101
330
EF
100
AcDbEntity
  8
AM_6
100
AcDbText
 10
7.5
 20
-5.813
 30
0.0
 40
0.5
  1
3/8
100
AcDbAttributeDefinition
  3

  2
F
 70
     8
280
     0
  0
ATTDEF
  5
102
330
EF
100
AcDbEntity
  8
AM_6
100
AcDbText
 10
7.5
 20
-6.313
 30
0.0
 40
0.5
  1
27/32
100
AcDbAttributeDefinition
  3

  2
G
 70
     8
280
     0
  0
ATTDEF
  5
103
330
EF
100
AcDbEntity
  8
AM_6
100
AcDbText
 10
7.5
 20
-6.813
 30
0.0
 40
0.5
  1
1/2
100
AcDbAttributeDefinition
  3

  2
H
 70
     8
280
     0
  0
ATTDEF
  5
104
330
EF
100
AcDbEntity
  8
AM_6
100
AcDbText
 10
7.5
 20
-7.313
 30
0.0
 40
0.5
  1
2-1/2
100
AcDbAttributeDefinition
  3

  2
J
 70
     8
280
     0
  0
ATTDEF
  5
105
330
EF
100
AcDbEntity
  8
AM_6
100
AcDbText
 10
7.5
 20
-7.813
 30
0.0
 40
0.5
  1
1-1/2
100
AcDbAttributeDefinition
  3

  2
L
 70
     8
280
     0
  0
ATTDEF
  5
106
330
EF
100
AcDbEntity
  8
AM_6
100
AcDbText
 10
7.5
 20
-8.312999999999999
 30
0.0
 40
0.5
  1
1-5/16
100
AcDbAttributeDefinition
  3

  2
M
 70
     8
280
     0
  0
ATTDEF
  5
107
330
EF
100
AcDbEntity
  8
AM_6
100
AcDbText
 10
7.5
 20
-8.812999999999999
 30
0.0
 40
0.5
  1
31/64
100
AcDbAttributeDefinition
  3

  2
R
 70
     8
280
     0
  0
ATTDEF
  5
108
330
EF
100
AcDbEntity
  8
AM_6
100
AcDbText
 10
7.5
 20
-9.312999999999999
 30
0.0
 40
0.5
  1
63/64
100
AcDbAttributeDefinition
  3

  2
S
 70
     8
280
     0
  0
ATTDEF
  5
109
330
EF
100
AcDbEntity
  8
AM_6
100
AcDbText
 10
7.5
 20
-9.812999999999999
 30
0.0
 40
0.5
  1
63/64
100
AcDbAttributeDefinition
  3

  2
Z
 70
     8
280
     0
  0
ATTDEF
  5
10A
330
EF
100
AcDbEntity
  8
AM_6
100
AcDbText
 10
7.5
 20
-10.313
 30
0.0
 40
0.5
  1
baldor
100
AcDbAttributeDefinition
  3

  2
COMPANY
 70
     8
280
     0
  0
LINE
  5
10B
330
EF
100
AcDbEntity
  8
AM_9
100
AcDbLine
 10
-2.093999999999999
 20
-1.313
 30
0.0
 11
-2.093999999999999
 21
-0.813
 31
0.0
  0
LINE
  5
10C
330
EF
100
AcDbEntity
  8
AM_9
100
AcDbLine
 10
-2.313
 20
-0.813
 30
0.0
 11
-2.313
 21
-1.313
 31
0.0
  0
LINE
  5
10D
330
EF
100
AcDbEntity
  8
AM_9
100
AcDbLine
 10
-1.6875
 20
-1.313
 30
0.0
 11
-1.6875
 21
-0.813
 31
0.0
  0
LINE
  5
10E
330
EF
100
AcDbEntity
  8
AM_9
100
AcDbLine
 10
-1.4685
 20
-1.313
 30
0.0
 11
-1.4685
 21
-0.813
 31
0.0
  0
LINE
  5
10F
330
EF
100
AcDbEntity
  8
AM_9
100
AcDbLine
 10
2.094
 20
-1.313
 30
0.0
 11
2.094
 21
-0.8129999999999997
 31
0.0
  0
LINE
  5
110
330
EF
100
AcDbEntity
  8
AM_9
100
AcDbLine
 10
2.313
 20
-1.313
 30
0.0
 11
2.313
 21
-0.8129999999999997
 31
0.0
  0
LINE
  5
111
330
EF
100
AcDbEntity
  8
AM_9
100
AcDbLine
 10
1.6875
 20
-1.313
 30
0.0
 11
1.6875
 21
-0.8129999999999997
 31
0.0
  0
LINE
  5
112
330
EF
100
AcDbEntity
  8
AM_9
100
AcDbLine
 10
1.4685
 20
-0.8129999999999997
 30
0.0
 11
1.4685
 21
-1.313
 31
0.0
  0
LINE
  5
113
330
EF
100
AcDbEntity
  8
AM_7
100
AcDbLine
 10
0.709560491860207
 20
0.709560491860207
 30
0.0
 11
1.120893524527445
 21
1.120893524527445
 31
0.0
  0
LINE
  5
114
330
EF
100
AcDbEntity
  8
AM_4
100
AcDbLine
 10
1.029935065397192
 20
1.122442680784371
 30
0.0
 11
1.122442680585959
 21
1.029935065595604
 31
0.0
  0
ARC
  5
115
330
EF
100
AcDbEntity
  8
AM_4
100
AcDbCircle
 10
1.108523283796715
 20
1.016015668409535
 30
0.0
 40
0.0196849999999989
100
AcDbArc
 50
336.8012338450277
 51
45.00000000000092
  0
ARC
  5
116
330
EF
100
AcDbEntity
  8
AM_4
100
AcDbCircle
 10
1.016015668409535
 20
1.108523283796715
 30
0.0
 40
0.0196849999999988
100
AcDbArc
 50
44.99999999999909
 51
113.1987661549723
  0
LINE
  5
117
330
EF
100
AcDbEntity
  8
AM_4
100
AcDbLine
 10
1.008261311551465
 20
1.126616629941573
 30
0.0
 11
1.126616629941573
 21
1.008261311551465
 31
0.0
  0
LINE
  5
118
330
EF
100
AcDbEntity
  8
AM_4
100
AcDbLine
 10
1.008261311551465
 20
1.126616629941573
 30
0.0
 11
0.9558243746612779
 21
1.104143466717084
 31
0.0
  0
LINE
  5
119
330
EF
100
AcDbEntity
  8
AM_4
100
AcDbLine
 10
1.104143466717084
 20
0.9558243746612779
 30
0.0
 11
1.126616629941573
 21
1.008261311551465
 31
0.0
  0
LINE
  5
11A
330
EF
100
AcDbEntity
  8
AM_4
100
AcDbLine
 10
0.9558243746612779
 20
1.104143466717084
 30
0.0
 11
1.104143466717084
 21
0.9558243746612779
 31
0.0
  0
ARC
  5
11B
330
EF
100
AcDbEntity
  8
AM_4
100
AcDbCircle
 10
1.086050120572224
 20
0.9635787315193477
 30
0.0
 40
0.0196850000000002
100
AcDbArc
 50
269.157227519067
 51
336.8012338450321
  0
ARC
  5
11C
330
EF
100
AcDbEntity
  8
AM_4
100
AcDbCircle
 10
0.9635787315193477
 20
1.086050120572224
 30
0.0
 40
0.0196850000000002
100
AcDbArc
 50
113.1987661549679
 51
180.842772480933
  0
LINE
  5
11D
330
EF
100
AcDbEntity
  8
AM_4
100
AcDbLine
 10
0.9438958609966754
 20
1.085760581304198
 30
0.0
 11
1.085760581304198
 21
0.9438958609966754
 31
0.0
  0
ARC
  5
11E
330
EF
100
AcDbEntity
  8
AM_4
100
AcDbCircle
 10
1.084714619756163
 20
0.8727914271768418
 30
0.0
 40
0.0711121265636113
100
AcDbArc
 50
89.15722751906584
 51
191.144752300651
  0
ARC
  5
11F
330
EF
100
AcDbEntity
  8
AM_4
100
AcDbCircle
 10
0.8727914271768417
 20
1.084714619756163
 30
0.0
 40
0.0711121265636112
100
AcDbArc
 50
258.855247699349
 51
0.8427724809343414
  0
LINE
  5
120
330
EF
100
AcDbEntity
  8
AM_4
100
AcDbLine
 10
0.859046280083329
 20
1.01494352634509
 30
0.0
 11
1.01494352634509
 21
0.859046280083329
 31
0.0
  0
LINE
  5
121
330
EF
100
AcDbEntity
  8
AM_4
100
AcDbLine
 10
1.001024129357432
 20
0.8451268830956717
 30
0.0
 11
1.01494352634509
 21
0.859046280083329
 31
0.0
  0
LINE
  5
122
330
EF
100
AcDbEntity
  8
AM_4
100
AcDbLine
 10
0.859046280083329
 20
1.01494352634509
 30
0.0
 11
0.8451268830956717
 21
1.001024129357432
 31
0.0
  0
LINE
  5
123
330
EF
100
AcDbEntity
  8
AM_4
100
AcDbLine
 10
0.9136812881792821
 20
0.7577840419175215
 30
0.0
 11
0.9175070403247079
 21
0.7616097940629472
 31
0.0
  0
LINE
  5
124
330
EF
100
AcDbEntity
  8
AM_4
100
AcDbLine
 10
0.7616097940629472
 20
0.9175070403247079
 30
0.0
 11
0.7577597662921293
 21
0.9136570125538899
 31
0.0
  0
LINE
  5
125
330
EF
100
AcDbEntity
  8
AM_4
100
AcDbLine
 10
0.72820324129257
 20
0.950913593095085
 30
0.0
 11
0.9509135930950849
 21
0.7282032412925701
 31
0.0
  0
LWPOLYLINE
  5
126
330
EF
100
AcDbEntity
  8
AM_4
100
AcDbPolyline
 90
        5
 70
     0
 43
0.0
 10
0.9555299379089892
 20
0.7328188789996933
 10
0.9246645092462324
 20
0.7569733232823174
 10
0.8957722445607808
 20
0.7833456993378599
 10
0.8688187275480497
 20
0.8127302035628704
 10
0.8441744084543412
 20
0.8441744084543413
  0
LINE
  5
127
330
EF
100
AcDbEntity
  8
AM_4
100
AcDbLine
 10
0.9184595149660383
 20
0.9184595149660383
 30
0.0
 11
0.8441744084543412
 21
0.8441744084543413
 31
0.0
  0
LWPOLYLINE
  5
128
330
EF
100
AcDbEntity
  8
AM_4
100
AcDbPolyline
 90
        5
 70
     0
 43
0.0
 10
0.8441744084543412
 20
0.8441744084543413
 10
0.8133089797915843
 20
0.8683288527369654
 10
0.7844167151061328
 20
0.8947012287925079
 10
0.7574631980934016
 20
0.9240857330175186
 10
0.7328188789996931
 20
0.9555299379089893
  0
LINE
  5
129
330
EF
100
AcDbEntity
  8
AM_4
100
AcDbLine
 10
0.8117203303252943
 20
1.03443068212781
 30
0.0
 11
1.03443068212781
 21
0.8117203303252946
 31
0.0
  0
LINE
  5
12A
330
EF
100
AcDbEntity
  8
AM_4
100
AcDbLine
 10
0.8115886219437011
 20
1.034299680852997
 30
0.0
 11
0.7282029824743352
 21
0.9509140413836314
 31
0.0
  0
LWPOLYLINE
  5
12B
330
EF
100
AcDbEntity
  8
AM_4
100
AcDbPolyline
 90
        3
 70
     0
 43
0.0
 10
0.8071039855113902
 20
1.029815044420686
 10
0.8333022650637941
 20
1.009560481475054
 10
0.858210754808133
 20
0.9876775479885654
  0
LINE
  5
12C
330
EF
100
AcDbEntity
  8
AM_4
100
AcDbLine
 10
0.858210754808133
 20
0.9876775479885654
 30
0.0
 11
0.8763220185339171
 21
0.9695662842627814
 31
0.0
  0
LWPOLYLINE
  5
12D
330
EF
100
AcDbEntity
  8
AM_4
100
AcDbPolyline
 90
        3
 70
     0
 43
0.0
 10
0.8763220185339171
 20
0.9695662842627814
 10
0.8981430507069176
 20
0.9447332355654253
 10
0.9184595149660383
 20
0.9184595149660383
  0
LWPOLYLINE
  5
12E
330
EF
100
AcDbEntity
  8
AM_4
100
AcDbPolyline
 90
        3
 70
     0
 43
0.0
 10
0.9184595149660383
 20
0.9184595149660383
 10
0.9446577945184419
 20
0.8982049520204062
 10
0.9695662842627808
 20
0.8763220185339177
  0
LINE
  5
12F
330
EF
100
AcDbEntity
  8
AM_4
100
AcDbLine
 10
0.9695662842627808
 20
0.8763220185339177
 30
0.0
 11
0.9876775479885657
 21
0.8582107548081328
 31
0.0
  0
LWPOLYLINE
  5
130
330
EF
100
AcDbEntity
  8
AM_4
100
AcDbPolyline
 90
        3
 70
     0
 43
0.0
 10
0.9876775479885657
 20
0.8582107548081328
 10
1.009498580161566
 20
0.8333777061107771
 10
1.029815044420686
 20
0.8071039855113904
  0
LINE
  5
131
330
EF
100
AcDbEntity
  8
AM_4
100
AcDbLine
 10
0.9509140413836313
 20
0.7282029824743353
 30
0.0
 11
1.034299680852997
 21
0.8115886219437013
 31
0.0
  0
ARC
  5
132
330
EF
100
AcDbEntity
  8
AM_4
100
AcDbCircle
 10
0.0000000000000001
 20
-0.0000000000000002
 30
0.0
 40
0.9251999999999997
100
AcDbArc
 50
205.7486544875434
 51
334.2505044676783
  0
LINE
  5
133
330
EF
100
AcDbEntity
  8
AM_4
100
AcDbLine
 10
-2.016544665873
 20
-1.0120146
 30
0.0
 11
-2.016544665873
 21
-1.113985460603
 31
0.0
  0
LINE
  5
134
330
EF
100
AcDbEntity
  8
AM_4
100
AcDbLine
 10
-1.961448573129
 20
-1.0120146
 30
0.0
 11
-2.016544665873
 21
-1.0120146
 31
0.0
  0
LINE
  5
135
330
EF
100
AcDbEntity
  8
AM_4
100
AcDbLine
 10
-1.949205259431
 20
-1.0149281
 30
0.0
 11
-1.961448573129
 21
-1.0120146
 31
0.0
  0
LINE
  5
136
330
EF
100
AcDbEntity
  8
AM_4
100
AcDbLine
 10
-1.940022577307
 20
-1.020755
 30
0.0
 11
-1.949205259431
 21
-1.0149281
 31
0.0
  0
LINE
  5
137
330
EF
100
AcDbEntity
  8
AM_4
100
AcDbLine
 10
-1.933900920458
 20
-1.0294953
 30
0.0
 11
-1.940022577307
 21
-1.020755
 31
0.0
  0
LINE
  5
138
330
EF
100
AcDbEntity
  8
AM_4
100
AcDbLine
 10
-1.930839895183
 20
-1.0411491
 30
0.0
 11
-1.933900920458
 21
-1.0294953
 31
0.0
  0
LINE
  5
139
330
EF
100
AcDbEntity
  8
AM_4
100
AcDbLine
 10
-1.930839895183
 20
-1.0848508779412
 30
0.0
 11
-1.930839895183
 21
-1.0411491
 31
0.0
  0
LINE
  5
13A
330
EF
100
AcDbEntity
  8
AM_4
100
AcDbLine
 10
-1.933900920458
 20
-1.0965047031319
 30
0.0
 11
-1.930839895183
 21
-1.0848508779412
 31
0.0
  0
LINE
  5
13B
330
EF
100
AcDbEntity
  8
AM_4
100
AcDbLine
 10
-1.940022577307
 20
-1.105244904702
 30
0.0
 11
-1.933900920458
 21
-1.0965047031319
 31
0.0
  0
LINE
  5
13C
330
EF
100
AcDbEntity
  8
AM_4
100
AcDbLine
 10
-1.949205259431
 20
-1.111072073203
 30
0.0
 11
-1.940022577307
 21
-1.105244904702
 31
0.0
  0
LINE
  5
13D
330
EF
100
AcDbEntity
  8
AM_4
100
AcDbLine
 10
-2.016544665873
 20
-1.113985460603
 30
0.0
 11
-1.961448573129
 21
-1.113985460603
 31
0.0
  0
LINE
  5
13E
330
EF
100
AcDbEntity
  8
AM_4
100
AcDbLine
 10
-1.961448573129
 20
-1.113985460603
 30
0.0
 11
-1.949205259431
 21
-1.111072073203
 31
0.0
  0
LINE
  5
13F
330
EF
100
AcDbEntity
  8
AM_4
100
AcDbLine
 10
-1.783917768601
 20
-1.0411491
 30
0.0
 11
-1.786978400175
 21
-1.0294953
 31
0.0
  0
LINE
  5
140
330
EF
100
AcDbEntity
  8
AM_4
100
AcDbLine
 10
-1.783917768601
 20
-1.0848508779412
 30
0.0
 11
-1.783917768601
 21
-1.0411491
 31
0.0
  0
LINE
  5
141
330
EF
100
AcDbEntity
  8
AM_4
100
AcDbLine
 10
-1.786978400175
 20
-1.0965047031319
 30
0.0
 11
-1.783917768601
 21
-1.0848508779412
 31
0.0
  0
LINE
  5
142
330
EF
100
AcDbEntity
  8
AM_4
100
AcDbLine
 10
-1.793100450725
 20
-1.105244904702
 30
0.0
 11
-1.786978400175
 21
-1.0965047031319
 31
0.0
  0
LINE
  5
143
330
EF
100
AcDbEntity
  8
AM_4
100
AcDbLine
 10
-1.802283132849
 20
-1.111072073203
 30
0.0
 11
-1.793100450725
 21
-1.105244904702
 31
0.0
  0
LINE
  5
144
330
EF
100
AcDbEntity
  8
AM_4
100
AcDbLine
 10
-1.814526446547
 20
-1.113985460603
 30
0.0
 11
-1.802283132849
 21
-1.111072073203
 31
0.0
  0
LINE
  5
145
330
EF
100
AcDbEntity
  8
AM_4
100
AcDbLine
 10
-1.839013467644
 20
-1.113985460603
 30
0.0
 11
-1.814526446547
 21
-1.113985460603
 31
0.0
  0
LINE
  5
146
330
EF
100
AcDbEntity
  8
AM_4
100
AcDbLine
 10
-1.851257175043
 20
-1.111072073203
 30
0.0
 11
-1.839013467644
 21
-1.113985460603
 31
0.0
  0
LINE
  5
147
330
EF
100
AcDbEntity
  8
AM_4
100
AcDbLine
 10
-1.860439463466
 20
-1.105244904702
 30
0.0
 11
-1.851257175043
 21
-1.111072073203
 31
0.0
  0
LINE
  5
148
330
EF
100
AcDbEntity
  8
AM_4
100
AcDbLine
 10
-1.866561514016
 20
-1.0965047031319
 30
0.0
 11
-1.860439463466
 21
-1.105244904702
 31
0.0
  0
LINE
  5
149
330
EF
100
AcDbEntity
  8
AM_4
100
AcDbLine
 10
-1.86962214559
 20
-1.0848508779412
 30
0.0
 11
-1.866561514016
 21
-1.0965047031319
 31
0.0
  0
LINE
  5
14A
330
EF
100
AcDbEntity
  8
AM_4
100
AcDbLine
 10
-1.86962214559
 20
-1.0411491
 30
0.0
 11
-1.86962214559
 21
-1.0848508779412
 31
0.0
  0
LINE
  5
14B
330
EF
100
AcDbEntity
  8
AM_4
100
AcDbLine
 10
-1.860439463466
 20
-1.020755
 30
0.0
 11
-1.866561514016
 21
-1.0294953
 31
0.0
  0
LINE
  5
14C
330
EF
100
AcDbEntity
  8
AM_4
100
AcDbLine
 10
-1.866561514016
 20
-1.0294953
 30
0.0
 11
-1.86962214559
 21
-1.0411491
 31
0.0
  0
LINE
  5
14D
330
EF
100
AcDbEntity
  8
AM_4
100
AcDbLine
 10
-1.786978400175
 20
-1.0294953
 30
0.0
 11
-1.793100450725
 21
-1.020755
 31
0.0
  0
LINE
  5
14E
330
EF
100
AcDbEntity
  8
AM_4
100
AcDbLine
 10
-1.793100450725
 20
-1.020755
 30
0.0
 11
-1.802283132849
 21
-1.0149281
 31
0.0
  0
LINE
  5
14F
330
EF
100
AcDbEntity
  8
AM_4
100
AcDbLine
 10
-1.802283132849
 20
-1.0149281
 30
0.0
 11
-1.814526446547
 21
-1.0120146
 31
0.0
  0
LINE
  5
150
330
EF
100
AcDbEntity
  8
AM_4
100
AcDbLine
 10
-1.814526446547
 20
-1.0120146
 30
0.0
 11
-1.839013467644
 21
-1.0120146
 31
0.0
  0
LINE
  5
151
330
EF
100
AcDbEntity
  8
AM_4
100
AcDbLine
 10
-1.839013467644
 20
-1.0120146
 30
0.0
 11
-1.851257175043
 21
-1.0149281
 31
0.0
  0
LINE
  5
152
330
EF
100
AcDbEntity
  8
AM_4
100
AcDbLine
 10
-1.851257175043
 20
-1.0149281
 30
0.0
 11
-1.860439463466
 21
-1.020755
 31
0.0
  0
LWPOLYLINE
  5
153
330
EF
100
AcDbEntity
  8
AM_4
100
AcDbPolyline
 90
       19
 70
     0
 43
0.0
 10
-2.4409449
 20
-0.813
 10
-2.446091891103537
 20
-0.8132247224847221
 10
-2.451199710496939
 20
-0.8138971796650889
 10
-2.456229484590434
 20
-0.8150122537359166
 10
-2.461142933766112
 20
-0.8165614583102263
 10
-2.465902663708923
 20
-0.8185330030057721
 10
-2.47047245
 20
-0.8209118831769698
 10
-2.474817513806355
 20
-0.8236799941093095
 10
-2.478904786568799
 20
-0.8268162688071649
 10
-2.482703161673649
 20
-0.8302968383263507
 10
-2.486183731192836
 20
-0.834095213431201
 10
-2.489320005890691
 20
-0.8381824861936459
 10
-2.49208811682303
 20
-0.8425275500000007
 10
-2.494466996994228
 20
-0.8470973362910775
 10
-2.496438541689774
 20
-0.851857066233889
 10
-2.497987746264084
 20
-0.8567705154095668
 10
-2.499102820334911
 20
-0.8618002895030625
 10
-2.499775277515278
 20
-0.8669081088964635
 10
-2.5
 20
-0.8720551000000002
  0
LINE
  5
154
330
EF
100
AcDbEntity
  8
AM_4
100
AcDbLine
 10
-2.5
 20
-1.313
 30
0.0
 11
-2.5
 21
-0.8720551000000001
 31
0.0
  0
LINE
  5
155
330
EF
100
AcDbEntity
  8
AM_4
100
AcDbLine
 10
-0.8333354500042331
 20
-1.313
 30
0.0
 11
-0.8333354500042331
 21
-0.4019291825262778
 31
0.0
  0
LWPOLYLINE
  5
156
330
EF
100
AcDbEntity
  8
AM_4
100
AcDbPolyline
 90
        3
 70
     0
 43
0.0
 10
-0.8663992291382677
 20
-0.3245726663608869
 10
-0.8348139466860465
 20
-0.3988492377057608
 10
-0.8333354500042335
 20
-0.4019291825262775
  0
LINE
  5
157
330
EF
100
AcDbEntity
  8
AM_4
100
AcDbLine
 10
0.8333295499957664
 20
-1.313
 30
0.0
 11
0.8333295499957664
 21
-0.4019414150144938
 31
0.0
  0
LWPOLYLINE
  5
158
330
EF
100
AcDbEntity
  8
AM_4
100
AcDbPolyline
 90
        3
 70
     0
 43
0.0
 10
0.833329549995767
 20
-0.4019414150144929
 10
0.8651899820355962
 20
-0.327782450697479
 10
0.8663940301144236
 20
-0.3245865440557996
  0
LINE
  5
159
330
EF
100
AcDbEntity
  8
AM_4
100
AcDbLine
 10
0.8910645769147278
 20
-0.8129999999999438
 30
0.0
 11
0.8663940301144233
 21
-0.3245865440557998
 31
0.0
  0
LWPOLYLINE
  5
15A
330
EF
100
AcDbEntity
  8
AM_4
100
AcDbPolyline
 90
       19
 70
     0
 43
0.0
 10
1.246055100000001
 20
-0.8129999999999997
 10
1.240908108896464
 20
-0.8127752775152776
 10
1.235800289503062
 20
-0.812102820334911
 10
1.230770515409567
 20
-0.8109877462640832
 10
1.225857066233889
 20
-0.8094385416897736
 10
1.221097336291078
 20
-0.8074669969942279
 10
1.216527550000001
 20
-0.80508811682303
 10
1.212182486193646
 20
-0.8023200058906906
 10
1.208095213431201
 20
-0.7991837311928353
 10
1.204296838326351
 20
-0.7957031616736493
 10
1.200816268807165
 20
-0.7919047865687991
 10
1.19767999410931
 20
-0.7878175138063543
 10
1.19491188317697
 20
-0.7834724499999995
 10
1.192533003005772
 20
-0.7789026637089227
 10
1.190561458310226
 20
-0.7741429337661111
 10
1.189012253735917
 20
-0.7692294845904334
 10
1.187897179665089
 20
-0.7641997104969377
 10
1.187224722484723
 20
-0.7590918911035365
 10
1.187
 20
-0.7539448999999993
  0
LINE
  5
15B
330
EF
100
AcDbEntity
  8
AM_4
100
AcDbLine
 10
1.187
 20
0.0
 30
0.0
 11
1.187
 21
-0.7539448999999991
 31
0.0
  0
LWPOLYLINE
  5
15C
330
EF
100
AcDbEntity
  8
AM_4
100
AcDbPolyline
 90
       37
 70
     0
 43
0.0
 10
-1.187
 20
-0.0000000000000003
 10
-1.182483106634902
 20
0.1034538666414699
 10
-1.168966802825491
 20
0.2061203868906459
 10
-1.146553955805125
 20
0.3072182065366916
 10
-1.115415140872874
 20
0.4059779101275681
 10
-1.075787343212504
 20
0.5016478766862096
 10
-1.027972154292129
 20
0.5934999999999991
 10
-0.9723334765710342
 20
0.680835229948691
 10
-0.9092947539822279
 20
0.7629888926979215
 10
-0.8393357492684331
 20
0.8393357492684312
 10
-0.7629888926979234
 20
0.909294753982226
 10
-0.6808352299486932
 20
0.9723334765710323
 10
-0.5935000000000016
 20
1.027972154292128
 10
-0.501647876686212
 20
1.075787343212503
 10
-0.4059779101275707
 20
1.115415140872873
 10
-0.3072182065366942
 20
1.146553955805124
 10
-0.2061203868906485
 20
1.168966802825491
 10
-0.1034538666414726
 20
1.182483106634902
 10
-0.0000000000000025
 20
1.187
 10
0.1034538666414677
 20
1.182483106634902
 10
0.2061203868906437
 20
1.168966802825492
 10
0.3072182065366895
 20
1.146553955805125
 10
0.4059779101275661
 20
1.115415140872875
 10
0.5016478766862076
 20
1.075787343212505
 10
0.5934999999999973
 20
1.027972154292131
 10
0.6808352299486891
 20
0.9723334765710353
 10
0.7629888926979196
 20
0.9092947539822294
 10
0.8393357492684296
 20
0.8393357492684345
 10
0.9092947539822247
 20
0.7629888926979252
 10
0.9723334765710312
 20
0.6808352299486947
 10
1.027972154292127
 20
0.5935000000000034
 10
1.075787343212502
 20
0.5016478766862139
 10
1.115415140872872
 20
0.4059779101275727
 10
1.146553955805123
 20
0.3072182065366962
 10
1.16896680282549
 20
0.2061203868906506
 10
1.182483106634902
 20
0.1034538666414746
 10
1.187
 20
0.0000000000000045
  0
LINE
  5
15D
330
EF
100
AcDbEntity
  8
AM_4
100
AcDbLine
 10
-1.187
 20
-0.7539448999999998
 30
0.0
 11
-1.187
 21
0.0000000000000001
 31
0.0
  0
LWPOLYLINE
  5
15E
330
EF
100
AcDbEntity
  8
AM_4
100
AcDbPolyline
 90
       19
 70
     0
 43
0.0
 10
-1.187
 20
-0.7539448999999998
 10
-1.187224722484722
 20
-0.759091891103537
 10
-1.187897179665089
 20
-0.7641997104969382
 10
-1.189012253735917
 20
-0.7692294845904339
 10
-1.190561458310226
 20
-0.7741429337661118
 10
-1.192533003005772
 20
-0.7789026637089232
 10
-1.19491188317697
 20
-0.7834724500000001
 10
-1.19767999410931
 20
-0.7878175138063548
 10
-1.200816268807165
 20
-0.7919047865687997
 10
-1.204296838326351
 20
-0.7957031616736499
 10
-1.208095213431201
 20
-0.7991837311928357
 10
-1.212182486193646
 20
-0.802320005890691
 10
-1.216527550000001
 20
-0.8050881168230306
 10
-1.221097336291078
 20
-0.8074669969942282
 10
-1.225857066233889
 20
-0.809438541689774
 10
-1.230770515409567
 20
-0.8109877462640837
 10
-1.235800289503063
 20
-0.8121028203349113
 10
-1.240908108896464
 20
-0.8127752775152779
 10
-1.246055094297017
 20
-0.8129999999999997
  0
LINE
  5
15F
330
EF
100
AcDbEntity
  8
AM_4
100
AcDbLine
 10
-0.8663992291382677
 20
-0.3245726663608863
 30
0.0
 11
-0.8910704769231957
 21
-0.8130000000000001
 31
0.0
  0
LWPOLYLINE
  5
160
330
EF
100
AcDbEntity
  8
AM_4
100
AcDbPolyline
 90
       46
 70
     0
 43
0.0
 10
-0.8663992291382678
 20
-0.3245726663608865
 10
-0.8913906903105887
 20
-0.247825901042672
 10
-0.9095981300932312
 20
-0.1691930309761525
 10
-0.9208829788754969
 20
-0.089272499782359
 10
-0.9251593521441744
 20
-0.0086725509610127
 10
-0.9223947041165448
 20
0.0719934012097763
 10
-0.9126100754334381
 20
0.1521114401265548
 10
-0.8958799330272532
 20
0.2310718191365714
 10
-0.8723316033836374
 20
0.3082736020779796
 10
-0.8421443035100485
 20
0.3831292367668842
 10
-0.8055477769861151
 20
0.4550690266242346
 10
-0.7628205454762707
 20
0.5235454664107836
 10
-0.7142877890117133
 20
0.5880374090725506
 10
-0.6603188711740173
 20
0.6480540319845802
 10
-0.6013245280152519
 20
0.7031385724074839
 10
-0.537753742108613
 20
0.7528718037276887
 10
-0.4700903255199404
 20
0.7968752260251014
 10
-0.3988492377057617
 20
0.8348139466860462
 10
-0.3245726663608881
 20
0.8663992291382673
 10
-0.2478259010426736
 20
0.8913906903105882
 10
-0.1691930309761541
 20
0.9095981300932309
 10
-0.0892724997823607
 20
0.9208829788754967
 10
-0.0086725509610144
 20
0.9251593521441744
 10
0.0719934012097746
 20
0.922394704116545
 10
0.1521114401265531
 20
0.9126100754334384
 10
0.2310718191365698
 20
0.8958799330272537
 10
0.308273602077978
 20
0.8723316033836379
 10
0.3831292367668827
 20
0.8421443035100494
 10
0.4550690266242331
 20
0.8055477769861158
 10
0.5235454664107821
 20
0.7628205454762715
 10
0.5880374090725493
 20
0.7142877890117142
 10
0.648054031984579
 20
0.6603188711740186
 10
0.7031385724074828
 20
0.6013245280152532
 10
0.7528718037276876
 20
0.5377537421086144
 10
0.7968752260251005
 20
0.4700903255199417
 10
0.8348139466860455
 20
0.3988492377057633
 10
0.8663992291382666
 20
0.3245726663608896
 10
0.8913906903105877
 20
0.2478259010426753
 10
0.9095981300932305
 20
0.1691930309761558
 10
0.9208829788754965
 20
0.0892724997823624
 10
0.9251593521441744
 20
0.0086725509610161
 10
0.922394704116545
 20
-0.0719934012097729
 10
0.9126100754334386
 20
-0.1521114401265514
 10
0.895879933027254
 20
-0.2310718191365682
 10
0.8723316033836385
 20
-0.3082736020779764
 10
0.8663940301144234
 20
-0.3245865440557996
  0
LINE
  5
161
330
EF
100
AcDbEntity
  8
AM_4
100
AcDbLine
 10
0.8910645769147293
 20
-1.313
 30
0.0
 11
0.8910645769147278
 21
-0.8129999999999438
 31
0.0
  0
LINE
  5
162
330
EF
100
AcDbEntity
  8
AM_4
100
AcDbLine
 10
-1.5910823
 20
-1.0265819
 30
0.0
 11
-1.5941432
 21
-1.0411491
 31
0.0
  0
LINE
  5
163
330
EF
100
AcDbEntity
  8
AM_4
100
AcDbLine
 10
-1.6186302
 20
-1.0848508779412
 30
0.0
 11
-1.6186302
 21
-1.0411491
 31
0.0
  0
LINE
  5
164
330
EF
100
AcDbEntity
  8
AM_4
100
AcDbLine
 10
-1.6216911
 20
-1.099418129902
 30
0.0
 11
-1.6186302
 21
-1.0848508779412
 31
0.0
  0
LINE
  5
165
330
EF
100
AcDbEntity
  8
AM_4
100
AcDbLine
 10
-1.450282
 20
-0.9945339
 30
0.0
 11
-1.450282
 21
-1.131466178704
 31
0.0
  0
LINE
  5
166
330
EF
100
AcDbEntity
  8
AM_4
100
AcDbLine
 10
-1.34009
 20
-0.9945339
 30
0.0
 11
-1.450282
 21
-0.9945339
 31
0.0
  0
LINE
  5
167
330
EF
100
AcDbEntity
  8
AM_4
100
AcDbLine
 10
-1.34009
 20
-1.0120146
 30
0.0
 11
-1.34009
 21
-0.9945339
 31
0.0
  0
LINE
  5
168
330
EF
100
AcDbEntity
  8
AM_4
100
AcDbLine
 10
-1.431917
 20
-1.0120146
 30
0.0
 11
-1.34009
 21
-1.0120146
 31
0.0
  0
LINE
  5
169
330
EF
100
AcDbEntity
  8
AM_4
100
AcDbLine
 10
-1.431917
 20
-1.0498895
 30
0.0
 11
-1.431917
 21
-1.0120146
 31
0.0
  0
LINE
  5
16A
330
EF
100
AcDbEntity
  8
AM_4
100
AcDbLine
 10
-1.352334
 20
-1.0498895
 30
0.0
 11
-1.431917
 21
-1.0498895
 31
0.0
  0
LINE
  5
16B
330
EF
100
AcDbEntity
  8
AM_4
100
AcDbLine
 10
-1.352334
 20
-1.0673701598402
 30
0.0
 11
-1.352334
 21
-1.0498895
 31
0.0
  0
LINE
  5
16C
330
EF
100
AcDbEntity
  8
AM_4
100
AcDbLine
 10
-1.431917
 20
-1.0673701598402
 30
0.0
 11
-1.352334
 21
-1.0673701598402
 31
0.0
  0
LINE
  5
16D
330
EF
100
AcDbEntity
  8
AM_4
100
AcDbLine
 10
-1.431917
 20
-1.113985460603
 30
0.0
 11
-1.431917
 21
-1.0673701598402
 31
0.0
  0
LINE
  5
16E
330
EF
100
AcDbEntity
  8
AM_4
100
AcDbLine
 10
-1.34009
 20
-1.113985460603
 30
0.0
 11
-1.431917
 21
-1.113985460603
 31
0.0
  0
LINE
  5
16F
330
EF
100
AcDbEntity
  8
AM_4
100
AcDbLine
 10
-1.34009
 20
-1.131466178704
 30
0.0
 11
-1.34009
 21
-1.113985460603
 31
0.0
  0
LINE
  5
170
330
EF
100
AcDbEntity
  8
AM_4
100
AcDbLine
 10
-1.450282
 20
-1.131466178704
 30
0.0
 11
-1.34009
 21
-1.131466178704
 31
0.0
  0
LINE
  5
171
330
EF
100
AcDbEntity
  8
AM_4
100
AcDbLine
 10
-1.584961
 20
-1.0149281
 30
0.0
 11
-1.5910823
 21
-1.0265819
 31
0.0
  0
LINE
  5
172
330
EF
100
AcDbEntity
  8
AM_4
100
AcDbLine
 10
-1.572717
 20
-1.0032743
 30
0.0
 11
-1.584961
 21
-1.0149281
 31
0.0
  0
LINE
  5
173
330
EF
100
AcDbEntity
  8
AM_4
100
AcDbLine
 10
-1.560474
 20
-0.9974473999999999
 30
0.0
 11
-1.572717
 21
-1.0032743
 31
0.0
  0
LINE
  5
174
330
EF
100
AcDbEntity
  8
AM_4
100
AcDbLine
 10
-1.545169
 20
-0.9945339
 30
0.0
 11
-1.560474
 21
-0.9974473999999999
 31
0.0
  0
LINE
  5
175
330
EF
100
AcDbEntity
  8
AM_4
100
AcDbLine
 10
-1.517621
 20
-0.9945339
 30
0.0
 11
-1.545169
 21
-0.9945339
 31
0.0
  0
LINE
  5
176
330
EF
100
AcDbEntity
  8
AM_4
100
AcDbLine
 10
-1.502317
 20
-0.9974473999999999
 30
0.0
 11
-1.517621
 21
-0.9945339
 31
0.0
  0
LINE
  5
177
330
EF
100
AcDbEntity
  8
AM_4
100
AcDbLine
 10
-1.490073
 20
-1.0032743
 30
0.0
 11
-1.502317
 21
-0.9974473999999999
 31
0.0
  0
LINE
  5
178
330
EF
100
AcDbEntity
  8
AM_4
100
AcDbLine
 10
-1.47783
 20
-1.0149281
 30
0.0
 11
-1.490073
 21
-1.0032743
 31
0.0
  0
LINE
  5
179
330
EF
100
AcDbEntity
  8
AM_4
100
AcDbLine
 10
-1.474769
 20
-1.0294953
 30
0.0
 11
-1.47783
 21
-1.0149281
 31
0.0
  0
LINE
  5
17A
330
EF
100
AcDbEntity
  8
AM_4
100
AcDbLine
 10
-1.493134
 20
-1.0294953
 30
0.0
 11
-1.474769
 21
-1.0294953
 31
0.0
  0
LINE
  5
17B
330
EF
100
AcDbEntity
  8
AM_4
100
AcDbLine
 10
-1.496195
 20
-1.020755
 30
0.0
 11
-1.493134
 21
-1.0294953
 31
0.0
  0
LINE
  5
17C
330
EF
100
AcDbEntity
  8
AM_4
100
AcDbLine
 10
-1.505378
 20
-1.0149281
 30
0.0
 11
-1.496195
 21
-1.020755
 31
0.0
  0
LINE
  5
17D
330
EF
100
AcDbEntity
  8
AM_4
100
AcDbLine
 10
-1.517621
 20
-1.0120146
 30
0.0
 11
-1.505378
 21
-1.0149281
 31
0.0
  0
LINE
  5
17E
330
EF
100
AcDbEntity
  8
AM_4
100
AcDbLine
 10
-1.545169
 20
-1.0120146
 30
0.0
 11
-1.517621
 21
-1.0120146
 31
0.0
  0
LINE
  5
17F
330
EF
100
AcDbEntity
  8
AM_4
100
AcDbLine
 10
-1.557413
 20
-1.0149281
 30
0.0
 11
-1.545169
 21
-1.0120146
 31
0.0
  0
LINE
  5
180
330
EF
100
AcDbEntity
  8
AM_4
100
AcDbLine
 10
-1.566595
 20
-1.020755
 30
0.0
 11
-1.557413
 21
-1.0149281
 31
0.0
  0
LINE
  5
181
330
EF
100
AcDbEntity
  8
AM_4
100
AcDbLine
 10
-1.572717
 20
-1.0294953
 30
0.0
 11
-1.566595
 21
-1.020755
 31
0.0
  0
LINE
  5
182
330
EF
100
AcDbEntity
  8
AM_4
100
AcDbLine
 10
-1.575778
 20
-1.0411491
 30
0.0
 11
-1.572717
 21
-1.0294953
 31
0.0
  0
LINE
  5
183
330
EF
100
AcDbEntity
  8
AM_4
100
AcDbLine
 10
-1.575778
 20
-1.0848508779412
 30
0.0
 11
-1.575778
 21
-1.0411491
 31
0.0
  0
LINE
  5
184
330
EF
100
AcDbEntity
  8
AM_4
100
AcDbLine
 10
-1.572717
 20
-1.0965047031319
 30
0.0
 11
-1.575778
 21
-1.0848508779412
 31
0.0
  0
LINE
  5
185
330
EF
100
AcDbEntity
  8
AM_4
100
AcDbLine
 10
-1.566595
 20
-1.105244904702
 30
0.0
 11
-1.572717
 21
-1.0965047031319
 31
0.0
  0
LINE
  5
186
330
EF
100
AcDbEntity
  8
AM_4
100
AcDbLine
 10
-1.557413
 20
-1.111072073203
 30
0.0
 11
-1.566595
 21
-1.105244904702
 31
0.0
  0
LINE
  5
187
330
EF
100
AcDbEntity
  8
AM_4
100
AcDbLine
 10
-1.545169
 20
-1.113985460603
 30
0.0
 11
-1.557413
 21
-1.111072073203
 31
0.0
  0
LINE
  5
188
330
EF
100
AcDbEntity
  8
AM_4
100
AcDbLine
 10
-1.517621
 20
-1.113985460603
 30
0.0
 11
-1.545169
 21
-1.113985460603
 31
0.0
  0
LINE
  5
189
330
EF
100
AcDbEntity
  8
AM_4
100
AcDbLine
 10
-1.505378
 20
-1.111072073203
 30
0.0
 11
-1.517621
 21
-1.113985460603
 31
0.0
  0
LINE
  5
18A
330
EF
100
AcDbEntity
  8
AM_4
100
AcDbLine
 10
-1.496195
 20
-1.105244904702
 30
0.0
 11
-1.505378
 21
-1.111072073203
 31
0.0
  0
LINE
  5
18B
330
EF
100
AcDbEntity
  8
AM_4
100
AcDbLine
 10
-1.493134
 20
-1.0965047031319
 30
0.0
 11
-1.496195
 21
-1.105244904702
 31
0.0
  0
LINE
  5
18C
330
EF
100
AcDbEntity
  8
AM_4
100
AcDbLine
 10
-1.493134
 20
-1.0731970921206
 30
0.0
 11
-1.493134
 21
-1.0965047031319
 31
0.0
  0
LINE
  5
18D
330
EF
100
AcDbEntity
  8
AM_4
100
AcDbLine
 10
-1.520682
 20
-1.0731970921206
 30
0.0
 11
-1.493134
 21
-1.0731970921206
 31
0.0
  0
LINE
  5
18E
330
EF
100
AcDbEntity
  8
AM_4
100
AcDbLine
 10
-1.520682
 20
-1.05571638
 30
0.0
 11
-1.520682
 21
-1.0731970921206
 31
0.0
  0
LINE
  5
18F
330
EF
100
AcDbEntity
  8
AM_4
100
AcDbLine
 10
-1.474769
 20
-1.05571638
 30
0.0
 11
-1.520682
 21
-1.05571638
 31
0.0
  0
LINE
  5
190
330
EF
100
AcDbEntity
  8
AM_4
100
AcDbLine
 10
-1.474769
 20
-1.099418129902
 30
0.0
 11
-1.474769
 21
-1.05571638
 31
0.0
  0
LINE
  5
191
330
EF
100
AcDbEntity
  8
AM_4
100
AcDbLine
 10
-1.47783
 20
-1.111072073203
 30
0.0
 11
-1.474769
 21
-1.099418129902
 31
0.0
  0
LINE
  5
192
330
EF
100
AcDbEntity
  8
AM_4
100
AcDbLine
 10
-1.490073
 20
-1.122725622803
 30
0.0
 11
-1.47783
 21
-1.111072073203
 31
0.0
  0
LINE
  5
193
330
EF
100
AcDbEntity
  8
AM_4
100
AcDbLine
 10
-1.502317
 20
-1.128552791304
 30
0.0
 11
-1.490073
 21
-1.122725622803
 31
0.0
  0
LINE
  5
194
330
EF
100
AcDbEntity
  8
AM_4
100
AcDbLine
 10
-1.517621
 20
-1.131466178704
 30
0.0
 11
-1.502317
 21
-1.128552791304
 31
0.0
  0
LINE
  5
195
330
EF
100
AcDbEntity
  8
AM_4
100
AcDbLine
 10
-1.545169
 20
-1.131466178704
 30
0.0
 11
-1.517621
 21
-1.131466178704
 31
0.0
  0
LINE
  5
196
330
EF
100
AcDbEntity
  8
AM_4
100
AcDbLine
 10
-1.560474
 20
-1.128552791304
 30
0.0
 11
-1.545169
 21
-1.131466178704
 31
0.0
  0
LINE
  5
197
330
EF
100
AcDbEntity
  8
AM_4
100
AcDbLine
 10
-1.572717
 20
-1.122725622803
 30
0.0
 11
-1.560474
 21
-1.128552791304
 31
0.0
  0
LINE
  5
198
330
EF
100
AcDbEntity
  8
AM_4
100
AcDbLine
 10
-1.584961
 20
-1.111072073203
 30
0.0
 11
-1.572717
 21
-1.122725622803
 31
0.0
  0
LINE
  5
199
330
EF
100
AcDbEntity
  8
AM_4
100
AcDbLine
 10
-1.5910823
 20
-1.099418129902
 30
0.0
 11
-1.584961
 21
-1.111072073203
 31
0.0
  0
LINE
  5
19A
330
EF
100
AcDbEntity
  8
AM_4
100
AcDbLine
 10
-1.5941432
 20
-1.0848508779412
 30
0.0
 11
-1.5910823
 21
-1.099418129902
 31
0.0
  0
LINE
  5
19B
330
EF
100
AcDbEntity
  8
AM_4
100
AcDbLine
 10
-1.5941432
 20
-1.0411491
 30
0.0
 11
-1.5941432
 21
-1.0848508779412
 31
0.0
  0
LINE
  5
19C
330
EF
100
AcDbEntity
  8
AM_4
100
AcDbLine
 10
-1.741065383256
 20
-0.9945339
 30
0.0
 11
-1.741065383256
 21
-1.131466178704
 31
0.0
  0
LINE
  5
19D
330
EF
100
AcDbEntity
  8
AM_4
100
AcDbLine
 10
-1.6676043
 20
-0.9945339
 30
0.0
 11
-1.741065383256
 21
-0.9945339
 31
0.0
  0
LINE
  5
19E
330
EF
100
AcDbEntity
  8
AM_4
100
AcDbLine
 10
-1.6522999
 20
-0.9974473999999999
 30
0.0
 11
-1.6676043
 21
-0.9945339
 31
0.0
  0
LINE
  5
19F
330
EF
100
AcDbEntity
  8
AM_4
100
AcDbLine
 10
-1.6400564
 20
-1.0032743
 30
0.0
 11
-1.6522999
 21
-0.9974473999999999
 31
0.0
  0
LINE
  5
1A0
330
EF
100
AcDbEntity
  8
AM_4
100
AcDbLine
 10
-1.6278129
 20
-1.0149281
 30
0.0
 11
-1.6400564
 21
-1.0032743
 31
0.0
  0
LINE
  5
1A1
330
EF
100
AcDbEntity
  8
AM_4
100
AcDbLine
 10
-1.6216911
 20
-1.0265819
 30
0.0
 11
-1.6278129
 21
-1.0149281
 31
0.0
  0
LINE
  5
1A2
330
EF
100
AcDbEntity
  8
AM_4
100
AcDbLine
 10
-1.6186302
 20
-1.0411491
 30
0.0
 11
-1.6216911
 21
-1.0265819
 31
0.0
  0
LINE
  5
1A3
330
EF
100
AcDbEntity
  8
AM_4
100
AcDbLine
 10
-1.6278129
 20
-1.111072073203
 30
0.0
 11
-1.6216911
 21
-1.099418129902
 31
0.0
  0
LINE
  5
1A4
330
EF
100
AcDbEntity
  8
AM_4
100
AcDbLine
 10
-1.6400564
 20
-1.122725622803
 30
0.0
 11
-1.6278129
 21
-1.111072073203
 31
0.0
  0
LINE
  5
1A5
330
EF
100
AcDbEntity
  8
AM_4
100
AcDbLine
 10
-1.6522999
 20
-1.128552791304
 30
0.0
 11
-1.6400564
 21
-1.122725622803
 31
0.0
  0
LINE
  5
1A6
330
EF
100
AcDbEntity
  8
AM_4
100
AcDbLine
 10
-1.6676043
 20
-1.131466178704
 30
0.0
 11
-1.6522999
 21
-1.128552791304
 31
0.0
  0
LINE
  5
1A7
330
EF
100
AcDbEntity
  8
AM_4
100
AcDbLine
 10
-1.741065383256
 20
-1.131466178704
 30
0.0
 11
-1.6676043
 21
-1.131466178704
 31
0.0
  0
LINE
  5
1A8
330
EF
100
AcDbEntity
  8
AM_4
100
AcDbLine
 10
-1.884926878264
 20
-1.0265819
 30
0.0
 11
-1.887987509838
 21
-1.0411491
 31
0.0
  0
LINE
  5
1A9
330
EF
100
AcDbEntity
  8
AM_4
100
AcDbLine
 10
-1.878804827714
 20
-1.0149281
 30
0.0
 11
-1.884926878264
 21
-1.0265819
 31
0.0
  0
LINE
  5
1AA
330
EF
100
AcDbEntity
  8
AM_4
100
AcDbLine
 10
-1.866561514016
 20
-1.0032743
 30
0.0
 11
-1.878804827714
 21
-1.0149281
 31
0.0
  0
LINE
  5
1AB
330
EF
100
AcDbEntity
  8
AM_4
100
AcDbLine
 10
-1.854317806617
 20
-0.9974473999999999
 30
0.0
 11
-1.866561514016
 21
-1.0032743
 31
0.0
  0
LINE
  5
1AC
330
EF
100
AcDbEntity
  8
AM_4
100
AcDbLine
 10
-1.839013467644
 20
-0.9945339
 30
0.0
 11
-1.854317806617
 21
-0.9974473999999999
 31
0.0
  0
LINE
  5
1AD
330
EF
100
AcDbEntity
  8
AM_4
100
AcDbLine
 10
-1.814526446547
 20
-0.9945339
 30
0.0
 11
-1.839013467644
 21
-0.9945339
 31
0.0
  0
LINE
  5
1AE
330
EF
100
AcDbEntity
  8
AM_4
100
AcDbLine
 10
-1.799222107574
 20
-0.9974473999999999
 30
0.0
 11
-1.814526446547
 21
-0.9945339
 31
0.0
  0
LINE
  5
1AF
330
EF
100
AcDbEntity
  8
AM_4
100
AcDbLine
 10
-1.786978400175
 20
-1.0032743
 30
0.0
 11
-1.799222107574
 21
-0.9974473999999999
 31
0.0
  0
LINE
  5
1B0
330
EF
100
AcDbEntity
  8
AM_4
100
AcDbLine
 10
-1.774735086477
 20
-1.0149281
 30
0.0
 11
-1.786978400175
 21
-1.0032743
 31
0.0
  0
LINE
  5
1B1
330
EF
100
AcDbEntity
  8
AM_4
100
AcDbLine
 10
-1.768613429628
 20
-1.0265819
 30
0.0
 11
-1.774735086477
 21
-1.0149281
 31
0.0
  0
LINE
  5
1B2
330
EF
100
AcDbEntity
  8
AM_4
100
AcDbLine
 10
-1.765552404353
 20
-1.0411491
 30
0.0
 11
-1.768613429628
 21
-1.0265819
 31
0.0
  0
LINE
  5
1B3
330
EF
100
AcDbEntity
  8
AM_4
100
AcDbLine
 10
-1.765552404353
 20
-1.0848508779412
 30
0.0
 11
-1.765552404353
 21
-1.0411491
 31
0.0
  0
LINE
  5
1B4
330
EF
100
AcDbEntity
  8
AM_4
100
AcDbLine
 10
-1.768613429628
 20
-1.099418129902
 30
0.0
 11
-1.765552404353
 21
-1.0848508779412
 31
0.0
  0
LINE
  5
1B5
330
EF
100
AcDbEntity
  8
AM_4
100
AcDbLine
 10
-1.774735086477
 20
-1.111072073203
 30
0.0
 11
-1.768613429628
 21
-1.099418129902
 31
0.0
  0
LINE
  5
1B6
330
EF
100
AcDbEntity
  8
AM_4
100
AcDbLine
 10
-1.786978400175
 20
-1.122725622803
 30
0.0
 11
-1.774735086477
 21
-1.111072073203
 31
0.0
  0
LINE
  5
1B7
330
EF
100
AcDbEntity
  8
AM_4
100
AcDbLine
 10
-1.799222107574
 20
-1.128552791304
 30
0.0
 11
-1.786978400175
 21
-1.122725622803
 31
0.0
  0
LINE
  5
1B8
330
EF
100
AcDbEntity
  8
AM_4
100
AcDbLine
 10
-1.814526446547
 20
-1.131466178704
 30
0.0
 11
-1.799222107574
 21
-1.128552791304
 31
0.0
  0
LINE
  5
1B9
330
EF
100
AcDbEntity
  8
AM_4
100
AcDbLine
 10
-1.839013467644
 20
-1.131466178704
 30
0.0
 11
-1.814526446547
 21
-1.131466178704
 31
0.0
  0
LINE
  5
1BA
330
EF
100
AcDbEntity
  8
AM_4
100
AcDbLine
 10
-1.854317806617
 20
-1.128552791304
 30
0.0
 11
-1.839013467644
 21
-1.131466178704
 31
0.0
  0
LINE
  5
1BB
330
EF
100
AcDbEntity
  8
AM_4
100
AcDbLine
 10
-1.866561514016
 20
-1.122725622803
 30
0.0
 11
-1.854317806617
 21
-1.128552791304
 31
0.0
  0
LINE
  5
1BC
330
EF
100
AcDbEntity
  8
AM_4
100
AcDbLine
 10
-1.878804827714
 20
-1.111072073203
 30
0.0
 11
-1.866561514016
 21
-1.122725622803
 31
0.0
  0
LINE
  5
1BD
330
EF
100
AcDbEntity
  8
AM_4
100
AcDbLine
 10
-1.884926878264
 20
-1.099418129902
 30
0.0
 11
-1.878804827714
 21
-1.111072073203
 31
0.0
  0
LINE
  5
1BE
330
EF
100
AcDbEntity
  8
AM_4
100
AcDbLine
 10
-1.887987509838
 20
-1.0848508779412
 30
0.0
 11
-1.884926878264
 21
-1.099418129902
 31
0.0
  0
LINE
  5
1BF
330
EF
100
AcDbEntity
  8
AM_4
100
AcDbLine
 10
-1.887987509838
 20
-1.0411491
 30
0.0
 11
-1.887987509838
 21
-1.0848508779412
 31
0.0
  0
LINE
  5
1C0
330
EF
100
AcDbEntity
  8
AM_4
100
AcDbLine
 10
-1.961448573129
 20
-0.9945339
 30
0.0
 11
-2.03490963642
 21
-0.9945339
 31
0.0
  0
LINE
  5
1C1
330
EF
100
AcDbEntity
  8
AM_4
100
AcDbLine
 10
-1.946144234156
 20
-0.9974473999999999
 30
0.0
 11
-1.961448573129
 21
-0.9945339
 31
0.0
  0
LINE
  5
1C2
330
EF
100
AcDbEntity
  8
AM_4
100
AcDbLine
 10
-1.933900920458
 20
-1.0032743
 30
0.0
 11
-1.946144234156
 21
-0.9974473999999999
 31
0.0
  0
LINE
  5
1C3
330
EF
100
AcDbEntity
  8
AM_4
100
AcDbLine
 10
-1.921657213059
 20
-1.0149281
 30
0.0
 11
-1.933900920458
 21
-1.0032743
 31
0.0
  0
LINE
  5
1C4
330
EF
100
AcDbEntity
  8
AM_4
100
AcDbLine
 10
-1.91553555621
 20
-1.0265819
 30
0.0
 11
-1.921657213059
 21
-1.0149281
 31
0.0
  0
LINE
  5
1C5
330
EF
100
AcDbEntity
  8
AM_4
100
AcDbLine
 10
-1.912474530935
 20
-1.0411491
 30
0.0
 11
-1.91553555621
 21
-1.0265819
 31
0.0
  0
LINE
  5
1C6
330
EF
100
AcDbEntity
  8
AM_4
100
AcDbLine
 10
-1.912474530935
 20
-1.0848508779412
 30
0.0
 11
-1.912474530935
 21
-1.0411491
 31
0.0
  0
LINE
  5
1C7
330
EF
100
AcDbEntity
  8
AM_4
100
AcDbLine
 10
-1.91553555621
 20
-1.099418129902
 30
0.0
 11
-1.912474530935
 21
-1.0848508779412
 31
0.0
  0
LINE
  5
1C8
330
EF
100
AcDbEntity
  8
AM_4
100
AcDbLine
 10
-1.921657213059
 20
-1.111072073203
 30
0.0
 11
-1.91553555621
 21
-1.099418129902
 31
0.0
  0
LINE
  5
1C9
330
EF
100
AcDbEntity
  8
AM_4
100
AcDbLine
 10
-1.933900920458
 20
-1.122725622803
 30
0.0
 11
-1.921657213059
 21
-1.111072073203
 31
0.0
  0
LINE
  5
1CA
330
EF
100
AcDbEntity
  8
AM_4
100
AcDbLine
 10
-1.946144234156
 20
-1.128552791304
 30
0.0
 11
-1.933900920458
 21
-1.122725622803
 31
0.0
  0
LINE
  5
1CB
330
EF
100
AcDbEntity
  8
AM_4
100
AcDbLine
 10
-1.961448573129
 20
-1.131466178704
 30
0.0
 11
-1.946144234156
 21
-1.128552791304
 31
0.0
  0
LINE
  5
1CC
330
EF
100
AcDbEntity
  8
AM_4
100
AcDbLine
 10
-2.03490963642
 20
-1.131466178704
 30
0.0
 11
-1.961448573129
 21
-1.131466178704
 31
0.0
  0
LINE
  5
1CD
330
EF
100
AcDbEntity
  8
AM_4
100
AcDbLine
 10
-2.03490963642
 20
-0.9945339
 30
0.0
 11
-2.03490963642
 21
-1.131466178704
 31
0.0
  0
LINE
  5
1CE
330
EF
100
AcDbEntity
  8
AM_4
100
AcDbLine
 10
-0.8910704769231957
 20
-1.313
 30
0.0
 11
-0.8910704769231957
 21
-0.8130000000000001
 31
0.0
  0
LINE
  5
1CF
330
EF
100
AcDbEntity
  8
AM_4
100
AcDbLine
 10
-2.4409449
 20
-0.813
 30
0.0
 11
-0.8910704769231957
 21
-0.8130000000000001
 31
0.0
  0
LINE
  5
1D0
330
EF
100
AcDbEntity
  8
AM_4
100
AcDbLine
 10
-2.375
 20
-1.313
 30
0.0
 11
-2.375
 21
-0.8129999999999996
 31
0.0
  0
LINE
  5
1D1
330
EF
100
AcDbEntity
  8
AM_4
100
AcDbLine
 10
-1.6676043
 20
-1.0120146
 30
0.0
 11
-1.7227000977482
 21
-1.0120146
 31
0.0
  0
LINE
  5
1D2
330
EF
100
AcDbEntity
  8
AM_4
100
AcDbLine
 10
-1.7227000977482
 20
-1.0120146
 30
0.0
 11
-1.7227000977482
 21
-1.113985460603
 31
0.0
  0
LINE
  5
1D3
330
EF
100
AcDbEntity
  8
AM_4
100
AcDbLine
 10
-1.7227000977482
 20
-1.113985460603
 30
0.0
 11
-1.6676043
 21
-1.113985460603
 31
0.0
  0
LINE
  5
1D4
330
EF
100
AcDbEntity
  8
AM_4
100
AcDbLine
 10
-1.6676043
 20
-1.113985460603
 30
0.0
 11
-1.6553608
 21
-1.111072073203
 31
0.0
  0
LINE
  5
1D5
330
EF
100
AcDbEntity
  8
AM_4
100
AcDbLine
 10
-1.6553608
 20
-1.111072073203
 30
0.0
 11
-1.6461781
 21
-1.105244904702
 31
0.0
  0
LINE
  5
1D6
330
EF
100
AcDbEntity
  8
AM_4
100
AcDbLine
 10
-1.6461781
 20
-1.105244904702
 30
0.0
 11
-1.6400564
 21
-1.0965047031319
 31
0.0
  0
LINE
  5
1D7
330
EF
100
AcDbEntity
  8
AM_4
100
AcDbLine
 10
-1.6400564
 20
-1.0965047031319
 30
0.0
 11
-1.6369955
 21
-1.0848508779412
 31
0.0
  0
LINE
  5
1D8
330
EF
100
AcDbEntity
  8
AM_4
100
AcDbLine
 10
-1.6369955
 20
-1.0848508779412
 30
0.0
 11
-1.6369955
 21
-1.0411491
 31
0.0
  0
LINE
  5
1D9
330
EF
100
AcDbEntity
  8
AM_4
100
AcDbLine
 10
-1.6369955
 20
-1.0411491
 30
0.0
 11
-1.6400564
 21
-1.0294953
 31
0.0
  0
LINE
  5
1DA
330
EF
100
AcDbEntity
  8
AM_4
100
AcDbLine
 10
-1.6400564
 20
-1.0294953
 30
0.0
 11
-1.6461781
 21
-1.020755
 31
0.0
  0
LINE
  5
1DB
330
EF
100
AcDbEntity
  8
AM_4
100
AcDbLine
 10
-1.6461781
 20
-1.020755
 30
0.0
 11
-1.6553608
 21
-1.0149281
 31
0.0
  0
LINE
  5
1DC
330
EF
100
AcDbEntity
  8
AM_4
100
AcDbLine
 10
-1.6553608
 20
-1.0149281
 30
0.0
 11
-1.6676043
 21
-1.0120146
 31
0.0
  0
LWPOLYLINE
  5
1DD
330
EF
100
AcDbEntity
  8
AM_4
100
AcDbPolyline
 90
       19
 70
     0
 43
0.0
 10
2.5
 20
-0.8720550987555075
 10
2.499775277406813
 20
-0.8669081076567059
 10
2.499102820118807
 20
-0.8618002882774756
 10
2.497987745941985
 20
-0.8567705142074783
 10
2.496438541264132
 20
-0.8518570650644476
 10
2.494466996468282
 20
-0.8470973351631832
 10
2.492088116200784
 20
-0.8425275489222375
 10
2.489320005176879
 20
-0.8381824851742163
 10
2.486183730392891
 20
-0.8340952124778634
 10
2.48270316079366
 20
-0.8302968374463606
 10
2.478904785615462
 20
-0.8268162680072195
 10
2.474817512786925
 20
-0.823679993395497
 10
2.470472448922237
 20
-0.8209118825547228
 10
2.465902662581029
 20
-0.8185330024798261
 10
2.46114293259667
 20
-0.816561457884584
 10
2.456229483388345
 20
-0.8150122534138177
 10
2.451199709271351
 20
-0.8138971794489845
 10
2.446091889863779
 20
-0.8132247223762571
 10
2.440944899999999
 20
-0.8129999999999996
  0
LINE
  5
1DE
330
EF
100
AcDbEntity
  8
AM_4
100
AcDbLine
 10
2.440944899999999
 20
-0.813
 30
0.0
 11
0.8910645769147278
 21
-0.8129999999999438
 31
0.0
  0
LINE
  5
1DF
330
EF
100
AcDbEntity
  8
AM_4
100
AcDbLine
 10
2.375
 20
-1.313
 30
0.0
 11
2.375
 21
-0.813
 31
0.0
  0
LINE
  5
1E0
330
EF
100
AcDbEntity
  8
AM_4
100
AcDbLine
 10
-2.5
 20
-1.313
 30
0.0
 11
2.5
 21
-1.313
 31
0.0
  0
LINE
  5
1E1
330
EF
100
AcDbEntity
  8
AM_4
100
AcDbLine
 10
2.5
 20
-1.313
 30
0.0
 11
2.5
 21
-0.8720551000000006
 31
0.0
  0
ENDBLK
  5
F2
330
EF
100
AcDbEntity
  8
0
100
AcDbBlockEnd
  0
ENDSEC
  0
SECTION
  2
ENTITIES
  0
INSERT
  5
6F
330
1F
100
AcDbEntity
  8
0
100
AcDbBlockReference
  2
1__129260_0
 10
0.0
 20
0.0
 30
0.0
  0
POINT
  5
1E3
330
1F
100
AcDbEntity
  8
ConnectionPoints
100
AcDbPoint
 10
0.0
 20
0.0
 30
0.0
  0
POINT
  5
1E4
330
1F
100
AcDbEntity
  8
ConnectionPoints
100
AcDbPoint
 10
0.0
 20
0.0
 30
-0.484375
  0
POINT
  5
1E5
330
1F
100
AcDbEntity
  8
ConnectionPoints
100
AcDbPoint
 10
0.0
 20
0.0
 30
0.0
  0
ENDSEC
  0
SECTION
  2
OBJECTS
  0
DICTIONARY
  5
C
330
0
100
AcDbDictionary
281
     1
  3
ACAD_DETAILVIEWSTYLE
350
1ED
  3
ACAD_GROUP
350
D
  3
ACAD_LAYOUT
350
1A
  3
ACAD_MATERIAL
350
43
  3
ACAD_MLEADERSTYLE
350
6B
  3
ACAD_MLINESTYLE
350
17
  3
ACAD_PLOTSETTINGS
350
19
  3
ACAD_PLOTSTYLENAME
350
E
  3
ACAD_SCALELIST
350
47
  3
ACAD_SECTIONVIEWSTYLE
350
1EE
  3
ACAD_TABLESTYLE
350
69
  3
ACAD_VISUALSTYLE
350
2A
  3
ACDB_RECOMPOSE_DATA
350
1EA
  3
AcDbVariableDictionary
350
1E6
  0
SUN
  5
6D
330
29
100
AcDbSun
 90
        1
290
     0
 63
     7
421
 16777215
 40
1.0
291
     1
 91
  2455826
 92
 54000000
292
     0
 70
     2
 71
   256
280
     1
  0
DICTIONARY
  5
1ED
102
{ACAD_REACTORS
330
C
102
}
330
C
100
AcDbDictionary
281
     1
  0
DICTIONARY
  5
D
102
{ACAD_REACTORS
330
C
102
}
330
C
100
AcDbDictionary
281
     1
  0
DICTIONARY
  5
1A
102
{ACAD_REACTORS
330
C
102
}
330
C
100
AcDbDictionary
281
     1
  3
Layout1
350
1E
  3
Layout2
350
26
  3
Model
350
22
  0
DICTIONARY
  5
43
102
{ACAD_REACTORS
330
C
102
}
330
C
100
AcDbDictionary
281
     1
  3
ByBlock
350
45
  3
ByLayer
350
44
  3
Global
350
46
  0
DICTIONARY
  5
6B
102
{ACAD_REACTORS
330
C
102
}
330
C
100
AcDbDictionary
281
     1
  3
Standard
350
6C
  0
DICTIONARY
  5
17
102
{ACAD_REACTORS
330
C
102
}
330
C
100
AcDbDictionary
281
     1
  3
Standard
350
18
  0
DICTIONARY
  5
19
102
{ACAD_REACTORS
330
C
102
}
330
C
100
AcDbDictionary
281
     1
  0
ACDBDICTIONARYWDFLT
  5
E
102
{ACAD_REACTORS
330
C
102
}
330
C
100
AcDbDictionary
281
     1
  3
Normal
350
F
100
AcDbDictionaryWithDefault
340
F
  0
DICTIONARY
  5
47
102
{ACAD_REACTORS
330
C
102
}
330
C
100
AcDbDictionary
281
     1
  3
A0
350
48
  3
A1
350
49
  3
A2
350
4A
  3
A3
350
4B
  3
A4
350
4C
  3
A5
350
4D
  3
A6
350
4E
  3
A7
350
4F
  3
A8
350
50
  3
A9
350
51
  3
B0
350
52
  3
B1
350
53
  3
B2
350
54
  3
B3
350
55
  3
B4
350
56
  3
B5
350
57
  3
B6
350
58
  3
B7
350
59
  3
B8
350
5A
  3
B9
350
5B
  3
C0
350
5C
  3
C1
350
5D
  3
C2
350
5E
  3
C3
350
5F
  3
C4
350
60
  3
C5
350
61
  3
C6
350
62
  3
C7
350
63
  3
C8
350
64
  3
C9
350
65
  3
D0
350
66
  3
D1
350
67
  3
D2
350
68
  0
DICTIONARY
  5
1EE
102
{ACAD_REACTORS
330
C
102
}
330
C
100
AcDbDictionary
281
     1
  0
DICTIONARY
  5
69
102
{ACAD_REACTORS
330
C
102
}
330
C
100
AcDbDictionary
281
     1
  3
Standard
350
6A
  0
DICTIONARY
  5
2A
102
{ACAD_REACTORS
330
C
102
}
330
C
100
AcDbDictionary
281
     1
  3
2dWireframe
350
2F
  3
Basic
350
32
  3
Brighten
350
36
  3
ColorChange
350
3A
  3
Conceptual
350
34
  3
Dim
350
35
  3
EdgeColorOff
350
3D
  3
Facepattern
350
39
  3
Flat
350
2B
  3
FlatWithEdges
350
2C
  3
Gouraud
350
2D
  3
GouraudWithEdges
350
2E
  3
Hidden
350
31
  3
JitterOff
350
3B
  3
Linepattern
350
38
  3
OverhangOff
350
3C
  3
Realistic
350
33
  3
Shaded
350
42
  3
Shaded with edges
350
41
  3
Shades of Gray
350
3E
  3
Sketchy
350
3F
  3
Thicken
350
37
  3
Wireframe
350
30
  3
X-Ray
350
40
  0
XRECORD
  5
1EA
102
{ACAD_REACTORS
330
C
102
}
330
C
100
AcDbXrecord
280
     1
 90
        1
330
6A
  0
DICTIONARY
  5
1E6
102
{ACAD_REACTORS
330
C
102
}
330
C
100
AcDbDictionary
281
     1
  3
CANNOSCALE
350
1E7
  3
CMLEADERSTYLE
350
1EC
  3
CTABLESTYLE
350
1EB
  0
LAYOUT
  5
1E
102
{ACAD_REACTORS
330
1A
102
}
330
1A
100
AcDbPlotSettings
  1

  2
none_device
  4

  6

 40
0.0
 41
0.0
 42
0.0
 43
0.0
 44
0.0
 45
0.0
 46
0.0
 47
0.0
 48
0.0
 49
0.0
140
0.0
141
0.0
142
1.0
143
1.0
 70
   688
 72
     0
 73
     0
 74
     5
  7

 75
    16
 76
     0
 77
     2
 78
   300
147
1.0
148
0.0
149
0.0
100
AcDbLayout
  1
Layout1
 70
     1
 71
     1
 10
0.0
 20
0.0
 11
12.0
 21
9.0
 12
0.0
 22
0.0
 32
0.0
 14
1.000000000000000E+20
 24
1.000000000000000E+20
 34
1.000000000000000E+20
 15
-1.000000000000000E+20
 25
-1.000000000000000E+20
 35
-1.000000000000000E+20
146
0.0
 13
0.0
 23
0.0
 33
0.0
 16
1.0
 26
0.0
 36
0.0
 17
0.0
 27
1.0
 37
0.0
 76
     0
330
1B
  0
LAYOUT
  5
26
102
{ACAD_REACTORS
330
1A
102
}
330
1A
100
AcDbPlotSettings
  1

  2
none_device
  4

  6

 40
0.0
 41
0.0
 42
0.0
 43
0.0
 44
0.0
 45
0.0
 46
0.0
 47
0.0
 48
0.0
 49
0.0
140
0.0
141
0.0
142
1.0
143
1.0
 70
   688
 72
     0
 73
     0
 74
     5
  7

 75
    16
 76
     0
 77
     2
 78
   300
147
1.0
148
0.0
149
0.0
100
AcDbLayout
  1
Layout2
 70
     1
 71
     2
 10
0.0
 20
0.0
 11
0.0
 21
0.0
 12
0.0
 22
0.0
 32
0.0
 14
0.0
 24
0.0
 34
0.0
 15
0.0
 25
0.0
 35
0.0
146
0.0
 13
0.0
 23
0.0
 33
0.0
 16
1.0
 26
0.0
 36
0.0
 17
0.0
 27
1.0
 37
0.0
 76
     0
330
23
  0
LAYOUT
  5
22
102
{ACAD_REACTORS
330
1A
102
}
330
1A
100
AcDbPlotSettings
  1

  2
none_device
  4
Letter_(8.50_x_11.00_Inches)
  6

 40
6.35
 41
6.35
 42
6.35000508
 43
6.35000508
 44
215.9
 45
279.4
 46
0.0
 47
0.0
 48
0.0
 49
0.0
140
0.0
141
0.0
142
1.0
143
1.0
 70
  1712
 72
     0
 73
     0
 74
     0
  7

 75
     0
 76
     0
 77
     2
 78
   300
147
1.0
148
0.0
149
0.0
100
AcDbLayout
  1
Model
 70
     1
 71
     0
 10
0.0
 20
0.0
 11
12.0
 21
9.0
 12
0.0
 22
0.0
 32
0.0
 14
1.000000000000000E+20
 24
1.000000000000000E+20
 34
1.000000000000000E+20
 15
-1.000000000000000E+20
 25
-1.000000000000000E+20
 35
-1.000000000000000E+20
146
0.0
 13
0.0
 23
0.0
 33
0.0
 16
1.0
 26
0.0
 36
0.0
 17
0.0
 27
1.0
 37
0.0
 76
     0
330
1F
331
29
  0
MATERIAL
  5
45
102
{ACAD_REACTORS
330
43
102
}
330
43
100
AcDbMaterial
  1
ByBlock
 72
     1
 94
      127
  0
MATERIAL
  5
44
102
{ACAD_REACTORS
330
43
102
}
330
43
100
AcDbMaterial
  1
ByLayer
 72
     1
 94
      127
  0
MATERIAL
  5
46
102
{ACAD_REACTORS
330
43
102
}
330
43
100
AcDbMaterial
  1
Global
 72
     1
 94
      127
  0
MLEADERSTYLE
  5
6C
102
{ACAD_REACTORS
330
6B
102
}
330
6B
100
AcDbMLeaderStyle
179
     2
170
     2
171
     1
172
     0
 90
        2
 40
0.0
 41
0.0
173
     1
 91
-1056964608
340
14
 92
       -2
290
     1
 42
0.09
291
     1
 43
0.36
  3
Standard
341
0
 44
0.18
300

342
11
174
     1
178
     6
175
     1
176
     0
 93
-1056964608
 45
0.18
292
     0
297
     0
 46
0.18
343
0
 94
-1056964608
 47
1.0
 49
1.0
140
1.0
293
     1
141
0.0
294
     1
177
     0
142
1.0
295
     0
296
     0
143
0.125
271
     0
272
     9
273
     9
298
     0
  0
MLINESTYLE
  5
18
102
{ACAD_REACTORS
330
17
102
}
330
17
100
AcDbMlineStyle
  2
Standard
 70
     0
  3

 62
   256
 51
90.0
 52
90.0
 71
     2
 49
0.5
 62
   256
  6
BYLAYER
 49
-0.5
 62
   256
  6
BYLAYER
  0
ACDBPLACEHOLDER
  5
F
102
{ACAD_REACTORS
330
E
102
}
330
E
  0
SCALE
  5
48
102
{ACAD_REACTORS
330
47
102
}
330
47
100
AcDbScale
 70
     0
300
1:1
140
1.0
141
1.0
290
     1
  0
SCALE
  5
49
102
{ACAD_REACTORS
330
47
102
}
330
47
100
AcDbScale
 70
     0
300
1:2
140
1.0
141
2.0
290
     0
  0
SCALE
  5
4A
102
{ACAD_REACTORS
330
47
102
}
330
47
100
AcDbScale
 70
     0
300
1:4
140
1.0
141
4.0
290
     0
  0
SCALE
  5
4B
102
{ACAD_REACTORS
330
47
102
}
330
47
100
AcDbScale
 70
     0
300
1:5
140
1.0
141
5.0
290
     0
  0
SCALE
  5
4C
102
{ACAD_REACTORS
330
47
102
}
330
47
100
AcDbScale
 70
     0
300
1:8
140
1.0
141
8.0
290
     0
  0
SCALE
  5
4D
102
{ACAD_REACTORS
330
47
102
}
330
47
100
AcDbScale
 70
     0
300
1:10
140
1.0
141
10.0
290
     0
  0
SCALE
  5
4E
102
{ACAD_REACTORS
330
47
102
}
330
47
100
AcDbScale
 70
     0
300
1:16
140
1.0
141
16.0
290
     0
  0
SCALE
  5
4F
102
{ACAD_REACTORS
330
47
102
}
330
47
100
AcDbScale
 70
     0
300
1:20
140
1.0
141
20.0
290
     0
  0
SCALE
  5
50
102
{ACAD_REACTORS
330
47
102
}
330
47
100
AcDbScale
 70
     0
300
1:30
140
1.0
141
30.0
290
     0
  0
SCALE
  5
51
102
{ACAD_REACTORS
330
47
102
}
330
47
100
AcDbScale
 70
     0
300
1:40
140
1.0
141
40.0
290
     0
  0
SCALE
  5
52
102
{ACAD_REACTORS
330
47
102
}
330
47
100
AcDbScale
 70
     0
300
1:50
140
1.0
141
50.0
290
     0
  0
SCALE
  5
53
102
{ACAD_REACTORS
330
47
102
}
330
47
100
AcDbScale
 70
     0
300
1:100
140
1.0
141
100.0
290
     0
  0
SCALE
  5
54
102
{ACAD_REACTORS
330
47
102
}
330
47
100
AcDbScale
 70
     0
300
2:1
140
2.0
141
1.0
290
     0
  0
SCALE
  5
55
102
{ACAD_REACTORS
330
47
102
}
330
47
100
AcDbScale
 70
     0
300
4:1
140
4.0
141
1.0
290
     0
  0
SCALE
  5
56
102
{ACAD_REACTORS
330
47
102
}
330
47
100
AcDbScale
 70
     0
300
8:1
140
8.0
141
1.0
290
     0
  0
SCALE
  5
57
102
{ACAD_REACTORS
330
47
102
}
330
47
100
AcDbScale
 70
     0
300
10:1
140
10.0
141
1.0
290
     0
  0
SCALE
  5
58
102
{ACAD_REACTORS
330
47
102
}
330
47
100
AcDbScale
 70
     0
300
100:1
140
100.0
141
1.0
290
     0
  0
SCALE
  5
59
102
{ACAD_REACTORS
330
47
102
}
330
47
100
AcDbScale
 70
     0
300
1/128" = 1'-0"
140
0.0078125
141
12.0
290
     0
  0
SCALE
  5
5A
102
{ACAD_REACTORS
330
47
102
}
330
47
100
AcDbScale
 70
     0
300
1/64" = 1'-0"
140
0.015625
141
12.0
290
     0
  0
SCALE
  5
5B
102
{ACAD_REACTORS
330
47
102
}
330
47
100
AcDbScale
 70
     0
300
1/32" = 1'-0"
140
0.03125
141
12.0
290
     0
  0
SCALE
  5
5C
102
{ACAD_REACTORS
330
47
102
}
330
47
100
AcDbScale
 70
     0
300
1/16" = 1'-0"
140
0.0625
141
12.0
290
     0
  0
SCALE
  5
5D
102
{ACAD_REACTORS
330
47
102
}
330
47
100
AcDbScale
 70
     0
300
3/32" = 1'-0"
140
0.09375
141
12.0
290
     0
  0
SCALE
  5
5E
102
{ACAD_REACTORS
330
47
102
}
330
47
100
AcDbScale
 70
     0
300
1/8" = 1'-0"
140
0.125
141
12.0
290
     0
  0
SCALE
  5
5F
102
{ACAD_REACTORS
330
47
102
}
330
47
100
AcDbScale
 70
     0
300
3/16" = 1'-0"
140
0.1875
141
12.0
290
     0
  0
SCALE
  5
60
102
{ACAD_REACTORS
330
47
102
}
330
47
100
AcDbScale
 70
     0
300
1/4" = 1'-0"
140
0.25
141
12.0
290
     0
  0
SCALE
  5
61
102
{ACAD_REACTORS
330
47
102
}
330
47
100
AcDbScale
 70
     0
300
3/8" = 1'-0"
140
0.375
141
12.0
290
     0
  0
SCALE
  5
62
102
{ACAD_REACTORS
330
47
102
}
330
47
100
AcDbScale
 70
     0
300
1/2" = 1'-0"
140
0.5
141
12.0
290
     0
  0
SCALE
  5
63
102
{ACAD_REACTORS
330
47
102
}
330
47
100
AcDbScale
 70
     0
300
3/4" = 1'-0"
140
0.75
141
12.0
290
     0
  0
SCALE
  5
64
102
{ACAD_REACTORS
330
47
102
}
330
47
100
AcDbScale
 70
     0
300
1" = 1'-0"
140
1.0
141
12.0
290
     0
  0
SCALE
  5
65
102
{ACAD_REACTORS
330
47
102
}
330
47
100
AcDbScale
 70
     0
300
1-1/2" = 1'-0"
140
1.5
141
12.0
290
     0
  0
SCALE
  5
66
102
{ACAD_REACTORS
330
47
102
}
330
47
100
AcDbScale
 70
     0
300
3" = 1'-0"
140
3.0
141
12.0
290
     0
  0
SCALE
  5
67
102
{ACAD_REACTORS
330
47
102
}
330
47
100
AcDbScale
 70
     0
300
6" = 1'-0"
140
6.0
141
12.0
290
     0
  0
SCALE
  5
68
102
{ACAD_REACTORS
330
47
102
}
330
47
100
AcDbScale
 70
     0
300
1'-0" = 1'-0"
140
12.0
141
12.0
290
     0
  0
TABLESTYLE
  5
6A
102
{ACAD_REACTORS
330
69
102
}
102
{ACAD_XDICTIONARY
360
1E8
102
}
330
69
100
AcDbTableStyle
  3
Standard
 70
     0
 71
     0
 40
0.06
 41
0.06
280
     0
281
     0
  7
Standard
140
0.18
170
     2
 62
     0
 63
   257
283
     0
 90
        4
 91
        0
  1

274
    -2
284
     1
 64
     0
275
    -2
285
     1
 65
     0
276
    -2
286
     1
 66
     0
277
    -2
287
     1
 67
     0
278
    -2
288
     1
 68
     0
279
    -2
289
     1
 69
     0
  7
Standard
140
0.25
170
     5
 62
     0
 63
   257
283
     0
 90
        4
 91
        0
  1

274
    -2
284
     1
 64
     0
275
    -2
285
     1
 65
     0
276
    -2
286
     1
 66
     0
277
    -2
287
     1
 67
     0
278
    -2
288
     1
 68
     0
279
    -2
289
     1
 69
     0
  7
Standard
140
0.18
170
     5
 62
     0
 63
   257
283
     0
 90
        4
 91
        0
  1

274
    -2
284
     1
 64
     0
275
    -2
285
     1
 65
     0
276
    -2
286
     1
 66
     0
277
    -2
287
     1
 67
     0
278
    -2
288
     1
 68
     0
279
    -2
289
     1
 69
     0
  0
VISUALSTYLE
  5
2F
102
{ACAD_REACTORS
330
2A
102
}
330
2A
100
AcDbVisualStyle
  2
2dWireframe
 70
     4
177
     3
291
     0
 70
    58
 90
        0
176
     1
 90
        2
176
     1
 90
        0
176
     1
 90
        0
176
     1
 40
0.6
176
     1
 40
30.0
176
     1
 62
     7
420
 16777215
176
     1
 90
        1
176
     1
 90
        4
176
     1
 62
     7
176
     1
 62
   257
176
     1
 90
        1
176
     1
 90
        1
176
     1
 40
1.0
176
     1
 90
        0
176
     1
 62
   257
176
     1
 40
1.0
176
     1
 90
        1
176
     1
 90
        6
176
     1
 90
        2
176
     1
 62
     7
176
     1
 90
        5
176
     1
 90
        0
176
     1
 90
        0
176
     1
290
     0
176
     1
 90
        1
176
     1
 40
0.0
176
     1
 90
        0
176
     1
290
     1
176
     1
290
     1
176
     1
290
     0
176
     1
290
     0
176
     1
290
     0
176
     1
290
     0
176
     1
290
     0
176
     1
290
     0
176
     1
290
     0
176
     1
 90
       50
176
     1
 40
0.0
176
     1
 40
1.0
176
     1
 90
        0
176
     1
 62
    18
420
        0
176
     1
 90
       50
176
     1
 90
        3
176
     1
 62
     5
420
      255
176
     1
290
     0
176
     1
 90
       50
176
     1
 90
       50
176
     1
 90
       50
176
     1
290
     0
176
     1
 90
       50
176
     1
 62
   256
176
     0
 40
1.0
176
     0
 90
        2
176
     1
  1
strokes_ogs.tif
176
     1
290
     0
176
     1
 40
1.0
176
     1
 40
1.0
176
     1
  0
VISUALSTYLE
  5
32
102
{ACAD_REACTORS
330
2A
102
}
330
2A
100
AcDbVisualStyle
  2
Basic
 70
     7
177
     3
291
     1
 70
    58
 90
        1
176
     1
 90
        0
176
     1
 90
        1
176
     1
 90
        0
176
     1
 40
0.6
176
     1
 40
30.0
176
     1
 62
     7
420
 16777215
176
     1
 90
        0
176
     1
 90
        4
176
     1
 62
     7
176
     1
 62
   257
176
     1
 90
        1
176
     1
 90
        1
176
     1
 40
1.0
176
     1
 90
        8
176
     1
 62
     7
176
     1
 40
1.0
176
     1
 90
        1
176
     1
 90
        6
176
     1
 90
        2
176
     1
 62
     7
176
     1
 90
        5
176
     1
 90
        0
176
     1
 90
        0
176
     1
290
     0
176
     1
 90
        1
176
     1
 40
0.0
176
     1
 90
        0
176
     1
290
     0
176
     1
290
     1
176
     1
290
     1
176
     1
290
     0
176
     1
290
     0
176
     1
290
     0
176
     1
290
     0
176
     1
290
     0
176
     1
290
     0
176
     1
 90
       50
176
     1
 40
0.0
176
     1
 40
1.0
176
     1
 90
        0
176
     1
 62
    18
420
        0
176
     1
 90
       50
176
     1
 90
        3
176
     1
 62
     5
420
      255
176
     1
290
     0
176
     1
 90
       50
176
     1
 90
       50
176
     1
 90
       50
176
     1
290
     0
176
     1
 90
       50
176
     1
 62
   256
176
     0
 40
1.0
176
     0
 90
        2
176
     1
  1
strokes_ogs.tif
176
     1
290
     0
176
     1
 40
1.0
176
     1
 40
1.0
176
     1
  0
VISUALSTYLE
  5
36
102
{ACAD_REACTORS
330
2A
102
}
330
2A
100
AcDbVisualStyle
  2
Brighten
 70
    12
177
     3
291
     1
 70
    58
 90
        2
176
     1
 90
        2
176
     1
 90
        0
176
     1
 90
        0
176
     1
 40
0.6
176
     1
 40
30.0
176
     1
 62
     7
420
 16777215
176
     1
 90
        1
176
     1
 90
        4
176
     1
 62
     7
176
     1
 62
   257
176
     1
 90
        1
176
     1
 90
        1
176
     1
 40
1.0
176
     1
 90
        8
176
     1
 62
     7
176
     1
 40
1.0
176
     1
 90
        1
176
     1
 90
        6
176
     1
 90
        2
176
     1
 62
     7
176
     1
 90
        5
176
     1
 90
        0
176
     1
 90
        0
176
     1
290
     0
176
     1
 90
        1
176
     1
 40
50.0
176
     1
 90
        0
176
     1
290
     0
176
     1
290
     1
176
     1
290
     1
176
     1
290
     0
176
     1
290
     0
176
     1
290
     0
176
     1
290
     0
176
     1
290
     0
176
     1
290
     0
176
     1
 90
       50
176
     1
 40
0.0
176
     1
 40
1.0
176
     1
 90
        0
176
     1
 62
    18
420
        0
176
     1
 90
       50
176
     1
 90
        3
176
     1
 62
     5
420
      255
176
     1
290
     0
176
     1
 90
       50
176
     1
 90
       50
176
     1
 90
       50
176
     1
290
     0
176
     1
 90
       50
176
     1
 62
   256
176
     0
 40
1.0
176
     0
 90
        2
176
     1
  1
strokes_ogs.tif
176
     1
290
     0
176
     1
 40
1.0
176
     1
 40
1.0
176
     1
  0
VISUALSTYLE
  5
3A
102
{ACAD_REACTORS
330
2A
102
}
330
2A
100
AcDbVisualStyle
  2
ColorChange
 70
    16
177
     3
291
     1
 70
    58
 90
        2
176
     1
 90
        2
176
     1
 90
        3
176
     1
 90
        0
176
     1
 40
0.6
176
     1
 40
30.0
176
     1
 62
     8
420
  8421504
176
     1
 90
        1
176
     1
 90
        4
176
     1
 62
     7
176
     1
 62
   257
176
     1
 90
        1
176
     1
 90
        1
176
     1
 40
1.0
176
     1
 90
        8
176
     1
 62
     8
420
  8421504
176
     1
 40
1.0
176
     1
 90
        1
176
     1
 90
        6
176
     1
 90
        2
176
     1
 62
     7
176
     1
 90
        5
176
     1
 90
        0
176
     1
 90
        0
176
     1
290
     0
176
     1
 90
        1
176
     1
 40
0.0
176
     1
 90
        0
176
     1
290
     0
176
     1
290
     1
176
     1
290
     1
176
     1
290
     0
176
     1
290
     0
176
     1
290
     0
176
     1
290
     0
176
     1
290
     0
176
     1
290
     0
176
     1
 90
       50
176
     1
 40
0.0
176
     1
 40
1.0
176
     1
 90
        0
176
     1
 62
    18
420
        0
176
     1
 90
       50
176
     1
 90
        3
176
     1
 62
     5
420
      255
176
     1
290
     0
176
     1
 90
       50
176
     1
 90
       50
176
     1
 90
       50
176
     1
290
     0
176
     1
 90
       50
176
     1
 62
   256
176
     0
 40
1.0
176
     0
 90
        2
176
     1
  1
strokes_ogs.tif
176
     1
290
     0
176
     1
 40
1.0
176
     1
 40
1.0
176
     1
  0
VISUALSTYLE
  5
34
102
{ACAD_REACTORS
330
2A
102
}
330
2A
100
AcDbVisualStyle
  2
Conceptual
 70
     9
177
     3
291
     0
 70
    58
 90
        3
176
     1
 90
        2
176
     1
 90
        0
176
     1
 90
        0
176
     1
 40
0.6
176
     1
 40
30.0
176
     1
 62
     7
420
 16777215
176
     1
 90
        2
176
     1
 90
        2
176
     1
 62
     7
176
     1
 62
   257
176
     1
 90
        1
176
     1
 90
        1
176
     1
 40
179.0
176
     1
 90
        8
176
     1
 62
     7
176
     1
 40
1.0
176
     1
 90
        1
176
     1
 90
        6
176
     1
 90
        2
176
     1
 62
     7
176
     1
 90
        3
176
     1
 90
        0
176
     1
 90
        0
176
     1
290
     0
176
     1
 90
        1
176
     1
 40
0.0
176
     1
 90
        0
176
     1
290
     0
176
     1
290
     1
176
     1
290
     1
176
     1
290
     0
176
     1
290
     0
176
     1
290
     0
176
     1
290
     0
176
     1
290
     0
176
     1
290
     0
176
     1
 90
       50
176
     1
 40
0.0
176
     1
 40
1.0
176
     1
 90
        0
176
     1
 62
    18
420
        0
176
     1
 90
       50
176
     1
 90
        3
176
     1
 62
     5
420
      255
176
     1
290
     0
176
     1
 90
       50
176
     1
 90
       50
176
     1
 90
       50
176
     1
290
     0
176
     1
 90
       50
176
     1
 62
   256
176
     0
 40
1.0
176
     0
 90
        2
176
     1
  1
strokes_ogs.tif
176
     1
290
     0
176
     1
 40
1.0
176
     1
 40
1.0
176
     1
  0
VISUALSTYLE
  5
35
102
{ACAD_REACTORS
330
2A
102
}
330
2A
100
AcDbVisualStyle
  2
Dim
 70
    11
177
     3
291
     1
 70
    58
 90
        2
176
     1
 90
        2
176
     1
 90
        0
176
     1
 90
        0
176
     1
 40
0.6
176
     1
 40
30.0
176
     1
 62
     7
420
 16777215
176
     1
 90
        1
176
     1
 90
        4
176
     1
 62
     7
176
     1
 62
   257
176
     1
 90
        1
176
     1
 90
        1
176
     1
 40
1.0
176
     1
 90
        8
176
     1
 62
     7
176
     1
 40
1.0
176
     1
 90
        1
176
     1
 90
        6
176
     1
 90
        2
176
     1
 62
     7
176
     1
 90
        5
176
     1
 90
        0
176
     1
 90
        0
176
     1
290
     0
176
     1
 90
        1
176
     1
 40
-50.0
176
     1
 90
        0
176
     1
290
     0
176
     1
290
     1
176
     1
290
     1
176
     1
290
     0
176
     1
290
     0
176
     1
290
     0
176
     1
290
     0
176
     1
290
     0
176
     1
290
     0
176
     1
 90
       50
176
     1
 40
0.0
176
     1
 40
1.0
176
     1
 90
        0
176
     1
 62
    18
420
        0
176
     1
 90
       50
176
     1
 90
        3
176
     1
 62
     5
420
      255
176
     1
290
     0
176
     1
 90
       50
176
     1
 90
       50
176
     1
 90
       50
176
     1
290
     0
176
     1
 90
       50
176
     1
 62
   256
176
     0
 40
1.0
176
     0
 90
        2
176
     1
  1
strokes_ogs.tif
176
     1
290
     0
176
     1
 40
1.0
176
     1
 40
1.0
176
     1
  0
VISUALSTYLE
  5
3D
102
{ACAD_REACTORS
330
2A
102
}
330
2A
100
AcDbVisualStyle
  2
EdgeColorOff
 70
    22
177
     3
291
     1
 70
    58
 90
        2
176
     0
 90
        2
176
     0
 90
        0
176
     0
 90
        0
176
     0
 40
0.6
176
     0
 40
30.0
176
     0
 62
     7
420
 16777215
176
     0
 90
        1
176
     0
 90
        4
176
     0
 62
     7
176
     0
 62
   257
176
     0
 90
        1
176
     0
 90
        1
176
     0
 40
1.0
176
     0
 90
        8
176
     2
 62
     7
176
     0
 40
1.0
176
     0
 90
        1
176
     0
 90
        6
176
     0
 90
        2
176
     0
 62
     7
176
     0
 90
        5
176
     0
 90
        0
176
     0
 90
        0
176
     0
290
     0
176
     0
 90
        1
176
     0
 40
0.0
176
     0
 90
        0
176
     0
290
     0
176
     0
290
     1
176
     0
290
     1
176
     0
290
     0
176
     0
290
     0
176
     0
290
     0
176
     0
290
     0
176
     0
290
     0
176
     0
290
     0
176
     0
 90
       50
176
     0
 40
0.0
176
     0
 40
1.0
176
     0
 90
        0
176
     0
 62
    18
420
        0
176
     0
 90
       50
176
     0
 90
        3
176
     0
 62
     5
420
      255
176
     0
290
     0
176
     0
 90
       50
176
     0
 90
       50
176
     0
 90
       50
176
     0
290
     0
176
     0
 90
       50
176
     0
 62
   256
176
     0
 40
1.0
176
     0
 90
        2
176
     0
  1
strokes_ogs.tif
176
     0
290
     0
176
     0
 40
1.0
176
     0
 40
1.0
176
     0
  0
VISUALSTYLE
  5
39
102
{ACAD_REACTORS
330
2A
102
}
330
2A
100
AcDbVisualStyle
  2
Facepattern
 70
    15
177
     3
291
     1
 70
    58
 90
        2
176
     1
 90
        2
176
     1
 90
        0
176
     1
 90
        0
176
     1
 40
0.6
176
     1
 40
30.0
176
     1
 62
     7
420
 16777215
176
     1
 90
        1
176
     1
 90
        4
176
     1
 62
     7
176
     1
 62
   257
176
     1
 90
        1
176
     1
 90
        1
176
     1
 40
1.0
176
     1
 90
        8
176
     1
 62
     7
176
     1
 40
1.0
176
     1
 90
        1
176
     1
 90
        6
176
     1
 90
        2
176
     1
 62
     7
176
     1
 90
        5
176
     1
 90
        0
176
     1
 90
        0
176
     1
290
     0
176
     1
 90
        1
176
     1
 40
0.0
176
     1
 90
        0
176
     1
290
     0
176
     1
290
     1
176
     1
290
     1
176
     1
290
     0
176
     1
290
     0
176
     1
290
     0
176
     1
290
     0
176
     1
290
     0
176
     1
290
     0
176
     1
 90
       50
176
     1
 40
0.0
176
     1
 40
1.0
176
     1
 90
        0
176
     1
 62
    18
420
        0
176
     1
 90
       50
176
     1
 90
        3
176
     1
 62
     5
420
      255
176
     1
290
     0
176
     1
 90
       50
176
     1
 90
       50
176
     1
 90
       50
176
     1
290
     0
176
     1
 90
       50
176
     1
 62
   256
176
     0
 40
1.0
176
     0
 90
        2
176
     1
  1
strokes_ogs.tif
176
     1
290
     0
176
     1
 40
1.0
176
     1
 40
1.0
176
     1
  0
VISUALSTYLE
  5
2B
102
{ACAD_REACTORS
330
2A
102
}
330
2A
100
AcDbVisualStyle
  2
Flat
 70
     0
177
     3
291
     1
 70
    58
 90
        2
176
     1
 90
        1
176
     1
 90
        1
176
     1
 90
        2
176
     1
 40
0.6
176
     1
 40
30.0
176
     1
 62
     7
420
 16777215
176
     1
 90
        0
176
     1
 90
        0
176
     1
 62
     7
176
     1
 62
   257
176
     1
 90
        1
176
     1
 90
        1
176
     1
 40
1.0
176
     1
 90
        8
176
     1
 62
     7
176
     1
 40
1.0
176
     1
 90
        1
176
     1
 90
        6
176
     1
 90
        2
176
     1
 62
     7
176
     1
 90
        5
176
     1
 90
        0
176
     1
 90
        0
176
     1
290
     0
176
     1
 90
       13
176
     1
 40
0.0
176
     1
 90
        0
176
     1
290
     0
176
     1
290
     1
176
     1
290
     1
176
     1
290
     0
176
     1
290
     0
176
     1
290
     0
176
     1
290
     0
176
     1
290
     0
176
     1
290
     0
176
     1
 90
       50
176
     1
 40
0.0
176
     1
 40
1.0
176
     1
 90
        0
176
     1
 62
    18
420
        0
176
     1
 90
       50
176
     1
 90
        3
176
     1
 62
     5
420
      255
176
     1
290
     0
176
     1
 90
       50
176
     1
 90
       50
176
     1
 90
       50
176
     1
290
     0
176
     1
 90
       50
176
     1
 62
   256
176
     0
 40
1.0
176
     0
 90
        2
176
     1
  1
strokes_ogs.tif
176
     1
290
     0
176
     1
 40
1.0
176
     1
 40
1.0
176
     1
  0
VISUALSTYLE
  5
2C
102
{ACAD_REACTORS
330
2A
102
}
330
2A
100
AcDbVisualStyle
  2
FlatWithEdges
 70
     1
177
     3
291
     1
 70
    58
 90
        2
176
     1
 90
        1
176
     1
 90
        1
176
     1
 90
        2
176
     1
 40
0.6
176
     1
 40
30.0
176
     1
 62
     7
420
 16777215
176
     1
 90
        1
176
     1
 90
        0
176
     1
 62
     7
176
     1
 62
   257
176
     1
 90
        1
176
     1
 90
        1
176
     1
 40
1.0
176
     1
 90
        0
176
     1
 62
   257
176
     1
 40
1.0
176
     1
 90
        1
176
     1
 90
        6
176
     1
 90
        2
176
     1
 62
     7
176
     1
 90
        5
176
     1
 90
        0
176
     1
 90
        0
176
     1
290
     0
176
     1
 90
       13
176
     1
 40
0.0
176
     1
 90
        0
176
     1
290
     0
176
     1
290
     1
176
     1
290
     1
176
     1
290
     0
176
     1
290
     0
176
     1
290
     0
176
     1
290
     0
176
     1
290
     0
176
     1
290
     0
176
     1
 90
       50
176
     1
 40
0.0
176
     1
 40
1.0
176
     1
 90
        0
176
     1
 62
    18
420
        0
176
     1
 90
       50
176
     1
 90
        3
176
     1
 62
     5
420
      255
176
     1
290
     0
176
     1
 90
       50
176
     1
 90
       50
176
     1
 90
       50
176
     1
290
     0
176
     1
 90
       50
176
     1
 62
   256
176
     0
 40
1.0
176
     0
 90
        2
176
     1
  1
strokes_ogs.tif
176
     1
290
     0
176
     1
 40
1.0
176
     1
 40
1.0
176
     1
  0
VISUALSTYLE
  5
2D
102
{ACAD_REACTORS
330
2A
102
}
330
2A
100
AcDbVisualStyle
  2
Gouraud
 70
     2
177
     3
291
     1
 70
    58
 90
        2
176
     1
 90
        2
176
     1
 90
        1
176
     1
 90
        2
176
     1
 40
0.6
176
     1
 40
30.0
176
     1
 62
     7
420
 16777215
176
     1
 90
        0
176
     1
 90
        0
176
     1
 62
     7
176
     1
 62
   257
176
     1
 90
        1
176
     1
 90
        1
176
     1
 40
1.0
176
     1
 90
        0
176
     1
 62
     7
176
     1
 40
1.0
176
     1
 90
        1
176
     1
 90
        6
176
     1
 90
        2
176
     1
 62
     7
176
     1
 90
        5
176
     1
 90
        0
176
     1
 90
        0
176
     1
290
     0
176
     1
 90
       13
176
     1
 40
0.0
176
     1
 90
        0
176
     1
290
     0
176
     1
290
     1
176
     1
290
     1
176
     1
290
     0
176
     1
290
     0
176
     1
290
     0
176
     1
290
     0
176
     1
290
     0
176
     1
290
     0
176
     1
 90
       50
176
     1
 40
0.0
176
     1
 40
1.0
176
     1
 90
        0
176
     1
 62
    18
420
        0
176
     1
 90
       50
176
     1
 90
        3
176
     1
 62
     5
420
      255
176
     1
290
     0
176
     1
 90
       50
176
     1
 90
       50
176
     1
 90
       50
176
     1
290
     0
176
     1
 90
       50
176
     1
 62
   256
176
     0
 40
1.0
176
     0
 90
        2
176
     1
  1
strokes_ogs.tif
176
     1
290
     0
176
     1
 40
1.0
176
     1
 40
1.0
176
     1
  0
VISUALSTYLE
  5
2E
102
{ACAD_REACTORS
330
2A
102
}
330
2A
100
AcDbVisualStyle
  2
GouraudWithEdges
 70
     3
177
     3
291
     1
 70
    58
 90
        2
176
     1
 90
        2
176
     1
 90
        1
176
     1
 90
        2
176
     1
 40
0.6
176
     1
 40
30.0
176
     1
 62
     7
420
 16777215
176
     1
 90
        1
176
     1
 90
        0
176
     1
 62
     7
176
     1
 62
   257
176
     1
 90
        1
176
     1
 90
        1
176
     1
 40
1.0
176
     1
 90
        0
176
     1
 62
   257
176
     1
 40
1.0
176
     1
 90
        1
176
     1
 90
        6
176
     1
 90
        2
176
     1
 62
     7
176
     1
 90
        5
176
     1
 90
        0
176
     1
 90
        0
176
     1
290
     0
176
     1
 90
       13
176
     1
 40
0.0
176
     1
 90
        0
176
     1
290
     0
176
     1
290
     1
176
     1
290
     1
176
     1
290
     0
176
     1
290
     0
176
     1
290
     0
176
     1
290
     0
176
     1
290
     0
176
     1
290
     0
176
     1
 90
       50
176
     1
 40
0.0
176
     1
 40
1.0
176
     1
 90
        0
176
     1
 62
    18
420
        0
176
     1
 90
       50
176
     1
 90
        3
176
     1
 62
     5
420
      255
176
     1
290
     0
176
     1
 90
       50
176
     1
 90
       50
176
     1
 90
       50
176
     1
290
     0
176
     1
 90
       50
176
     1
 62
   256
176
     0
 40
1.0
176
     0
 90
        2
176
     1
  1
strokes_ogs.tif
176
     1
290
     0
176
     1
 40
1.0
176
     1
 40
1.0
176
     1
  0
VISUALSTYLE
  5
31
102
{ACAD_REACTORS
330
2A
102
}
330
2A
100
AcDbVisualStyle
  2
Hidden
 70
     6
177
     3
291
     0
 70
    58
 90
        1
176
     1
 90
        2
176
     1
 90
        2
176
     1
 90
        0
176
     1
 40
0.6
176
     1
 40
30.0
176
     1
 62
     7
420
 16777215
176
     1
 90
        2
176
     1
 90
        2
176
     1
 62
     7
176
     1
 62
   257
176
     1
 90
        2
176
     1
 90
        1
176
     1
 40
40.0
176
     1
 90
        0
176
     1
 62
   257
176
     1
 40
1.0
176
     1
 90
        1
176
     1
 90
        6
176
     1
 90
        2
176
     1
 62
     7
176
     1
 90
        3
176
     1
 90
        0
176
     1
 90
        0
176
     1
290
     0
176
     1
 90
        1
176
     1
 40
0.0
176
     1
 90
        0
176
     1
290
     0
176
     1
290
     1
176
     1
290
     1
176
     1
290
     0
176
     1
290
     0
176
     1
290
     0
176
     1
290
     0
176
     1
290
     0
176
     1
290
     0
176
     1
 90
       50
176
     1
 40
0.0
176
     1
 40
1.0
176
     1
 90
        0
176
     1
 62
    18
420
        0
176
     1
 90
       50
176
     1
 90
        3
176
     1
 62
     5
420
      255
176
     1
290
     0
176
     1
 90
       50
176
     1
 90
       50
176
     1
 90
       50
176
     1
290
     0
176
     1
 90
       50
176
     1
 62
   256
176
     0
 40
1.0
176
     0
 90
        2
176
     1
  1
strokes_ogs.tif
176
     1
290
     0
176
     1
 40
1.0
176
     1
 40
1.0
176
     1
  0
VISUALSTYLE
  5
3B
102
{ACAD_REACTORS
330
2A
102
}
330
2A
100
AcDbVisualStyle
  2
JitterOff
 70
    20
177
     3
291
     1
 70
    58
 90
        2
176
     0
 90
        2
176
     0
 90
        0
176
     0
 90
        0
176
     0
 40
0.6
176
     0
 40
30.0
176
     0
 62
     7
420
 16777215
176
     0
 90
        1
176
     0
 90
        4
176
     0
 62
     7
176
     0
 62
   257
176
     0
 90
        1
176
     0
 90
        1
176
     0
 40
1.0
176
     0
 90
       10
176
     2
 62
     7
176
     0
 40
1.0
176
     0
 90
        1
176
     0
 90
        6
176
     0
 90
        2
176
     0
 62
     7
176
     0
 90
        5
176
     0
 90
        0
176
     0
 90
        0
176
     0
290
     0
176
     0
 90
        1
176
     0
 40
0.0
176
     0
 90
        0
176
     0
290
     0
176
     0
290
     1
176
     0
290
     1
176
     0
290
     0
176
     0
290
     0
176
     0
290
     0
176
     0
290
     0
176
     0
290
     0
176
     0
290
     0
176
     0
 90
       50
176
     0
 40
0.0
176
     0
 40
1.0
176
     0
 90
        0
176
     0
 62
    18
420
        0
176
     0
 90
       50
176
     0
 90
        3
176
     0
 62
     5
420
      255
176
     0
290
     0
176
     0
 90
       50
176
     0
 90
       50
176
     0
 90
       50
176
     0
290
     0
176
     0
 90
       50
176
     0
 62
   256
176
     0
 40
1.0
176
     0
 90
        2
176
     0
  1
strokes_ogs.tif
176
     0
290
     0
176
     0
 40
1.0
176
     0
 40
1.0
176
     0
  0
VISUALSTYLE
  5
38
102
{ACAD_REACTORS
330
2A
102
}
330
2A
100
AcDbVisualStyle
  2
Linepattern
 70
    14
177
     3
291
     1
 70
    58
 90
        2
176
     1
 90
        2
176
     1
 90
        0
176
     1
 90
        0
176
     1
 40
0.6
176
     1
 40
30.0
176
     1
 62
     7
420
 16777215
176
     1
 90
        1
176
     1
 90
        4
176
     1
 62
     7
176
     1
 62
   257
176
     1
 90
        7
176
     1
 90
        7
176
     1
 40
1.0
176
     1
 90
        8
176
     1
 62
     7
176
     1
 40
1.0
176
     1
 90
        1
176
     1
 90
        6
176
     1
 90
        2
176
     1
 62
     7
176
     1
 90
        5
176
     1
 90
        0
176
     1
 90
        0
176
     1
290
     0
176
     1
 90
        1
176
     1
 40
0.0
176
     1
 90
        0
176
     1
290
     0
176
     1
290
     1
176
     1
290
     1
176
     1
290
     0
176
     1
290
     0
176
     1
290
     0
176
     1
290
     0
176
     1
290
     0
176
     1
290
     0
176
     1
 90
       50
176
     1
 40
0.0
176
     1
 40
1.0
176
     1
 90
        0
176
     1
 62
    18
420
        0
176
     1
 90
       50
176
     1
 90
        3
176
     1
 62
     5
420
      255
176
     1
290
     0
176
     1
 90
       50
176
     1
 90
       50
176
     1
 90
       50
176
     1
290
     0
176
     1
 90
       50
176
     1
 62
   256
176
     0
 40
1.0
176
     0
 90
        2
176
     1
  1
strokes_ogs.tif
176
     1
290
     0
176
     1
 40
1.0
176
     1
 40
1.0
176
     1
  0
VISUALSTYLE
  5
3C
102
{ACAD_REACTORS
330
2A
102
}
330
2A
100
AcDbVisualStyle
  2
OverhangOff
 70
    21
177
     3
291
     1
 70
    58
 90
        2
176
     0
 90
        2
176
     0
 90
        0
176
     0
 90
        0
176
     0
 40
0.6
176
     0
 40
30.0
176
     0
 62
     7
420
 16777215
176
     0
 90
        1
176
     0
 90
        4
176
     0
 62
     7
176
     0
 62
   257
176
     0
 90
        1
176
     0
 90
        1
176
     0
 40
1.0
176
     0
 90
        9
176
     2
 62
     7
176
     0
 40
1.0
176
     0
 90
        1
176
     0
 90
        6
176
     0
 90
        2
176
     0
 62
     7
176
     0
 90
        5
176
     0
 90
        0
176
     0
 90
        0
176
     0
290
     0
176
     0
 90
        1
176
     0
 40
0.0
176
     0
 90
        0
176
     0
290
     0
176
     0
290
     1
176
     0
290
     1
176
     0
290
     0
176
     0
290
     0
176
     0
290
     0
176
     0
290
     0
176
     0
290
     0
176
     0
290
     0
176
     0
 90
       50
176
     0
 40
0.0
176
     0
 40
1.0
176
     0
 90
        0
176
     0
 62
    18
420
        0
176
     0
 90
       50
176
     0
 90
        3
176
     0
 62
     5
420
      255
176
     0
290
     0
176
     0
 90
       50
176
     0
 90
       50
176
     0
 90
       50
176
     0
290
     0
176
     0
 90
       50
176
     0
 62
   256
176
     0
 40
1.0
176
     0
 90
        2
176
     0
  1
strokes_ogs.tif
176
     0
290
     0
176
     0
 40
1.0
176
     0
 40
1.0
176
     0
  0
VISUALSTYLE
  5
33
102
{ACAD_REACTORS
330
2A
102
}
330
2A
100
AcDbVisualStyle
  2
Realistic
 70
     8
177
     3
291
     0
 70
    58
 90
        2
176
     1
 90
        3
176
     1
 90
        0
176
     1
 90
        2
176
     1
 40
0.6
176
     1
 40
30.0
176
     1
 62
     7
420
 16777215
176
     1
 90
        0
176
     1
 90
        0
176
     1
 62
     7
176
     1
 62
   257
176
     1
 90
        1
176
     1
 90
        1
176
     1
 40
1.0
176
     1
 90
        8
176
     1
 62
   257
176
     1
 40
1.0
176
     1
 90
        1
176
     1
 90
        6
176
     1
 90
        2
176
     1
 62
     7
176
     1
 90
        3
176
     1
 90
        0
176
     1
 90
        0
176
     1
290
     0
176
     1
 90
       13
176
     1
 40
0.0
176
     1
 90
        0
176
     1
290
     0
176
     1
290
     1
176
     1
290
     1
176
     1
290
     0
176
     1
290
     0
176
     1
290
     0
176
     1
290
     0
176
     1
290
     0
176
     1
290
     0
176
     1
 90
       50
176
     1
 40
0.0
176
     1
 40
1.0
176
     1
 90
        0
176
     1
 62
    18
420
        0
176
     1
 90
       50
176
     1
 90
        3
176
     1
 62
     5
420
      255
176
     1
290
     0
176
     1
 90
       50
176
     1
 90
       50
176
     1
 90
       50
176
     1
290
     0
176
     1
 90
       50
176
     1
 62
   256
176
     0
 40
1.0
176
     0
 90
        2
176
     1
  1
strokes_ogs.tif
176
     1
290
     0
176
     1
 40
1.0
176
     1
 40
1.0
176
     1
  0
VISUALSTYLE
  5
42
102
{ACAD_REACTORS
330
2A
102
}
330
2A
100
AcDbVisualStyle
  2
Shaded
 70
    27
177
     3
291
     0
 70
    58
 90
        2
176
     1
 90
        2
176
     1
 90
        1
176
     1
 90
        2
176
     1
 40
0.6
176
     1
 40
30.0
176
     1
 62
     7
420
 16777215
176
     1
 90
        0
176
     1
 90
        4
176
     1
 62
     7
176
     1
 62
   257
176
     1
 90
        1
176
     1
 90
        1
176
     1
 40
1.0
176
     1
 90
        8
176
     1
 62
   257
176
     1
 40
1.0
176
     1
 90
        1
176
     1
 90
        6
176
     1
 90
        2
176
     1
 62
     8
420
  7895160
176
     1
 90
        3
176
     1
 90
        0
176
     1
 90
        0
176
     1
290
     0
176
     1
 90
        5
176
     1
 40
0.0
176
     1
 90
        0
176
     1
290
     0
176
     1
290
     1
176
     1
290
     1
176
     1
290
     0
176
     1
290
     0
176
     1
290
     0
176
     1
290
     0
176
     1
290
     0
176
     1
290
     0
176
     1
 90
       50
176
     1
 40
0.0
176
     1
 40
1.0
176
     1
 90
        0
176
     1
 62
    18
420
        0
176
     1
 90
       50
176
     1
 90
        3
176
     1
 62
     5
420
      255
176
     1
290
     0
176
     1
 90
       50
176
     1
 90
       50
176
     1
 90
       50
176
     1
290
     0
176
     1
 90
       50
176
     1
 62
   256
176
     0
 40
1.0
176
     0
 90
        2
176
     1
  1
strokes_ogs.tif
176
     1
290
     0
176
     1
 40
1.0
176
     1
 40
1.0
176
     1
  0
VISUALSTYLE
  5
41
102
{ACAD_REACTORS
330
2A
102
}
330
2A
100
AcDbVisualStyle
  2
Shaded with edges
 70
    26
177
     3
291
     0
 70
    58
 90
        2
176
     1
 90
        2
176
     1
 90
        1
176
     1
 90
        2
176
     1
 40
0.6
176
     1
 40
30.0
176
     1
 62
     7
420
 16777215
176
     1
 90
        1
176
     1
 90
       10
176
     1
 62
     7
176
     1
 62
   257
176
     1
 90
        2
176
     1
 90
        1
176
     1
 40
1.0
176
     1
 90
        8
176
     1
 62
   257
176
     1
 40
1.0
176
     1
 90
        1
176
     1
 90
        6
176
     1
 90
        2
176
     1
 62
     7
176
     1
 90
        3
176
     1
 90
        0
176
     1
 90
        0
176
     1
290
     0
176
     1
 90
        5
176
     1
 40
0.0
176
     1
 90
        0
176
     1
290
     0
176
     1
290
     1
176
     1
290
     1
176
     1
290
     0
176
     1
290
     0
176
     1
290
     0
176
     1
290
     0
176
     1
290
     0
176
     1
290
     0
176
     1
 90
       50
176
     1
 40
0.0
176
     1
 40
1.0
176
     1
 90
        0
176
     1
 62
    18
420
        0
176
     1
 90
       50
176
     1
 90
        3
176
     1
 62
     5
420
      255
176
     1
290
     0
176
     1
 90
       50
176
     1
 90
       50
176
     1
 90
       50
176
     1
290
     0
176
     1
 90
       50
176
     1
 62
   256
176
     0
 40
1.0
176
     0
 90
        2
176
     1
  1
strokes_ogs.tif
176
     1
290
     0
176
     1
 40
1.0
176
     1
 40
1.0
176
     1
  0
VISUALSTYLE
  5
3E
102
{ACAD_REACTORS
330
2A
102
}
330
2A
100
AcDbVisualStyle
  2
Shades of Gray
 70
    23
177
     3
291
     0
 70
    58
 90
        2
176
     1
 90
        2
176
     1
 90
        3
176
     1
 90
        0
176
     1
 40
0.6
176
     1
 40
30.0
176
     1
 62
     7
420
 16777215
176
     1
 90
        2
176
     1
 90
        2
176
     1
 62
     7
176
     1
 62
     7
176
     1
 90
        1
176
     1
 90
        1
176
     1
 40
40.0
176
     1
 90
        8
176
     1
 62
     7
176
     1
 40
1.0
176
     1
 90
        1
176
     1
 90
        6
176
     1
 90
        2
176
     1
 62
     7
176
     1
 90
        3
176
     1
 90
        0
176
     1
 90
        0
176
     1
290
     0
176
     1
 90
        1
176
     1
 40
0.0
176
     1
 90
        0
176
     1
290
     0
176
     1
290
     1
176
     1
290
     1
176
     1
290
     0
176
     1
290
     0
176
     1
290
     0
176
     1
290
     0
176
     1
290
     0
176
     1
290
     0
176
     1
 90
       50
176
     1
 40
0.0
176
     1
 40
1.0
176
     1
 90
        0
176
     1
 62
    18
420
        0
176
     1
 90
       50
176
     1
 90
        3
176
     1
 62
     5
420
      255
176
     1
290
     0
176
     1
 90
       50
176
     1
 90
       50
176
     1
 90
       50
176
     1
290
     0
176
     1
 90
       50
176
     1
 62
   256
176
     0
 40
1.0
176
     0
 90
        2
176
     1
  1
strokes_ogs.tif
176
     1
290
     0
176
     1
 40
1.0
176
     1
 40
1.0
176
     1
  0
VISUALSTYLE
  5
3F
102
{ACAD_REACTORS
330
2A
102
}
330
2A
100
AcDbVisualStyle
  2
Sketchy
 70
    24
177
     3
291
     0
 70
    58
 90
        1
176
     1
 90
        2
176
     1
 90
        2
176
     1
 90
        0
176
     1
 40
0.6
176
     1
 40
30.0
176
     1
 62
     7
420
 16777215
176
     1
 90
        2
176
     1
 90
        2
176
     1
 62
     7
176
     1
 62
     7
176
     1
 90
        1
176
     1
 90
        1
176
     1
 40
40.0
176
     1
 90
       11
176
     1
 62
     7
176
     1
 40
1.0
176
     1
 90
        1
176
     1
 90
        6
176
     1
 90
        2
176
     1
 62
     7
176
     1
 90
        6
176
     1
 90
        0
176
     1
 90
        0
176
     1
290
     0
176
     1
 90
        1
176
     1
 40
0.0
176
     1
 90
        0
176
     1
290
     0
176
     1
290
     1
176
     1
290
     1
176
     1
290
     0
176
     1
290
     0
176
     1
290
     0
176
     1
290
     0
176
     1
290
     0
176
     1
290
     0
176
     1
 90
       50
176
     1
 40
0.0
176
     1
 40
1.0
176
     1
 90
        0
176
     1
 62
    18
420
        0
176
     1
 90
       50
176
     1
 90
        3
176
     1
 62
     5
420
      255
176
     1
290
     0
176
     1
 90
       50
176
     1
 90
       50
176
     1
 90
       50
176
     1
290
     0
176
     1
 90
       50
176
     1
 62
   256
176
     0
 40
1.0
176
     0
 90
        2
176
     1
  1
strokes_ogs.tif
176
     1
290
     0
176
     1
 40
1.0
176
     1
 40
1.0
176
     1
  0
VISUALSTYLE
  5
37
102
{ACAD_REACTORS
330
2A
102
}
330
2A
100
AcDbVisualStyle
  2
Thicken
 70
    13
177
     3
291
     1
 70
    58
 90
        2
176
     1
 90
        2
176
     1
 90
        0
176
     1
 90
        0
176
     1
 40
0.6
176
     1
 40
30.0
176
     1
 62
     7
420
 16777215
176
     1
 90
        1
176
     1
 90
        4
176
     1
 62
     7
176
     1
 62
   257
176
     1
 90
        1
176
     1
 90
        1
176
     1
 40
1.0
176
     1
 90
       12
176
     1
 62
     7
176
     1
 40
1.0
176
     1
 90
        1
176
     1
 90
        6
176
     1
 90
        2
176
     1
 62
     7
176
     1
 90
        5
176
     1
 90
        0
176
     1
 90
        0
176
     1
290
     0
176
     1
 90
        1
176
     1
 40
0.0
176
     1
 90
        0
176
     1
290
     0
176
     1
290
     1
176
     1
290
     1
176
     1
290
     0
176
     1
290
     0
176
     1
290
     0
176
     1
290
     0
176
     1
290
     0
176
     1
290
     0
176
     1
 90
       50
176
     1
 40
0.0
176
     1
 40
1.0
176
     1
 90
        0
176
     1
 62
    18
420
        0
176
     1
 90
       50
176
     1
 90
        3
176
     1
 62
     5
420
      255
176
     1
290
     0
176
     1
 90
       50
176
     1
 90
       50
176
     1
 90
       50
176
     1
290
     0
176
     1
 90
       50
176
     1
 62
   256
176
     0
 40
1.0
176
     0
 90
        2
176
     1
  1
strokes_ogs.tif
176
     1
290
     0
176
     1
 40
1.0
176
     1
 40
1.0
176
     1
  0
VISUALSTYLE
  5
30
102
{ACAD_REACTORS
330
2A
102
}
330
2A
100
AcDbVisualStyle
  2
Wireframe
 70
     5
177
     3
291
     0
 70
    58
 90
        0
176
     1
 90
        2
176
     1
 90
        0
176
     1
 90
        0
176
     1
 40
0.6
176
     1
 40
30.0
176
     1
 62
     7
420
 16777215
176
     1
 90
        1
176
     1
 90
        4
176
     1
 62
     7
176
     1
 62
   257
176
     1
 90
        1
176
     1
 90
        1
176
     1
 40
1.0
176
     1
 90
        0
176
     1
 62
   257
176
     1
 40
1.0
176
     1
 90
        1
176
     1
 90
        6
176
     1
 90
        2
176
     1
 62
     7
176
     1
 90
        3
176
     1
 90
        0
176
     1
 90
        0
176
     1
290
     0
176
     1
 90
        1
176
     1
 40
0.0
176
     1
 90
        0
176
     1
290
     0
176
     1
290
     1
176
     1
290
     1
176
     1
290
     0
176
     1
290
     0
176
     1
290
     0
176
     1
290
     0
176
     1
290
     0
176
     1
290
     0
176
     1
 90
       50
176
     1
 40
0.0
176
     1
 40
1.0
176
     1
 90
        0
176
     1
 62
    18
420
        0
176
     1
 90
       50
176
     1
 90
        3
176
     1
 62
     5
420
      255
176
     1
290
     0
176
     1
 90
       50
176
     1
 90
       50
176
     1
 90
       50
176
     1
290
     0
176
     1
 90
       50
176
     1
 62
   256
176
     0
 40
1.0
176
     0
 90
        2
176
     1
  1
strokes_ogs.tif
176
     1
290
     0
176
     1
 40
1.0
176
     1
 40
1.0
176
     1
  0
VISUALSTYLE
  5
40
102
{ACAD_REACTORS
330
2A
102
}
330
2A
100
AcDbVisualStyle
  2
X-Ray
 70
    25
177
     3
291
     0
 70
    58
 90
        2
176
     1
 90
        2
176
     1
 90
        1
176
     1
 90
        1
176
     1
 40
0.5
176
     1
 40
30.0
176
     1
 62
     7
420
 16777215
176
     1
 90
        1
176
     1
 90
        0
176
     1
 62
     7
176
     1
 62
   257
176
     1
 90
        1
176
     1
 90
        1
176
     1
 40
1.0
176
     1
 90
        8
176
     1
 62
     7
176
     1
 40
1.0
176
     1
 90
        1
176
     1
 90
        6
176
     1
 90
        2
176
     1
 62
     7
176
     1
 90
        3
176
     1
 90
        0
176
     1
 90
        0
176
     1
290
     0
176
     1
 90
       13
176
     1
 40
0.0
176
     1
 90
        0
176
     1
290
     0
176
     1
290
     1
176
     1
290
     1
176
     1
290
     0
176
     1
290
     0
176
     1
290
     0
176
     1
290
     0
176
     1
290
     0
176
     1
290
     0
176
     1
 90
       50
176
     1
 40
0.0
176
     1
 40
1.0
176
     1
 90
        0
176
     1
 62
    18
420
        0
176
     1
 90
       50
176
     1
 90
        3
176
     1
 62
     5
420
      255
176
     1
290
     0
176
     1
 90
       50
176
     1
 90
       50
176
     1
 90
       50
176
     1
290
     0
176
     1
 90
       50
176
     1
 62
   256
176
     0
 40
1.0
176
     0
 90
        2
176
     1
  1
strokes_ogs.tif
176
     1
290
     0
176
     1
 40
1.0
176
     1
 40
1.0
176
     1
  0
DICTIONARYVAR
  5
1E7
102
{ACAD_REACTORS
330
1E6
102
}
330
1E6
100
DictionaryVariables
280
     0
  1
1:1
  0
DICTIONARYVAR
  5
1EC
102
{ACAD_REACTORS
330
1E6
102
}
330
1E6
100
DictionaryVariables
280
     0
  1
Standard
  0
DICTIONARYVAR
  5
1EB
102
{ACAD_REACTORS
330
1E6
102
}
330
1E6
100
DictionaryVariables
280
     0
  1
Standard
  0
DICTIONARY
  5
1E8
330
6A
100
AcDbDictionary
280
     1
281
     1
  3
ACAD_ROUNDTRIP_2008_TABLESTYLE_CELLSTYLEMAP
360
1E9
  0
CELLSTYLEMAP
  5
1E9
102
{ACAD_REACTORS
330
1E8
102
}
330
1E8
100
AcDbCellStyleMap
 90
        3
300
CELLSTYLE
  1
TABLEFORMAT_BEGIN
 90
        5
170
     1
 91
        0
 92
    32768
 62
   257
 93
        1
300
CONTENTFORMAT
  1
CONTENTFORMAT_BEGIN
 90
        0
 91
        0
 92
        4
 93
        0
300

 40
0.0
140
1.0
 94
        5
 62
     0
340
11
144
0.25
309
CONTENTFORMAT_END
171
     1
301
MARGIN
  1
CELLMARGIN_BEGIN
 40
0.06
 40
0.06
 40
0.06
 40
0.06
 40
0.06
 40
0.06
309
CELLMARGIN_END
 94
        6
 95
        1
302
GRIDFORMAT
  1
GRIDFORMAT_BEGIN
 90
        0
 91
        1
 62
     0
 92
       -2
340
14
 93
        0
 40
0.045
309
GRIDFORMAT_END
 95
        2
302
GRIDFORMAT
  1
GRIDFORMAT_BEGIN
 90
        0
 91
        1
 62
     0
 92
       -2
340
14
 93
        0
 40
0.045
309
GRIDFORMAT_END
 95
        4
302
GRIDFORMAT
  1
GRIDFORMAT_BEGIN
 90
        0
 91
        1
 62
     0
 92
       -2
340
14
 93
        0
 40
0.045
309
GRIDFORMAT_END
 95
        8
302
GRIDFORMAT
  1
GRIDFORMAT_BEGIN
 90
        0
 91
        1
 62
     0
 92
       -2
340
14
 93
        0
 40
0.045
309
GRIDFORMAT_END
 95
       16
302
GRIDFORMAT
  1
GRIDFORMAT_BEGIN
 90
        0
 91
        1
 62
     0
 92
       -2
340
14
 93
        0
 40
0.045
309
GRIDFORMAT_END
 95
       32
302
GRIDFORMAT
  1
GRIDFORMAT_BEGIN
 90
        0
 91
        1
 62
     0
 92
       -2
340
14
 93
        0
 40
0.045
309
GRIDFORMAT_END
309
TABLEFORMAT_END
  1
CELLSTYLE_BEGIN
 90
        1
 91
        1
300
_TITLE
309
CELLSTYLE_END
300
CELLSTYLE
  1
TABLEFORMAT_BEGIN
 90
        5
170
     1
 91
        0
 92
        0
 62
   257
 93
        1
300
CONTENTFORMAT
  1
CONTENTFORMAT_BEGIN
 90
        0
 91
        0
 92
        4
 93
        0
300

 40
0.0
140
1.0
 94
        5
 62
     0
340
11
144
0.18
309
CONTENTFORMAT_END
171
     1
301
MARGIN
  1
CELLMARGIN_BEGIN
 40
0.06
 40
0.06
 40
0.06
 40
0.06
 40
0.06
 40
0.06
309
CELLMARGIN_END
 94
        6
 95
        1
302
GRIDFORMAT
  1
GRIDFORMAT_BEGIN
 90
        0
 91
        1
 62
     0
 92
       -2
340
14
 93
        0
 40
0.045
309
GRIDFORMAT_END
 95
        2
302
GRIDFORMAT
  1
GRIDFORMAT_BEGIN
 90
        0
 91
        1
 62
     0
 92
       -2
340
14
 93
        0
 40
0.045
309
GRIDFORMAT_END
 95
        4
302
GRIDFORMAT
  1
GRIDFORMAT_BEGIN
 90
        0
 91
        1
 62
     0
 92
       -2
340
14
 93
        0
 40
0.045
309
GRIDFORMAT_END
 95
        8
302
GRIDFORMAT
  1
GRIDFORMAT_BEGIN
 90
        0
 91
        1
 62
     0
 92
       -2
340
14
 93
        0
 40
0.045
309
GRIDFORMAT_END
 95
       16
302
GRIDFORMAT
  1
GRIDFORMAT_BEGIN
 90
        0
 91
        1
 62
     0
 92
       -2
340
14
 93
        0
 40
0.045
309
GRIDFORMAT_END
 95
       32
302
GRIDFORMAT
  1
GRIDFORMAT_BEGIN
 90
        0
 91
        1
 62
     0
 92
       -2
340
14
 93
        0
 40
0.045
309
GRIDFORMAT_END
309
TABLEFORMAT_END
  1
CELLSTYLE_BEGIN
 90
        2
 91
        1
300
_HEADER
309
CELLSTYLE_END
300
CELLSTYLE
  1
TABLEFORMAT_BEGIN
 90
        5
170
     1
 91
        0
 92
        0
 62
   257
 93
        1
300
CONTENTFORMAT
  1
CONTENTFORMAT_BEGIN
 90
        0
 91
        0
 92
        4
 93
        0
300

 40
0.0
140
1.0
 94
        2
 62
     0
340
11
144
0.18
309
CONTENTFORMAT_END
171
     1
301
MARGIN
  1
CELLMARGIN_BEGIN
 40
0.06
 40
0.06
 40
0.06
 40
0.06
 40
0.06
 40
0.06
309
CELLMARGIN_END
 94
        6
 95
        1
302
GRIDFORMAT
  1
GRIDFORMAT_BEGIN
 90
        0
 91
        1
 62
     0
 92
       -2
340
14
 93
        0
 40
0.045
309
GRIDFORMAT_END
 95
        2
302
GRIDFORMAT
  1
GRIDFORMAT_BEGIN
 90
        0
 91
        1
 62
     0
 92
       -2
340
14
 93
        0
 40
0.045
309
GRIDFORMAT_END
 95
        4
302
GRIDFORMAT
  1
GRIDFORMAT_BEGIN
 90
        0
 91
        1
 62
     0
 92
       -2
340
14
 93
        0
 40
0.045
309
GRIDFORMAT_END
 95
        8
302
GRIDFORMAT
  1
GRIDFORMAT_BEGIN
 90
        0
 91
        1
 62
     0
 92
       -2
340
14
 93
        0
 40
0.045
309
GRIDFORMAT_END
 95
       16
302
GRIDFORMAT
  1
GRIDFORMAT_BEGIN
 90
        0
 91
        1
 62
     0
 92
       -2
340
14
 93
        0
 40
0.045
309
GRIDFORMAT_END
 95
       32
302
GRIDFORMAT
  1
GRIDFORMAT_BEGIN
 90
        0
 91
        1
 62
     0
 92
       -2
340
14
 93
        0
 40
0.045
309
GRIDFORMAT_END
309
TABLEFORMAT_END
  1
CELLSTYLE_BEGIN
 90
        3
 91
        2
300
_DATA
309
CELLSTYLE_END
  0
ENDSEC
  0
EOF