0
SECTION
  2
HEADER
  9
$ACADVER
  1
AC1027
  9
$ACADMAINTVER
 70
     8
  9
$DWGCODEPAGE
  3
ANSI_1252
  9
$REQUIREDVERSIONS
160
                 0
  9
$COMMENTS
  1
File was created by Cadenas
  9
$CUSTOMPROPERTYTAG
  1
NN
  9
$CUSTOMPROPERTY
  1
Grip Tight Two-Bolt Pillow Block - Polymer Housing, Corrision Resistant Insert Metric Bore
  9
$CUSTOMPROPERTYTAG
  1
NT
  9
$CUSTOMPROPERTY
  1
GTEZ Normal Duty Polymer Housed Pillow Blocks
  9
$CUSTOMPROPERTYTAG
  1
NB
  9
$CUSTOMPROPERTY
  1
129257
  9
$CUSTOMPROPERTYTAG
  1
NBSYN
  9
$CUSTOMPROPERTY
  1
$PN.$LUBE.
  9
$CUSTOMPROPERTYTAG
  1
LINA
  9
$CUSTOMPROPERTY
  1
129257
  9
$CUSTOMPROPERTYTAG
  1
SERIES
  9
$CUSTOMPROPERTY
  1
209
  9
$CUSTOMPROPERTYTAG
  1
SS
  9
$CUSTOMPROPERTY
  1
45
  9
$CUSTOMPROPERTYTAG
  1
PN
  9
$CUSTOMPROPERTY
  1
129257
  9
$CUSTOMPROPERTYTAG
  1
DESCRIPTION
  9
$CUSTOMPROPERTY
  1
P2B-GTEZ-45M-PCR
  9
$CUSTOMPROPERTYTAG
  1
A
  9
$CUSTOMPROPERTY
  1
46.8
  9
$CUSTOMPROPERTYTAG
  1
B
  9
$CUSTOMPROPERTY
  1
183.0
  9
$CUSTOMPROPERTYTAG
  1
C
  9
$CUSTOMPROPERTY
  1
53.6
  9
$CUSTOMPROPERTYTAG
  1
DMIN
  9
$CUSTOMPROPERTY
  1
137.7
  9
$CUSTOMPROPERTYTAG
  1
DMAX
  9
$CUSTOMPROPERTY
  1
151.6
  9
$CUSTOMPROPERTYTAG
  1
F
  9
$CUSTOMPROPERTY
  1
M12
  9
$CUSTOMPROPERTYTAG
  1
G
  9
$CUSTOMPROPERTY
  1
22.2
  9
$CUSTOMPROPERTYTAG
  1
H
  9
$CUSTOMPROPERTY
  1
21.4
  9
$CUSTOMPROPERTYTAG
  1
J
  9
$CUSTOMPROPERTY
  1
109.5
  9
$CUSTOMPROPERTYTAG
  1
L
  9
$CUSTOMPROPERTY
  1
67.9
  9
$CUSTOMPROPERTYTAG
  1
M
  9
$CUSTOMPROPERTY
  1
54.0
  9
$CUSTOMPROPERTYTAG
  1
R
  9
$CUSTOMPROPERTY
  1
16.7
  9
$CUSTOMPROPERTYTAG
  1
S
  9
$CUSTOMPROPERTY
  1
30.2
  9
$CUSTOMPROPERTYTAG
  1
Z
  9
$CUSTOMPROPERTY
  1
29.4
  9
$CUSTOMPROPERTYTAG
  1
COMPANY
  9
$CUSTOMPROPERTY
  1
baldor
  9
$INSBASE
 10
0.0
 20
0.0
 30
0.0
  9
$EXTMIN
 10
1.000000000000000E+20
 20
1.000000000000000E+20
 30
1.000000000000000E+20
  9
$EXTMAX
 10
-1.000000000000000E+20
 20
-1.000000000000000E+20
 30
-1.000000000000000E+20
  9
$LIMMIN
 10
0.0
 20
0.0
  9
$LIMMAX
 10
420.0
 20
297.0
  9
$ORTHOMODE
 70
     0
  9
$REGENMODE
 70
     1
  9
$FILLMODE
 70
     1
  9
$QTEXTMODE
 70
     0
  9
$MIRRTEXT
 70
     1
  9
$LTSCALE
 40
1.0
  9
$ATTMODE
 70
     1
  9
$TEXTSIZE
 40
2.5
  9
$TRACEWID
 40
1.0
  9
$TEXTSTYLE
  7
Standard
  9
$CLAYER
  8
0
  9
$CELTYPE
  6
ByLayer
  9
$CECOLOR
 62
   256
  9
$CELTSCALE
 40
1.0
  9
$DISPSILH
 70
     0
  9
$DIMSCALE
 40
1.0
  9
$DIMASZ
 40
2.5
  9
$DIMEXO
 40
0.625
  9
$DIMDLI
 40
3.75
  9
$DIMRND
 40
0.0
  9
$DIMDLE
 40
0.0
  9
$DIMEXE
 40
1.25
  9
$DIMTP
 40
0.0
  9
$DIMTM
 40
0.0
  9
$DIMTXT
 40
2.5
  9
$DIMCEN
 40
2.5
  9
$DIMTSZ
 40
0.0
  9
$DIMTOL
 70
     0
  9
$DIMLIM
 70
     0
  9
$DIMTIH
 70
     0
  9
$DIMTOH
 70
     0
  9
$DIMSE1
 70
     0
  9
$DIMSE2
 70
     0
  9
$DIMTAD
 70
     1
  9
$DIMZIN
 70
     8
  9
$DIMBLK
  1

  9
$DIMASO
 70
     1
  9
$DIMSHO
 70
     1
  9
$DIMPOST
  1

  9
$DIMAPOST
  1

  9
$DIMALT
 70
     0
  9
$DIMALTD
 70
     3
  9
$DIMALTF
 40
0.03937007874016
  9
$DIMLFAC
 40
1.0
  9
$DIMTOFL
 70
     1
  9
$DIMTVP
 40
0.0
  9
$DIMTIX
 70
     0
  9
$DIMSOXD
 70
     0
  9
$DIMSAH
 70
     0
  9
$DIMBLK1
  1

  9
$DIMBLK2
  1

  9
$DIMSTYLE
  2
ISO-25
  9
$DIMCLRD
 70
     0
  9
$DIMCLRE
 70
     0
  9
$DIMCLRT
 70
     0
  9
$DIMTFAC
 40
1.0
  9
$DIMGAP
 40
0.625
  9
$DIMJUST
 70
     0
  9
$DIMSD1
 70
     0
  9
$DIMSD2
 70
     0
  9
$DIMTOLJ
 70
     0
  9
$DIMTZIN
 70
     8
  9
$DIMALTZ
 70
     0
  9
$DIMALTTZ
 70
     0
  9
$DIMUPT
 70
     0
  9
$DIMDEC
 70
     2
  9
$DIMTDEC
 70
     2
  9
$DIMALTU
 70
     2
  9
$DIMALTTD
 70
     3
  9
$DIMTXSTY
  7
Standard
  9
$DIMAUNIT
 70
     0
  9
$DIMADEC
 70
     0
  9
$DIMALTRND
 40
0.0
  9
$DIMAZIN
 70
     0
  9
$DIMDSEP
 70
    44
  9
$DIMATFIT
 70
     3
  9
$DIMFRAC
 70
     0
  9
$DIMLDRBLK
  1

  9
$DIMLUNIT
 70
     2
  9
$DIMLWD
 70
    -2
  9
$DIMLWE
 70
    -2
  9
$DIMTMOVE
 70
     0
  9
$DIMFXL
 40
1.0
  9
$DIMFXLON
 70
     0
  9
$DIMJOGANG
 40
0.7853981633974483
  9
$DIMTFILL
 70
     0
  9
$DIMTFILLCLR
 70
     0
  9
$DIMARCSYM
 70
     0
  9
$DIMLTYPE
  6

  9
$DIMLTEX1
  6

  9
$DIMLTEX2
  6

  9
$DIMTXTDIRECTION
 70
     0
  9
$LUNITS
 70
     2
  9
$LUPREC
 70
     4
  9
$SKETCHINC
 40
1.0
  9
$FILLETRAD
 40
10.0
  9
$AUNITS
 70
     0
  9
$AUPREC
 70
     0
  9
$MENU
  1
.
  9
$ELEVATION
 40
0.0
  9
$PELEVATION
 40
0.0
  9
$THICKNESS
 40
0.0
  9
$LIMCHECK
 70
     0
  9
$CHAMFERA
 40
0.0
  9
$CHAMFERB
 40
0.0
  9
$CHAMFERC
 40
0.0
  9
$CHAMFERD
 40
0.0
  9
$SKPOLY
 70
     0
  9
$TDCREATE
 40
2458168.992609734
  9
$TDUCREATE
 40
2458168.950943067
  9
$TDUPDATE
 40
2458168.992610104
  9
$TDUUPDATE
 40
2458168.950943437
  9
$TDINDWG
 40
0.0000000116
  9
$TDUSRTIMER
 40
0.0000000116
  9
$USRTIMER
 70
     1
  9
$ANGBASE
 50
0.0
  9
$ANGDIR
 70
     0
  9
$PDMODE
 70
     0
  9
$PDSIZE
 40
0.0
  9
$PLINEWID
 40
0.0
  9
$SPLFRAME
 70
     0
  9
$SPLINETYPE
 70
     6
  9
$SPLINESEGS
 70
     8
  9
$HANDSEED
  5
2F7
  9
$SURFTAB1
 70
     6
  9
$SURFTAB2
 70
     6
  9
$SURFTYPE
 70
     6
  9
$SURFU
 70
     6
  9
$SURFV
 70
     6
  9
$UCSBASE
  2

  9
$UCSNAME
  2

  9
$UCSORG
 10
0.0
 20
0.0
 30
0.0
  9
$UCSXDIR
 10
1.0
 20
0.0
 30
0.0
  9
$UCSYDIR
 10
0.0
 20
1.0
 30
0.0
  9
$UCSORTHOREF
  2

  9
$UCSORTHOVIEW
 70
     0
  9
$UCSORGTOP
 10
0.0
 20
0.0
 30
0.0
  9
$UCSORGBOTTOM
 10
0.0
 20
0.0
 30
0.0
  9
$UCSORGLEFT
 10
0.0
 20
0.0
 30
0.0
  9
$UCSORGRIGHT
 10
0.0
 20
0.0
 30
0.0
  9
$UCSORGFRONT
 10
0.0
 20
0.0
 30
0.0
  9
$UCSORGBACK
 10
0.0
 20
0.0
 30
0.0
  9
$PUCSBASE
  2

  9
$PUCSNAME
  2

  9
$PUCSORG
 10
0.0
 20
0.0
 30
0.0
  9
$PUCSXDIR
 10
1.0
 20
0.0
 30
0.0
  9
$PUCSYDIR
 10
0.0
 20
1.0
 30
0.0
  9
$PUCSORTHOREF
  2

  9
$PUCSORTHOVIEW
 70
     0
  9
$PUCSORGTOP
 10
0.0
 20
0.0
 30
0.0
  9
$PUCSORGBOTTOM
 10
0.0
 20
0.0
 30
0.0
  9
$PUCSORGLEFT
 10
0.0
 20
0.0
 30
0.0
  9
$PUCSORGRIGHT
 10
0.0
 20
0.0
 30
0.0
  9
$PUCSORGFRONT
 10
0.0
 20
0.0
 30
0.0
  9
$PUCSORGBACK
 10
0.0
 20
0.0
 30
0.0
  9
$USERI1
 70
     0
  9
$USERI2
 70
     0
  9
$USERI3
 70
     0
  9
$USERI4
 70
     0
  9
$USERI5
 70
     0
  9
$USERR1
 40
0.0
  9
$USERR2
 40
0.0
  9
$USERR3
 40
0.0
  9
$USERR4
 40
0.0
  9
$USERR5
 40
0.0
  9
$WORLDVIEW
 70
     1
  9
$SHADEDGE
 70
     3
  9
$SHADEDIF
 70
    70
  9
$TILEMODE
 70
     1
  9
$MAXACTVP
 70
    64
  9
$PINSBASE
 10
0.0
 20
0.0
 30
0.0
  9
$PLIMCHECK
 70
     0
  9
$PEXTMIN
 10
1.000000000000000E+20
 20
1.000000000000000E+20
 30
1.000000000000000E+20
  9
$PEXTMAX
 10
-1.000000000000000E+20
 20
-1.000000000000000E+20
 30
-1.000000000000000E+20
  9
$PLIMMIN
 10
0.0
 20
0.0
  9
$PLIMMAX
 10
420.0
 20
297.0
  9
$UNITMODE
 70
     0
  9
$VISRETAIN
 70
     1
  9
$PLINEGEN
 70
     0
  9
$PSLTSCALE
 70
     1
  9
$TREEDEPTH
 70
  3020
  9
$CMLSTYLE
  2
Standard
  9
$CMLJUST
 70
     0
  9
$CMLSCALE
 40
20.0
  9
$PROXYGRAPHICS
 70
     1
  9
$MEASUREMENT
 70
     1
  9
$CELWEIGHT
370
    -1
  9
$ENDCAPS
280
     0
  9
$JOINSTYLE
280
     0
  9
$LWDISPLAY
290
     0
  9
$INSUNITS
 70
     4
  9
$HYPERLINKBASE
  1

  9
$STYLESHEET
  1

  9
$XEDIT
290
     1
  9
$CEPSNTYPE
380
     0
  9
$PSTYLEMODE
290
     1
  9
$FINGERPRINTGUID
  2
{38853C57-A673-4513-8C56-2FBDA7F308D5}
  9
$VERSIONGUID
  2
{FAEB1C32-E019-11D5-929B-00C0DF256EC4}
  9
$EXTNAMES
290
     1
  9
$PSVPSCALE
 40
0.0
  9
$OLESTARTUP
290
     0
  9
$SORTENTS
280
   127
  9
$INDEXCTL
280
     0
  9
$HIDETEXT
280
     1
  9
$XCLIPFRAME
280
     2
  9
$HALOGAP
280
     0
  9
$OBSCOLOR
 70
   257
  9
$OBSLTYPE
280
     0
  9
$INTERSECTIONDISPLAY
280
     0
  9
$INTERSECTIONCOLOR
 70
   257
  9
$DIMASSOC
280
     2
  9
$PROJECTNAME
  1

  9
$CAMERADISPLAY
290
     0
  9
$LENSLENGTH
 40
50.0
  9
$CAMERAHEIGHT
 40
0.0
  9
$STEPSPERSEC
 40
2.0
  9
$STEPSIZE
 40
6.0
  9
$3DDWFPREC
 40
2.0
  9
$PSOLWIDTH
 40
5.0
  9
$PSOLHEIGHT
 40
80.0
  9
$LOFTANG1
 40
1.570796326794897
  9
$LOFTANG2
 40
1.570796326794897
  9
$LOFTMAG1
 40
0.0
  9
$LOFTMAG2
 40
0.0
  9
$LOFTPARAM
 70
     7
  9
$LOFTNORMALS
280
     1
  9
$LATITUDE
 40
37.795
  9
$LONGITUDE
 40
-122.394
  9
$NORTHDIRECTION
 40
0.0
  9
$TIMEZONE
 70
 -8000
  9
$LIGHTGLYPHDISPLAY
280
     1
  9
$TILEMODELIGHTSYNCH
280
     1
  9
$CMATERIAL
347
44
  9
$SOLIDHIST
280
     0
  9
$SHOWHIST
280
     1
  9
$DWFFRAME
280
     2
  9
$DGNFRAME
280
     2
  9
$REALWORLDSCALE
290
     1
  9
$INTERFERECOLOR
 62
   256
  9
$CSHADOW
280
     0
  9
$SHADOWPLANELOCATION
 40
0.0
  0
ENDSEC
  0
SECTION
  2
CLASSES
  0
CLASS
  1
ACDBDICTIONARYWDFLT
  2
AcDbDictionaryWithDefault
  3
ObjectDBX Classes
 90
        0
 91
        4
280
     0
281
     0
  0
CLASS
  1
VISUALSTYLE
  2
AcDbVisualStyle
  3
ObjectDBX Classes
 90
     4095
 91
        4
280
     0
281
     0
  0
CLASS
  1
MATERIAL
  2
AcDbMaterial
  3
ObjectDBX Classes
 90
     1153
 91
        4
280
     0
281
     0
  0
CLASS
  1
SCALE
  2
AcDbScale
  3
ObjectDBX Classes
 90
     1153
 91
        4
280
     0
281
     0
  0
CLASS
  1
TABLESTYLE
  2
AcDbTableStyle
  3
ObjectDBX Classes
 90
     4095
 91
        4
280
     0
281
     0
  0
CLASS
  1
MLEADERSTYLE
  2
AcDbMLeaderStyle
  3
ACDB_MLEADERSTYLE_CLASS
 90
     4095
 91
        4
280
     0
281
     0
  0
CLASS
  1
SUN
  2
AcDbSun
  3
SCENEOE
 90
     1153
 91
        4
280
     0
281
     0
  0
CLASS
  1
DICTIONARYVAR
  2
AcDbDictionaryVar
  3
ObjectDBX Classes
 90
        0
 91
        4
280
     0
281
     0
  0
CLASS
  1
CELLSTYLEMAP
  2
AcDbCellStyleMap
  3
ObjectDBX Classes
 90
     1152
 91
        4
280
     0
281
     0
  0
ENDSEC
  0
SECTION
  2
TABLES
  0
TABLE
  2
VPORT
  5
8
330
0
100
AcDbSymbolTable
 70
     1
  0
VPORT
  5
29
330
8
100
AcDbSymbolTableRecord
100
AcDbViewportTableRecord
  2
*Active
 70
     0
 10
0.0
 20
0.0
 11
1.0
 21
1.0
 12
0.0
 22
-1.47999999999999
 13
0.0
 23
0.0
 14
10.0
 24
10.0
 15
10.0
 25
10.0
 16
0.0
 26
0.0
 36
1.0
 17
0.0
 27
0.0
 37
0.0
 40
63.15840000000001
 41
2.955426356589147
 42
50.0
 43
0.0
 44
0.0
 50
0.0
 51
0.0
 71
     0
 72
   100
 73
     1
 74
     3
 75
     0
 76
     0
 77
     0
 78
     0
281
     0
 65
     1
110
0.0
120
0.0
130
0.0
111
1.0
121
0.0
131
0.0
112
0.0
122
1.0
132
0.0
 79
     0
146
0.0
348
2F
 60
     3
 61
     5
292
     1
282
     1
141
0.0
142
0.0
 63
   250
361
6D
  0
ENDTAB
  0
TABLE
  2
LTYPE
  5
5
330
0
100
AcDbSymbolTable
 70
     3
  0
LTYPE
  5
14
330
5
100
AcDbSymbolTableRecord
100
AcDbLinetypeTableRecord
  2
ByBlock
 70
     0
  3

 72
    65
 73
     0
 40
0.0
  0
LTYPE
  5
15
330
5
100
AcDbSymbolTableRecord
100
AcDbLinetypeTableRecord
  2
ByLayer
 70
     0
  3

 72
    65
 73
     0
 40
0.0
  0
LTYPE
  5
16
330
5
100
AcDbSymbolTableRecord
100
AcDbLinetypeTableRecord
  2
Continuous
 70
     0
  3
Solid line
 72
    65
 73
     0
 40
0.0
  0
LTYPE
  5
A1
330
5
100
AcDbSymbolTableRecord
100
AcDbLinetypeTableRecord
  2
Dashed
 70
     0
  3

 72
    65
 73
     2
 40
2.0
 49
1.0
 74
     0
 49
-1.0
 74
     0
  0
LTYPE
  5
10F
330
5
100
AcDbSymbolTableRecord
100
AcDbLinetypeTableRecord
  2
Center
 70
     0
  3

 72
    65
 73
     4
 40
1.5
 49
0.45
 74
     0
 49
-0.5
 74
     0
 49
0.05
 74
     0
 49
-0.5
 74
     0
  0
ENDTAB
  0
TABLE
  2
LAYER
  5
2
330
0
100
AcDbSymbolTable
 70
     7
  0
LAYER
  5
10
330
2
100
AcDbSymbolTableRecord
100
AcDbLayerTableRecord
  2
0
 70
     0
 62
     7
  6
Continuous
370
    -3
390
F
347
46
348
0
  0
LAYER
  5
72
330
2
100
AcDbSymbolTableRecord
100
AcDbLayerTableRecord
  2
AM_6
 70
     0
 62
    -2
  6
Continuous
370
    35
390
F
347
46
348
0
  0
LAYER
  5
A2
330
2
100
AcDbSymbolTableRecord
100
AcDbLayerTableRecord
  2
AM_9
 70
     0
 62
     6
  6
Dashed
370
    25
390
F
347
46
348
0
  0
LAYER
  5
10C
330
2
100
AcDbSymbolTableRecord
100
AcDbLayerTableRecord
  2
AM_5
 70
     0
 62
     3
  6
Continuous
370
    25
390
F
347
46
348
0
  0
LAYER
  5
110
330
2
100
AcDbSymbolTableRecord
100
AcDbLayerTableRecord
  2
AM_7
 70
     0
 62
     7
  6
Center
370
    25
390
F
347
46
348
0
  0
LAYER
  5
112
330
2
100
AcDbSymbolTableRecord
100
AcDbLayerTableRecord
  2
AM_4
 70
     0
 62
     7
  6
Continuous
370
    50
390
F
347
46
348
0
  0
LAYER
  5
2E9
330
2
100
AcDbSymbolTableRecord
100
AcDbLayerTableRecord
  2
ConnectionPoints
 70
     0
 62
     7
  6
Continuous
370
    50
390
F
347
46
348
0
  0
ENDTAB
  0
TABLE
  2
STYLE
  5
3
330
0
100
AcDbSymbolTable
 70
     1
  0
STYLE
  5
11
330
3
100
AcDbSymbolTableRecord
100
AcDbTextStyleTableRecord
  2
Standard
 70
     0
 40
0.0
 41
1.0
 50
0.0
 71
     0
 42
2.5
  3
txt
  4

  0
ENDTAB
  0
TABLE
  2
VIEW
  5
6
330
0
100
AcDbSymbolTable
 70
     0
  0
ENDTAB
  0
TABLE
  2
UCS
  5
7
330
0
100
AcDbSymbolTable
 70
     0
  0
ENDTAB
  0
TABLE
  2
APPID
  5
9
330
0
100
AcDbSymbolTable
 70
     1
  0
APPID
  5
12
330
9
100
AcDbSymbolTableRecord
100
AcDbRegAppTableRecord
  2
ACAD
 70
     0
  0
ENDTAB
  0
TABLE
  2
DIMSTYLE
  5
A
330
0
100
AcDbSymbolTable
 70
     1
100
AcDbDimStyleTable
  0
DIMSTYLE
105
27
330
A
100
AcDbSymbolTableRecord
100
AcDbDimStyleTableRecord
  2
ISO-25
 70
     0
 41
2.5
 42
0.625
 43
3.75
 44
1.25
 73
     0
 74
     0
 77
     1
 78
     8
140
2.5
141
2.5
143
0.03937007874016
147
0.625
171
     3
172
     1
178
     0
271
     2
272
     2
274
     3
278
    44
283
     0
284
     8
340
11
  0
ENDTAB
  0
TABLE
  2
BLOCK_RECORD
  5
1
330
0
100
AcDbSymbolTable
 70
     5
  0
BLOCK_RECORD
  5
1F
330
1
100
AcDbSymbolTableRecord
100
AcDbBlockTableRecord
  2
*Model_Space
340
22
 70
     0
280
     1
281
     0
  0
BLOCK_RECORD
  5
1B
330
1
100
AcDbSymbolTableRecord
100
AcDbBlockTableRecord
  2
*Paper_Space
340
1E
 70
     0
280
     1
281
     0
  0
BLOCK_RECORD
  5
23
330
1
100
AcDbSymbolTableRecord
100
AcDbBlockTableRecord
  2
*Paper_Space0
340
26
 70
     0
280
     1
281
     0
  0
BLOCK_RECORD
  5
6E
330
1
100
AcDbSymbolTableRecord
100
AcDbBlockTableRecord
  2
1_129257_4
340
0
102
{BLKREFS
331
6F
102
}
 70
     0
280
     1
281
     0
  0
BLOCK_RECORD
  5
8B
330
1
100
AcDbSymbolTableRecord
100
AcDbBlockTableRecord
  2
2_INS_GT_09_CR_0_in_129257_4
340
0
102
{BLKREFS
331
8C
102
}
 70
     0
280
     1
281
     0
  0
BLOCK_RECORD
  5
CD
330
1
100
AcDbSymbolTableRecord
100
AcDbBlockTableRecord
  2
3_129985_0_in_129257_4
340
0
102
{BLKREFS
331
CE
102
}
 70
     0
280
     1
281
     0
  0
BLOCK_RECORD
  5
126
330
1
100
AcDbSymbolTableRecord
100
AcDbBlockTableRecord
  2
4_P2B_GTEZ_09_PCR_0_in_129257_4
340
0
102
{BLKREFS
331
127
102
}
 70
     0
280
     1
281
     0
  0
ENDTAB
  0
ENDSEC
  0
SECTION
  2
BLOCKS
  0
BLOCK
  5
20
330
1F
100
AcDbEntity
  8
0
100
AcDbBlockBegin
  2
*Model_Space
 70
     0
 10
0.0
 20
0.0
 30
0.0
  3
*Model_Space
  1

  0
ENDBLK
  5
21
330
1F
100
AcDbEntity
  8
0
100
AcDbBlockEnd
  0
BLOCK
  5
1C
330
1B
100
AcDbEntity
 67
     1
  8
0
100
AcDbBlockBegin
  2
*Paper_Space
 70
     0
 10
0.0
 20
0.0
 30
0.0
  3
*Paper_Space
  1

  0
ENDBLK
  5
1D
330
1B
100
AcDbEntity
 67
     1
  8
0
100
AcDbBlockEnd
  0
BLOCK
  5
24
330
23
100
AcDbEntity
  8
0
100
AcDbBlockBegin
  2
*Paper_Space0
 70
     0
 10
0.0
 20
0.0
 30
0.0
  3
*Paper_Space0
  1

  0
ENDBLK
  5
25
330
23
100
AcDbEntity
  8
0
100
AcDbBlockEnd
  0
BLOCK
  5
70
330
6E
100
AcDbEntity
  8
0
100
AcDbBlockBegin
  2
1_129257_4
 70
     2
 10
0.0
 20
0.0
 30
0.0
  3
1_129257_4
  1

  0
ATTDEF
  5
73
330
6E
100
AcDbEntity
  8
AM_6
100
AcDbText
 10
96.5
 20
29.48
 30
0.0
 40
0.5
  1
Grip Tight Two-Bolt Pillow Block - Polymer Housing, Corrision Resistant Insert Metric Bore
100
AcDbAttributeDefinition
  3

  2
NN
 70
     8
280
     0
  0
ATTDEF
  5
74
330
6E
100
AcDbEntity
  8
AM_6
100
AcDbText
 10
96.5
 20
28.98
 30
0.0
 40
0.5
  1
GTEZ Normal Duty Polymer Housed Pillow Blocks
100
AcDbAttributeDefinition
  3

  2
NT
 70
     8
280
     0
  0
ATTDEF
  5
75
330
6E
100
AcDbEntity
  8
AM_6
100
AcDbText
 10
96.5
 20
28.48
 30
0.0
 40
0.5
  1
129257
100
AcDbAttributeDefinition
  3

  2
NB
 70
     8
280
     0
  0
ATTDEF
  5
76
330
6E
100
AcDbEntity
  8
AM_6
100
AcDbText
 10
96.5
 20
27.98
 30
0.0
 40
0.5
  1
$PN.$LUBE.
100
AcDbAttributeDefinition
  3

  2
NBSYN
 70
     8
280
     0
  0
ATTDEF
  5
77
330
6E
100
AcDbEntity
  8
AM_6
100
AcDbText
 10
96.5
 20
27.48
 30
0.0
 40
0.5
  1
129257
100
AcDbAttributeDefinition
  3

  2
LINA
 70
     8
280
     0
  0
ATTDEF
  5
78
330
6E
100
AcDbEntity
  8
AM_6
100
AcDbText
 10
96.5
 20
26.98
 30
0.0
 40
0.5
  1
209
100
AcDbAttributeDefinition
  3

  2
SERIES
 70
     8
280
     0
  0
ATTDEF
  5
79
330
6E
100
AcDbEntity
  8
AM_6
100
AcDbText
 10
96.5
 20
26.48
 30
0.0
 40
0.5
  1
45
100
AcDbAttributeDefinition
  3

  2
SS
 70
     8
280
     0
  0
ATTDEF
  5
7A
330
6E
100
AcDbEntity
  8
AM_6
100
AcDbText
 10
96.5
 20
25.98
 30
0.0
 40
0.5
  1
129257
100
AcDbAttributeDefinition
  3

  2
PN
 70
     8
280
     0
  0
ATTDEF
  5
7B
330
6E
100
AcDbEntity
  8
AM_6
100
AcDbText
 10
96.5
 20
25.48
 30
0.0
 40
0.5
  1
P2B-GTEZ-45M-PCR
100
AcDbAttributeDefinition
  3

  2
DESCRIPTION
 70
     8
280
     0
  0
ATTDEF
  5
7C
330
6E
100
AcDbEntity
  8
AM_6
100
AcDbText
 10
96.5
 20
24.98
 30
0.0
 40
0.5
  1
46.8
100
AcDbAttributeDefinition
  3

  2
A
 70
     8
280
     0
  0
ATTDEF
  5
7D
330
6E
100
AcDbEntity
  8
AM_6
100
AcDbText
 10
96.5
 20
24.48
 30
0.0
 40
0.5
  1
183.0
100
AcDbAttributeDefinition
  3

  2
B
 70
     8
280
     0
  0
ATTDEF
  5
7E
330
6E
100
AcDbEntity
  8
AM_6
100
AcDbText
 10
96.5
 20
23.98
 30
0.0
 40
0.5
  1
53.6
100
AcDbAttributeDefinition
  3

  2
C
 70
     8
280
     0
  0
ATTDEF
  5
7F
330
6E
100
AcDbEntity
  8
AM_6
100
AcDbText
 10
96.5
 20
23.48
 30
0.0
 40
0.5
  1
137.7
100
AcDbAttributeDefinition
  3

  2
DMIN
 70
     8
280
     0
  0
ATTDEF
  5
80
330
6E
100
AcDbEntity
  8
AM_6
100
AcDbText
 10
96.5
 20
22.98
 30
0.0
 40
0.5
  1
151.6
100
AcDbAttributeDefinition
  3

  2
DMAX
 70
     8
280
     0
  0
ATTDEF
  5
81
330
6E
100
AcDbEntity
  8
AM_6
100
AcDbText
 10
96.5
 20
22.48
 30
0.0
 40
0.5
  1
M12
100
AcDbAttributeDefinition
  3

  2
F
 70
     8
280
     0
  0
ATTDEF
  5
82
330
6E
100
AcDbEntity
  8
AM_6
100
AcDbText
 10
96.5
 20
21.98
 30
0.0
 40
0.5
  1
22.2
100
AcDbAttributeDefinition
  3

  2
G
 70
     8
280
     0
  0
ATTDEF
  5
83
330
6E
100
AcDbEntity
  8
AM_6
100
AcDbText
 10
96.5
 20
21.48
 30
0.0
 40
0.5
  1
21.4
100
AcDbAttributeDefinition
  3

  2
H
 70
     8
280
     0
  0
ATTDEF
  5
84
330
6E
100
AcDbEntity
  8
AM_6
100
AcDbText
 10
96.5
 20
20.98
 30
0.0
 40
0.5
  1
109.5
100
AcDbAttributeDefinition
  3

  2
J
 70
     8
280
     0
  0
ATTDEF
  5
85
330
6E
100
AcDbEntity
  8
AM_6
100
AcDbText
 10
96.5
 20
20.48
 30
0.0
 40
0.5
  1
67.9
100
AcDbAttributeDefinition
  3

  2
L
 70
     8
280
     0
  0
ATTDEF
  5
86
330
6E
100
AcDbEntity
  8
AM_6
100
AcDbText
 10
96.5
 20
19.98
 30
0.0
 40
0.5
  1
54.0
100
AcDbAttributeDefinition
  3

  2
M
 70
     8
280
     0
  0
ATTDEF
  5
87
330
6E
100
AcDbEntity
  8
AM_6
100
AcDbText
 10
96.5
 20
19.48
 30
0.0
 40
0.5
  1
16.7
100
AcDbAttributeDefinition
  3

  2
R
 70
     8
280
     0
  0
ATTDEF
  5
88
330
6E
100
AcDbEntity
  8
AM_6
100
AcDbText
 10
96.5
 20
18.98
 30
0.0
 40
0.5
  1
30.2
100
AcDbAttributeDefinition
  3

  2
S
 70
     8
280
     0
  0
ATTDEF
  5
89
330
6E
100
AcDbEntity
  8
AM_6
100
AcDbText
 10
96.5
 20
18.48
 30
0.0
 40
0.5
  1
29.4
100
AcDbAttributeDefinition
  3

  2
Z
 70
     8
280
     0
  0
ATTDEF
  5
8A
330
6E
100
AcDbEntity
  8
AM_6
100
AcDbText
 10
96.5
 20
17.98
 30
0.0
 40
0.5
  1
baldor
100
AcDbAttributeDefinition
  3

  2
COMPANY
 70
     8
280
     0
  0
INSERT
  5
8C
330
6E
100
AcDbEntity
  8
0
100
AcDbBlockReference
  2
2_INS_GT_09_CR_0_in_129257_4
 10
0.0
 20
0.0
 30
0.0
  0
INSERT
  5
CE
330
6E
100
AcDbEntity
  8
0
100
AcDbBlockReference
  2
3_129985_0_in_129257_4
 10
0.0
 20
0.0
 30
0.0
  0
INSERT
  5
127
330
6E
100
AcDbEntity
  8
0
100
AcDbBlockReference
  2
4_P2B_GTEZ_09_PCR_0_in_129257_4
 10
0.0
 20
0.0
 30
0.0
  0
ENDBLK
  5
71
330
6E
100
AcDbEntity
  8
0
100
AcDbBlockEnd
  0
BLOCK
  5
8D
330
8B
100
AcDbEntity
  8
0
100
AcDbBlockBegin
  2
2_INS_GT_09_CR_0_in_129257_4
 70
     2
 10
0.0
 20
0.0
 30
0.0
  3
2_INS_GT_09_CR_0_in_129257_4
  1

  0
ATTDEF
  5
8F
330
8B
100
AcDbEntity
  8
AM_6
100
AcDbText
 10
47.4967277951549
 20
15.03
 30
0.0
 40
0.5
  1
INS-GT-CR-M
100
AcDbAttributeDefinition
  3

  2
NN
 70
     8
280
     0
  0
ATTDEF
  5
90
330
8B
100
AcDbEntity
  8
AM_6
100
AcDbText
 10
47.4967277951549
 20
14.53
 30
0.0
 40
0.5
  1
GT Normal Duty Corrosion Resistant Bearing Inserts
100
AcDbAttributeDefinition
  3

  2
NT
 70
     8
280
     0
  0
ATTDEF
  5
91
330
8B
100
AcDbEntity
  8
AM_6
100
AcDbText
 10
47.4967277951549
 20
14.03
 30
0.0
 40
0.5
  1
INS-GT-09-CR
100
AcDbAttributeDefinition
  3

  2
NB
 70
     8
280
     0
  0
ATTDEF
  5
92
330
8B
100
AcDbEntity
  8
AM_6
100
AcDbText
 10
47.4967277951549
 20
13.53
 30
0.0
 40
0.5
  1
$PN.
100
AcDbAttributeDefinition
  3

  2
NBSYN
 70
     8
280
     0
  0
ATTDEF
  5
93
330
8B
100
AcDbEntity
  8
AM_6
100
AcDbText
 10
47.4967277951549
 20
13.03
 30
0.0
 40
0.5
  1
INS-GT-09-CR
100
AcDbAttributeDefinition
  3

  2
LINA
 70
     8
280
     0
  0
ATTDEF
  5
94
330
8B
100
AcDbEntity
  8
AM_6
100
AcDbText
 10
47.4967277951549
 20
12.53
 30
0.0
 40
0.5
  1
209
100
AcDbAttributeDefinition
  3

  2
SERIES
 70
     8
280
     0
  0
ATTDEF
  5
95
330
8B
100
AcDbEntity
  8
AM_6
100
AcDbText
 10
47.4967277951549
 20
12.03
 30
0.0
 40
0.5
  1
INS-GT-09-CR
100
AcDbAttributeDefinition
  3

  2
PN
 70
     8
280
     0
  0
ATTDEF
  5
96
330
8B
100
AcDbEntity
  8
AM_6
100
AcDbText
 10
47.4967277951549
 20
11.53
 30
0.0
 40
0.5
  1
INS-GT-09-CR
100
AcDbAttributeDefinition
  3

  2
DESCRIPTION
 70
     8
280
     0
  0
ATTDEF
  5
97
330
8B
100
AcDbEntity
  8
AM_6
100
AcDbText
 10
47.4967277951549
 20
11.03
 30
0.0
 40
0.5
  1
46.8
100
AcDbAttributeDefinition
  3

  2
A
 70
     8
280
     0
  0
ATTDEF
  5
98
330
8B
100
AcDbEntity
  8
AM_6
100
AcDbText
 10
47.4967277951549
 20
10.53
 30
0.0
 40
0.5
  1
22.0
100
AcDbAttributeDefinition
  3

  2
C
 70
     8
280
     0
  0
ATTDEF
  5
99
330
8B
100
AcDbEntity
  8
AM_6
100
AcDbText
 10
47.4967277951549
 20
10.03
 30
0.0
 40
0.5
  1
85.0
100
AcDbAttributeDefinition
  3

  2
D
 70
     8
280
     0
  0
ATTDEF
  5
9A
330
8B
100
AcDbEntity
  8
AM_6
100
AcDbText
 10
47.4967277951549
 20
9.53
 30
0.0
 40
0.5
  1
6.3
100
AcDbAttributeDefinition
  3

  2
J
 70
     8
280
     0
  0
ATTDEF
  5
9B
330
8B
100
AcDbEntity
  8
AM_6
100
AcDbText
 10
47.4967277951549
 20
9.03
 30
0.0
 40
0.5
  1
67.9
100
AcDbAttributeDefinition
  3

  2
L
 70
     8
280
     0
  0
ATTDEF
  5
9C
330
8B
100
AcDbEntity
  8
AM_6
100
AcDbText
 10
47.4967277951549
 20
8.53
 30
0.0
 40
0.5
  1
10 - 32 x 1/4
100
AcDbAttributeDefinition
  3

  2
N
 70
     8
280
     0
  0
ATTDEF
  5
9D
330
8B
100
AcDbEntity
  8
AM_6
100
AcDbText
 10
47.4967277951549
 20
8.03
 30
0.0
 40
0.5
  1
16.7
100
AcDbAttributeDefinition
  3

  2
W
 70
     8
280
     0
  0
ATTDEF
  5
9E
330
8B
100
AcDbEntity
  8
AM_6
100
AcDbText
 10
47.4967277951549
 20
7.529999999999999
 30
0.0
 40
0.5
  1
29.4
100
AcDbAttributeDefinition
  3

  2
X
 70
     8
280
     0
  0
ATTDEF
  5
9F
330
8B
100
AcDbEntity
  8
AM_6
100
AcDbText
 10
47.4967277951549
 20
7.029999999999999
 30
0.0
 40
0.5
  1
30.2
100
AcDbAttributeDefinition
  3

  2
Y
 70
     8
280
     0
  0
ATTDEF
  5
A0
330
8B
100
AcDbEntity
  8
AM_6
100
AcDbText
 10
47.4967277951549
 20
6.529999999999999
 30
0.0
 40
0.5
  1
baldor
100
AcDbAttributeDefinition
  3

  2
COMPANY
 70
     8
280
     0
  0
LINE
  5
A3
330
8B
100
AcDbEntity
  8
AM_9
100
AcDbLine
 10
25.32777777777778
 20
-22.04999999999999
 30
0.0
 11
25.32777777777778
 21
-11.02500000000008
 31
0.0
  0
LINE
  5
A4
330
8B
100
AcDbEntity
  8
AM_9
100
AcDbLine
 10
-25.32777777777778
 20
-11.02500000000008
 30
0.0
 11
-25.32777777777778
 21
-22.04999999999999
 31
0.0
  0
LINE
  5
A5
330
8B
100
AcDbEntity
  8
AM_9
100
AcDbLine
 10
-25.32777777777778
 20
-11.02500000000008
 30
0.0
 11
25.32777777777778
 21
-11.02500000000008
 31
0.0
  0
LINE
  5
A6
330
8B
100
AcDbEntity
  8
AM_9
100
AcDbLine
 10
25.32777777777778
 20
-11.02500000000008
 30
0.0
 11
26.23763842688527
 21
15.03
 31
0.0
  0
LINE
  5
A7
330
8B
100
AcDbEntity
  8
AM_9
100
AcDbLine
 10
-26.23763842688527
 20
15.03
 30
0.0
 11
-25.32777777777778
 21
-11.02500000000008
 31
0.0
  0
LINE
  5
A8
330
8B
100
AcDbEntity
  8
AM_9
100
AcDbLine
 10
27.75277777777779
 20
-18.375
 30
0.0
 11
27.75277777777779
 21
-14.7
 31
0.0
  0
LINE
  5
A9
330
8B
100
AcDbEntity
  8
AM_9
100
AcDbLine
 10
-27.75277777777779
 20
-14.7
 30
0.0
 11
-27.75277777777779
 21
-18.375
 31
0.0
  0
LINE
  5
AA
330
8B
100
AcDbEntity
  8
AM_9
100
AcDbLine
 10
30.17777777777778
 20
-21.16999999999999
 30
0.0
 11
30.17777777777778
 21
-18.375
 31
0.0
  0
LINE
  5
AB
330
8B
100
AcDbEntity
  8
AM_9
100
AcDbLine
 10
-30.17777777777778
 20
-18.375
 30
0.0
 11
-30.17777777777778
 21
-21.16999999999999
 31
0.0
  0
LINE
  5
AC
330
8B
100
AcDbEntity
  8
AM_9
100
AcDbLine
 10
-29.29777777777779
 20
15.03
 30
0.0
 11
29.29777777777779
 21
15.03
 31
0.0
  0
LINE
  5
AD
330
8B
100
AcDbEntity
  8
AM_9
100
AcDbLine
 10
-29.29777777777779
 20
15.03
 30
0.0
 11
-30.17777777777778
 21
14.15
 31
0.0
  0
LINE
  5
AE
330
8B
100
AcDbEntity
  8
AM_9
100
AcDbLine
 10
30.17777777777778
 20
14.15
 30
0.0
 11
29.29777777777779
 21
15.03
 31
0.0
  0
LINE
  5
AF
330
8B
100
AcDbEntity
  8
AM_9
100
AcDbLine
 10
29.29777777777779
 20
-22.04999999999999
 30
0.0
 11
30.17777777777778
 21
-21.16999999999999
 31
0.0
  0
LINE
  5
B0
330
8B
100
AcDbEntity
  8
AM_9
100
AcDbLine
 10
-30.17777777777778
 20
-21.16999999999999
 30
0.0
 11
-29.29777777777779
 21
-22.04999999999999
 31
0.0
  0
LINE
  5
B1
330
8B
100
AcDbEntity
  8
AM_9
100
AcDbLine
 10
-30.17777777777778
 20
-21.16999999999999
 30
0.0
 11
30.17777777777778
 21
-21.16999999999999
 31
0.0
  0
LINE
  5
B2
330
8B
100
AcDbEntity
  8
AM_9
100
AcDbLine
 10
-30.17777777777779
 20
14.15
 30
0.0
 11
30.17777777777779
 21
14.15
 31
0.0
  0
LINE
  5
B3
330
8B
100
AcDbEntity
  8
AM_9
100
AcDbLine
 10
30.17777777777779
 20
11.0
 30
0.0
 11
30.17777777777779
 21
14.15
 31
0.0
  0
LINE
  5
B4
330
8B
100
AcDbEntity
  8
AM_9
100
AcDbLine
 10
-30.17777777777779
 20
14.15
 30
0.0
 11
-30.17777777777779
 21
11.0
 31
0.0
  0
LINE
  5
B5
330
8B
100
AcDbEntity
  8
AM_9
100
AcDbLine
 10
30.17777777777779
 20
-14.7
 30
0.0
 11
30.17777777777779
 21
-11.0
 31
0.0
  0
LINE
  5
B6
330
8B
100
AcDbEntity
  8
AM_9
100
AcDbLine
 10
-30.17777777777779
 20
-11.0
 30
0.0
 11
-30.17777777777779
 21
-14.7
 31
0.0
  0
LINE
  5
B7
330
8B
100
AcDbEntity
  8
AM_9
100
AcDbLine
 10
40.3
 20
-7.559999999999999
 30
0.0
 11
40.3
 21
-5.040000000000001
 31
0.0
  0
LINE
  5
B8
330
8B
100
AcDbEntity
  8
AM_9
100
AcDbLine
 10
-40.3
 20
-5.040000000000001
 30
0.0
 11
-40.3
 21
-7.559999999999999
 31
0.0
  0
LINE
  5
B9
330
8B
100
AcDbEntity
  8
AM_9
100
AcDbLine
 10
-39.70666580556273
 20
-11.00000000000001
 30
0.0
 11
39.70666580556273
 21
-11.00000000000001
 31
0.0
  0
ARC
  5
BA
330
8B
100
AcDbEntity
  8
AM_9
100
AcDbCircle
 10
39.70666580556273
 20
-10.12000000000001
 30
0.0
 40
0.8799999999999919
100
AcDbArc
 50
270.0
 51
338.5875329531173
  0
ARC
  5
BB
330
8B
100
AcDbEntity
  8
AM_9
100
AcDbCircle
 10
-39.70666580556273
 20
-10.12000000000001
 30
0.0
 40
0.8799999999999878
100
AcDbArc
 50
201.4124670468827
 51
270.0
  0
LINE
  5
BC
330
8B
100
AcDbEntity
  8
AM_9
100
AcDbLine
 10
-39.70666580556274
 20
11.0
 30
0.0
 11
39.70666580556274
 21
11.0
 31
0.0
  0
ARC
  5
BD
330
8B
100
AcDbEntity
  8
AM_9
100
AcDbCircle
 10
39.70666580556272
 20
10.11999999999999
 30
0.0
 40
0.8800000000000068
100
AcDbArc
 50
21.41245540451627
 51
90.0
  0
ARC
  5
BE
330
8B
100
AcDbEntity
  8
AM_9
100
AcDbCircle
 10
-39.70666580556272
 20
10.11999999999999
 30
0.0
 40
0.8800000000000061
100
AcDbArc
 50
90.0
 51
158.5875445954837
  0
LINE
  5
BF
330
8B
100
AcDbEntity
  8
AM_9
100
AcDbLine
 10
-40.52592503748537
 20
-10.44126984126983
 30
0.0
 11
40.52592503748537
 21
-10.44126984126983
 31
0.0
  0
ARC
  5
C0
330
8B
100
AcDbEntity
  8
AM_9
100
AcDbCircle
 10
13.90000000087565
 20
-0.0000000002957474
 30
0.0
 40
28.59999999907684
100
AcDbArc
 50
338.5875329530271
 51
344.0894253588615
  0
ARC
  5
C1
330
8B
100
AcDbEntity
  8
AM_9
100
AcDbCircle
 10
-13.89999999998869
 20
0.0000000000038103
 30
0.0
 40
28.60000000001194
100
AcDbArc
 50
195.9105746412286
 51
201.4124670468828
  0
LINE
  5
C2
330
8B
100
AcDbEntity
  8
AM_9
100
AcDbLine
 10
-41.19278292882571
 20
-7.559999999999999
 30
0.0
 11
41.19278292882571
 21
-7.559999999999999
 31
0.0
  0
ARC
  5
C3
330
8B
100
AcDbEntity
  8
AM_9
100
AcDbCircle
 10
41.19278292882571
 20
-7.780000000000006
 30
0.0
 40
0.2200000000000009
100
AcDbArc
 50
344.0894313323835
 51
90.0
  0
ARC
  5
C4
330
8B
100
AcDbEntity
  8
AM_9
100
AcDbCircle
 10
-41.19278292882571
 20
-7.780000000000006
 30
0.0
 40
0.2200000000000077
100
AcDbArc
 50
90.0
 51
195.9105686676165
  0
LINE
  5
C5
330
8B
100
AcDbEntity
  8
AM_9
100
AcDbLine
 10
-41.40435489585091
 20
-7.840310055290073
 30
0.0
 11
41.40435489585091
 21
-7.840310055290073
 31
0.0
  0
LINE
  5
C6
330
8B
100
AcDbEntity
  8
AM_9
100
AcDbLine
 10
-41.86769565379619
 20
-5.039999999999997
 30
0.0
 11
41.86769565379619
 21
-5.039999999999997
 31
0.0
  0
ARC
  5
C7
330
8B
100
AcDbEntity
  8
AM_9
100
AcDbCircle
 10
41.86769565051793
 20
-4.81999999999999
 30
0.0
 40
0.2200000000000086
100
AcDbArc
 50
270.0
 51
350.2216048273866
  0
ARC
  5
C8
330
8B
100
AcDbEntity
  8
AM_9
100
AcDbCircle
 10
-41.86769565051793
 20
-4.81999999999999
 30
0.0
 40
0.2200000000000097
100
AcDbArc
 50
189.7783951726134
 51
270.0
  0
LINE
  5
C9
330
8B
100
AcDbEntity
  8
AM_9
100
AcDbLine
 10
-40.52592510276662
 20
10.44126967479828
 30
0.0
 11
40.52592510276662
 21
10.44126967479828
 31
0.0
  0
ARC
  5
CA
330
8B
100
AcDbEntity
  8
AM_9
100
AcDbCircle
 10
13.89999999999992
 20
-0.0000000000000142
 30
0.0
 40
28.60000000000008
100
AcDbArc
 50
350.2216048273912
 51
21.41246668865729
  0
ARC
  5
CB
330
8B
100
AcDbEntity
  8
AM_9
100
AcDbCircle
 10
-13.90000000000009
 20
0.0000000000000044
 30
0.0
 40
28.59999999999991
100
AcDbArc
 50
158.5875333113426
 51
189.778395172609
  0
LINE
  5
CC
330
8B
100
AcDbEntity
  8
AM_9
100
AcDbLine
 10
-42.08449949277001
 20
-4.85736434108528
 30
0.0
 11
42.08449949277001
 21
-4.85736434108528
 31
0.0
  0
ENDBLK
  5
8E
330
8B
100
AcDbEntity
  8
0
100
AcDbBlockEnd
  0
BLOCK
  5
CF
330
CD
100
AcDbEntity
  8
0
100
AcDbBlockBegin
  2
3_129985_0_in_129257_4
 70
     2
 10
0.0
 20
0.0
 30
0.0
  3
3_129985_0_in_129257_4
  1

  0
ATTDEF
  5
D1
330
CD
100
AcDbEntity
  8
AM_6
100
AcDbText
 10
38.80355010941899
 20
16.7
 30
0.0
 40
0.5
  1
Grip Tight Adapter and Nut - Corrosion Resistant Metric Bore
100
AcDbAttributeDefinition
  3

  2
NN
 70
     8
280
     0
  0
ATTDEF
  5
D2
330
CD
100
AcDbEntity
  8
AM_6
100
AcDbText
 10
38.80355010941899
 20
16.2
 30
0.0
 40
0.5
  1
GT and GTM Adapter & Lock Nut Assemblies
100
AcDbAttributeDefinition
  3

  2
NT
 70
     8
280
     0
  0
ATTDEF
  5
D3
330
CD
100
AcDbEntity
  8
AM_6
100
AcDbText
 10
38.80355010941899
 20
15.7
 30
0.0
 40
0.5
  1
129985
100
AcDbAttributeDefinition
  3

  2
NB
 70
     8
280
     0
  0
ATTDEF
  5
D4
330
CD
100
AcDbEntity
  8
AM_6
100
AcDbText
 10
38.80355010941899
 20
15.2
 30
0.0
 40
0.5
  1
$PN.
100
AcDbAttributeDefinition
  3

  2
NBSYN
 70
     8
280
     0
  0
ATTDEF
  5
D5
330
CD
100
AcDbEntity
  8
AM_6
100
AcDbText
 10
38.80355010941899
 20
14.7
 30
0.0
 40
0.5
  1
129985
100
AcDbAttributeDefinition
  3

  2
LINA
 70
     8
280
     0
  0
ATTDEF
  5
D6
330
CD
100
AcDbEntity
  8
AM_6
100
AcDbText
 10
38.80355010941899
 20
14.2
 30
0.0
 40
0.5
  1
209
100
AcDbAttributeDefinition
  3

  2
SERIES
 70
     8
280
     0
  0
ATTDEF
  5
D7
330
CD
100
AcDbEntity
  8
AM_6
100
AcDbText
 10
38.80355010941899
 20
13.7
 30
0.0
 40
0.5
  1
45
100
AcDbAttributeDefinition
  3

  2
SS
 70
     8
280
     0
  0
ATTDEF
  5
D8
330
CD
100
AcDbEntity
  8
AM_6
100
AcDbText
 10
38.80355010941899
 20
13.2
 30
0.0
 40
0.5
  1
129985
100
AcDbAttributeDefinition
  3

  2
PN
 70
     8
280
     0
  0
ATTDEF
  5
D9
330
CD
100
AcDbEntity
  8
AM_6
100
AcDbText
 10
38.80355010941899
 20
12.7
 30
0.0
 40
0.5
  1
AN-GT-09-45M-CR
100
AcDbAttributeDefinition
  3

  2
DESCRIPTION
 70
     8
280
     0
  0
ATTDEF
  5
DA
330
CD
100
AcDbEntity
  8
AM_6
100
AcDbText
 10
38.80355010941899
 20
12.2
 30
0.0
 40
0.5
  1
46.8
100
AcDbAttributeDefinition
  3

  2
A
 70
     8
280
     0
  0
ATTDEF
  5
DB
330
CD
100
AcDbEntity
  8
AM_6
100
AcDbText
 10
38.80355010941899
 20
11.7
 30
0.0
 40
0.5
  1
22.0
100
AcDbAttributeDefinition
  3

  2
C
 70
     8
280
     0
  0
ATTDEF
  5
DC
330
CD
100
AcDbEntity
  8
AM_6
100
AcDbText
 10
38.80355010941899
 20
11.2
 30
0.0
 40
0.5
  1
85.0
100
AcDbAttributeDefinition
  3

  2
D
 70
     8
280
     0
  0
ATTDEF
  5
DD
330
CD
100
AcDbEntity
  8
AM_6
100
AcDbText
 10
38.80355010941899
 20
10.7
 30
0.0
 40
0.5
  1
6.3
100
AcDbAttributeDefinition
  3

  2
J
 70
     8
280
     0
  0
ATTDEF
  5
DE
330
CD
100
AcDbEntity
  8
AM_6
100
AcDbText
 10
38.80355010941899
 20
10.2
 30
0.0
 40
0.5
  1
67.9
100
AcDbAttributeDefinition
  3

  2
L
 70
     8
280
     0
  0
ATTDEF
  5
DF
330
CD
100
AcDbEntity
  8
AM_6
100
AcDbText
 10
38.80355010941899
 20
9.7
 30
0.0
 40
0.5
  1
10 - 32 x 1/4
100
AcDbAttributeDefinition
  3

  2
N
 70
     8
280
     0
  0
ATTDEF
  5
E0
330
CD
100
AcDbEntity
  8
AM_6
100
AcDbText
 10
38.80355010941899
 20
9.2
 30
0.0
 40
0.5
  1
16.7
100
AcDbAttributeDefinition
  3

  2
W
 70
     8
280
     0
  0
ATTDEF
  5
E1
330
CD
100
AcDbEntity
  8
AM_6
100
AcDbText
 10
38.80355010941899
 20
8.7
 30
0.0
 40
0.5
  1
29.4
100
AcDbAttributeDefinition
  3

  2
X
 70
     8
280
     0
  0
ATTDEF
  5
E2
330
CD
100
AcDbEntity
  8
AM_6
100
AcDbText
 10
38.80355010941899
 20
8.2
 30
0.0
 40
0.5
  1
30.2
100
AcDbAttributeDefinition
  3

  2
Y
 70
     8
280
     0
  0
ATTDEF
  5
E3
330
CD
100
AcDbEntity
  8
AM_6
100
AcDbText
 10
38.80355010941899
 20
7.699999999999999
 30
0.0
 40
0.5
  1
baldor
100
AcDbAttributeDefinition
  3

  2
COMPANY
 70
     8
280
     0
  0
LINE
  5
E4
330
CD
100
AcDbEntity
  8
AM_9
100
AcDbLine
 10
-33.51820000000001
 20
-28.41453333333333
 30
0.0
 11
-25.8943
 21
-28.41453333333333
 31
0.0
  0
LINE
  5
E5
330
CD
100
AcDbEntity
  8
AM_9
100
AcDbLine
 10
-25.8943
 20
-24.45213333333333
 30
0.0
 11
-33.51820000000001
 21
-24.45213333333333
 31
0.0
  0
LINE
  5
E6
330
CD
100
AcDbEntity
  8
AM_9
100
AcDbLine
 10
-25.8943
 20
-28.41453333333333
 30
0.0
 11
-25.4625
 21
-28.84633333333333
 31
0.0
  0
LINE
  5
E7
330
CD
100
AcDbEntity
  8
AM_9
100
AcDbLine
 10
-25.4625
 20
-24.02033333333333
 30
0.0
 11
-25.8943
 21
-24.45213333333333
 31
0.0
  0
LINE
  5
E8
330
CD
100
AcDbEntity
  8
AM_9
100
AcDbLine
 10
-25.4625
 20
-24.02033333333333
 30
0.0
 11
-25.4625
 21
-28.84633333333333
 31
0.0
  0
LINE
  5
E9
330
CD
100
AcDbEntity
  8
AM_9
100
AcDbLine
 10
-25.8943
 20
-24.45213333333333
 30
0.0
 11
-25.8943
 21
-28.41453333333333
 31
0.0
  0
LINE
  5
EA
330
CD
100
AcDbEntity
  8
AM_9
100
AcDbLine
 10
-33.51820000000001
 20
-24.45213333333333
 30
0.0
 11
-33.9492417056672
 21
-24.02109162766613
 31
0.0
  0
LINE
  5
EB
330
CD
100
AcDbEntity
  8
AM_9
100
AcDbLine
 10
-33.78673154047181
 20
-28.68306487380514
 30
0.0
 11
-33.51820000000001
 21
-28.41453333333333
 31
0.0
  0
LINE
  5
EC
330
CD
100
AcDbEntity
  8
AM_9
100
AcDbLine
 10
-33.51820000000001
 20
-24.45213333333333
 30
0.0
 11
-33.51820000000001
 21
-28.41453333333333
 31
0.0
  0
LINE
  5
ED
330
CD
100
AcDbEntity
  8
AM_9
100
AcDbLine
 10
31.68665912219708
 20
-14.7
 30
0.0
 11
31.68665912219708
 21
-29.4
 31
0.0
  0
LINE
  5
EE
330
CD
100
AcDbEntity
  8
AM_9
100
AcDbLine
 10
22.5
 20
-30.09999999999999
 30
0.0
 11
22.5
 21
16.7
 31
0.0
  0
LINE
  5
EF
330
CD
100
AcDbEntity
  8
AM_9
100
AcDbLine
 10
-22.5
 20
16.7
 30
0.0
 11
-22.5
 21
-30.09999999999999
 31
0.0
  0
LINE
  5
F0
330
CD
100
AcDbEntity
  8
AM_9
100
AcDbLine
 10
25.32777777777777
 20
-22.04999999999999
 30
0.0
 11
25.32777777777777
 21
-11.02500000000029
 31
0.0
  0
LINE
  5
F1
330
CD
100
AcDbEntity
  8
AM_9
100
AcDbLine
 10
-25.32777777777777
 20
-11.02500000000029
 30
0.0
 11
-25.32777777777777
 21
-22.04999999999999
 31
0.0
  0
LINE
  5
F2
330
CD
100
AcDbEntity
  8
AM_9
100
AcDbLine
 10
-1.25
 20
16.7
 30
0.0
 11
-1.250000000000001
 21
-29.4
 31
0.0
  0
LINE
  5
F3
330
CD
100
AcDbEntity
  8
AM_9
100
AcDbLine
 10
1.25
 20
16.7
 30
0.0
 11
1.25
 21
-29.4
 31
0.0
  0
LINE
  5
F4
330
CD
100
AcDbEntity
  8
AM_9
100
AcDbLine
 10
1.25
 20
-11.02500000000029
 30
0.0
 11
25.32777777777777
 21
-11.02500000000029
 31
0.0
  0
LINE
  5
F5
330
CD
100
AcDbEntity
  8
AM_9
100
AcDbLine
 10
25.32777777777777
 20
-11.02500000000029
 30
0.0
 11
26.29595611193648
 21
16.7
 31
0.0
  0
LINE
  5
F6
330
CD
100
AcDbEntity
  8
AM_9
100
AcDbLine
 10
-26.29595611193648
 20
16.7
 30
0.0
 11
-25.32777777777777
 21
-11.02500000000029
 31
0.0
  0
LINE
  5
F7
330
CD
100
AcDbEntity
  8
AM_9
100
AcDbLine
 10
-25.32777777777777
 20
-11.02500000000029
 30
0.0
 11
-1.25
 21
-11.02500000000029
 31
0.0
  0
LINE
  5
F8
330
CD
100
AcDbEntity
  8
AM_9
100
AcDbLine
 10
-26.29595611193648
 20
16.7
 30
0.0
 11
26.29595611193648
 21
16.7
 31
0.0
  0
LINE
  5
F9
330
CD
100
AcDbEntity
  8
AM_9
100
AcDbLine
 10
-33.07
 20
-14.7
 30
0.0
 11
-33.95
 21
-15.58
 31
0.0
  0
LINE
  5
FA
330
CD
100
AcDbEntity
  8
AM_9
100
AcDbLine
 10
-19.18779776088761
 20
-14.7
 30
0.0
 11
-19.62975507663048
 21
-15.58
 31
0.0
  0
LINE
  5
FB
330
CD
100
AcDbEntity
  8
AM_9
100
AcDbLine
 10
-19.62975507663048
 20
-15.58
 30
0.0
 11
-19.62975507663048
 21
-17.63553050981135
 31
0.0
  0
LINE
  5
FC
330
CD
100
AcDbEntity
  8
AM_9
100
AcDbLine
 10
-33.95
 20
-15.58
 30
0.0
 11
-33.95
 21
-19.21675193642709
 31
0.0
  0
LINE
  5
FD
330
CD
100
AcDbEntity
  8
AM_9
100
AcDbLine
 10
-33.95
 20
-15.58
 30
0.0
 11
-19.62975507663048
 21
-15.58
 31
0.0
  0
LINE
  5
FE
330
CD
100
AcDbEntity
  8
AM_9
100
AcDbLine
 10
27.75277777777777
 20
-18.375
 30
0.0
 11
27.75277777777777
 21
-14.7
 31
0.0
  0
LINE
  5
FF
330
CD
100
AcDbEntity
  8
AM_9
100
AcDbLine
 10
-27.75277777777777
 20
-14.7
 30
0.0
 11
-27.75277777777777
 21
-18.375
 31
0.0
  0
LINE
  5
100
330
CD
100
AcDbEntity
  8
AM_9
100
AcDbLine
 10
-13.11534953917757
 20
-14.7
 30
0.0
 11
-13.11534953917757
 21
-29.39999999999999
 31
0.0
  0
LINE
  5
101
330
CD
100
AcDbEntity
  8
AM_9
100
AcDbLine
 10
-18.57130958301953
 20
-14.7
 30
0.0
 11
-18.57130958301953
 21
-17.5660994603528
 31
0.0
  0
LINE
  5
102
330
CD
100
AcDbEntity
  8
AM_9
100
AcDbLine
 10
-30.51727777777778
 20
-18.375
 30
0.0
 11
30.51727777777778
 21
-18.375
 31
0.0
  0
LINE
  5
103
330
CD
100
AcDbEntity
  8
AM_9
100
AcDbLine
 10
-30.51727777777778
 20
-22.04999999999999
 30
0.0
 11
30.51727777777778
 21
-22.04999999999999
 31
0.0
  0
LINE
  5
104
330
CD
100
AcDbEntity
  8
AM_9
100
AcDbLine
 10
30.51727777777778
 20
-22.04999999999999
 30
0.0
 11
30.51727777777778
 21
-18.375
 31
0.0
  0
LINE
  5
105
330
CD
100
AcDbEntity
  8
AM_9
100
AcDbLine
 10
-30.51727777777778
 20
-18.375
 30
0.0
 11
-30.51727777777778
 21
-22.04999999999999
 31
0.0
  0
LINE
  5
106
330
CD
100
AcDbEntity
  8
AM_9
100
AcDbLine
 10
33.80355010941898
 20
-15.58
 30
0.0
 11
33.80355010941898
 21
-19.19154833838561
 31
0.0
  0
LINE
  5
107
330
CD
100
AcDbEntity
  8
AM_9
100
AcDbLine
 10
-14.17379503278852
 20
-17.3263242922223
 30
0.0
 11
-14.17379503278852
 21
-15.58
 31
0.0
  0
LINE
  5
108
330
CD
100
AcDbEntity
  8
AM_9
100
AcDbLine
 10
32.91963547793323
 20
-14.7
 30
0.0
 11
33.80355010941898
 21
-15.58
 31
0.0
  0
LINE
  5
109
330
CD
100
AcDbEntity
  8
AM_9
100
AcDbLine
 10
-33.07
 20
-14.7
 30
0.0
 11
32.91963547793323
 21
-14.7
 31
0.0
  0
LINE
  5
10A
330
CD
100
AcDbEntity
  8
AM_9
100
AcDbLine
 10
-14.17379503278852
 20
-15.58
 30
0.0
 11
-13.73183771704565
 21
-14.69999999999999
 31
0.0
  0
LINE
  5
10B
330
CD
100
AcDbEntity
  8
AM_9
100
AcDbLine
 10
-14.17379503278852
 20
-15.58
 30
0.0
 11
33.80355010941898
 21
-15.58
 31
0.0
  0
LINE
  5
10D
330
CD
100
AcDbEntity
  8
AM_5
100
AcDbLine
 10
-33.62366666666667
 20
-28.84633333333333
 30
0.0
 11
-25.4625
 21
-28.84633333333333
 31
0.0
  0
LINE
  5
10E
330
CD
100
AcDbEntity
  8
AM_5
100
AcDbLine
 10
-33.95
 20
-24.02033333333333
 30
0.0
 11
-25.46250000000001
 21
-24.02033333333333
 31
0.0
  0
LINE
  5
111
330
CD
100
AcDbEntity
  8
AM_7
100
AcDbLine
 10
-25.038125
 20
-26.43333333333333
 30
0.0
 11
-34.374375
 21
-26.43333333333333
 31
0.0
  0
LINE
  5
113
330
CD
100
AcDbEntity
  8
AM_4
100
AcDbLine
 10
-1.25
 20
-30.1
 30
0.0
 11
-1.250000000000001
 21
-29.4
 31
0.0
  0
LINE
  5
114
330
CD
100
AcDbEntity
  8
AM_4
100
AcDbLine
 10
1.25
 20
-30.1
 30
0.0
 11
1.250000000000001
 21
-29.4
 31
0.0
  0
LINE
  5
115
330
CD
100
AcDbEntity
  8
AM_4
100
AcDbLine
 10
25.32777777777777
 20
-30.09999999999999
 30
0.0
 11
25.32777777777777
 21
-29.4
 31
0.0
  0
LINE
  5
116
330
CD
100
AcDbEntity
  8
AM_4
100
AcDbLine
 10
-25.32777777777777
 20
-29.4
 30
0.0
 11
-25.32777777777777
 21
-30.09999999999999
 31
0.0
  0
LINE
  5
117
330
CD
100
AcDbEntity
  8
AM_4
100
AcDbLine
 10
-25.32777777777777
 20
-30.09999999999999
 30
0.0
 11
25.32777777777777
 21
-30.09999999999999
 31
0.0
  0
LINE
  5
118
330
CD
100
AcDbEntity
  8
AM_4
100
AcDbLine
 10
-33.92979804388686
 20
-28.52
 30
0.0
 11
-33.78683333333341
 21
-28.68316666666658
 31
0.0
  0
LINE
  5
119
330
CD
100
AcDbEntity
  8
AM_4
100
AcDbLine
 10
-33.78837654115336
 20
-28.68162345884664
 30
0.0
 11
-33.07
 21
-29.4
 31
0.0
  0
LINE
  5
11A
330
CD
100
AcDbEntity
  8
AM_4
100
AcDbLine
 10
-19.62975507663048
 20
-28.52
 30
0.0
 11
-19.18779776088761
 21
-29.4
 31
0.0
  0
LINE
  5
11B
330
CD
100
AcDbEntity
  8
AM_4
100
AcDbLine
 10
-33.92979804388686
 20
-28.52
 30
0.0
 11
-19.62975507663048
 21
-28.52
 31
0.0
  0
LINE
  5
11C
330
CD
100
AcDbEntity
  8
AM_4
100
AcDbLine
 10
-19.62975507663048
 20
-17.63553050981135
 30
0.0
 11
-19.62975507663048
 21
-28.52
 31
0.0
  0
LINE
  5
11D
330
CD
100
AcDbEntity
  8
AM_4
100
AcDbLine
 10
-33.95
 20
-19.21675193642709
 30
0.0
 11
-33.95
 21
-24.02175993710152
 31
0.0
  0
LWPOLYLINE
  5
11E
330
CD
100
AcDbEntity
  8
AM_4
100
AcDbPolyline
 90
       16
 70
     0
 43
0.0
 10
-33.95
 20
-24.02033333333338
 10
-33.94796434130424
 20
-24.05120571846777
 10
-33.94206415625241
 20
-24.14301615380451
 10
-33.93263594872852
 20
-24.2978347901863
 10
-33.9210444730728
 20
-24.50501121455459
 10
-33.90802684310801
 20
-24.76793467725357
 10
-33.89524246484103
 20
-25.07455841696876
 10
-33.88378636935894
 20
-25.42542213299686
 10
-33.87521773649888
 20
-25.80473260275292
 10
-33.87043931900447
 20
-26.21175102844552
 10
-33.87025476682867
 20
-26.62237242137676
 10
-33.87483192394736
 20
-27.0393003128879
 10
-33.88346545958264
 20
-27.42964237361382
 10
-33.89562538342162
 20
-27.80228688717539
 10
-33.91670125546734
 20
-28.27808315773357
 10
-33.92979804388687
 20
-28.52
  0
LINE
  5
11F
330
CD
100
AcDbEntity
  8
AM_4
100
AcDbLine
 10
-18.57130958301953
 20
-17.5660994603528
 30
0.0
 11
-18.57130958301953
 21
-29.4
 31
0.0
  0
LINE
  5
120
330
CD
100
AcDbEntity
  8
AM_4
100
AcDbLine
 10
33.80355010941898
 20
-19.19154833838561
 30
0.0
 11
33.80355010941899
 21
-28.52
 31
0.0
  0
LINE
  5
121
330
CD
100
AcDbEntity
  8
AM_4
100
AcDbLine
 10
-14.17379503278852
 20
-28.51999999999999
 30
0.0
 11
-14.17379503278852
 21
-17.3263242922223
 31
0.0
  0
LINE
  5
122
330
CD
100
AcDbEntity
  8
AM_4
100
AcDbLine
 10
33.80355010941899
 20
-28.52
 30
0.0
 11
32.91963547793323
 21
-29.4
 31
0.0
  0
LINE
  5
123
330
CD
100
AcDbEntity
  8
AM_4
100
AcDbLine
 10
-14.17379503278852
 20
-28.51999999999999
 30
0.0
 11
33.80355010941899
 21
-28.52
 31
0.0
  0
LINE
  5
124
330
CD
100
AcDbEntity
  8
AM_4
100
AcDbLine
 10
-13.73183771704565
 20
-29.4
 30
0.0
 11
-14.17379503278852
 21
-28.51999999999999
 31
0.0
  0
LINE
  5
125
330
CD
100
AcDbEntity
  8
AM_4
100
AcDbLine
 10
-33.07
 20
-29.4
 30
0.0
 11
32.91963547793323
 21
-29.4
 31
0.0
  0
ENDBLK
  5
D0
330
CD
100
AcDbEntity
  8
0
100
AcDbBlockEnd
  0
BLOCK
  5
128
330
126
100
AcDbEntity
  8
0
100
AcDbBlockBegin
  2
4_P2B_GTEZ_09_PCR_0_in_129257_4
 70
     2
 10
0.0
 20
0.0
 30
0.0
  3
4_P2B_GTEZ_09_PCR_0_in_129257_4
  1

  0
ATTDEF
  5
12A
330
126
100
AcDbEntity
  8
AM_6
100
AcDbText
 10
96.5
 20
29.48
 30
0.0
 40
0.5
  1
P2B-GTEZ-PCR-M-Body
100
AcDbAttributeDefinition
  3

  2
NN
 70
     8
280
     0
  0
ATTDEF
  5
12B
330
126
100
AcDbEntity
  8
AM_6
100
AcDbText
 10
96.5
 20
28.98
 30
0.0
 40
0.5
  1
GTEZ Normal Duty Polymer Housed Pillow Blocks
100
AcDbAttributeDefinition
  3

  2
NT
 70
     8
280
     0
  0
ATTDEF
  5
12C
330
126
100
AcDbEntity
  8
AM_6
100
AcDbText
 10
96.5
 20
28.48
 30
0.0
 40
0.5
  1
P2B-GTEZ-09-PCR
100
AcDbAttributeDefinition
  3

  2
NB
 70
     8
280
     0
  0
ATTDEF
  5
12D
330
126
100
AcDbEntity
  8
AM_6
100
AcDbText
 10
96.5
 20
27.98
 30
0.0
 40
0.5
  1
$PN.$LUBE.
100
AcDbAttributeDefinition
  3

  2
NBSYN
 70
     8
280
     0
  0
ATTDEF
  5
12E
330
126
100
AcDbEntity
  8
AM_6
100
AcDbText
 10
96.5
 20
27.48
 30
0.0
 40
0.5
  1
P2B-GTEZ-09-PCR
100
AcDbAttributeDefinition
  3

  2
LINA
 70
     8
280
     0
  0
ATTDEF
  5
12F
330
126
100
AcDbEntity
  8
AM_6
100
AcDbText
 10
96.5
 20
26.98
 30
0.0
 40
0.5
  1
209
100
AcDbAttributeDefinition
  3

  2
SERIES
 70
     8
280
     0
  0
ATTDEF
  5
130
330
126
100
AcDbEntity
  8
AM_6
100
AcDbText
 10
96.5
 20
26.48
 30
0.0
 40
0.5
  1
P2B-GTEZ-09-PCR
100
AcDbAttributeDefinition
  3

  2
PN
 70
     8
280
     0
  0
ATTDEF
  5
131
330
126
100
AcDbEntity
  8
AM_6
100
AcDbText
 10
96.5
 20
25.98
 30
0.0
 40
0.5
  1
P2B-GTEZ-09-PCR
100
AcDbAttributeDefinition
  3

  2
DESCRIPTION
 70
     8
280
     0
  0
ATTDEF
  5
132
330
126
100
AcDbEntity
  8
AM_6
100
AcDbText
 10
96.5
 20
25.48
 30
0.0
 40
0.5
  1
With Lube
100
AcDbAttributeDefinition
  3

  2
LUBE
 70
     8
280
     0
  0
ATTDEF
  5
133
330
126
100
AcDbEntity
  8
AM_6
100
AcDbText
 10
96.5
 20
24.98
 30
0.0
 40
0.5
  1
85.0
100
AcDbAttributeDefinition
  3

  2
BOD
 70
     8
280
     0
  0
ATTDEF
  5
134
330
126
100
AcDbEntity
  8
AM_6
100
AcDbText
 10
96.5
 20
24.48
 30
0.0
 40
0.5
  1
46.8
100
AcDbAttributeDefinition
  3

  2
A
 70
     8
280
     0
  0
ATTDEF
  5
135
330
126
100
AcDbEntity
  8
AM_6
100
AcDbText
 10
96.5
 20
23.98
 30
0.0
 40
0.5
  1
183.0
100
AcDbAttributeDefinition
  3

  2
B
 70
     8
280
     0
  0
ATTDEF
  5
136
330
126
100
AcDbEntity
  8
AM_6
100
AcDbText
 10
96.5
 20
23.48
 30
0.0
 40
0.5
  1
53.6
100
AcDbAttributeDefinition
  3

  2
C
 70
     8
280
     0
  0
ATTDEF
  5
137
330
126
100
AcDbEntity
  8
AM_6
100
AcDbText
 10
96.5
 20
22.98
 30
0.0
 40
0.5
  1
137.7
100
AcDbAttributeDefinition
  3

  2
DMIN
 70
     8
280
     0
  0
ATTDEF
  5
138
330
126
100
AcDbEntity
  8
AM_6
100
AcDbText
 10
96.5
 20
22.48
 30
0.0
 40
0.5
  1
151.6
100
AcDbAttributeDefinition
  3

  2
DMAX
 70
     8
280
     0
  0
ATTDEF
  5
139
330
126
100
AcDbEntity
  8
AM_6
100
AcDbText
 10
96.5
 20
21.98
 30
0.0
 40
0.5
  1
M12
100
AcDbAttributeDefinition
  3

  2
F
 70
     8
280
     0
  0
ATTDEF
  5
13A
330
126
100
AcDbEntity
  8
AM_6
100
AcDbText
 10
96.5
 20
21.48
 30
0.0
 40
0.5
  1
22.2
100
AcDbAttributeDefinition
  3

  2
G
 70
     8
280
     0
  0
ATTDEF
  5
13B
330
126
100
AcDbEntity
  8
AM_6
100
AcDbText
 10
96.5
 20
20.98
 30
0.0
 40
0.5
  1
21.4
100
AcDbAttributeDefinition
  3

  2
H
 70
     8
280
     0
  0
ATTDEF
  5
13C
330
126
100
AcDbEntity
  8
AM_6
100
AcDbText
 10
96.5
 20
20.48
 30
0.0
 40
0.5
  1
109.5
100
AcDbAttributeDefinition
  3

  2
J
 70
     8
280
     0
  0
ATTDEF
  5
13D
330
126
100
AcDbEntity
  8
AM_6
100
AcDbText
 10
96.5
 20
19.98
 30
0.0
 40
0.5
  1
67.9
100
AcDbAttributeDefinition
  3

  2
L
 70
     8
280
     0
  0
ATTDEF
  5
13E
330
126
100
AcDbEntity
  8
AM_6
100
AcDbText
 10
96.5
 20
19.48
 30
0.0
 40
0.5
  1
54.0
100
AcDbAttributeDefinition
  3

  2
M
 70
     8
280
     0
  0
ATTDEF
  5
13F
330
126
100
AcDbEntity
  8
AM_6
100
AcDbText
 10
96.5
 20
18.98
 30
0.0
 40
0.5
  1
16.7
100
AcDbAttributeDefinition
  3

  2
R
 70
     8
280
     0
  0
ATTDEF
  5
140
330
126
100
AcDbEntity
  8
AM_6
100
AcDbText
 10
96.5
 20
18.48
 30
0.0
 40
0.5
  1
30.2
100
AcDbAttributeDefinition
  3

  2
S
 70
     8
280
     0
  0
ATTDEF
  5
141
330
126
100
AcDbEntity
  8
AM_6
100
AcDbText
 10
96.5
 20
17.98
 30
0.0
 40
0.5
  1
29.4
100
AcDbAttributeDefinition
  3

  2
Z
 70
     8
280
     0
  0
ATTDEF
  5
142
330
126
100
AcDbEntity
  8
AM_6
100
AcDbText
 10
96.5
 20
17.48
 30
0.0
 40
0.5
  1
baldor
100
AcDbAttributeDefinition
  3

  2
COMPANY
 70
     8
280
     0
  0
LWPOLYLINE
  5
143
330
126
100
AcDbEntity
  8
AM_9
100
AcDbPolyline
 90
        3
 70
     0
 43
0.0
 10
42.18337321926639
 20
-1.999999999999998
 10
42.62256780976333
 20
-2.999999999999996
 10
43.11711343419751
 20
-3.999999999999999
  0
LWPOLYLINE
  5
144
330
126
100
AcDbEntity
  8
AM_9
100
AcDbPolyline
 90
        3
 70
     0
 43
0.0
 10
43.11711343419751
 20
-3.999999999999999
 10
42.62467679705261
 20
-4.99550373072731
 10
42.18337321926639
 20
-6.000000000000002
  0
LWPOLYLINE
  5
145
330
126
100
AcDbEntity
  8
AM_9
100
AcDbPolyline
 90
        3
 70
     0
 43
0.0
 10
41.48412027234207
 20
0.0000000000000023
 10
41.80450902763679
 20
-0.9955037307273045
 10
42.18337321926639
 20
-1.999999999999998
  0
LWPOLYLINE
  5
146
330
126
100
AcDbEntity
  8
AM_9
100
AcDbPolyline
 90
        3
 70
     0
 43
0.0
 10
42.18337321926639
 20
-6.000000000000002
 10
41.80607122883561
 20
-7.000000000000003
 10
41.48412027234206
 20
-7.999999999999998
  0
LWPOLYLINE
  5
147
330
126
100
AcDbEntity
  8
AM_9
100
AcDbPolyline
 90
        3
 70
     0
 43
0.0
 10
45.35749990034363
 20
-3.999999999999998
 10
45.0371111450489
 20
-3.004496269272692
 10
44.65824695341931
 20
-1.999999999999995
  0
LWPOLYLINE
  5
148
330
126
100
AcDbEntity
  8
AM_9
100
AcDbPolyline
 90
        3
 70
     0
 43
0.0
 10
44.6582469534193
 20
-6.000000000000007
 10
45.03554894385007
 20
-5.000000000000004
 10
45.35749990034363
 20
-3.999999999999998
  0
LINE
  5
149
330
126
100
AcDbEntity
  8
AM_9
100
AcDbLine
 10
45.35749990034363
 20
-3.999999999999998
 30
0.0
 11
43.11711343419751
 21
-3.999999999999999
 31
0.0
  0
LINE
  5
14A
330
126
100
AcDbEntity
  8
AM_9
100
AcDbLine
 10
39.73388347648322
 20
-1.200000000000014
 30
0.0
 11
38.85000000000004
 21
-1.200000000000014
 31
0.0
  0
LINE
  5
14B
330
126
100
AcDbEntity
  8
AM_9
100
AcDbLine
 10
38.85000000000004
 20
-6.799999999999981
 30
0.0
 11
39.73388347648322
 21
-6.799999999999981
 31
0.0
  0
LINE
  5
14C
330
126
100
AcDbEntity
  8
AM_9
100
AcDbLine
 10
44.37876617234904
 20
-6.651990505284317
 30
0.0
 11
44.6582469534193
 21
-6.000000000000007
 31
0.0
  0
LINE
  5
14D
330
126
100
AcDbEntity
  8
AM_9
100
AcDbLine
 10
44.65824695341931
 20
-1.999999999999995
 30
0.0
 11
44.37856501765959
 21
-1.347561217635701
 31
0.0
  0
LINE
  5
14E
330
126
100
AcDbEntity
  8
AM_9
100
AcDbLine
 10
33.80355010941898
 20
-23.82222222222223
 30
0.0
 11
-33.95
 21
-23.82222222222222
 31
0.0
  0
LINE
  5
14F
330
126
100
AcDbEntity
  8
AM_9
100
AcDbLine
 10
42.5
 20
-22.54989460029188
 30
0.0
 11
42.5
 21
22.54989460029187
 31
0.0
  0
LINE
  5
150
330
126
100
AcDbEntity
  8
AM_9
100
AcDbLine
 10
-42.5
 20
22.54989460029187
 30
0.0
 11
-42.5
 21
-22.54989460029188
 31
0.0
  0
LINE
  5
151
330
126
100
AcDbEntity
  8
AM_9
100
AcDbLine
 10
-2.83774000000001
 20
-16.80477567363696
 30
0.0
 11
-2.837740000000001
 21
-15.03
 31
0.0
  0
LINE
  5
152
330
126
100
AcDbEntity
  8
AM_9
100
AcDbLine
 10
3.226469999999978
 20
-16.80477567363696
 30
0.0
 11
3.226470000000001
 21
-15.03
 31
0.0
  0
LINE
  5
153
330
126
100
AcDbEntity
  8
AM_9
100
AcDbLine
 10
-6.569559999999981
 20
-16.80477567363696
 30
0.0
 11
-6.569559999999998
 21
-15.03
 31
0.0
  0
LINE
  5
154
330
126
100
AcDbEntity
  8
AM_9
100
AcDbLine
 10
0.894082000000009
 20
-16.80477583909683
 30
0.0
 11
0.8940820000000005
 21
-15.03
 31
0.0
  0
LINE
  5
155
330
126
100
AcDbEntity
  8
AM_9
100
AcDbLine
 10
-4.23717000000002
 20
-16.80477622519114
 30
0.0
 11
-4.237170000000001
 21
-15.03
 31
0.0
  0
LINE
  5
156
330
126
100
AcDbEntity
  8
AM_9
100
AcDbLine
 10
8.824199999999992
 20
-16.82085551483703
 30
0.0
 11
8.824199999999992
 21
-16.48318594454354
 31
0.0
  0
LINE
  5
157
330
126
100
AcDbEntity
  8
AM_9
100
AcDbLine
 10
-3.848439999999991
 20
-16.82085551483703
 30
0.0
 11
-3.848439999999993
 21
-16.48318594454354
 31
0.0
  0
LINE
  5
158
330
126
100
AcDbEntity
  8
AM_9
100
AcDbLine
 10
-3.226470000000001
 20
-16.82085551483703
 30
0.0
 11
-3.226470000000001
 21
-16.48318594454354
 31
0.0
  0
LINE
  5
159
330
126
100
AcDbEntity
  8
AM_9
100
AcDbLine
 10
-6.958290000000006
 20
-16.82085551483703
 30
0.0
 11
-6.958290000000003
 21
-16.48318594454354
 31
0.0
  0
LINE
  5
15A
330
126
100
AcDbEntity
  8
AM_9
100
AcDbLine
 10
0.5053509999999872
 20
-16.82085551483703
 30
0.0
 11
0.5053509999999897
 21
-16.48318594454354
 31
0.0
  0
LINE
  5
15B
330
126
100
AcDbEntity
  8
AM_9
100
AcDbLine
 10
4.314920000000001
 20
-16.82085551483703
 30
0.0
 11
4.314920000000001
 21
-16.48318594454354
 31
0.0
  0
LINE
  5
15C
330
126
100
AcDbEntity
  8
AM_9
100
AcDbLine
 10
3.615200000000021
 20
-16.82085551483703
 30
0.0
 11
3.615200000000017
 21
-16.48318594454354
 31
0.0
  0
LINE
  5
15D
330
126
100
AcDbEntity
  8
AM_9
100
AcDbLine
 10
3.304219999999999
 20
-16.81120803632236
 30
0.0
 11
3.304219999999999
 21
-16.49283342305822
 31
0.0
  0
LINE
  5
15E
330
126
100
AcDbEntity
  8
AM_9
100
AcDbLine
 10
-2.915489999999997
 20
-16.81120803632236
 30
0.0
 11
-2.915489999999998
 21
-16.49283342305821
 31
0.0
  0
LINE
  5
15F
330
126
100
AcDbEntity
  8
AM_9
100
AcDbLine
 10
-6.647309999999981
 20
-16.81120803632236
 30
0.0
 11
-6.647309999999983
 21
-16.49283342305822
 31
0.0
  0
LINE
  5
160
330
126
100
AcDbEntity
  8
AM_9
100
AcDbLine
 10
0.8163359999999867
 20
-16.81120803632236
 30
0.0
 11
0.8163359999999892
 21
-16.49283342305821
 31
0.0
  0
LINE
  5
161
330
126
100
AcDbEntity
  8
AM_9
100
AcDbLine
 10
4.625900000000009
 20
-16.81120803632236
 30
0.0
 11
4.625900000000007
 21
-16.49283342305821
 31
0.0
  0
LINE
  5
162
330
126
100
AcDbEntity
  8
AM_9
100
AcDbLine
 10
5.014640000000007
 20
-16.62790151191827
 30
0.0
 11
5.014640000000001
 21
-15.03
 31
0.0
  0
LINE
  5
163
330
126
100
AcDbEntity
  8
AM_9
100
AcDbLine
 10
-4.159429999999997
 20
-16.81120803632236
 30
0.0
 11
-4.159429999999998
 21
-16.49283342305821
 31
0.0
  0
LINE
  5
164
330
126
100
AcDbEntity
  8
AM_9
100
AcDbLine
 10
-6.414069999999995
 20
-16.7919117755797
 30
0.0
 11
-6.414069999999995
 21
-16.51212968380088
 31
0.0
  0
LINE
  5
165
330
126
100
AcDbEntity
  8
AM_9
100
AcDbLine
 10
-4.392659999999997
 20
-16.7919117755797
 30
0.0
 11
-4.392659999999998
 21
-16.51212968380088
 31
0.0
  0
LINE
  5
166
330
126
100
AcDbEntity
  8
AM_9
100
AcDbLine
 10
-2.682250000000006
 20
-16.7919117755797
 30
0.0
 11
-2.682250000000005
 21
-16.51212968380088
 31
0.0
  0
LINE
  5
167
330
126
100
AcDbEntity
  8
AM_9
100
AcDbLine
 10
1.049569999999993
 20
-16.7919117755797
 30
0.0
 11
1.049569999999994
 21
-16.51212968380088
 31
0.0
  0
LINE
  5
168
330
126
100
AcDbEntity
  8
AM_9
100
AcDbLine
 10
3.070979999999994
 20
-16.7919117755797
 30
0.0
 11
3.070979999999995
 21
-16.51212968380087
 31
0.0
  0
LINE
  5
169
330
126
100
AcDbEntity
  8
AM_9
100
AcDbLine
 10
4.85914
 20
-16.7919117755797
 30
0.0
 11
4.85914
 21
-16.51212968380088
 31
0.0
  0
LINE
  5
16A
330
126
100
AcDbEntity
  8
AM_9
100
AcDbLine
 10
5.325620000000009
 20
-16.62790151191827
 30
0.0
 11
5.325620000000001
 21
-15.03
 31
0.0
  0
LINE
  5
16B
330
126
100
AcDbEntity
  8
AM_9
100
AcDbLine
 10
2.915489999999997
 20
-16.76296920966434
 30
0.0
 11
2.915489999999997
 21
-16.54107224971623
 31
0.0
  0
LINE
  5
16C
330
126
100
AcDbEntity
  8
AM_9
100
AcDbLine
 10
-2.526749999999996
 20
-16.76296920966434
 30
0.0
 11
-2.526749999999997
 21
-16.54107224971623
 31
0.0
  0
LINE
  5
16D
330
126
100
AcDbEntity
  8
AM_9
100
AcDbLine
 10
-6.258579999999995
 20
-16.76296920966433
 30
0.0
 11
-6.258579999999995
 21
-16.54107224971623
 31
0.0
  0
LINE
  5
16E
330
126
100
AcDbEntity
  8
AM_9
100
AcDbLine
 10
1.205070000000016
 20
-16.76296920966434
 30
0.0
 11
1.205070000000014
 21
-16.54107224971623
 31
0.0
  0
LINE
  5
16F
330
126
100
AcDbEntity
  8
AM_9
100
AcDbLine
 10
-4.548160000000007
 20
-16.76296920966433
 30
0.0
 11
-4.548160000000006
 21
-16.54107224971623
 31
0.0
  0
ELLIPSE
  5
170
330
126
100
AcDbEntity
  8
AM_9
100
AcDbEllipse
 10
42.20875721063614
 20
-3.999999999999996
 30
0.0
 11
1.714505518806286E-16
 21
2.799999999999986
 31
0.0
210
0.0
220
0.0
230
1.0
 40
0.7071067811865471
 41
3.141592653589793
 42
6.283185307179586
  0
ELLIPSE
  5
171
330
126
100
AcDbEntity
  8
AM_9
100
AcDbEllipse
 10
42.56231060122943
 20
-3.999999999999971
 30
0.0
 11
1.714505518806253E-16
 21
2.799999999999932
 31
0.0
210
0.0
220
0.0
230
1.0
 40
0.7071067811865481
 41
5.30831819105765
 42
5.688177463670652
  0
LINE
  5
172
330
126
100
AcDbEntity
  8
AM_9
100
AcDbLine
 10
4.93689
 20
-16.62790151191827
 30
0.0
 11
4.93689
 21
-16.54107224971623
 31
0.0
  0
ELLIPSE
  5
173
330
126
100
AcDbEntity
  8
AM_9
100
AcDbEllipse
 10
42.20875721063611
 20
-3.999999999999999
 30
0.0
 11
2.449293598294711E-16
 21
4.000000000000007
 31
0.0
210
0.0
220
0.0
230
1.0
 40
0.7071067811865502
 41
3.990279514458104
 42
5.434123878899436
  0
LINE
  5
174
330
126
100
AcDbEntity
  8
AM_9
100
AcDbLine
 10
5.403370000000001
 20
-16.62790151191827
 30
0.0
 11
5.403370000000001
 21
-15.03
 31
0.0
  0
LINE
  5
175
330
126
100
AcDbEntity
  8
AM_9
100
AcDbLine
 10
4.237170000000007
 20
-16.62790151191827
 30
0.0
 11
4.237170000000001
 21
-15.03
 31
0.0
  0
LINE
  5
176
330
126
100
AcDbEntity
  8
AM_9
100
AcDbLine
 10
8.513219999999993
 20
-16.60860616377493
 30
0.0
 11
8.513219999999993
 21
-15.03
 31
0.0
  0
LINE
  5
177
330
126
100
AcDbEntity
  8
AM_9
100
AcDbLine
 10
-1.982530000000002
 20
-16.57966307637425
 30
0.0
 11
-1.982530000000001
 21
-15.03
 31
0.0
  0
LINE
  5
178
330
126
100
AcDbEntity
  8
AM_9
100
AcDbLine
 10
1.749290000000001
 20
-16.57966307637425
 30
0.0
 11
1.749290000000001
 21
-15.03
 31
0.0
  0
LINE
  5
179
330
126
100
AcDbEntity
  8
AM_9
100
AcDbLine
 10
-5.092380000000005
 20
-16.57966307637425
 30
0.0
 11
-5.092380000000002
 21
-15.03
 31
0.0
  0
LINE
  5
17A
330
126
100
AcDbEntity
  8
AM_9
100
AcDbLine
 10
2.371260000000007
 20
-16.57966307637425
 30
0.0
 11
2.371260000000001
 21
-15.03
 31
0.0
  0
LINE
  5
17B
330
126
100
AcDbEntity
  8
AM_9
100
AcDbLine
 10
-5.714350000000006
 20
-16.57966307637425
 30
0.0
 11
-5.714349999999998
 21
-15.03
 31
0.0
  0
LINE
  5
17C
330
126
100
AcDbEntity
  8
AM_9
100
AcDbLine
 10
1.282809999999998
 20
-16.46389036705766
 30
0.0
 11
1.28281
 21
-15.03
 31
0.0
  0
LINE
  5
17D
330
126
100
AcDbEntity
  8
AM_9
100
AcDbLine
 10
-4.625899999999995
 20
-16.46389036705765
 30
0.0
 11
-4.625900000000001
 21
-15.03
 31
0.0
  0
LINE
  5
17E
330
126
100
AcDbEntity
  8
AM_9
100
AcDbLine
 10
2.837739999999994
 20
-16.46389129773247
 30
0.0
 11
2.837740000000001
 21
-15.03
 31
0.0
  0
LINE
  5
17F
330
126
100
AcDbEntity
  8
AM_9
100
AcDbLine
 10
-6.180829999999998
 20
-16.46389129773247
 30
0.0
 11
-6.180829999999998
 21
-15.03
 31
0.0
  0
LINE
  5
180
330
126
100
AcDbEntity
  8
AM_9
100
AcDbLine
 10
-2.449010000000001
 20
-16.46389036705766
 30
0.0
 11
-2.449010000000001
 21
-15.03
 31
0.0
  0
LINE
  5
181
330
126
100
AcDbEntity
  8
AM_9
100
AcDbLine
 10
-5.014640000000008
 20
-16.53142464083022
 30
0.0
 11
-5.014640000000002
 21
-15.03
 31
0.0
  0
LINE
  5
182
330
126
100
AcDbEntity
  8
AM_9
100
AcDbLine
 10
-5.792100000000003
 20
-16.53142464083022
 30
0.0
 11
-5.792099999999998
 21
-15.03
 31
0.0
  0
LINE
  5
183
330
126
100
AcDbEntity
  8
AM_9
100
AcDbLine
 10
1.671550000000011
 20
-16.53142464083022
 30
0.0
 11
1.671550000000001
 21
-15.03
 31
0.0
  0
LINE
  5
184
330
126
100
AcDbEntity
  8
AM_9
100
AcDbLine
 10
-2.060280000000006
 20
-16.53142464083022
 30
0.0
 11
-2.060280000000001
 21
-15.03
 31
0.0
  0
LINE
  5
185
330
126
100
AcDbEntity
  8
AM_9
100
AcDbLine
 10
2.449010000000013
 20
-16.53142464083022
 30
0.0
 11
2.449010000000001
 21
-15.03
 31
0.0
  0
LINE
  5
186
330
126
100
AcDbEntity
  8
AM_9
100
AcDbLine
 10
4.936890000000002
 20
-16.44941928869422
 30
0.0
 11
4.936890000000001
 21
-15.03
 31
0.0
  0
ELLIPSE
  5
187
330
126
100
AcDbEntity
  8
AM_9
100
AcDbEllipse
 10
42.56231060122943
 20
-4.000000000000052
 30
0.0
 11
1.714505518806238E-16
 21
2.799999999999908
 31
0.0
210
0.0
220
0.0
230
1.0
 40
0.7071067811865465
 41
3.737122165144413
 42
4.071281634363168
  0
LINE
  5
188
330
126
100
AcDbEntity
  8
AM_9
100
AcDbLine
 10
43.17432180600242
 20
-5.764695575535336
 30
0.0
 11
43.13391316692715
 21
-5.701663722728066
 31
0.0
  0
LWPOLYLINE
  5
189
330
126
100
AcDbEntity
  8
AM_9
100
AcDbPolyline
 90
       21
 70
     0
 43
0.0
 10
44.54207717573054
 20
-3.999999999999997
 10
44.53946157116457
 20
-4.14343362579745
 10
44.51756963017134
 20
-4.437496990876483
 10
44.47427939913037
 20
-4.722500591570844
 10
44.41148157739401
 20
-4.992158274712625
 10
44.33200235468822
 20
-5.240891157890576
 10
44.23954948598966
 20
-5.463873191812302
 10
44.13860720206409
 20
-5.657282554617913
 10
44.0342741505658
 20
-5.818550036856793
 10
43.93214299752742
 20
-5.946461395366313
 10
43.83801731272006
 20
-6.041438680425602
 10
43.7572087619351
 20
-6.105968186679616
 10
43.69414972763977
 20
-6.144366064242213
 10
43.65168930093861
 20
-6.16264809436841
 10
43.62965443423124
 20
-6.168243767648933
 10
43.6198576156422
 20
-6.168653778126805
 10
43.60009705794883
 20
-6.164494072093363
 10
43.56082676974927
 20
-6.148857444772514
 10
43.50144369686409
 20
-6.114616388098334
 10
43.42562706250582
 20
-6.056939621128501
 10
43.42113162992859
 20
-6.053074447757947
  0
LWPOLYLINE
  5
18A
330
126
100
AcDbEntity
  8
AM_9
100
AcDbPolyline
 90
       20
 70
     0
 43
0.0
 10
43.40573419454912
 20
-1.960531021401494
 10
43.47972785265488
 20
-1.900415823574848
 10
43.54515035567285
 20
-1.859113447142407
 10
43.59020246244837
 20
-1.838746753731639
 10
43.61454992291072
 20
-1.832029816915098
 10
43.62475350262613
 20
-1.831259919813507
 10
43.64016454303745
 20
-1.833928475124646
 10
43.67473200185438
 20
-1.846349847256966
 10
43.73002603144558
 20
-1.876071582105311
 10
43.80260654448806
 20
-1.928309473905275
 10
43.89731965492527
 20
-2.015927140203719
 10
43.99978294115416
 20
-2.135198439057688
 10
44.10479692049883
 20
-2.286673431432041
 10
44.20739838169319
 20
-2.469794034476389
 10
44.3027612856689
 20
-2.682566449737246
 10
44.3864642686137
 20
-2.921654722725488
 10
44.4548286983774
 20
-3.183047946557678
 10
44.50484160088935
 20
-3.461852555782228
 10
44.53427514268168
 20
-3.752482716516165
 10
44.54207717573054
 20
-3.999999999999997
  0
LINE
  5
18B
330
126
100
AcDbEntity
  8
AM_9
100
AcDbLine
 10
43.23891230993791
 20
-2.144647859841737
 30
0.0
 11
43.26368657911018
 21
-2.112914585053767
 31
0.0
  0
LINE
  5
18C
330
126
100
AcDbEntity
  8
AM_9
100
AcDbLine
 10
43.13740903566247
 20
-2.29267671086797
 30
0.0
 11
43.17783436959936
 21
-2.230064650151417
 31
0.0
  0
ELLIPSE
  5
18D
330
126
100
AcDbEntity
  8
AM_9
100
AcDbEllipse
 10
44.520205505253
 20
-4.000000000000004
 30
0.0
 11
1.589605533317543E-16
 21
2.596022844177257
 31
0.0
210
0.0
220
0.0
230
1.0
 40
0.7071067811865477
 41
2.344302799419197
 42
7.013533852645622
  0
ELLIPSE
  5
18E
330
126
100
AcDbEntity
  8
AM_9
100
AcDbEllipse
 10
44.52020550525045
 20
-4.000000000000258
 30
0.0
 11
1.589605533317748E-16
 21
2.596022844177592
 31
0.0
210
0.0
220
0.0
230
1.0
 40
0.7071067811857994
 41
0.7491367252739938
 42
0.8516082488666654
  0
LINE
  5
18F
330
126
100
AcDbEntity
  8
AM_9
100
AcDbLine
 10
1.049570000000013
 20
-16.44459500633869
 30
0.0
 11
1.04957
 21
-15.03
 31
0.0
  0
LINE
  5
190
330
126
100
AcDbEntity
  8
AM_9
100
AcDbLine
 10
-5.947590000000001
 20
-16.49283342305821
 30
0.0
 11
-5.947589999999998
 21
-15.03
 31
0.0
  0
LINE
  5
191
330
126
100
AcDbEntity
  8
AM_9
100
AcDbLine
 10
-4.392660000000017
 20
-16.44459506838893
 30
0.0
 11
-4.392660000000001
 21
-15.03
 31
0.0
  0
LINE
  5
192
330
126
100
AcDbEntity
  8
AM_9
100
AcDbLine
 10
-4.859140000000018
 20
-16.49283342305821
 30
0.0
 11
-4.859140000000003
 21
-15.03
 31
0.0
  0
LINE
  5
193
330
126
100
AcDbEntity
  8
AM_9
100
AcDbLine
 10
2.604500000000012
 20
-16.49283342305822
 30
0.0
 11
2.604500000000001
 21
-15.03
 31
0.0
  0
LINE
  5
194
330
126
100
AcDbEntity
  8
AM_9
100
AcDbLine
 10
1.51605000000001
 20
-16.49283342305822
 30
0.0
 11
1.51605
 21
-15.03
 31
0.0
  0
LINE
  5
195
330
126
100
AcDbEntity
  8
AM_9
100
AcDbLine
 10
4.859140000000006
 20
-16.44459506838893
 30
0.0
 11
4.859140000000002
 21
-15.03
 31
0.0
  0
LINE
  5
196
330
126
100
AcDbEntity
  8
AM_9
100
AcDbLine
 10
-2.682249999999986
 20
-16.44459506838893
 30
0.0
 11
-2.682250000000001
 21
-15.03
 31
0.0
  0
LINE
  5
197
330
126
100
AcDbEntity
  8
AM_9
100
AcDbLine
 10
-6.414069999999995
 20
-16.44459537862818
 30
0.0
 11
-6.414069999999998
 21
-15.03
 31
0.0
  0
LINE
  5
198
330
126
100
AcDbEntity
  8
AM_9
100
AcDbLine
 10
3.07098000000002
 20
-16.44459537862817
 30
0.0
 11
3.070980000000001
 21
-15.03
 31
0.0
  0
LINE
  5
199
330
126
100
AcDbEntity
  8
AM_9
100
AcDbLine
 10
-2.21576999999999
 20
-16.49283342305821
 30
0.0
 11
-2.215770000000001
 21
-15.03
 31
0.0
  0
LINE
  5
19A
330
126
100
AcDbEntity
  8
AM_9
100
AcDbLine
 10
-8.357729999999998
 20
-16.42529976974217
 30
0.0
 11
-8.357729999999998
 21
-15.03
 31
0.0
  0
LINE
  5
19B
330
126
100
AcDbEntity
  8
AM_9
100
AcDbLine
 10
3.304219999999985
 20
-16.43301765328215
 30
0.0
 11
3.304220000000001
 21
-15.03
 31
0.0
  0
LINE
  5
19C
330
126
100
AcDbEntity
  8
AM_9
100
AcDbLine
 10
-0.8940819999999998
 20
-16.42529976974218
 30
0.0
 11
-0.8940819999999998
 21
-15.03
 31
0.0
  0
LINE
  5
19D
330
126
100
AcDbEntity
  8
AM_9
100
AcDbLine
 10
0.8163360000000006
 20
-16.43301775751749
 30
0.0
 11
0.8163360000000004
 21
-15.03
 31
0.0
  0
LINE
  5
19E
330
126
100
AcDbEntity
  8
AM_9
100
AcDbLine
 10
6.491809999999993
 20
-16.42529976974218
 30
0.0
 11
6.491809999999993
 21
-15.03
 31
0.0
  0
LINE
  5
19F
330
126
100
AcDbEntity
  8
AM_9
100
AcDbLine
 10
-4.159429999999997
 20
-16.43301790146156
 30
0.0
 11
-4.159430000000002
 21
-15.03
 31
0.0
  0
LINE
  5
1A0
330
126
100
AcDbEntity
  8
AM_9
100
AcDbLine
 10
-6.647309999999981
 20
-16.43301765328215
 30
0.0
 11
-6.647309999999998
 21
-15.03
 31
0.0
  0
LINE
  5
1A1
330
126
100
AcDbEntity
  8
AM_9
100
AcDbLine
 10
-2.915489999999997
 20
-16.43301765328215
 30
0.0
 11
-2.915490000000001
 21
-15.03
 31
0.0
  0
LINE
  5
1A2
330
126
100
AcDbEntity
  8
AM_9
100
AcDbLine
 10
4.625899999999969
 20
-16.43301765328215
 30
0.0
 11
4.625900000000001
 21
-15.03
 31
0.0
  0
LINE
  5
1A3
330
126
100
AcDbEntity
  8
AM_9
100
AcDbLine
 10
1.205070000000002
 20
-16.45424350899951
 30
0.0
 11
1.205070000000001
 21
-15.03
 31
0.0
  0
LINE
  5
1A4
330
126
100
AcDbEntity
  8
AM_9
100
AcDbLine
 10
-4.548160000000003
 20
-16.45424350899951
 30
0.0
 11
-4.548160000000002
 21
-15.03
 31
0.0
  0
LINE
  5
1A5
330
126
100
AcDbEntity
  8
AM_9
100
AcDbLine
 10
-2.526750000000026
 20
-16.45424350899951
 30
0.0
 11
-2.526750000000001
 21
-15.03
 31
0.0
  0
LINE
  5
1A6
330
126
100
AcDbEntity
  8
AM_9
100
AcDbLine
 10
-6.258580000000006
 20
-16.45424350899951
 30
0.0
 11
-6.258579999999998
 21
-15.03
 31
0.0
  0
LINE
  5
1A7
330
126
100
AcDbEntity
  8
AM_9
100
AcDbLine
 10
2.915489999999997
 20
-16.4542435089995
 30
0.0
 11
2.915490000000001
 21
-15.03
 31
0.0
  0
ELLIPSE
  5
1A8
330
126
100
AcDbEntity
  8
AM_9
100
AcDbEllipse
 10
44.52020550528423
 20
-3.999999999979813
 30
0.0
 11
1.589605533336017E-16
 21
2.596022844207427
 31
0.0
210
0.0
220
0.0
230
1.0
 40
0.7071067811909229
 41
-3.996505712091812
 42
-3.966098526653464
  0
LINE
  5
1A9
330
126
100
AcDbEntity
  8
AM_9
100
AcDbLine
 10
4.703650000000002
 20
-16.80477567363697
 30
0.0
 11
4.703650000000001
 21
-15.03
 31
0.0
  0
LINE
  5
1AA
330
126
100
AcDbEntity
  8
AM_9
100
AcDbLine
 10
8.824199999999976
 20
-16.42529976974217
 30
0.0
 11
8.824199999999992
 21
-15.03
 31
0.0
  0
LINE
  5
1AB
330
126
100
AcDbEntity
  8
AM_9
100
AcDbLine
 10
8.824199999999992
 20
-15.03
 30
0.0
 11
6.025339999999993
 21
-15.03
 31
0.0
  0
LINE
  5
1AC
330
126
100
AcDbEntity
  8
AM_9
100
AcDbLine
 10
-3.848440000000019
 20
-16.42529976974217
 30
0.0
 11
-3.848440000000001
 21
-15.03
 31
0.0
  0
LINE
  5
1AD
330
126
100
AcDbEntity
  8
AM_9
100
AcDbLine
 10
-3.226470000000001
 20
-16.42529976974217
 30
0.0
 11
-3.226470000000001
 21
-15.03
 31
0.0
  0
LINE
  5
1AE
330
126
100
AcDbEntity
  8
AM_9
100
AcDbLine
 10
0.5053509999999872
 20
-16.42529976974217
 30
0.0
 11
0.5053510000000004
 21
-15.03
 31
0.0
  0
LINE
  5
1AF
330
126
100
AcDbEntity
  8
AM_9
100
AcDbLine
 10
-1.36056
 20
-16.42529976974217
 30
0.0
 11
-1.36056
 21
-15.03
 31
0.0
  0
LINE
  5
1B0
330
126
100
AcDbEntity
  8
AM_9
100
AcDbLine
 10
1.749290000000001
 20
-15.03
 30
0.0
 11
-1.36056
 21
-15.03
 31
0.0
  0
LINE
  5
1B1
330
126
100
AcDbEntity
  8
AM_9
100
AcDbLine
 10
-6.958290000000016
 20
-16.42529976974217
 30
0.0
 11
-6.958289999999998
 21
-15.03
 31
0.0
  0
LINE
  5
1B2
330
126
100
AcDbEntity
  8
AM_9
100
AcDbLine
 10
4.314920000000001
 20
-16.42529976974217
 30
0.0
 11
4.314920000000001
 21
-15.03
 31
0.0
  0
LINE
  5
1B3
330
126
100
AcDbEntity
  8
AM_9
100
AcDbLine
 10
-1.982530000000001
 20
-15.03
 30
0.0
 11
-5.092380000000002
 21
-15.03
 31
0.0
  0
LINE
  5
1B4
330
126
100
AcDbEntity
  8
AM_9
100
AcDbLine
 10
5.403370000000001
 20
-15.03
 30
0.0
 11
2.371260000000001
 21
-15.03
 31
0.0
  0
LINE
  5
1B5
330
126
100
AcDbEntity
  8
AM_9
100
AcDbLine
 10
-8.824200000000015
 20
-16.42529976974217
 30
0.0
 11
-8.824199999999998
 21
-15.03
 31
0.0
  0
LINE
  5
1B6
330
126
100
AcDbEntity
  8
AM_9
100
AcDbLine
 10
-5.714349999999998
 20
-15.03
 30
0.0
 11
-8.824199999999998
 21
-15.03
 31
0.0
  0
LINE
  5
1B7
330
126
100
AcDbEntity
  8
AM_9
100
AcDbLine
 10
3.615200000000021
 20
-16.42529976974217
 30
0.0
 11
3.615200000000001
 21
-15.03
 31
0.0
  0
LINE
  5
1B8
330
126
100
AcDbEntity
  8
AM_9
100
AcDbLine
 10
6.025339999999993
 20
-16.42529976974217
 30
0.0
 11
6.025339999999993
 21
-15.03
 31
0.0
  0
ELLIPSE
  5
1B9
330
126
100
AcDbEntity
  8
AM_9
100
AcDbEllipse
 10
44.89839207135521
 20
-3.999999999999994
 30
0.0
 11
1.616869327254487E-16
 21
2.6405479986233
 31
0.0
210
0.0
220
0.0
230
1.0
 40
0.7071067811865479
 41
3.694307766686567
 42
4.71238898038469
  0
ELLIPSE
  5
1BA
330
126
100
AcDbEntity
  8
AM_9
100
AcDbEllipse
 10
46.02216059134506
 20
-4.000000000000018
 30
0.0
 11
1.105973895516161E-16
 21
1.806192440606032
 31
0.0
210
0.0
220
0.0
230
1.0
 40
0.7071067811865648
 41
3.769968170665333
 42
5.574262944979577
  0
ELLIPSE
  5
1BB
330
126
100
AcDbEntity
  8
AM_9
100
AcDbEllipse
 10
39.73388347648323
 20
-4.000000000000002
 30
0.0
 11
1.714505518806282E-16
 21
2.79999999999998
 31
0.0
210
0.0
220
0.0
230
1.0
 40
0.707106781186546
 41
0.0
 42
6.283185307179586
  0
ELLIPSE
  5
1BC
330
126
100
AcDbEntity
  8
AM_9
100
AcDbEllipse
 10
38.85000000000004
 20
-3.999999999999997
 30
0.0
 11
-5.143516556418845E-16
 21
-2.799999999999979
 31
0.0
210
0.0
220
0.0
230
1.0
 40
0.7071067811865488
 41
0.0
 42
6.283185307179586
  0
ELLIPSE
  5
1BD
330
126
100
AcDbEntity
  8
AM_9
100
AcDbEllipse
 10
39.73388347648293
 20
-3.999999999999994
 30
0.0
 11
2.449293598294498E-16
 21
3.99999999999966
 31
0.0
210
0.0
220
0.0
230
1.0
 40
0.7071067811865476
 41
0.0
 42
6.283185307179586
  0
LINE
  5
1BE
330
126
100
AcDbEntity
  8
AM_7
100
AcDbLine
 10
0.0
 20
29.48
 30
0.0
 11
0.0
 21
-32.44
 31
0.0
  0
LINE
  5
1BF
330
126
100
AcDbEntity
  8
AM_7
100
AcDbLine
 10
60.84374999999999
 20
0.0
 30
0.0
 11
83.80625
 21
0.0000000000000022
 31
0.0
  0
LINE
  5
1C0
330
126
100
AcDbEntity
  8
AM_7
100
AcDbLine
 10
68.85000000000002
 20
-8.00625000000003
 30
0.0
 11
68.85000000000002
 21
8.00625000000003
 31
0.0
  0
LINE
  5
1C1
330
126
100
AcDbEntity
  8
AM_7
100
AcDbLine
 10
-83.80625
 20
-0.0000000000000018
 30
0.0
 11
-60.84374999999999
 21
0.0000000000000044
 31
0.0
  0
LINE
  5
1C2
330
126
100
AcDbEntity
  8
AM_7
100
AcDbLine
 10
-75.79999999999998
 20
-8.006250000000032
 30
0.0
 11
-75.79999999999998
 21
8.006250000000028
 31
0.0
  0
LINE
  5
1C3
330
126
100
AcDbEntity
  8
AM_7
100
AcDbLine
 10
-68.85000000000002
 20
-8.006250000000026
 30
0.0
 11
-68.85000000000002
 21
8.006250000000033
 31
0.0
  0
LINE
  5
1C4
330
126
100
AcDbEntity
  8
AM_7
100
AcDbLine
 10
75.79999999999998
 20
-8.006250000000028
 30
0.0
 11
75.79999999999998
 21
8.006250000000032
 31
0.0
  0
LINE
  5
1C5
330
126
100
AcDbEntity
  8
AM_4
100
AcDbLine
 10
-85.54444444444445
 20
26.8
 30
0.0
 11
-91.5
 21
20.84444444444445
 31
0.0
  0
LINE
  5
1C6
330
126
100
AcDbEntity
  8
AM_4
100
AcDbLine
 10
-91.5
 20
-20.84444444444444
 30
0.0
 11
-85.54444444444445
 21
-26.8
 31
0.0
  0
LINE
  5
1C7
330
126
100
AcDbEntity
  8
AM_4
100
AcDbLine
 10
-91.5
 20
-20.84444444444444
 30
0.0
 11
-91.5
 21
20.84444444444445
 31
0.0
  0
LINE
  5
1C8
330
126
100
AcDbEntity
  8
AM_4
100
AcDbLine
 10
91.5
 20
20.84444444444444
 30
0.0
 11
85.54444444444445
 21
26.79999999999999
 31
0.0
  0
LINE
  5
1C9
330
126
100
AcDbEntity
  8
AM_4
100
AcDbLine
 10
85.54444444444445
 20
-26.8
 30
0.0
 11
91.5
 21
-20.84444444444446
 31
0.0
  0
LINE
  5
1CA
330
126
100
AcDbEntity
  8
AM_4
100
AcDbLine
 10
91.5
 20
-20.84444444444446
 30
0.0
 11
91.5
 21
20.84444444444444
 31
0.0
  0
LINE
  5
1CB
330
126
100
AcDbEntity
  8
AM_4
100
AcDbLine
 10
-47.41000000000005
 20
-26.8
 30
0.0
 11
-85.54444444444445
 21
-26.8
 31
0.0
  0
LINE
  5
1CC
330
126
100
AcDbEntity
  8
AM_4
100
AcDbLine
 10
-68.85
 20
7.625000000000005
 30
0.0
 11
-75.80000000000001
 21
7.625000000000002
 31
0.0
  0
ARC
  5
1CD
330
126
100
AcDbEntity
  8
AM_4
100
AcDbCircle
 10
-68.85
 20
0.0000000000000031
 30
0.0
 40
7.625000000000002
100
AcDbArc
 50
270.0
 51
90.0
  0
LINE
  5
1CE
330
126
100
AcDbEntity
  8
AM_4
100
AcDbLine
 10
-75.80000000000001
 20
-7.625000000000005
 30
0.0
 11
-68.85
 21
-7.624999999999998
 31
0.0
  0
ARC
  5
1CF
330
126
100
AcDbEntity
  8
AM_4
100
AcDbCircle
 10
-75.80000000000001
 20
-0.0000000000000013
 30
0.0
 40
7.625000000000004
100
AcDbArc
 50
90.0
 51
270.0
  0
LINE
  5
1D0
330
126
100
AcDbEntity
  8
AM_4
100
AcDbLine
 10
-90.0
 20
-22.34444444444444
 30
0.0
 11
-90.0
 21
22.34444444444446
 31
0.0
  0
LINE
  5
1D1
330
126
100
AcDbEntity
  8
AM_4
100
AcDbLine
 10
-47.41000000000001
 20
26.8
 30
0.0
 11
-85.54444444444445
 21
26.8
 31
0.0
  0
LINE
  5
1D2
330
126
100
AcDbEntity
  8
AM_4
100
AcDbLine
 10
85.54444444444445
 20
-26.8
 30
0.0
 11
47.40999999999999
 21
-26.8
 31
0.0
  0
LINE
  5
1D3
330
126
100
AcDbEntity
  8
AM_4
100
AcDbLine
 10
75.80000000000001
 20
7.62500000000001
 30
0.0
 11
68.85
 21
7.625000000000004
 31
0.0
  0
ARC
  5
1D4
330
126
100
AcDbEntity
  8
AM_4
100
AcDbCircle
 10
75.80000000000001
 20
0.0000000000000102
 30
0.0
 40
7.625000000000007
100
AcDbArc
 50
270.0
 51
90.0
  0
LINE
  5
1D5
330
126
100
AcDbEntity
  8
AM_4
100
AcDbLine
 10
68.85
 20
-7.625
 30
0.0
 11
75.8
 21
-7.624999999999997
 31
0.0
  0
ARC
  5
1D6
330
126
100
AcDbEntity
  8
AM_4
100
AcDbCircle
 10
68.85
 20
0.0000000000000013
 30
0.0
 40
7.625000000000002
100
AcDbArc
 50
90.0
 51
270.0
  0
LINE
  5
1D7
330
126
100
AcDbEntity
  8
AM_4
100
AcDbLine
 10
90.0
 20
-22.34444444444446
 30
0.0
 11
90.0
 21
22.34444444444443
 31
0.0
  0
LINE
  5
1D8
330
126
100
AcDbEntity
  8
AM_4
100
AcDbLine
 10
85.54444444444445
 20
26.79999999999999
 30
0.0
 11
47.41000000000001
 21
26.8
 31
0.0
  0
LWPOLYLINE
  5
1D9
330
126
100
AcDbEntity
  8
AM_4
100
AcDbPolyline
 90
       32
 70
     0
 43
0.0
 10
-63.34199999999998
 20
-20.72041350938731
 10
-61.55705657346139
 20
-20.16151224926612
 10
-59.82761684999839
 20
-19.44916970707407
 10
-58.16684291017079
 20
-18.58880723968143
 10
-56.58737424646343
 20
-17.58697272496611
 10
-55.10123156911635
 20
-16.45129072850934
 10
-53.71972532126164
 20
-15.19040447604768
 10
-52.45336959962177
 20
-13.8139100733063
 10
-51.31180213588492
 20
-12.33228347384009
 10
-50.30371094774737
 20
-10.75680075070162
 10
-49.43676821785299
 20
-9.09945227871642
 10
-48.71757190385058
 20
-7.372851480490685
 10
-48.15159552395231
 20
-5.590138830648975
 10
-47.74314650015511
 20
-3.764881848887913
 10
-47.49533337615831
 20
-1.910971842958999
 10
-47.4100421594692
 20
-0.0425181874288204
 10
-47.48792196774702
 20
1.826259057180875
 10
-47.72838008862568
 20
3.681137367640055
 10
-48.12958649061268
 20
5.50799999999998
 10
-48.68848775073387
 20
7.292943426538575
 10
-49.40083029292592
 20
9.02238315000157
 10
-50.26119276031856
 20
10.68315708982916
 10
-51.26302727503386
 20
12.26262575353653
 10
-52.39870927149063
 20
13.74876843088362
 10
-53.65959552395229
 20
15.13027467873832
 10
-55.03608992669368
 20
16.39663040037819
 10
-56.51771652615987
 20
17.53819786411506
 10
-58.09319924929835
 20
18.5462890522526
 10
-59.75054772128354
 20
19.41323178214699
 10
-61.47714851950928
 20
20.1324280961494
 10
-63.25986116935098
 20
20.69840447604766
 10
-63.34199999999997
 20
20.7204135093873
  0
LINE
  5
1DA
330
126
100
AcDbEntity
  8
AM_4
100
AcDbLine
 10
-63.34200000000001
 20
-26.8
 30
0.0
 11
-63.34199999999998
 21
-20.72041350938731
 31
0.0
  0
LINE
  5
1DB
330
126
100
AcDbEntity
  8
AM_4
100
AcDbLine
 10
-63.34199999999998
 20
20.7204135093873
 30
0.0
 11
-63.342
 21
26.79999999999999
 31
0.0
  0
LWPOLYLINE
  5
1DC
330
126
100
AcDbEntity
  8
AM_4
100
AcDbPolyline
 90
       32
 70
     0
 43
0.0
 10
63.34199999999997
 20
20.72041350938731
 10
61.55705657346138
 20
20.16151224926611
 10
59.82761684999839
 20
19.44916970707406
 10
58.16684291017079
 20
18.58880723968143
 10
56.58737424646343
 20
17.58697272496611
 10
55.10123156911635
 20
16.45129072850934
 10
53.71972532126164
 20
15.19040447604769
 10
52.45336959962177
 20
13.8139100733063
 10
51.31180213588492
 20
12.3322834738401
 10
50.30371094774737
 20
10.75680075070162
 10
49.43676821785299
 20
9.099452278716422
 10
48.71757190385058
 20
7.372851480490689
 10
48.15159552395231
 20
5.590138830648979
 10
47.74314650015511
 20
3.764881848887916
 10
47.49533337615831
 20
1.910971842959003
 10
47.4100421594692
 20
0.0425181874288241
 10
47.48792196774702
 20
-1.826259057180871
 10
47.72838008862568
 20
-3.681137367640051
 10
48.12958649061268
 20
-5.507999999999976
 10
48.68848775073387
 20
-7.292943426538572
 10
49.40083029292592
 20
-9.022383150001568
 10
50.26119276031856
 20
-10.68315708982916
 10
51.26302727503386
 20
-12.26262575353653
 10
52.39870927149063
 20
-13.74876843088362
 10
53.65959552395229
 20
-15.13027467873832
 10
55.03608992669368
 20
-16.39663040037819
 10
56.51771652615987
 20
-17.53819786411506
 10
58.09319924929835
 20
-18.5462890522526
 10
59.75054772128354
 20
-19.41323178214699
 10
61.47714851950928
 20
-20.1324280961494
 10
63.25986116935098
 20
-20.69840447604767
 10
63.34199999999997
 20
-20.7204135093873
  0
LINE
  5
1DD
330
126
100
AcDbEntity
  8
AM_4
100
AcDbLine
 10
63.34199999999998
 20
20.7204135093873
 30
0.0
 11
63.34199999999998
 21
26.8
 31
0.0
  0
LINE
  5
1DE
330
126
100
AcDbEntity
  8
AM_4
100
AcDbLine
 10
63.34199999999998
 20
-26.8
 30
0.0
 11
63.34199999999998
 21
-20.7204135093873
 31
0.0
  0
LWPOLYLINE
  5
1DF
330
126
100
AcDbEntity
  8
AM_4
100
AcDbPolyline
 90
        3
 70
     0
 43
0.0
 10
43.72450673848817
 20
-7.999999999999998
 10
44.21694337563308
 20
-7.004496269272697
 10
44.37876617234904
 20
-6.651990505284317
  0
LWPOLYLINE
  5
1E0
330
126
100
AcDbEntity
  8
AM_4
100
AcDbPolyline
 90
        3
 70
     0
 43
0.0
 10
44.37856501765959
 20
-1.347561217635701
 10
44.21905236292235
 20
-0.9999999999999941
 10
43.72450673848818
 20
0.0000000000000025
  0
LINE
  5
1E1
330
126
100
AcDbEntity
  8
AM_4
100
AcDbLine
 10
-33.95
 20
-23.82222222222222
 30
0.0
 11
-44.44545454545455
 21
-23.82222222222222
 31
0.0
  0
LINE
  5
1E2
330
126
100
AcDbEntity
  8
AM_4
100
AcDbLine
 10
44.44545454545455
 20
-23.82222222222223
 30
0.0
 11
33.80355010941898
 21
-23.82222222222223
 31
0.0
  0
LWPOLYLINE
  5
1E3
330
126
100
AcDbEntity
  8
AM_4
100
AcDbPolyline
 90
       37
 70
     0
 43
0.0
 10
-42.5
 20
22.54989460029187
 10
-42.33827466889919
 20
22.06698366633898
 10
-41.85432950301885
 20
21.58774797618307
 10
-41.05184761728541
 20
21.11583480279664
 10
-39.93693638340112
 20
20.65483569037813
 10
-38.51808094905763
 20
20.20825912053192
 10
-36.80607966083866
 20
19.77950381060484
 10
-34.81396188228218
 20
19.37183284739497
 10
-32.5568888325566
 20
18.9883488530908
 10
-30.0520382004283
 20
18.63197037244296
 10
-27.31847341167796
 20
18.30540966087637
 10
-24.3769985449195
 20
18.01115204258881
 10
-21.25000000000005
 20
17.75143699573306
 10
-17.96127612397978
 20
17.52824110863592
 10
-14.53585609134098
 20
17.34326303676756
 10
-10.9998094168572
 20
17.19791057494772
 10
-7.380047550844612
 20
17.09328994317705
 10
-3.704119066775549
 20
17.030197367635
 10
-0.0000000000000807
 20
17.00911302091779
 10
3.704119066775388
 20
17.030197367635
 10
7.380047550844452
 20
17.09328994317705
 10
10.99980941685704
 20
17.19791057494771
 10
14.53585609134083
 20
17.34326303676755
 10
17.96127612397963
 20
17.52824110863591
 10
21.24999999999991
 20
17.75143699573305
 10
24.37699854491937
 20
18.0111520425888
 10
27.31847341167783
 20
18.30540966087635
 10
30.05203820042819
 20
18.63197037244294
 10
32.55688883255649
 20
18.98834885309079
 10
34.81396188228208
 20
19.37183284739496
 10
36.80607966083858
 20
19.77950381060482
 10
38.51808094905757
 20
20.2082591205319
 10
39.93693638340106
 20
20.65483569037811
 10
41.05184761728537
 20
21.11583480279662
 10
41.85432950301882
 20
21.58774797618305
 10
42.33827466889917
 20
22.06698366633897
 10
42.5
 20
22.54989460029185
  0
LWPOLYLINE
  5
1E4
330
126
100
AcDbEntity
  8
AM_4
100
AcDbPolyline
 90
        4
 70
     0
 43
0.0
 10
42.5
 20
22.54989460029187
 10
42.33827466889919
 20
23.03280553424477
 10
41.85432950301885
 20
23.51204122440068
 10
41.36431866609872
 20
23.82222222222222
  0
LWPOLYLINE
  5
1E5
330
126
100
AcDbEntity
  8
AM_4
100
AcDbPolyline
 90
       37
 70
     0
 43
0.0
 10
42.5
 20
-22.54989460029188
 10
42.33827466889919
 20
-22.06698366633899
 10
41.85432950301885
 20
-21.58774797618308
 10
41.05184761728541
 20
-21.11583480279664
 10
39.93693638340112
 20
-20.65483569037813
 10
38.51808094905764
 20
-20.20825912053192
 10
36.80607966083866
 20
-19.77950381060484
 10
34.81396188228218
 20
-19.37183284739497
 10
32.5568888325566
 20
-18.9883488530908
 10
30.05203820042831
 20
-18.63197037244296
 10
27.31847341167796
 20
-18.30540966087636
 10
24.37699854491951
 20
-18.01115204258881
 10
21.25000000000005
 20
-17.75143699573306
 10
17.96127612397979
 20
-17.52824110863592
 10
14.53585609134099
 20
-17.34326303676756
 10
10.9998094168572
 20
-17.19791057494771
 10
7.380047550844616
 20
-17.09328994317705
 10
3.704119066775554
 20
-17.030197367635
 10
0.0000000000000859
 20
-17.00911302091779
 10
-3.704119066775382
 20
-17.030197367635
 10
-7.380047550844448
 20
-17.09328994317704
 10
-10.99980941685704
 20
-17.19791057494771
 10
-14.53585609134083
 20
-17.34326303676755
 10
-17.96127612397963
 20
-17.52824110863591
 10
-21.2499999999999
 20
-17.75143699573304
 10
-24.37699854491936
 20
-18.0111520425888
 10
-27.31847341167783
 20
-18.30540966087635
 10
-30.05203820042819
 20
-18.63197037244294
 10
-32.55688883255649
 20
-18.98834885309079
 10
-34.81396188228208
 20
-19.37183284739495
 10
-36.80607966083858
 20
-19.77950381060482
 10
-38.51808094905757
 20
-20.2082591205319
 10
-39.93693638340106
 20
-20.65483569037811
 10
-41.05184761728536
 20
-21.11583480279662
 10
-41.85432950301882
 20
-21.58774797618305
 10
-42.33827466889917
 20
-22.06698366633897
 10
-42.5
 20
-22.54989460029186
  0
LWPOLYLINE
  5
1E6
330
126
100
AcDbEntity
  8
AM_4
100
AcDbPolyline
 90
        4
 70
     0
 43
0.0
 10
-42.5
 20
-22.54989460029188
 10
-42.33827466889919
 20
-23.03280553424477
 10
-41.85432950301885
 20
-23.51204122440069
 10
-41.36431866609873
 20
-23.82222222222222
  0
LINE
  5
1E7
330
126
100
AcDbEntity
  8
AM_4
100
AcDbLine
 10
-3.848440000000001
 20
-16.8787416896384
 30
0.0
 11
-3.848440000000001
 21
-16.82085551483703
 31
0.0
  0
LINE
  5
1E8
330
126
100
AcDbEntity
  8
AM_4
100
AcDbLine
 10
4.314919999999986
 20
-16.8787416896384
 30
0.0
 11
4.314919999999987
 21
-16.82085551483703
 31
0.0
  0
LINE
  5
1E9
330
126
100
AcDbEntity
  8
AM_4
100
AcDbLine
 10
-3.226470000000033
 20
-16.8787416896384
 30
0.0
 11
-3.226470000000032
 21
-16.82085551483703
 31
0.0
  0
LINE
  5
1EA
330
126
100
AcDbEntity
  8
AM_4
100
AcDbLine
 10
0.50535099999998
 20
-16.8787416896384
 30
0.0
 11
0.5053509999999806
 21
-16.82085551483703
 31
0.0
  0
LINE
  5
1EB
330
126
100
AcDbEntity
  8
AM_4
100
AcDbLine
 10
-6.958290000000016
 20
-16.8787416896384
 30
0.0
 11
-6.958290000000015
 21
-16.82085551483703
 31
0.0
  0
LINE
  5
1EC
330
126
100
AcDbEntity
  8
AM_4
100
AcDbLine
 10
3.615200000000001
 20
-16.8787416896384
 30
0.0
 11
3.615200000000001
 21
-16.82085551483703
 31
0.0
  0
LINE
  5
1ED
330
126
100
AcDbEntity
  8
AM_4
100
AcDbLine
 10
-2.83774000000001
 20
-16.86909421112372
 30
0.0
 11
-2.83774000000001
 21
-16.80477567363696
 31
0.0
  0
LINE
  5
1EE
330
126
100
AcDbEntity
  8
AM_4
100
AcDbLine
 10
4.703650000000002
 20
-16.86909421112372
 30
0.0
 11
4.703650000000002
 21
-16.80477567363697
 31
0.0
  0
LINE
  5
1EF
330
126
100
AcDbEntity
  8
AM_4
100
AcDbLine
 10
3.226469999999977
 20
-16.86909421112372
 30
0.0
 11
3.226469999999978
 21
-16.80477567363696
 31
0.0
  0
LINE
  5
1F0
330
126
100
AcDbEntity
  8
AM_4
100
AcDbLine
 10
-6.56955999999998
 20
-16.86909421112372
 30
0.0
 11
-6.569559999999981
 21
-16.80477567363696
 31
0.0
  0
LINE
  5
1F1
330
126
100
AcDbEntity
  8
AM_4
100
AcDbLine
 10
0.8940820000000094
 20
-16.86909421112372
 30
0.0
 11
0.894082000000009
 21
-16.80477583909683
 31
0.0
  0
LINE
  5
1F2
330
126
100
AcDbEntity
  8
AM_4
100
AcDbLine
 10
-4.237170000000021
 20
-16.86909421112372
 30
0.0
 11
-4.23717000000002
 21
-16.80477622519114
 31
0.0
  0
LINE
  5
1F3
330
126
100
AcDbEntity
  8
AM_4
100
AcDbLine
 10
-6.258579999999993
 20
-16.84979795038106
 30
0.0
 11
-6.258579999999993
 21
-16.76296920966433
 31
0.0
  0
LINE
  5
1F4
330
126
100
AcDbEntity
  8
AM_4
100
AcDbLine
 10
-2.526749999999991
 20
-16.84979795038105
 30
0.0
 11
-2.526749999999991
 21
-16.76296920966434
 31
0.0
  0
LINE
  5
1F5
330
126
100
AcDbEntity
  8
AM_4
100
AcDbLine
 10
1.205070000000005
 20
-16.84979795038106
 30
0.0
 11
1.205070000000005
 21
-16.76296920966434
 31
0.0
  0
LINE
  5
1F6
330
126
100
AcDbEntity
  8
AM_4
100
AcDbLine
 10
-4.548159999999985
 20
-16.84979795038106
 30
0.0
 11
-4.548159999999986
 21
-16.76296920966433
 31
0.0
  0
LINE
  5
1F7
330
126
100
AcDbEntity
  8
AM_4
100
AcDbLine
 10
2.915489999999997
 20
-16.84979795038106
 30
0.0
 11
2.915489999999997
 21
-16.76296920966433
 31
0.0
  0
LINE
  5
1F8
330
126
100
AcDbEntity
  8
AM_4
100
AcDbLine
 10
5.014640000000008
 20
-16.84979795038106
 30
0.0
 11
5.014640000000007
 21
-16.62790151191827
 31
0.0
  0
LINE
  5
1F9
330
126
100
AcDbEntity
  8
AM_4
100
AcDbLine
 10
-2.215770000000004
 20
-16.81120803632236
 30
0.0
 11
-2.215770000000003
 21
-16.49283342305821
 31
0.0
  0
LINE
  5
1FA
330
126
100
AcDbEntity
  8
AM_4
100
AcDbLine
 10
-4.859140000000006
 20
-16.81120803632236
 30
0.0
 11
-4.859140000000005
 21
-16.49283342305821
 31
0.0
  0
LINE
  5
1FB
330
126
100
AcDbEntity
  8
AM_4
100
AcDbLine
 10
-5.947589999999994
 20
-16.81120803632236
 30
0.0
 11
-5.947589999999995
 21
-16.49283342305821
 31
0.0
  0
LINE
  5
1FC
330
126
100
AcDbEntity
  8
AM_4
100
AcDbLine
 10
1.516050000000002
 20
-16.81120803632236
 30
0.0
 11
1.516050000000001
 21
-16.49283342305822
 31
0.0
  0
LINE
  5
1FD
330
126
100
AcDbEntity
  8
AM_4
100
AcDbLine
 10
2.604499999999991
 20
-16.81120803632236
 30
0.0
 11
2.604499999999993
 21
-16.49283342305822
 31
0.0
  0
LINE
  5
1FE
330
126
100
AcDbEntity
  8
AM_4
100
AcDbLine
 10
5.325620000000009
 20
-16.81120803632236
 30
0.0
 11
5.325620000000009
 21
-16.62790151191827
 31
0.0
  0
LINE
  5
1FF
330
126
100
AcDbEntity
  8
AM_4
100
AcDbLine
 10
42.56231060122941
 20
-1.200000000000016
 30
0.0
 11
42.20875721063613
 21
-1.200000000000016
 31
0.0
  0
LINE
  5
200
330
126
100
AcDbEntity
  8
AM_4
100
AcDbLine
 10
42.20875721063613
 20
-6.799999999999979
 30
0.0
 11
42.56231060122941
 21
-6.799999999999979
 31
0.0
  0
ELLIPSE
  5
201
330
126
100
AcDbEntity
  8
AM_4
100
AcDbEllipse
 10
42.20875721063612
 20
-3.999999999999996
 30
0.0
 11
1.714505518806285E-16
 21
2.799999999999984
 31
0.0
210
0.0
220
0.0
230
1.0
 40
0.7071067811865476
 41
0.0
 42
3.141592653589793
  0
ELLIPSE
  5
202
330
126
100
AcDbEntity
  8
AM_4
100
AcDbEllipse
 10
42.56231060122942
 20
-3.999999999999997
 30
0.0
 11
1.714505518806279E-16
 21
2.799999999999975
 31
0.0
210
0.0
220
0.0
230
1.0
 40
0.7071067811865475
 41
5.688177463670652
 42
10.020307472324
  0
LINE
  5
203
330
126
100
AcDbEntity
  8
AM_4
100
AcDbLine
 10
-5.014640000000021
 20
-16.77261681855035
 30
0.0
 11
-5.014640000000018
 21
-16.53142464083022
 31
0.0
  0
LINE
  5
204
330
126
100
AcDbEntity
  8
AM_4
100
AcDbLine
 10
1.67155
 20
-16.77261681855035
 30
0.0
 11
1.67155
 21
-16.53142464083022
 31
0.0
  0
LINE
  5
205
330
126
100
AcDbEntity
  8
AM_4
100
AcDbLine
 10
-5.792099999999989
 20
-16.77261681855035
 30
0.0
 11
-5.79209999999999
 21
-16.53142464083022
 31
0.0
  0
LINE
  5
206
330
126
100
AcDbEntity
  8
AM_4
100
AcDbLine
 10
2.449010000000001
 20
-16.77261681855034
 30
0.0
 11
2.449010000000001
 21
-16.53142464083022
 31
0.0
  0
LINE
  5
207
330
126
100
AcDbEntity
  8
AM_4
100
AcDbLine
 10
-2.060279999999998
 20
-16.77261681855035
 30
0.0
 11
-2.060279999999998
 21
-16.53142464083022
 31
0.0
  0
LINE
  5
208
330
126
100
AcDbEntity
  8
AM_4
100
AcDbLine
 10
4.936889999999986
 20
-16.76296920966434
 30
0.0
 11
4.93689
 21
-16.62790151191827
 31
0.0
  0
ELLIPSE
  5
209
330
126
100
AcDbEntity
  8
AM_4
100
AcDbEllipse
 10
42.2087572106361
 20
-4.000000000000093
 30
0.0
 11
2.449293598294651E-16
 21
3.99999999999991
 31
0.0
210
0.0
220
0.0
230
1.0
 40
0.7071067811865478
 41
5.434123878899452
 42
10.27346482163771
  0
LWPOLYLINE
  5
20A
330
126
100
AcDbEntity
  8
AM_4
100
AcDbPolyline
 90
        3
 70
     0
 43
0.0
 10
37.28439373370003
 20
-5.999999999999993
 10
36.90709174326925
 20
-4.999999999999993
 10
36.5851407867757
 20
-3.999999999999997
  0
LWPOLYLINE
  5
20B
330
126
100
AcDbEntity
  8
AM_4
100
AcDbPolyline
 90
        3
 70
     0
 43
0.0
 10
38.21813394863116
 20
-7.999999999999998
 10
37.72569731148624
 20
-7.004496269272689
 10
37.28439373370003
 20
-5.999999999999993
  0
LINE
  5
20C
330
126
100
AcDbEntity
  8
AM_4
100
AcDbLine
 10
43.72450673848817
 20
-7.999999999999998
 30
0.0
 11
38.21813394863116
 21
-7.999999999999998
 31
0.0
  0
LWPOLYLINE
  5
20D
330
126
100
AcDbEntity
  8
AM_4
100
AcDbPolyline
 90
        3
 70
     0
 43
0.0
 10
39.75926746785295
 20
-5.999999999999988
 10
40.13656945828372
 20
-6.999999999999989
 10
40.45852041477728
 20
-7.999999999999998
  0
LWPOLYLINE
  5
20E
330
126
100
AcDbEntity
  8
AM_4
100
AcDbPolyline
 90
        3
 70
     0
 43
0.0
 10
38.82552725292183
 20
-3.999999999999996
 10
39.31796389006674
 20
-4.995503730727298
 10
39.75926746785295
 20
-5.999999999999988
  0
LINE
  5
20F
330
126
100
AcDbEntity
  8
AM_4
100
AcDbLine
 10
43.72450673848818
 20
0.0000000000000025
 30
0.0
 11
38.21813394863116
 21
0.0000000000000025
 31
0.0
  0
LWPOLYLINE
  5
210
330
126
100
AcDbEntity
  8
AM_4
100
AcDbPolyline
 90
        3
 70
     0
 43
0.0
 10
37.28439373370003
 20
-1.999999999999998
 10
37.72358832419697
 20
-1.000000000000004
 10
38.21813394863116
 20
0.0000000000000025
  0
LWPOLYLINE
  5
211
330
126
100
AcDbEntity
  8
AM_4
100
AcDbPolyline
 90
        3
 70
     0
 43
0.0
 10
36.5851407867757
 20
-3.999999999999997
 10
36.90552954207044
 20
-3.004496269272693
 10
37.28439373370003
 20
-1.999999999999998
  0
LINE
  5
212
330
126
100
AcDbEntity
  8
AM_4
100
AcDbLine
 10
38.82552725292183
 20
-3.999999999999996
 30
0.0
 11
36.5851407867757
 21
-3.999999999999997
 31
0.0
  0
LWPOLYLINE
  5
213
330
126
100
AcDbEntity
  8
AM_4
100
AcDbPolyline
 90
        3
 70
     0
 43
0.0
 10
39.75926746785296
 20
-2.000000000000001
 10
39.320072877356
 20
-2.999999999999998
 10
38.82552725292183
 20
-3.999999999999996
  0
LWPOLYLINE
  5
214
330
126
100
AcDbEntity
  8
AM_4
100
AcDbPolyline
 90
        3
 70
     0
 43
0.0
 10
40.45852041477729
 20
0.0000000000000027
 10
40.13813165948255
 20
-0.995503730727304
 10
39.75926746785296
 20
-2.000000000000001
  0
LINE
  5
215
330
126
100
AcDbEntity
  8
AM_4
100
AcDbLine
 10
1.282810000000004
 20
-16.72437838300632
 30
0.0
 11
1.282809999999998
 21
-16.46389036705766
 31
0.0
  0
LINE
  5
216
330
126
100
AcDbEntity
  8
AM_4
100
AcDbLine
 10
-4.625899999999988
 20
-16.72437838300632
 30
0.0
 11
-4.625899999999995
 21
-16.46389036705765
 31
0.0
  0
LINE
  5
217
330
126
100
AcDbEntity
  8
AM_4
100
AcDbLine
 10
2.837740000000003
 20
-16.72437838300632
 30
0.0
 11
2.837739999999994
 21
-16.46389129773247
 31
0.0
  0
LINE
  5
218
330
126
100
AcDbEntity
  8
AM_4
100
AcDbLine
 10
-6.18083
 20
-16.72437838300632
 30
0.0
 11
-6.180829999999998
 21
-16.46389129773247
 31
0.0
  0
LINE
  5
219
330
126
100
AcDbEntity
  8
AM_4
100
AcDbLine
 10
-2.449009999999994
 20
-16.72437838300632
 30
0.0
 11
-2.449010000000001
 21
-16.46389036705766
 31
0.0
  0
LINE
  5
21A
330
126
100
AcDbEntity
  8
AM_4
100
AcDbLine
 10
1.205069999999995
 20
-16.54107224971623
 30
0.0
 11
1.205069999999995
 21
-16.45424350899951
 31
0.0
  0
LINE
  5
21B
330
126
100
AcDbEntity
  8
AM_4
100
AcDbLine
 10
-4.548159999999996
 20
-16.54107224971623
 30
0.0
 11
-4.548159999999996
 21
-16.45424350899951
 31
0.0
  0
LINE
  5
21C
330
126
100
AcDbEntity
  8
AM_4
100
AcDbLine
 10
-2.526750000000006
 20
-16.54107224971623
 30
0.0
 11
-2.526750000000006
 21
-16.45424350899951
 31
0.0
  0
LINE
  5
21D
330
126
100
AcDbEntity
  8
AM_4
100
AcDbLine
 10
-6.258579999999993
 20
-16.54107224971623
 30
0.0
 11
-6.258579999999994
 21
-16.45424350899951
 31
0.0
  0
LINE
  5
21E
330
126
100
AcDbEntity
  8
AM_4
100
AcDbLine
 10
4.936890000000001
 20
-16.54107224971623
 30
0.0
 11
4.936890000000002
 21
-16.44941928869422
 31
0.0
  0
LINE
  5
21F
330
126
100
AcDbEntity
  8
AM_4
100
AcDbLine
 10
2.915489999999993
 20
-16.54107224971623
 30
0.0
 11
2.915489999999994
 21
-16.4542435089995
 31
0.0
  0
ELLIPSE
  5
220
330
126
100
AcDbEntity
  8
AM_4
100
AcDbEllipse
 10
44.52020550524185
 20
-4.000000000005584
 30
0.0
 11
1.589605533312274E-16
 21
2.596022844168652
 31
0.0
210
0.0
220
0.0
230
1.0
 40
0.7071067811846709
 41
-4.043199131887039
 42
-3.99650571208853
  0
LINE
  5
221
330
126
100
AcDbEntity
  8
AM_4
100
AcDbLine
 10
1.049570000000014
 20
-16.51212968380088
 30
0.0
 11
1.049570000000013
 21
-16.44459500633869
 31
0.0
  0
LINE
  5
222
330
126
100
AcDbEntity
  8
AM_4
100
AcDbLine
 10
-4.392660000000018
 20
-16.51212968380088
 30
0.0
 11
-4.392660000000017
 21
-16.44459506838893
 31
0.0
  0
LINE
  5
223
330
126
100
AcDbEntity
  8
AM_4
100
AcDbLine
 10
4.859140000000006
 20
-16.51212968380088
 30
0.0
 11
4.859140000000006
 21
-16.44459506838893
 31
0.0
  0
LINE
  5
224
330
126
100
AcDbEntity
  8
AM_4
100
AcDbLine
 10
-2.682249999999985
 20
-16.51212968380088
 30
0.0
 11
-2.682249999999986
 21
-16.44459506838893
 31
0.0
  0
LINE
  5
225
330
126
100
AcDbEntity
  8
AM_4
100
AcDbLine
 10
-6.414069999999995
 20
-16.51212968380088
 30
0.0
 11
-6.414069999999995
 21
-16.44459537862818
 31
0.0
  0
LINE
  5
226
330
126
100
AcDbEntity
  8
AM_4
100
AcDbLine
 10
3.070980000000022
 20
-16.51212968380087
 30
0.0
 11
3.07098000000002
 21
-16.44459537862817
 31
0.0
  0
LINE
  5
227
330
126
100
AcDbEntity
  8
AM_4
100
AcDbLine
 10
-8.357729999999998
 20
-16.82085551483703
 30
0.0
 11
-8.357729999999998
 21
-16.42529976974217
 31
0.0
  0
LINE
  5
228
330
126
100
AcDbEntity
  8
AM_4
100
AcDbLine
 10
3.304219999999985
 20
-16.49283342305822
 30
0.0
 11
3.304219999999985
 21
-16.43301765328215
 31
0.0
  0
LINE
  5
229
330
126
100
AcDbEntity
  8
AM_4
100
AcDbLine
 10
-0.8940819999999996
 20
-16.82085551483703
 30
0.0
 11
-0.8940819999999998
 21
-16.42529976974218
 31
0.0
  0
LINE
  5
22A
330
126
100
AcDbEntity
  8
AM_4
100
AcDbLine
 10
0.8163360000000006
 20
-16.49283342305821
 30
0.0
 11
0.8163360000000006
 21
-16.43301775751749
 31
0.0
  0
LINE
  5
22B
330
126
100
AcDbEntity
  8
AM_4
100
AcDbLine
 10
0.5053509999999939
 20
-16.48318594454354
 30
0.0
 11
0.5053509999999941
 21
-16.42529976974218
 31
0.0
  0
LINE
  5
22C
330
126
100
AcDbEntity
  8
AM_4
100
AcDbLine
 10
-6.958290000000006
 20
-16.82085551483703
 30
0.0
 11
-8.357729999999998
 21
-16.82085551483703
 31
0.0
  0
LINE
  5
22D
330
126
100
AcDbEntity
  8
AM_4
100
AcDbLine
 10
-6.647309999999981
 20
-16.81120803632236
 30
0.0
 11
-6.958290000000006
 21
-16.82085551483703
 31
0.0
  0
LINE
  5
22E
330
126
100
AcDbEntity
  8
AM_4
100
AcDbLine
 10
-6.414069999999995
 20
-16.7919117755797
 30
0.0
 11
-6.647309999999981
 21
-16.81120803632236
 31
0.0
  0
LINE
  5
22F
330
126
100
AcDbEntity
  8
AM_4
100
AcDbLine
 10
-6.258579999999995
 20
-16.76296920966433
 30
0.0
 11
-6.414069999999995
 21
-16.7919117755797
 31
0.0
  0
LINE
  5
230
330
126
100
AcDbEntity
  8
AM_4
100
AcDbLine
 10
-6.18083
 20
-16.72437838300632
 30
0.0
 11
-6.258579999999995
 21
-16.76296920966433
 31
0.0
  0
LINE
  5
231
330
126
100
AcDbEntity
  8
AM_4
100
AcDbLine
 10
-6.258579999999993
 20
-16.54107224971623
 30
0.0
 11
-6.180829999999998
 21
-16.57966307637425
 31
0.0
  0
LINE
  5
232
330
126
100
AcDbEntity
  8
AM_4
100
AcDbLine
 10
-6.414069999999995
 20
-16.51212968380088
 30
0.0
 11
-6.258579999999993
 21
-16.54107224971623
 31
0.0
  0
LINE
  5
233
330
126
100
AcDbEntity
  8
AM_4
100
AcDbLine
 10
-6.647309999999981
 20
-16.49283342305822
 30
0.0
 11
-6.414069999999995
 21
-16.51212968380088
 31
0.0
  0
LINE
  5
234
330
126
100
AcDbEntity
  8
AM_4
100
AcDbLine
 10
-8.357729999999998
 20
-16.48318594454354
 30
0.0
 11
-6.958289999999988
 21
-16.48318594454354
 31
0.0
  0
LINE
  5
235
330
126
100
AcDbEntity
  8
AM_4
100
AcDbLine
 10
6.49180999999999
 20
-16.82085551483703
 30
0.0
 11
6.491809999999993
 21
-16.42529976974218
 31
0.0
  0
LINE
  5
236
330
126
100
AcDbEntity
  8
AM_4
100
AcDbLine
 10
-4.159429999999997
 20
-16.49283342305821
 30
0.0
 11
-4.159429999999997
 21
-16.43301790146156
 31
0.0
  0
LINE
  5
237
330
126
100
AcDbEntity
  8
AM_4
100
AcDbLine
 10
-6.958289999999988
 20
-16.48318594454354
 30
0.0
 11
-6.647309999999981
 21
-16.49283342305822
 31
0.0
  0
LINE
  5
238
330
126
100
AcDbEntity
  8
AM_4
100
AcDbLine
 10
-6.647309999999981
 20
-16.49283342305822
 30
0.0
 11
-6.647309999999981
 21
-16.43301765328215
 31
0.0
  0
LINE
  5
239
330
126
100
AcDbEntity
  8
AM_4
100
AcDbLine
 10
-6.958289999999988
 20
-16.48318594454354
 30
0.0
 11
-6.958289999999989
 21
-16.42529976974218
 31
0.0
  0
LINE
  5
23A
330
126
100
AcDbEntity
  8
AM_4
100
AcDbLine
 10
-4.625899999999995
 20
-16.57966307637425
 30
0.0
 11
-4.548159999999996
 21
-16.54107224971623
 31
0.0
  0
LINE
  5
23B
330
126
100
AcDbEntity
  8
AM_4
100
AcDbLine
 10
-4.548160000000007
 20
-16.76296920966433
 30
0.0
 11
-4.625899999999988
 21
-16.72437838300632
 31
0.0
  0
LINE
  5
23C
330
126
100
AcDbEntity
  8
AM_4
100
AcDbLine
 10
-4.392659999999997
 20
-16.7919117755797
 30
0.0
 11
-4.548160000000007
 21
-16.76296920966433
 31
0.0
  0
LINE
  5
23D
330
126
100
AcDbEntity
  8
AM_4
100
AcDbLine
 10
-4.159429999999997
 20
-16.81120803632236
 30
0.0
 11
-4.392659999999997
 21
-16.7919117755797
 31
0.0
  0
LINE
  5
23E
330
126
100
AcDbEntity
  8
AM_4
100
AcDbLine
 10
-3.848439999999991
 20
-16.82085551483703
 30
0.0
 11
-4.159429999999997
 21
-16.81120803632236
 31
0.0
  0
LINE
  5
23F
330
126
100
AcDbEntity
  8
AM_4
100
AcDbLine
 10
-3.226470000000001
 20
-16.82085551483703
 30
0.0
 11
-3.848439999999991
 21
-16.82085551483703
 31
0.0
  0
LINE
  5
240
330
126
100
AcDbEntity
  8
AM_4
100
AcDbLine
 10
-2.915489999999997
 20
-16.81120803632236
 30
0.0
 11
-3.226470000000001
 21
-16.82085551483703
 31
0.0
  0
LINE
  5
241
330
126
100
AcDbEntity
  8
AM_4
100
AcDbLine
 10
-2.682250000000006
 20
-16.7919117755797
 30
0.0
 11
-2.915489999999997
 21
-16.81120803632236
 31
0.0
  0
LINE
  5
242
330
126
100
AcDbEntity
  8
AM_4
100
AcDbLine
 10
-2.526749999999996
 20
-16.76296920966434
 30
0.0
 11
-2.682250000000006
 21
-16.7919117755797
 31
0.0
  0
LINE
  5
243
330
126
100
AcDbEntity
  8
AM_4
100
AcDbLine
 10
-2.449009999999994
 20
-16.72437838300632
 30
0.0
 11
-2.526749999999996
 21
-16.76296920966434
 31
0.0
  0
LINE
  5
244
330
126
100
AcDbEntity
  8
AM_4
100
AcDbLine
 10
-2.526750000000006
 20
-16.54107224971623
 30
0.0
 11
-2.449010000000001
 21
-16.57966307637425
 31
0.0
  0
LINE
  5
245
330
126
100
AcDbEntity
  8
AM_4
100
AcDbLine
 10
-2.682249999999985
 20
-16.51212968380088
 30
0.0
 11
-2.526750000000006
 21
-16.54107224971623
 31
0.0
  0
LINE
  5
246
330
126
100
AcDbEntity
  8
AM_4
100
AcDbLine
 10
-2.915489999999997
 20
-16.49283342305821
 30
0.0
 11
-2.682249999999985
 21
-16.51212968380088
 31
0.0
  0
LINE
  5
247
330
126
100
AcDbEntity
  8
AM_4
100
AcDbLine
 10
-4.159429999999997
 20
-16.49283342305821
 30
0.0
 11
-3.848440000000001
 21
-16.48318594454354
 31
0.0
  0
LINE
  5
248
330
126
100
AcDbEntity
  8
AM_4
100
AcDbLine
 10
-4.392660000000018
 20
-16.51212968380088
 30
0.0
 11
-4.159429999999997
 21
-16.49283342305821
 31
0.0
  0
LINE
  5
249
330
126
100
AcDbEntity
  8
AM_4
100
AcDbLine
 10
-4.548159999999996
 20
-16.54107224971623
 30
0.0
 11
-4.392660000000018
 21
-16.51212968380088
 31
0.0
  0
LINE
  5
24A
330
126
100
AcDbEntity
  8
AM_4
100
AcDbLine
 10
-3.226469999999991
 20
-16.48318594454354
 30
0.0
 11
-2.915489999999997
 21
-16.49283342305821
 31
0.0
  0
LINE
  5
24B
330
126
100
AcDbEntity
  8
AM_4
100
AcDbLine
 10
-2.915489999999997
 20
-16.49283342305821
 30
0.0
 11
-2.915489999999997
 21
-16.43301765328215
 31
0.0
  0
LINE
  5
24C
330
126
100
AcDbEntity
  8
AM_4
100
AcDbLine
 10
-3.848440000000001
 20
-16.48318594454354
 30
0.0
 11
-3.226469999999991
 21
-16.48318594454354
 31
0.0
  0
LINE
  5
24D
330
126
100
AcDbEntity
  8
AM_4
100
AcDbLine
 10
-3.226469999999991
 20
-16.48318594454354
 30
0.0
 11
-3.226469999999992
 21
-16.42529976974217
 31
0.0
  0
LINE
  5
24E
330
126
100
AcDbEntity
  8
AM_4
100
AcDbLine
 10
-3.848440000000001
 20
-16.48318594454354
 30
0.0
 11
-3.848440000000001
 21
-16.42529976974218
 31
0.0
  0
LINE
  5
24F
330
126
100
AcDbEntity
  8
AM_4
100
AcDbLine
 10
3.615200000000001
 20
-16.48318594454354
 30
0.0
 11
3.615200000000002
 21
-16.42529976974217
 31
0.0
  0
LINE
  5
250
330
126
100
AcDbEntity
  8
AM_4
100
AcDbLine
 10
4.625899999999967
 20
-16.49283342305821
 30
0.0
 11
4.625899999999969
 21
-16.43301765328215
 31
0.0
  0
LINE
  5
251
330
126
100
AcDbEntity
  8
AM_4
100
AcDbLine
 10
4.314920000000014
 20
-16.48318594454354
 30
0.0
 11
4.314920000000013
 21
-16.42529976974218
 31
0.0
  0
LINE
  5
252
330
126
100
AcDbEntity
  8
AM_4
100
AcDbLine
 10
0.5053509999999872
 20
-16.82085551483703
 30
0.0
 11
-0.8940819999999996
 21
-16.82085551483703
 31
0.0
  0
LINE
  5
253
330
126
100
AcDbEntity
  8
AM_4
100
AcDbLine
 10
0.8163359999999867
 20
-16.81120803632236
 30
0.0
 11
0.5053509999999872
 21
-16.82085551483703
 31
0.0
  0
LINE
  5
254
330
126
100
AcDbEntity
  8
AM_4
100
AcDbLine
 10
1.049569999999993
 20
-16.7919117755797
 30
0.0
 11
0.8163359999999867
 21
-16.81120803632236
 31
0.0
  0
LINE
  5
255
330
126
100
AcDbEntity
  8
AM_4
100
AcDbLine
 10
1.205070000000016
 20
-16.76296920966434
 30
0.0
 11
1.049569999999993
 21
-16.7919117755797
 31
0.0
  0
LINE
  5
256
330
126
100
AcDbEntity
  8
AM_4
100
AcDbLine
 10
1.282810000000004
 20
-16.72437838300632
 30
0.0
 11
1.205070000000016
 21
-16.76296920966434
 31
0.0
  0
LINE
  5
257
330
126
100
AcDbEntity
  8
AM_4
100
AcDbLine
 10
1.205069999999995
 20
-16.54107224971623
 30
0.0
 11
1.282809999999998
 21
-16.57966307637425
 31
0.0
  0
LINE
  5
258
330
126
100
AcDbEntity
  8
AM_4
100
AcDbLine
 10
1.049570000000014
 20
-16.51212968380088
 30
0.0
 11
1.205069999999995
 21
-16.54107224971623
 31
0.0
  0
LINE
  5
259
330
126
100
AcDbEntity
  8
AM_4
100
AcDbLine
 10
0.8163360000000006
 20
-16.49283342305821
 30
0.0
 11
1.049570000000014
 21
-16.51212968380088
 31
0.0
  0
LINE
  5
25A
330
126
100
AcDbEntity
  8
AM_4
100
AcDbLine
 10
0.5053509999999939
 20
-16.48318594454354
 30
0.0
 11
0.8163360000000006
 21
-16.49283342305821
 31
0.0
  0
LINE
  5
25B
330
126
100
AcDbEntity
  8
AM_4
100
AcDbLine
 10
-0.8940819999999998
 20
-16.48318594454354
 30
0.0
 11
0.5053509999999939
 21
-16.48318594454354
 31
0.0
  0
LINE
  5
25C
330
126
100
AcDbEntity
  8
AM_4
100
AcDbLine
 10
43.09236354588143
 20
-2.368412101795707
 30
0.0
 11
43.0504645272808
 21
-2.444330760011487
 31
0.0
  0
LWPOLYLINE
  5
25D
330
126
100
AcDbEntity
  8
AM_4
100
AcDbPolyline
 90
       14
 70
     0
 43
0.0
 10
45.83674993835644
 20
-1.717044301568644
 10
45.71292126258869
 20
-1.622536189225926
 10
45.4727508325056
 20
-1.479166621998924
 10
45.22148673784501
 20
-1.377614059787612
 10
44.96439316355269
 20
-1.318799785613676
 10
44.70621863367291
 20
-1.302393158822078
 10
44.45095095452254
 20
-1.327342953897775
 10
44.20225882595687
 20
-1.392243904731842
 10
43.96310181518855
 20
-1.495623237796646
 10
43.73597759293899
 20
-1.636198364854155
 10
43.52354441897629
 20
-1.812622044314376
 10
43.32877852495093
 20
-2.023047010148552
 10
43.15485359331282
 20
-2.264742227808492
 10
43.09236354588143
 20
-2.368412101795707
  0
LINE
  5
25E
330
126
100
AcDbEntity
  8
AM_4
100
AcDbLine
 10
45.88402799315257
 20
-1.757335437485305
 30
0.0
 11
45.83674993835644
 21
-1.717044301568644
 31
0.0
  0
LWPOLYLINE
  5
25F
330
126
100
AcDbEntity
  8
AM_4
100
AcDbPolyline
 90
       14
 70
     0
 43
0.0
 10
43.07856127913188
 20
-5.607194648049693
 10
43.12230289997552
 20
-5.682579494127625
 10
43.29667000490564
 20
-5.936721718347679
 10
43.49583993120957
 20
-6.16060056243306
 10
43.71650854314067
 20
-6.349586077521791
 10
43.95430584758098
 20
-6.4997443937567
 10
44.20408989749205
 20
-6.608387147515995
 10
44.46055892405465
 20
-6.674346168240187
 10
44.71885147358047
 20
-6.697776826117734
 10
44.97485027466285
 20
-6.679648459390285
 10
45.22488402525732
 20
-6.621313384244659
 10
45.46580802605698
 20
-6.524270035325269
 10
45.6951198615085
 20
-6.389822169137062
 10
45.80213525784572
 20
-6.310933042578615
  0
ELLIPSE
  5
260
330
126
100
AcDbEntity
  8
AM_4
100
AcDbEllipse
 10
44.89839207135523
 20
-3.999999999999991
 30
0.0
 11
1.616869327254477E-16
 21
2.640547998623283
 31
0.0
210
0.0
220
0.0
230
1.0
 40
0.7071067811865471
 41
5.730470194082814
 42
9.967249945008938
  0
ELLIPSE
  5
261
330
126
100
AcDbEntity
  8
AM_4
100
AcDbEllipse
 10
44.52020550525299
 20
-3.999999999999995
 30
0.0
 11
1.589605533317535E-16
 21
2.596022844177244
 31
0.0
210
0.0
220
0.0
230
1.0
 40
0.7071067811865429
 41
0.9257717002175578
 42
2.239986175291762
  0
ELLIPSE
  5
262
330
126
100
AcDbEntity
  8
AM_4
100
AcDbEllipse
 10
44.5202055052517
 20
-4.000000000001386
 30
0.0
 11
1.589605533318934E-16
 21
2.596022844179529
 31
0.0
210
0.0
220
0.0
230
1.0
 40
0.7071067811857865
 41
0.8516082488667953
 42
0.9257717002172184
  0
LINE
  5
263
330
126
100
AcDbEntity
  8
AM_4
100
AcDbLine
 10
46.69267532585728
 20
-2.462745592263093
 30
0.0
 11
45.87864550418963
 21
-1.752623719119077
 31
0.0
  0
LINE
  5
264
330
126
100
AcDbEntity
  8
AM_4
100
AcDbLine
 10
45.87864550418963
 20
-6.247376280880919
 30
0.0
 11
46.69267532585728
 21
-5.537254407736902
 31
0.0
  0
ELLIPSE
  5
265
330
126
100
AcDbEntity
  8
AM_4
100
AcDbEllipse
 10
44.89839207135224
 20
-4.000000000306614
 30
0.0
 11
1.616869327034465E-16
 21
2.640547998263977
 31
0.0
210
0.0
220
0.0
230
1.0
 40
0.7071067812131409
 41
3.684064637874039
 42
3.694307766732082
  0
ELLIPSE
  5
266
330
126
100
AcDbEntity
  8
AM_4
100
AcDbEllipse
 10
46.02216059134506
 20
-3.999999999999997
 30
0.0
 11
1.105973895516185E-16
 21
1.806192440606071
 31
0.0
210
0.0
220
0.0
230
1.0
 40
0.7071067811865496
 41
5.730470194082814
 42
9.977493073866151
  0
ELLIPSE
  5
267
330
126
100
AcDbEntity
  8
AM_4
100
AcDbEllipse
 10
46.02216059134536
 20
-3.999999999999422
 30
0.0
 11
1.105973895515750E-16
 21
1.80619244060536
 31
0.0
210
0.0
220
0.0
230
1.0
 40
0.7071067811865483
 41
-0.7089223622000507
 42
-0.55271511309674
  0
ELLIPSE
  5
268
330
126
100
AcDbEntity
  8
AM_4
100
AcDbEllipse
 10
46.09784450716214
 20
-3.999999999999997
 30
0.0
 11
-2.992631774243850E-16
 21
-1.629112860038468
 31
0.0
210
0.0
220
0.0
230
1.0
 40
0.7071067811865452
 41
0.0
 42
6.283185307179586
  0
LWPOLYLINE
  5
269
330
126
100
AcDbEntity
  8
AM_4
100
AcDbPolyline
 90
        8
 70
     0
 43
0.0
 10
47.30837990157625
 20
-3.999999999999997
 10
47.30403934443012
 20
-3.852688813418788
 10
47.27281599191932
 20
-3.580869137496318
 10
47.21190065477496
 20
-3.317867081621686
 10
47.12228774721827
 20
-3.069613044762179
 10
47.00543991585299
 20
-2.841670713982555
 10
46.863386708262
 20
-2.639462865438574
 10
46.86003387607187
 20
-2.635387695821933
  0
LWPOLYLINE
  5
26A
330
126
100
AcDbEntity
  8
AM_4
100
AcDbPolyline
 90
        9
 70
     0
 43
0.0
 10
46.77649049616237
 20
-5.457842357045657
 10
46.7884979303203
 20
-5.445368002348812
 10
46.93815877327501
 20
-5.261916675494744
 10
47.06607193161254
 20
-5.049352149432229
 10
47.16907155178652
 20
-4.812681025573716
 10
47.24474856953642
 20
-4.557573215701272
 10
47.2914744959521
 20
-4.29001850171825
 10
47.30819674741088
 20
-4.030284318776193
 10
47.30837990157625
 20
-3.999999999999997
  0
ELLIPSE
  5
26B
330
126
100
AcDbEntity
  8
AM_4
100
AcDbEllipse
 10
46.02216059134125
 20
-3.99999999999715
 30
0.0
 11
1.105973895518276E-16
 21
1.806192440609485
 31
0.0
210
0.0
220
0.0
230
1.0
 40
0.70710678118729
 41
3.694307766687812
 42
3.769968170666323
  0
LINE
  5
26C
330
126
100
AcDbEntity
  8
AM_4
100
AcDbLine
 10
-47.385
 20
-18.59768769255716
 30
0.0
 11
-47.385
 21
18.59768769255716
 31
0.0
  0
LINE
  5
26D
330
126
100
AcDbEntity
  8
AM_4
100
AcDbLine
 10
-63.342
 20
26.79999999999999
 30
0.0
 11
-47.385
 21
18.59768769255716
 31
0.0
  0
LINE
  5
26E
330
126
100
AcDbEntity
  8
AM_4
100
AcDbLine
 10
-47.385
 20
18.59768769255716
 30
0.0
 11
-22.2
 21
15.31428571428572
 31
0.0
  0
LINE
  5
26F
330
126
100
AcDbEntity
  8
AM_4
100
AcDbLine
 10
47.385
 20
18.59768769255715
 30
0.0
 11
63.34199999999998
 21
26.8
 31
0.0
  0
LINE
  5
270
330
126
100
AcDbEntity
  8
AM_4
100
AcDbLine
 10
47.41000000000001
 20
26.8
 30
0.0
 11
44.44545454545455
 21
23.82222222222222
 31
0.0
  0
LINE
  5
271
330
126
100
AcDbEntity
  8
AM_4
100
AcDbLine
 10
44.44545454545455
 20
23.82222222222222
 30
0.0
 11
-44.44545454545454
 21
23.82222222222223
 31
0.0
  0
LWPOLYLINE
  5
272
330
126
100
AcDbEntity
  8
AM_4
100
AcDbPolyline
 90
        4
 70
     0
 43
0.0
 10
-41.3643186660987
 20
23.82222222222223
 10
-42.05749043475265
 20
23.34737400186232
 10
-42.4305793061911
 20
22.86645648172523
 10
-42.5
 20
22.54989460029187
  0
LINE
  5
273
330
126
100
AcDbEntity
  8
AM_4
100
AcDbLine
 10
-44.44545454545454
 20
23.82222222222223
 30
0.0
 11
-47.41000000000001
 21
26.8
 31
0.0
  0
LINE
  5
274
330
126
100
AcDbEntity
  8
AM_4
100
AcDbLine
 10
22.20000000000001
 20
15.31428571428572
 30
0.0
 11
-22.2
 21
15.31428571428572
 31
0.0
  0
LINE
  5
275
330
126
100
AcDbEntity
  8
AM_4
100
AcDbLine
 10
-22.2
 20
-15.31428571428571
 30
0.0
 11
-22.2
 21
15.31428571428572
 31
0.0
  0
LINE
  5
276
330
126
100
AcDbEntity
  8
AM_4
100
AcDbLine
 10
47.385
 20
-18.59768769255716
 30
0.0
 11
47.385
 21
18.59768769255715
 31
0.0
  0
LINE
  5
277
330
126
100
AcDbEntity
  8
AM_4
100
AcDbLine
 10
22.20000000000001
 20
15.31428571428572
 30
0.0
 11
47.385
 21
18.59768769255715
 31
0.0
  0
LINE
  5
278
330
126
100
AcDbEntity
  8
AM_4
100
AcDbLine
 10
22.2
 20
-15.31428571428571
 30
0.0
 11
22.20000000000001
 21
15.31428571428572
 31
0.0
  0
LINE
  5
279
330
126
100
AcDbEntity
  8
AM_4
100
AcDbLine
 10
-47.385
 20
-18.59768769255716
 30
0.0
 11
-63.34200000000001
 21
-26.8
 31
0.0
  0
LINE
  5
27A
330
126
100
AcDbEntity
  8
AM_4
100
AcDbLine
 10
-47.41000000000005
 20
-26.8
 30
0.0
 11
-44.44545454545455
 21
-23.82222222222222
 31
0.0
  0
LWPOLYLINE
  5
27B
330
126
100
AcDbEntity
  8
AM_4
100
AcDbPolyline
 90
        4
 70
     0
 43
0.0
 10
41.36431866609872
 20
-23.82222222222223
 10
42.05749043475266
 20
-23.34737400186232
 10
42.4305793061911
 20
-22.86645648172523
 10
42.5
 20
-22.54989460029188
  0
LINE
  5
27C
330
126
100
AcDbEntity
  8
AM_4
100
AcDbLine
 10
44.44545454545455
 20
-23.82222222222223
 30
0.0
 11
47.40999999999999
 21
-26.8
 31
0.0
  0
LINE
  5
27D
330
126
100
AcDbEntity
  8
AM_4
100
AcDbLine
 10
63.34199999999998
 20
-26.8
 30
0.0
 11
47.385
 21
-18.59768769255716
 31
0.0
  0
LINE
  5
27E
330
126
100
AcDbEntity
  8
AM_4
100
AcDbLine
 10
47.385
 20
-18.59768769255716
 30
0.0
 11
22.2
 21
-15.31428571428571
 31
0.0
  0
LINE
  5
27F
330
126
100
AcDbEntity
  8
AM_4
100
AcDbLine
 10
22.2
 20
-15.31428571428571
 30
0.0
 11
-22.2
 21
-15.31428571428571
 31
0.0
  0
LINE
  5
280
330
126
100
AcDbEntity
  8
AM_4
100
AcDbLine
 10
-22.2
 20
-15.31428571428571
 30
0.0
 11
-47.385
 21
-18.59768769255716
 31
0.0
  0
LINE
  5
281
330
126
100
AcDbEntity
  8
AM_4
100
AcDbLine
 10
-8.824199999999998
 20
-16.8787416896384
 30
0.0
 11
-8.824200000000015
 21
-16.42529976974217
 31
0.0
  0
LINE
  5
282
330
126
100
AcDbEntity
  8
AM_4
100
AcDbLine
 10
-8.824200000000015
 20
-16.42529976974217
 30
0.0
 11
-6.958290000000016
 21
-16.42529976974217
 31
0.0
  0
LINE
  5
283
330
126
100
AcDbEntity
  8
AM_4
100
AcDbLine
 10
-6.958290000000016
 20
-16.42529976974217
 30
0.0
 11
-6.569560000000002
 21
-16.43494724825685
 31
0.0
  0
LINE
  5
284
330
126
100
AcDbEntity
  8
AM_4
100
AcDbLine
 10
-6.569560000000002
 20
-16.43494724825685
 30
0.0
 11
-6.258580000000006
 21
-16.45424350899951
 31
0.0
  0
LINE
  5
285
330
126
100
AcDbEntity
  8
AM_4
100
AcDbLine
 10
-6.258580000000006
 20
-16.45424350899951
 30
0.0
 11
-5.947590000000001
 21
-16.49283342305821
 31
0.0
  0
LINE
  5
286
330
126
100
AcDbEntity
  8
AM_4
100
AcDbLine
 10
-5.947590000000001
 20
-16.49283342305821
 30
0.0
 11
-5.792100000000003
 21
-16.53142464083022
 31
0.0
  0
LINE
  5
287
330
126
100
AcDbEntity
  8
AM_4
100
AcDbLine
 10
-5.792100000000003
 20
-16.53142464083022
 30
0.0
 11
-5.714350000000006
 21
-16.57966307637425
 31
0.0
  0
LINE
  5
288
330
126
100
AcDbEntity
  8
AM_4
100
AcDbLine
 10
-5.714350000000006
 20
-16.57966307637425
 30
0.0
 11
-5.714350000000002
 21
-16.72437838300632
 31
0.0
  0
LINE
  5
289
330
126
100
AcDbEntity
  8
AM_4
100
AcDbLine
 10
-5.714350000000002
 20
-16.72437838300632
 30
0.0
 11
-5.792099999999989
 21
-16.77261681855035
 31
0.0
  0
LINE
  5
28A
330
126
100
AcDbEntity
  8
AM_4
100
AcDbLine
 10
-5.792099999999989
 20
-16.77261681855035
 30
0.0
 11
-5.947589999999994
 21
-16.81120803632236
 31
0.0
  0
LINE
  5
28B
330
126
100
AcDbEntity
  8
AM_4
100
AcDbLine
 10
-5.947589999999994
 20
-16.81120803632236
 30
0.0
 11
-6.258579999999993
 21
-16.84979795038106
 31
0.0
  0
LINE
  5
28C
330
126
100
AcDbEntity
  8
AM_4
100
AcDbLine
 10
-6.258579999999993
 20
-16.84979795038106
 30
0.0
 11
-6.56955999999998
 21
-16.86909421112372
 31
0.0
  0
LINE
  5
28D
330
126
100
AcDbEntity
  8
AM_4
100
AcDbLine
 10
-6.56955999999998
 20
-16.86909421112372
 30
0.0
 11
-6.958290000000016
 21
-16.8787416896384
 31
0.0
  0
LINE
  5
28E
330
126
100
AcDbEntity
  8
AM_4
100
AcDbLine
 10
-6.958290000000016
 20
-16.8787416896384
 30
0.0
 11
-8.824199999999998
 21
-16.8787416896384
 31
0.0
  0
LINE
  5
28F
330
126
100
AcDbEntity
  8
AM_4
100
AcDbLine
 10
-5.092380000000007
 20
-16.72437838300632
 30
0.0
 11
-5.092380000000005
 21
-16.57966307637425
 31
0.0
  0
LINE
  5
290
330
126
100
AcDbEntity
  8
AM_4
100
AcDbLine
 10
-5.092380000000005
 20
-16.57966307637425
 30
0.0
 11
-5.014640000000008
 21
-16.53142464083022
 31
0.0
  0
LINE
  5
291
330
126
100
AcDbEntity
  8
AM_4
100
AcDbLine
 10
-5.014640000000008
 20
-16.53142464083022
 30
0.0
 11
-4.859140000000018
 21
-16.49283342305821
 31
0.0
  0
LINE
  5
292
330
126
100
AcDbEntity
  8
AM_4
100
AcDbLine
 10
-4.859140000000018
 20
-16.49283342305821
 30
0.0
 11
-4.548160000000003
 21
-16.45424350899951
 31
0.0
  0
LINE
  5
293
330
126
100
AcDbEntity
  8
AM_4
100
AcDbLine
 10
-4.548160000000003
 20
-16.45424350899951
 30
0.0
 11
-4.23717
 21
-16.43494724825685
 31
0.0
  0
LINE
  5
294
330
126
100
AcDbEntity
  8
AM_4
100
AcDbLine
 10
-4.23717
 20
-16.43494724825685
 30
0.0
 11
-3.848440000000019
 21
-16.42529976974217
 31
0.0
  0
LINE
  5
295
330
126
100
AcDbEntity
  8
AM_4
100
AcDbLine
 10
-3.848440000000019
 20
-16.42529976974217
 30
0.0
 11
-3.226470000000001
 21
-16.42529976974217
 31
0.0
  0
LINE
  5
296
330
126
100
AcDbEntity
  8
AM_4
100
AcDbLine
 10
-3.226470000000001
 20
-16.42529976974217
 30
0.0
 11
-2.837739999999989
 21
-16.43494724825685
 31
0.0
  0
LINE
  5
297
330
126
100
AcDbEntity
  8
AM_4
100
AcDbLine
 10
-2.837739999999989
 20
-16.43494724825685
 30
0.0
 11
-2.526750000000026
 21
-16.45424350899951
 31
0.0
  0
LINE
  5
298
330
126
100
AcDbEntity
  8
AM_4
100
AcDbLine
 10
-2.526750000000026
 20
-16.45424350899951
 30
0.0
 11
-2.21576999999999
 21
-16.49283342305821
 31
0.0
  0
LINE
  5
299
330
126
100
AcDbEntity
  8
AM_4
100
AcDbLine
 10
-2.21576999999999
 20
-16.49283342305821
 30
0.0
 11
-2.060280000000006
 21
-16.53142464083022
 31
0.0
  0
LINE
  5
29A
330
126
100
AcDbEntity
  8
AM_4
100
AcDbLine
 10
-2.060280000000006
 20
-16.53142464083022
 30
0.0
 11
-1.982530000000002
 21
-16.57966307637425
 31
0.0
  0
LINE
  5
29B
330
126
100
AcDbEntity
  8
AM_4
100
AcDbLine
 10
-1.982530000000002
 20
-16.57966307637425
 30
0.0
 11
-1.982530000000006
 21
-16.72437838300632
 31
0.0
  0
LINE
  5
29C
330
126
100
AcDbEntity
  8
AM_4
100
AcDbLine
 10
-1.982530000000006
 20
-16.72437838300632
 30
0.0
 11
-2.060279999999998
 21
-16.77261681855035
 31
0.0
  0
LINE
  5
29D
330
126
100
AcDbEntity
  8
AM_4
100
AcDbLine
 10
-2.060279999999998
 20
-16.77261681855035
 30
0.0
 11
-2.215770000000004
 21
-16.81120803632236
 31
0.0
  0
LINE
  5
29E
330
126
100
AcDbEntity
  8
AM_4
100
AcDbLine
 10
-2.215770000000004
 20
-16.81120803632236
 30
0.0
 11
-2.526749999999991
 21
-16.84979795038105
 31
0.0
  0
LINE
  5
29F
330
126
100
AcDbEntity
  8
AM_4
100
AcDbLine
 10
-2.526749999999991
 20
-16.84979795038105
 30
0.0
 11
-2.83774000000001
 21
-16.86909421112372
 31
0.0
  0
LINE
  5
2A0
330
126
100
AcDbEntity
  8
AM_4
100
AcDbLine
 10
-2.83774000000001
 20
-16.86909421112372
 30
0.0
 11
-3.226470000000033
 21
-16.8787416896384
 31
0.0
  0
LINE
  5
2A1
330
126
100
AcDbEntity
  8
AM_4
100
AcDbLine
 10
-3.226470000000033
 20
-16.8787416896384
 30
0.0
 11
-3.848440000000001
 21
-16.8787416896384
 31
0.0
  0
LINE
  5
2A2
330
126
100
AcDbEntity
  8
AM_4
100
AcDbLine
 10
-3.848440000000001
 20
-16.8787416896384
 30
0.0
 11
-4.237170000000021
 21
-16.86909421112372
 31
0.0
  0
LINE
  5
2A3
330
126
100
AcDbEntity
  8
AM_4
100
AcDbLine
 10
-4.237170000000021
 20
-16.86909421112372
 30
0.0
 11
-4.548159999999985
 21
-16.84979795038106
 31
0.0
  0
LINE
  5
2A4
330
126
100
AcDbEntity
  8
AM_4
100
AcDbLine
 10
-4.548159999999985
 20
-16.84979795038106
 30
0.0
 11
-4.859140000000006
 21
-16.81120803632236
 31
0.0
  0
LINE
  5
2A5
330
126
100
AcDbEntity
  8
AM_4
100
AcDbLine
 10
-4.859140000000006
 20
-16.81120803632236
 30
0.0
 11
-5.014640000000021
 21
-16.77261681855035
 31
0.0
  0
LINE
  5
2A6
330
126
100
AcDbEntity
  8
AM_4
100
AcDbLine
 10
-5.014640000000021
 20
-16.77261681855035
 30
0.0
 11
-5.092380000000007
 21
-16.72437838300632
 31
0.0
  0
LINE
  5
2A7
330
126
100
AcDbEntity
  8
AM_4
100
AcDbLine
 10
0.50535099999998
 20
-16.8787416896384
 30
0.0
 11
-1.36056
 21
-16.8787416896384
 31
0.0
  0
LINE
  5
2A8
330
126
100
AcDbEntity
  8
AM_4
100
AcDbLine
 10
-1.36056
 20
-16.8787416896384
 30
0.0
 11
-1.36056
 21
-16.42529976974217
 31
0.0
  0
LINE
  5
2A9
330
126
100
AcDbEntity
  8
AM_4
100
AcDbLine
 10
-1.36056
 20
-16.42529976974217
 30
0.0
 11
0.5053509999999872
 21
-16.42529976974217
 31
0.0
  0
LINE
  5
2AA
330
126
100
AcDbEntity
  8
AM_4
100
AcDbLine
 10
0.5053509999999872
 20
-16.42529976974217
 30
0.0
 11
0.8940820000000094
 21
-16.43494724825685
 31
0.0
  0
LINE
  5
2AB
330
126
100
AcDbEntity
  8
AM_4
100
AcDbLine
 10
0.8940820000000094
 20
-16.43494724825685
 30
0.0
 11
1.205070000000002
 21
-16.45424350899951
 31
0.0
  0
LINE
  5
2AC
330
126
100
AcDbEntity
  8
AM_4
100
AcDbLine
 10
1.205070000000002
 20
-16.45424350899951
 30
0.0
 11
1.51605000000001
 21
-16.49283342305822
 31
0.0
  0
LINE
  5
2AD
330
126
100
AcDbEntity
  8
AM_4
100
AcDbLine
 10
1.51605000000001
 20
-16.49283342305822
 30
0.0
 11
1.671550000000011
 21
-16.53142464083022
 31
0.0
  0
LINE
  5
2AE
330
126
100
AcDbEntity
  8
AM_4
100
AcDbLine
 10
1.671550000000011
 20
-16.53142464083022
 30
0.0
 11
1.749290000000001
 21
-16.57966307637425
 31
0.0
  0
LINE
  5
2AF
330
126
100
AcDbEntity
  8
AM_4
100
AcDbLine
 10
1.749290000000001
 20
-16.57966307637425
 30
0.0
 11
1.749290000000008
 21
-16.72437838300632
 31
0.0
  0
LINE
  5
2B0
330
126
100
AcDbEntity
  8
AM_4
100
AcDbLine
 10
1.749290000000008
 20
-16.72437838300632
 30
0.0
 11
1.67155
 21
-16.77261681855035
 31
0.0
  0
LINE
  5
2B1
330
126
100
AcDbEntity
  8
AM_4
100
AcDbLine
 10
1.67155
 20
-16.77261681855035
 30
0.0
 11
1.516050000000002
 21
-16.81120803632236
 31
0.0
  0
LINE
  5
2B2
330
126
100
AcDbEntity
  8
AM_4
100
AcDbLine
 10
1.516050000000002
 20
-16.81120803632236
 30
0.0
 11
1.205070000000005
 21
-16.84979795038106
 31
0.0
  0
LINE
  5
2B3
330
126
100
AcDbEntity
  8
AM_4
100
AcDbLine
 10
1.205070000000005
 20
-16.84979795038106
 30
0.0
 11
0.8940820000000094
 21
-16.86909421112372
 31
0.0
  0
LINE
  5
2B4
330
126
100
AcDbEntity
  8
AM_4
100
AcDbLine
 10
0.8940820000000094
 20
-16.86909421112372
 30
0.0
 11
0.50535099999998
 21
-16.8787416896384
 31
0.0
  0
LINE
  5
2B5
330
126
100
AcDbEntity
  8
AM_4
100
AcDbLine
 10
2.371260000000006
 20
-16.72437838300632
 30
0.0
 11
2.371260000000007
 21
-16.57966307637425
 31
0.0
  0
LINE
  5
2B6
330
126
100
AcDbEntity
  8
AM_4
100
AcDbLine
 10
2.371260000000007
 20
-16.57966307637425
 30
0.0
 11
2.449010000000013
 21
-16.53142464083022
 31
0.0
  0
LINE
  5
2B7
330
126
100
AcDbEntity
  8
AM_4
100
AcDbLine
 10
2.449010000000013
 20
-16.53142464083022
 30
0.0
 11
2.604500000000012
 21
-16.49283342305822
 31
0.0
  0
LINE
  5
2B8
330
126
100
AcDbEntity
  8
AM_4
100
AcDbLine
 10
2.604500000000012
 20
-16.49283342305822
 30
0.0
 11
2.915489999999997
 21
-16.4542435089995
 31
0.0
  0
LINE
  5
2B9
330
126
100
AcDbEntity
  8
AM_4
100
AcDbLine
 10
2.915489999999997
 20
-16.4542435089995
 30
0.0
 11
3.226469999999998
 21
-16.43494724825685
 31
0.0
  0
LINE
  5
2BA
330
126
100
AcDbEntity
  8
AM_4
100
AcDbLine
 10
3.226469999999998
 20
-16.43494724825685
 30
0.0
 11
3.615200000000021
 21
-16.42529976974217
 31
0.0
  0
LINE
  5
2BB
330
126
100
AcDbEntity
  8
AM_4
100
AcDbLine
 10
3.615200000000021
 20
-16.42529976974217
 30
0.0
 11
4.314920000000001
 21
-16.42529976974217
 31
0.0
  0
LINE
  5
2BC
330
126
100
AcDbEntity
  8
AM_4
100
AcDbLine
 10
4.314920000000001
 20
-16.42529976974217
 30
0.0
 11
4.703650000000016
 21
-16.43494724825685
 31
0.0
  0
LINE
  5
2BD
330
126
100
AcDbEntity
  8
AM_4
100
AcDbLine
 10
4.703650000000016
 20
-16.43494724825685
 30
0.0
 11
5.014639999999994
 21
-16.45424350899951
 31
0.0
  0
LINE
  5
2BE
330
126
100
AcDbEntity
  8
AM_4
100
AcDbLine
 10
5.014639999999994
 20
-16.45424350899951
 30
0.0
 11
5.325620000000015
 21
-16.49283342305821
 31
0.0
  0
LINE
  5
2BF
330
126
100
AcDbEntity
  8
AM_4
100
AcDbLine
 10
5.325620000000015
 20
-16.49283342305821
 30
0.0
 11
5.40337
 21
-16.54107224971623
 31
0.0
  0
LINE
  5
2C0
330
126
100
AcDbEntity
  8
AM_4
100
AcDbLine
 10
5.40337
 20
-16.54107224971623
 30
0.0
 11
4.936890000000001
 21
-16.54107224971623
 31
0.0
  0
LINE
  5
2C1
330
126
100
AcDbEntity
  8
AM_4
100
AcDbLine
 10
4.936890000000001
 20
-16.54107224971623
 30
0.0
 11
4.859140000000006
 21
-16.51212968380088
 31
0.0
  0
LINE
  5
2C2
330
126
100
AcDbEntity
  8
AM_4
100
AcDbLine
 10
4.859140000000006
 20
-16.51212968380088
 30
0.0
 11
4.625899999999967
 21
-16.49283342305821
 31
0.0
  0
LINE
  5
2C3
330
126
100
AcDbEntity
  8
AM_4
100
AcDbLine
 10
4.625899999999967
 20
-16.49283342305821
 30
0.0
 11
4.314920000000014
 21
-16.48318594454354
 31
0.0
  0
LINE
  5
2C4
330
126
100
AcDbEntity
  8
AM_4
100
AcDbLine
 10
4.314920000000014
 20
-16.48318594454354
 30
0.0
 11
3.615200000000001
 21
-16.48318594454354
 31
0.0
  0
LINE
  5
2C5
330
126
100
AcDbEntity
  8
AM_4
100
AcDbLine
 10
3.615200000000001
 20
-16.48318594454354
 30
0.0
 11
3.304219999999985
 21
-16.49283342305822
 31
0.0
  0
LINE
  5
2C6
330
126
100
AcDbEntity
  8
AM_4
100
AcDbLine
 10
3.304219999999985
 20
-16.49283342305822
 30
0.0
 11
3.070980000000022
 21
-16.51212968380087
 31
0.0
  0
LINE
  5
2C7
330
126
100
AcDbEntity
  8
AM_4
100
AcDbLine
 10
3.070980000000022
 20
-16.51212968380087
 30
0.0
 11
2.915489999999993
 21
-16.54107224971623
 31
0.0
  0
LINE
  5
2C8
330
126
100
AcDbEntity
  8
AM_4
100
AcDbLine
 10
2.915489999999993
 20
-16.54107224971623
 30
0.0
 11
2.837739999999993
 21
-16.57966307637425
 31
0.0
  0
LINE
  5
2C9
330
126
100
AcDbEntity
  8
AM_4
100
AcDbLine
 10
2.837740000000003
 20
-16.72437838300632
 30
0.0
 11
2.915489999999997
 21
-16.76296920966434
 31
0.0
  0
LINE
  5
2CA
330
126
100
AcDbEntity
  8
AM_4
100
AcDbLine
 10
2.915489999999997
 20
-16.76296920966434
 30
0.0
 11
3.070979999999994
 21
-16.7919117755797
 31
0.0
  0
LINE
  5
2CB
330
126
100
AcDbEntity
  8
AM_4
100
AcDbLine
 10
3.070979999999994
 20
-16.7919117755797
 30
0.0
 11
3.304219999999999
 21
-16.81120803632236
 31
0.0
  0
LINE
  5
2CC
330
126
100
AcDbEntity
  8
AM_4
100
AcDbLine
 10
3.304219999999999
 20
-16.81120803632236
 30
0.0
 11
3.615200000000021
 21
-16.82085551483703
 31
0.0
  0
LINE
  5
2CD
330
126
100
AcDbEntity
  8
AM_4
100
AcDbLine
 10
3.615200000000021
 20
-16.82085551483703
 30
0.0
 11
4.314920000000001
 21
-16.82085551483703
 31
0.0
  0
LINE
  5
2CE
330
126
100
AcDbEntity
  8
AM_4
100
AcDbLine
 10
4.314920000000001
 20
-16.82085551483703
 30
0.0
 11
4.625900000000009
 21
-16.81120803632236
 31
0.0
  0
LINE
  5
2CF
330
126
100
AcDbEntity
  8
AM_4
100
AcDbLine
 10
4.625900000000009
 20
-16.81120803632236
 30
0.0
 11
4.85914
 21
-16.7919117755797
 31
0.0
  0
LINE
  5
2D0
330
126
100
AcDbEntity
  8
AM_4
100
AcDbLine
 10
4.85914
 20
-16.7919117755797
 30
0.0
 11
4.936889999999986
 21
-16.76296920966434
 31
0.0
  0
LINE
  5
2D1
330
126
100
AcDbEntity
  8
AM_4
100
AcDbLine
 10
4.93689
 20
-16.68578768671963
 30
0.0
 11
4.237170000000001
 21
-16.68578768671963
 31
0.0
  0
LINE
  5
2D2
330
126
100
AcDbEntity
  8
AM_4
100
AcDbLine
 10
4.237170000000001
 20
-16.68578768671963
 30
0.0
 11
4.237170000000007
 21
-16.62790151191827
 31
0.0
  0
LINE
  5
2D3
330
126
100
AcDbEntity
  8
AM_4
100
AcDbLine
 10
4.237170000000007
 20
-16.62790151191827
 30
0.0
 11
5.403370000000001
 21
-16.62790151191827
 31
0.0
  0
LINE
  5
2D4
330
126
100
AcDbEntity
  8
AM_4
100
AcDbLine
 10
5.403370000000001
 20
-16.62790151191827
 30
0.0
 11
5.403369999999996
 21
-16.77261681855035
 31
0.0
  0
LINE
  5
2D5
330
126
100
AcDbEntity
  8
AM_4
100
AcDbLine
 10
5.403369999999996
 20
-16.77261681855035
 30
0.0
 11
5.325620000000009
 21
-16.81120803632236
 31
0.0
  0
LINE
  5
2D6
330
126
100
AcDbEntity
  8
AM_4
100
AcDbLine
 10
5.325620000000009
 20
-16.81120803632236
 30
0.0
 11
5.014640000000008
 21
-16.84979795038106
 31
0.0
  0
LINE
  5
2D7
330
126
100
AcDbEntity
  8
AM_4
100
AcDbLine
 10
5.014640000000008
 20
-16.84979795038106
 30
0.0
 11
4.703650000000002
 21
-16.86909421112372
 31
0.0
  0
LINE
  5
2D8
330
126
100
AcDbEntity
  8
AM_4
100
AcDbLine
 10
4.703650000000002
 20
-16.86909421112372
 30
0.0
 11
4.314919999999986
 21
-16.8787416896384
 31
0.0
  0
LINE
  5
2D9
330
126
100
AcDbEntity
  8
AM_4
100
AcDbLine
 10
4.314919999999986
 20
-16.8787416896384
 30
0.0
 11
3.615200000000001
 21
-16.8787416896384
 31
0.0
  0
LINE
  5
2DA
330
126
100
AcDbEntity
  8
AM_4
100
AcDbLine
 10
3.615200000000001
 20
-16.8787416896384
 30
0.0
 11
3.226469999999977
 21
-16.86909421112372
 31
0.0
  0
LINE
  5
2DB
330
126
100
AcDbEntity
  8
AM_4
100
AcDbLine
 10
3.226469999999977
 20
-16.86909421112372
 30
0.0
 11
2.915489999999997
 21
-16.84979795038106
 31
0.0
  0
LINE
  5
2DC
330
126
100
AcDbEntity
  8
AM_4
100
AcDbLine
 10
2.915489999999997
 20
-16.84979795038106
 30
0.0
 11
2.604499999999991
 21
-16.81120803632236
 31
0.0
  0
LINE
  5
2DD
330
126
100
AcDbEntity
  8
AM_4
100
AcDbLine
 10
2.604499999999991
 20
-16.81120803632236
 30
0.0
 11
2.449010000000001
 21
-16.77261681855034
 31
0.0
  0
LINE
  5
2DE
330
126
100
AcDbEntity
  8
AM_4
100
AcDbLine
 10
2.449010000000001
 20
-16.77261681855034
 30
0.0
 11
2.371260000000006
 21
-16.72437838300632
 31
0.0
  0
LINE
  5
2DF
330
126
100
AcDbEntity
  8
AM_4
100
AcDbLine
 10
8.824199999999998
 20
-16.8787416896384
 30
0.0
 11
6.025339999999993
 21
-16.8787416896384
 31
0.0
  0
LINE
  5
2E0
330
126
100
AcDbEntity
  8
AM_4
100
AcDbLine
 10
6.025339999999993
 20
-16.8787416896384
 30
0.0
 11
6.025339999999993
 21
-16.42529976974217
 31
0.0
  0
LINE
  5
2E1
330
126
100
AcDbEntity
  8
AM_4
100
AcDbLine
 10
6.025339999999993
 20
-16.42529976974217
 30
0.0
 11
8.824199999999976
 21
-16.42529976974217
 31
0.0
  0
LINE
  5
2E2
330
126
100
AcDbEntity
  8
AM_4
100
AcDbLine
 10
8.824199999999976
 20
-16.42529976974217
 30
0.0
 11
8.824199999999998
 21
-16.48318594454354
 31
0.0
  0
LINE
  5
2E3
330
126
100
AcDbEntity
  8
AM_4
100
AcDbLine
 10
8.824199999999998
 20
-16.48318594454354
 30
0.0
 11
6.491809999999993
 21
-16.48318594454354
 31
0.0
  0
LINE
  5
2E4
330
126
100
AcDbEntity
  8
AM_4
100
AcDbLine
 10
6.49180999999999
 20
-16.60860616377493
 30
0.0
 11
8.513219999999993
 21
-16.60860616377493
 31
0.0
  0
LINE
  5
2E5
330
126
100
AcDbEntity
  8
AM_4
100
AcDbLine
 10
8.513219999999993
 20
-16.60860616377493
 30
0.0
 11
8.513219999999992
 21
-16.66649220820496
 31
0.0
  0
LINE
  5
2E6
330
126
100
AcDbEntity
  8
AM_4
100
AcDbLine
 10
8.513219999999992
 20
-16.66649220820496
 30
0.0
 11
6.491809999999993
 21
-16.66649220820496
 31
0.0
  0
LINE
  5
2E7
330
126
100
AcDbEntity
  8
AM_4
100
AcDbLine
 10
6.49180999999999
 20
-16.82085551483703
 30
0.0
 11
8.824199999999992
 21
-16.82085551483703
 31
0.0
  0
LINE
  5
2E8
330
126
100
AcDbEntity
  8
AM_4
100
AcDbLine
 10
8.824199999999992
 20
-16.82085551483703
 30
0.0
 11
8.824199999999998
 21
-16.8787416896384
 31
0.0
  0
ENDBLK
  5
129
330
126
100
AcDbEntity
  8
0
100
AcDbBlockEnd
  0
ENDSEC
  0
SECTION
  2
ENTITIES
  0
INSERT
  5
6F
330
1F
100
AcDbEntity
  8
0
100
AcDbBlockReference
  2
1_129257_4
 10
0.0
 20
0.0
 30
0.0
  0
POINT
  5
2EA
330
1F
100
AcDbEntity
  8
ConnectionPoints
100
AcDbPoint
 10
0.0
 20
0.0
 30
0.0
  0
POINT
  5
2EB
330
1F
100
AcDbEntity
  8
ConnectionPoints
100
AcDbPoint
 10
0.0
 20
16.7
 30
-0.000000000000001
  0
POINT
  5
2EC
330
1F
100
AcDbEntity
  8
ConnectionPoints
100
AcDbPoint
 10
0.0
 20
0.0
 30
0.0
  0
POINT
  5
2ED
330
1F
100
AcDbEntity
  8
ConnectionPoints
100
AcDbPoint
 10
0.0
 20
0.0
 30
0.0
  0
ENDSEC
  0
SECTION
  2
OBJECTS
  0
DICTIONARY
  5
C
330
0
100
AcDbDictionary
281
     1
  3
ACAD_DETAILVIEWSTYLE
350
2F5
  3
ACAD_GROUP
350
D
  3
ACAD_LAYOUT
350
1A
  3
ACAD_MATERIAL
350
43
  3
ACAD_MLEADERSTYLE
350
6B
  3
ACAD_MLINESTYLE
350
17
  3
ACAD_PLOTSETTINGS
350
19
  3
ACAD_PLOTSTYLENAME
350
E
  3
ACAD_SCALELIST
350
47
  3
ACAD_SECTIONVIEWSTYLE
350
2F6
  3
ACAD_TABLESTYLE
350
69
  3
ACAD_VISUALSTYLE
350
2A
  3
ACDB_RECOMPOSE_DATA
350
2F2
  3
AcDbVariableDictionary
350
2EE
  0
SUN
  5
6D
330
29
100
AcDbSun
 90
        1
290
     0
 63
     7
421
 16777215
 40
1.0
291
     1
 91
  2455826
 92
 54000000
292
     0
 70
     2
 71
   256
280
     1
  0
DICTIONARY
  5
2F5
102
{ACAD_REACTORS
330
C
102
}
330
C
100
AcDbDictionary
281
     1
  0
DICTIONARY
  5
D
102
{ACAD_REACTORS
330
C
102
}
330
C
100
AcDbDictionary
281
     1
  0
DICTIONARY
  5
1A
102
{ACAD_REACTORS
330
C
102
}
330
C
100
AcDbDictionary
281
     1
  3
Layout1
350
1E
  3
Layout2
350
26
  3
Model
350
22
  0
DICTIONARY
  5
43
102
{ACAD_REACTORS
330
C
102
}
330
C
100
AcDbDictionary
281
     1
  3
ByBlock
350
45
  3
ByLayer
350
44
  3
Global
350
46
  0
DICTIONARY
  5
6B
102
{ACAD_REACTORS
330
C
102
}
330
C
100
AcDbDictionary
281
     1
  3
Standard
350
6C
  0
DICTIONARY
  5
17
102
{ACAD_REACTORS
330
C
102
}
330
C
100
AcDbDictionary
281
     1
  3
Standard
350
18
  0
DICTIONARY
  5
19
102
{ACAD_REACTORS
330
C
102
}
330
C
100
AcDbDictionary
281
     1
  0
ACDBDICTIONARYWDFLT
  5
E
102
{ACAD_REACTORS
330
C
102
}
330
C
100
AcDbDictionary
281
     1
  3
Normal
350
F
100
AcDbDictionaryWithDefault
340
F
  0
DICTIONARY
  5
47
102
{ACAD_REACTORS
330
C
102
}
330
C
100
AcDbDictionary
281
     1
  3
A0
350
48
  3
A1
350
49
  3
A2
350
4A
  3
A3
350
4B
  3
A4
350
4C
  3
A5
350
4D
  3
A6
350
4E
  3
A7
350
4F
  3
A8
350
50
  3
A9
350
51
  3
B0
350
52
  3
B1
350
53
  3
B2
350
54
  3
B3
350
55
  3
B4
350
56
  3
B5
350
57
  3
B6
350
58
  3
B7
350
59
  3
B8
350
5A
  3
B9
350
5B
  3
C0
350
5C
  3
C1
350
5D
  3
C2
350
5E
  3
C3
350
5F
  3
C4
350
60
  3
C5
350
61
  3
C6
350
62
  3
C7
350
63
  3
C8
350
64
  3
C9
350
65
  3
D0
350
66
  3
D1
350
67
  3
D2
350
68
  0
DICTIONARY
  5
2F6
102
{ACAD_REACTORS
330
C
102
}
330
C
100
AcDbDictionary
281
     1
  0
DICTIONARY
  5
69
102
{ACAD_REACTORS
330
C
102
}
330
C
100
AcDbDictionary
281
     1
  3
Standard
350
6A
  0
DICTIONARY
  5
2A
102
{ACAD_REACTORS
330
C
102
}
330
C
100
AcDbDictionary
281
     1
  3
2dWireframe
350
2F
  3
Basic
350
32
  3
Brighten
350
36
  3
ColorChange
350
3A
  3
Conceptual
350
34
  3
Dim
350
35
  3
EdgeColorOff
350
3D
  3
Facepattern
350
39
  3
Flat
350
2B
  3
FlatWithEdges
350
2C
  3
Gouraud
350
2D
  3
GouraudWithEdges
350
2E
  3
Hidden
350
31
  3
JitterOff
350
3B
  3
Linepattern
350
38
  3
OverhangOff
350
3C
  3
Realistic
350
33
  3
Shaded
350
42
  3
Shaded with edges
350
41
  3
Shades of Gray
350
3E
  3
Sketchy
350
3F
  3
Thicken
350
37
  3
Wireframe
350
30
  3
X-Ray
350
40
  0
XRECORD
  5
2F2
102
{ACAD_REACTORS
330
C
102
}
330
C
100
AcDbXrecord
280
     1
 90
        1
330
6A
  0
DICTIONARY
  5
2EE
102
{ACAD_REACTORS
330
C
102
}
330
C
100
AcDbDictionary
281
     1
  3
CANNOSCALE
350
2EF
  3
CMLEADERSTYLE
350
2F4
  3
CTABLESTYLE
350
2F3
  0
LAYOUT
  5
1E
102
{ACAD_REACTORS
330
1A
102
}
330
1A
100
AcDbPlotSettings
  1

  2
none_device
  4

  6

 40
0.0
 41
0.0
 42
0.0
 43
0.0
 44
0.0
 45
0.0
 46
0.0
 47
0.0
 48
0.0
 49
0.0
140
0.0
141
0.0
142
1.0
143
1.0
 70
   688
 72
     1
 73
     0
 74
     5
  7

 75
    16
 76
     0
 77
     2
 78
   300
147
1.0
148
0.0
149
0.0
100
AcDbLayout
  1
Layout1
 70
     1
 71
     1
 10
0.0
 20
0.0
 11
420.0
 21
297.0
 12
0.0
 22
0.0
 32
0.0
 14
1.000000000000000E+20
 24
1.000000000000000E+20
 34
1.000000000000000E+20
 15
-1.000000000000000E+20
 25
-1.000000000000000E+20
 35
-1.000000000000000E+20
146
0.0
 13
0.0
 23
0.0
 33
0.0
 16
1.0
 26
0.0
 36
0.0
 17
0.0
 27
1.0
 37
0.0
 76
     0
330
1B
  0
LAYOUT
  5
26
102
{ACAD_REACTORS
330
1A
102
}
330
1A
100
AcDbPlotSettings
  1

  2
none_device
  4

  6

 40
0.0
 41
0.0
 42
0.0
 43
0.0
 44
0.0
 45
0.0
 46
0.0
 47
0.0
 48
0.0
 49
0.0
140
0.0
141
0.0
142
1.0
143
1.0
 70
   688
 72
     1
 73
     0
 74
     5
  7

 75
    16
 76
     0
 77
     2
 78
   300
147
1.0
148
0.0
149
0.0
100
AcDbLayout
  1
Layout2
 70
     1
 71
     2
 10
0.0
 20
0.0
 11
0.0
 21
0.0
 12
0.0
 22
0.0
 32
0.0
 14
0.0
 24
0.0
 34
0.0
 15
0.0
 25
0.0
 35
0.0
146
0.0
 13
0.0
 23
0.0
 33
0.0
 16
1.0
 26
0.0
 36
0.0
 17
0.0
 27
1.0
 37
0.0
 76
     0
330
23
  0
LAYOUT
  5
22
102
{ACAD_REACTORS
330
1A
102
}
330
1A
100
AcDbPlotSettings
  1

  2
none_device
  4
Letter_(8.50_x_11.00_Inches)
  6

 40
6.35
 41
6.35
 42
6.35000508
 43
6.35000508
 44
215.9
 45
279.4
 46
0.0
 47
0.0
 48
0.0
 49
0.0
140
0.0
141
0.0
142
1.0
143
1.0
 70
  1712
 72
     1
 73
     0
 74
     0
  7

 75
     0
 76
     0
 77
     2
 78
   300
147
1.0
148
0.0
149
0.0
100
AcDbLayout
  1
Model
 70
     1
 71
     0
 10
0.0
 20
0.0
 11
420.0
 21
297.0
 12
0.0
 22
0.0
 32
0.0
 14
1.000000000000000E+20
 24
1.000000000000000E+20
 34
1.000000000000000E+20
 15
-1.000000000000000E+20
 25
-1.000000000000000E+20
 35
-1.000000000000000E+20
146
0.0
 13
0.0
 23
0.0
 33
0.0
 16
1.0
 26
0.0
 36
0.0
 17
0.0
 27
1.0
 37
0.0
 76
     0
330
1F
331
29
  0
MATERIAL
  5
45
102
{ACAD_REACTORS
330
43
102
}
330
43
100
AcDbMaterial
  1
ByBlock
 72
     1
 94
      127
  0
MATERIAL
  5
44
102
{ACAD_REACTORS
330
43
102
}
330
43
100
AcDbMaterial
  1
ByLayer
 72
     1
 94
      127
  0
MATERIAL
  5
46
102
{ACAD_REACTORS
330
43
102
}
330
43
100
AcDbMaterial
  1
Global
 72
     1
 94
      127
  0
MLEADERSTYLE
  5
6C
102
{ACAD_REACTORS
330
6B
102
}
330
6B
100
AcDbMLeaderStyle
179
     2
170
     2
171
     1
172
     0
 90
        2
 40
0.0
 41
0.0
173
     1
 91
-1056964608
340
14
 92
       -2
290
     1
 42
2.0
291
     1
 43
8.0
  3
Standard
341
0
 44
4.0
300

342
11
174
     1
178
     6
175
     1
176
     0
 93
-1056964608
 45
4.0
292
     0
297
     0
 46
4.0
343
0
 94
-1056964608
 47
1.0
 49
1.0
140
1.0
293
     1
141
0.0
294
     1
177
     0
142
1.0
295
     0
296
     0
143
3.75
271
     0
272
     9
273
     9
298
     0
  0
MLINESTYLE
  5
18
102
{ACAD_REACTORS
330
17
102
}
330
17
100
AcDbMlineStyle
  2
Standard
 70
     0
  3

 62
   256
 51
90.0
 52
90.0
 71
     2
 49
0.5
 62
   256
  6
BYLAYER
 49
-0.5
 62
   256
  6
BYLAYER
  0
ACDBPLACEHOLDER
  5
F
102
{ACAD_REACTORS
330
E
102
}
330
E
  0
SCALE
  5
48
102
{ACAD_REACTORS
330
47
102
}
330
47
100
AcDbScale
 70
     0
300
1:1
140
1.0
141
1.0
290
     1
  0
SCALE
  5
49
102
{ACAD_REACTORS
330
47
102
}
330
47
100
AcDbScale
 70
     0
300
1:2
140
1.0
141
2.0
290
     0
  0
SCALE
  5
4A
102
{ACAD_REACTORS
330
47
102
}
330
47
100
AcDbScale
 70
     0
300
1:4
140
1.0
141
4.0
290
     0
  0
SCALE
  5
4B
102
{ACAD_REACTORS
330
47
102
}
330
47
100
AcDbScale
 70
     0
300
1:5
140
1.0
141
5.0
290
     0
  0
SCALE
  5
4C
102
{ACAD_REACTORS
330
47
102
}
330
47
100
AcDbScale
 70
     0
300
1:8
140
1.0
141
8.0
290
     0
  0
SCALE
  5
4D
102
{ACAD_REACTORS
330
47
102
}
330
47
100
AcDbScale
 70
     0
300
1:10
140
1.0
141
10.0
290
     0
  0
SCALE
  5
4E
102
{ACAD_REACTORS
330
47
102
}
330
47
100
AcDbScale
 70
     0
300
1:16
140
1.0
141
16.0
290
     0
  0
SCALE
  5
4F
102
{ACAD_REACTORS
330
47
102
}
330
47
100
AcDbScale
 70
     0
300
1:20
140
1.0
141
20.0
290
     0
  0
SCALE
  5
50
102
{ACAD_REACTORS
330
47
102
}
330
47
100
AcDbScale
 70
     0
300
1:30
140
1.0
141
30.0
290
     0
  0
SCALE
  5
51
102
{ACAD_REACTORS
330
47
102
}
330
47
100
AcDbScale
 70
     0
300
1:40
140
1.0
141
40.0
290
     0
  0
SCALE
  5
52
102
{ACAD_REACTORS
330
47
102
}
330
47
100
AcDbScale
 70
     0
300
1:50
140
1.0
141
50.0
290
     0
  0
SCALE
  5
53
102
{ACAD_REACTORS
330
47
102
}
330
47
100
AcDbScale
 70
     0
300
1:100
140
1.0
141
100.0
290
     0
  0
SCALE
  5
54
102
{ACAD_REACTORS
330
47
102
}
330
47
100
AcDbScale
 70
     0
300
2:1
140
2.0
141
1.0
290
     0
  0
SCALE
  5
55
102
{ACAD_REACTORS
330
47
102
}
330
47
100
AcDbScale
 70
     0
300
4:1
140
4.0
141
1.0
290
     0
  0
SCALE
  5
56
102
{ACAD_REACTORS
330
47
102
}
330
47
100
AcDbScale
 70
     0
300
8:1
140
8.0
141
1.0
290
     0
  0
SCALE
  5
57
102
{ACAD_REACTORS
330
47
102
}
330
47
100
AcDbScale
 70
     0
300
10:1
140
10.0
141
1.0
290
     0
  0
SCALE
  5
58
102
{ACAD_REACTORS
330
47
102
}
330
47
100
AcDbScale
 70
     0
300
100:1
140
100.0
141
1.0
290
     0
  0
SCALE
  5
59
102
{ACAD_REACTORS
330
47
102
}
330
47
100
AcDbScale
 70
     0
300
1/128" = 1'-0"
140
0.0078125
141
12.0
290
     0
  0
SCALE
  5
5A
102
{ACAD_REACTORS
330
47
102
}
330
47
100
AcDbScale
 70
     0
300
1/64" = 1'-0"
140
0.015625
141
12.0
290
     0
  0
SCALE
  5
5B
102
{ACAD_REACTORS
330
47
102
}
330
47
100
AcDbScale
 70
     0
300
1/32" = 1'-0"
140
0.03125
141
12.0
290
     0
  0
SCALE
  5
5C
102
{ACAD_REACTORS
330
47
102
}
330
47
100
AcDbScale
 70
     0
300
1/16" = 1'-0"
140
0.0625
141
12.0
290
     0
  0
SCALE
  5
5D
102
{ACAD_REACTORS
330
47
102
}
330
47
100
AcDbScale
 70
     0
300
3/32" = 1'-0"
140
0.09375
141
12.0
290
     0
  0
SCALE
  5
5E
102
{ACAD_REACTORS
330
47
102
}
330
47
100
AcDbScale
 70
     0
300
1/8" = 1'-0"
140
0.125
141
12.0
290
     0
  0
SCALE
  5
5F
102
{ACAD_REACTORS
330
47
102
}
330
47
100
AcDbScale
 70
     0
300
3/16" = 1'-0"
140
0.1875
141
12.0
290
     0
  0
SCALE
  5
60
102
{ACAD_REACTORS
330
47
102
}
330
47
100
AcDbScale
 70
     0
300
1/4" = 1'-0"
140
0.25
141
12.0
290
     0
  0
SCALE
  5
61
102
{ACAD_REACTORS
330
47
102
}
330
47
100
AcDbScale
 70
     0
300
3/8" = 1'-0"
140
0.375
141
12.0
290
     0
  0
SCALE
  5
62
102
{ACAD_REACTORS
330
47
102
}
330
47
100
AcDbScale
 70
     0
300
1/2" = 1'-0"
140
0.5
141
12.0
290
     0
  0
SCALE
  5
63
102
{ACAD_REACTORS
330
47
102
}
330
47
100
AcDbScale
 70
     0
300
3/4" = 1'-0"
140
0.75
141
12.0
290
     0
  0
SCALE
  5
64
102
{ACAD_REACTORS
330
47
102
}
330
47
100
AcDbScale
 70
     0
300
1" = 1'-0"
140
1.0
141
12.0
290
     0
  0
SCALE
  5
65
102
{ACAD_REACTORS
330
47
102
}
330
47
100
AcDbScale
 70
     0
300
1-1/2" = 1'-0"
140
1.5
141
12.0
290
     0
  0
SCALE
  5
66
102
{ACAD_REACTORS
330
47
102
}
330
47
100
AcDbScale
 70
     0
300
3" = 1'-0"
140
3.0
141
12.0
290
     0
  0
SCALE
  5
67
102
{ACAD_REACTORS
330
47
102
}
330
47
100
AcDbScale
 70
     0
300
6" = 1'-0"
140
6.0
141
12.0
290
     0
  0
SCALE
  5
68
102
{ACAD_REACTORS
330
47
102
}
330
47
100
AcDbScale
 70
     0
300
1'-0" = 1'-0"
140
12.0
141
12.0
290
     0
  0
TABLESTYLE
  5
6A
102
{ACAD_REACTORS
330
69
102
}
102
{ACAD_XDICTIONARY
360
2F0
102
}
330
69
100
AcDbTableStyle
  3
Standard
 70
     0
 71
     0
 40
0.06
 41
0.06
280
     0
281
     0
  7
Standard
140
4.5
170
     2
 62
     0
 63
   257
283
     0
 90
        4
 91
        0
  1

274
    -2
284
     1
 64
     0
275
    -2
285
     1
 65
     0
276
    -2
286
     1
 66
     0
277
    -2
287
     1
 67
     0
278
    -2
288
     1
 68
     0
279
    -2
289
     1
 69
     0
  7
Standard
140
6.0
170
     5
 62
     0
 63
   257
283
     0
 90
        4
 91
        0
  1

274
    -2
284
     1
 64
     0
275
    -2
285
     1
 65
     0
276
    -2
286
     1
 66
     0
277
    -2
287
     1
 67
     0
278
    -2
288
     1
 68
     0
279
    -2
289
     1
 69
     0
  7
Standard
140
4.5
170
     5
 62
     0
 63
   257
283
     0
 90
        4
 91
        0
  1

274
    -2
284
     1
 64
     0
275
    -2
285
     1
 65
     0
276
    -2
286
     1
 66
     0
277
    -2
287
     1
 67
     0
278
    -2
288
     1
 68
     0
279
    -2
289
     1
 69
     0
  0
VISUALSTYLE
  5
2F
102
{ACAD_REACTORS
330
2A
102
}
330
2A
100
AcDbVisualStyle
  2
2dWireframe
 70
     4
177
     3
291
     0
 70
    58
 90
        0
176
     1
 90
        2
176
     1
 90
        0
176
     1
 90
        0
176
     1
 40
0.6
176
     1
 40
30.0
176
     1
 62
     7
420
 16777215
176
     1
 90
        1
176
     1
 90
        4
176
     1
 62
     7
176
     1
 62
   257
176
     1
 90
        1
176
     1
 90
        1
176
     1
 40
1.0
176
     1
 90
        0
176
     1
 62
   257
176
     1
 40
1.0
176
     1
 90
        1
176
     1
 90
        6
176
     1
 90
        2
176
     1
 62
     7
176
     1
 90
        5
176
     1
 90
        0
176
     1
 90
        0
176
     1
290
     0
176
     1
 90
        1
176
     1
 40
0.0
176
     1
 90
        0
176
     1
290
     1
176
     1
290
     1
176
     1
290
     0
176
     1
290
     0
176
     1
290
     0
176
     1
290
     0
176
     1
290
     0
176
     1
290
     0
176
     1
290
     0
176
     1
 90
       50
176
     1
 40
0.0
176
     1
 40
1.0
176
     1
 90
        0
176
     1
 62
    18
420
        0
176
     1
 90
       50
176
     1
 90
        3
176
     1
 62
     5
420
      255
176
     1
290
     0
176
     1
 90
       50
176
     1
 90
       50
176
     1
 90
       50
176
     1
290
     0
176
     1
 90
       50
176
     1
 62
   256
176
     0
 40
1.0
176
     0
 90
        2
176
     1
  1
strokes_ogs.tif
176
     1
290
     0
176
     1
 40
1.0
176
     1
 40
1.0
176
     1
  0
VISUALSTYLE
  5
32
102
{ACAD_REACTORS
330
2A
102
}
330
2A
100
AcDbVisualStyle
  2
Basic
 70
     7
177
     3
291
     1
 70
    58
 90
        1
176
     1
 90
        0
176
     1
 90
        1
176
     1
 90
        0
176
     1
 40
0.6
176
     1
 40
30.0
176
     1
 62
     7
420
 16777215
176
     1
 90
        0
176
     1
 90
        4
176
     1
 62
     7
176
     1
 62
   257
176
     1
 90
        1
176
     1
 90
        1
176
     1
 40
1.0
176
     1
 90
        8
176
     1
 62
     7
176
     1
 40
1.0
176
     1
 90
        1
176
     1
 90
        6
176
     1
 90
        2
176
     1
 62
     7
176
     1
 90
        5
176
     1
 90
        0
176
     1
 90
        0
176
     1
290
     0
176
     1
 90
        1
176
     1
 40
0.0
176
     1
 90
        0
176
     1
290
     0
176
     1
290
     1
176
     1
290
     1
176
     1
290
     0
176
     1
290
     0
176
     1
290
     0
176
     1
290
     0
176
     1
290
     0
176
     1
290
     0
176
     1
 90
       50
176
     1
 40
0.0
176
     1
 40
1.0
176
     1
 90
        0
176
     1
 62
    18
420
        0
176
     1
 90
       50
176
     1
 90
        3
176
     1
 62
     5
420
      255
176
     1
290
     0
176
     1
 90
       50
176
     1
 90
       50
176
     1
 90
       50
176
     1
290
     0
176
     1
 90
       50
176
     1
 62
   256
176
     0
 40
1.0
176
     0
 90
        2
176
     1
  1
strokes_ogs.tif
176
     1
290
     0
176
     1
 40
1.0
176
     1
 40
1.0
176
     1
  0
VISUALSTYLE
  5
36
102
{ACAD_REACTORS
330
2A
102
}
330
2A
100
AcDbVisualStyle
  2
Brighten
 70
    12
177
     3
291
     1
 70
    58
 90
        2
176
     1
 90
        2
176
     1
 90
        0
176
     1
 90
        0
176
     1
 40
0.6
176
     1
 40
30.0
176
     1
 62
     7
420
 16777215
176
     1
 90
        1
176
     1
 90
        4
176
     1
 62
     7
176
     1
 62
   257
176
     1
 90
        1
176
     1
 90
        1
176
     1
 40
1.0
176
     1
 90
        8
176
     1
 62
     7
176
     1
 40
1.0
176
     1
 90
        1
176
     1
 90
        6
176
     1
 90
        2
176
     1
 62
     7
176
     1
 90
        5
176
     1
 90
        0
176
     1
 90
        0
176
     1
290
     0
176
     1
 90
        1
176
     1
 40
50.0
176
     1
 90
        0
176
     1
290
     0
176
     1
290
     1
176
     1
290
     1
176
     1
290
     0
176
     1
290
     0
176
     1
290
     0
176
     1
290
     0
176
     1
290
     0
176
     1
290
     0
176
     1
 90
       50
176
     1
 40
0.0
176
     1
 40
1.0
176
     1
 90
        0
176
     1
 62
    18
420
        0
176
     1
 90
       50
176
     1
 90
        3
176
     1
 62
     5
420
      255
176
     1
290
     0
176
     1
 90
       50
176
     1
 90
       50
176
     1
 90
       50
176
     1
290
     0
176
     1
 90
       50
176
     1
 62
   256
176
     0
 40
1.0
176
     0
 90
        2
176
     1
  1
strokes_ogs.tif
176
     1
290
     0
176
     1
 40
1.0
176
     1
 40
1.0
176
     1
  0
VISUALSTYLE
  5
3A
102
{ACAD_REACTORS
330
2A
102
}
330
2A
100
AcDbVisualStyle
  2
ColorChange
 70
    16
177
     3
291
     1
 70
    58
 90
        2
176
     1
 90
        2
176
     1
 90
        3
176
     1
 90
        0
176
     1
 40
0.6
176
     1
 40
30.0
176
     1
 62
     8
420
  8421504
176
     1
 90
        1
176
     1
 90
        4
176
     1
 62
     7
176
     1
 62
   257
176
     1
 90
        1
176
     1
 90
        1
176
     1
 40
1.0
176
     1
 90
        8
176
     1
 62
     8
420
  8421504
176
     1
 40
1.0
176
     1
 90
        1
176
     1
 90
        6
176
     1
 90
        2
176
     1
 62
     7
176
     1
 90
        5
176
     1
 90
        0
176
     1
 90
        0
176
     1
290
     0
176
     1
 90
        1
176
     1
 40
0.0
176
     1
 90
        0
176
     1
290
     0
176
     1
290
     1
176
     1
290
     1
176
     1
290
     0
176
     1
290
     0
176
     1
290
     0
176
     1
290
     0
176
     1
290
     0
176
     1
290
     0
176
     1
 90
       50
176
     1
 40
0.0
176
     1
 40
1.0
176
     1
 90
        0
176
     1
 62
    18
420
        0
176
     1
 90
       50
176
     1
 90
        3
176
     1
 62
     5
420
      255
176
     1
290
     0
176
     1
 90
       50
176
     1
 90
       50
176
     1
 90
       50
176
     1
290
     0
176
     1
 90
       50
176
     1
 62
   256
176
     0
 40
1.0
176
     0
 90
        2
176
     1
  1
strokes_ogs.tif
176
     1
290
     0
176
     1
 40
1.0
176
     1
 40
1.0
176
     1
  0
VISUALSTYLE
  5
34
102
{ACAD_REACTORS
330
2A
102
}
330
2A
100
AcDbVisualStyle
  2
Conceptual
 70
     9
177
     3
291
     0
 70
    58
 90
        3
176
     1
 90
        2
176
     1
 90
        0
176
     1
 90
        0
176
     1
 40
0.6
176
     1
 40
30.0
176
     1
 62
     7
420
 16777215
176
     1
 90
        2
176
     1
 90
        2
176
     1
 62
     7
176
     1
 62
   257
176
     1
 90
        1
176
     1
 90
        1
176
     1
 40
179.0
176
     1
 90
        8
176
     1
 62
     7
176
     1
 40
1.0
176
     1
 90
        1
176
     1
 90
        6
176
     1
 90
        2
176
     1
 62
     7
176
     1
 90
        3
176
     1
 90
        0
176
     1
 90
        0
176
     1
290
     0
176
     1
 90
        1
176
     1
 40
0.0
176
     1
 90
        0
176
     1
290
     0
176
     1
290
     1
176
     1
290
     1
176
     1
290
     0
176
     1
290
     0
176
     1
290
     0
176
     1
290
     0
176
     1
290
     0
176
     1
290
     0
176
     1
 90
       50
176
     1
 40
0.0
176
     1
 40
1.0
176
     1
 90
        0
176
     1
 62
    18
420
        0
176
     1
 90
       50
176
     1
 90
        3
176
     1
 62
     5
420
      255
176
     1
290
     0
176
     1
 90
       50
176
     1
 90
       50
176
     1
 90
       50
176
     1
290
     0
176
     1
 90
       50
176
     1
 62
   256
176
     0
 40
1.0
176
     0
 90
        2
176
     1
  1
strokes_ogs.tif
176
     1
290
     0
176
     1
 40
1.0
176
     1
 40
1.0
176
     1
  0
VISUALSTYLE
  5
35
102
{ACAD_REACTORS
330
2A
102
}
330
2A
100
AcDbVisualStyle
  2
Dim
 70
    11
177
     3
291
     1
 70
    58
 90
        2
176
     1
 90
        2
176
     1
 90
        0
176
     1
 90
        0
176
     1
 40
0.6
176
     1
 40
30.0
176
     1
 62
     7
420
 16777215
176
     1
 90
        1
176
     1
 90
        4
176
     1
 62
     7
176
     1
 62
   257
176
     1
 90
        1
176
     1
 90
        1
176
     1
 40
1.0
176
     1
 90
        8
176
     1
 62
     7
176
     1
 40
1.0
176
     1
 90
        1
176
     1
 90
        6
176
     1
 90
        2
176
     1
 62
     7
176
     1
 90
        5
176
     1
 90
        0
176
     1
 90
        0
176
     1
290
     0
176
     1
 90
        1
176
     1
 40
-50.0
176
     1
 90
        0
176
     1
290
     0
176
     1
290
     1
176
     1
290
     1
176
     1
290
     0
176
     1
290
     0
176
     1
290
     0
176
     1
290
     0
176
     1
290
     0
176
     1
290
     0
176
     1
 90
       50
176
     1
 40
0.0
176
     1
 40
1.0
176
     1
 90
        0
176
     1
 62
    18
420
        0
176
     1
 90
       50
176
     1
 90
        3
176
     1
 62
     5
420
      255
176
     1
290
     0
176
     1
 90
       50
176
     1
 90
       50
176
     1
 90
       50
176
     1
290
     0
176
     1
 90
       50
176
     1
 62
   256
176
     0
 40
1.0
176
     0
 90
        2
176
     1
  1
strokes_ogs.tif
176
     1
290
     0
176
     1
 40
1.0
176
     1
 40
1.0
176
     1
  0
VISUALSTYLE
  5
3D
102
{ACAD_REACTORS
330
2A
102
}
330
2A
100
AcDbVisualStyle
  2
EdgeColorOff
 70
    22
177
     3
291
     1
 70
    58
 90
        2
176
     0
 90
        2
176
     0
 90
        0
176
     0
 90
        0
176
     0
 40
0.6
176
     0
 40
30.0
176
     0
 62
     7
420
 16777215
176
     0
 90
        1
176
     0
 90
        4
176
     0
 62
     7
176
     0
 62
   257
176
     0
 90
        1
176
     0
 90
        1
176
     0
 40
1.0
176
     0
 90
        8
176
     2
 62
     7
176
     0
 40
1.0
176
     0
 90
        1
176
     0
 90
        6
176
     0
 90
        2
176
     0
 62
     7
176
     0
 90
        5
176
     0
 90
        0
176
     0
 90
        0
176
     0
290
     0
176
     0
 90
        1
176
     0
 40
0.0
176
     0
 90
        0
176
     0
290
     0
176
     0
290
     1
176
     0
290
     1
176
     0
290
     0
176
     0
290
     0
176
     0
290
     0
176
     0
290
     0
176
     0
290
     0
176
     0
290
     0
176
     0
 90
       50
176
     0
 40
0.0
176
     0
 40
1.0
176
     0
 90
        0
176
     0
 62
    18
420
        0
176
     0
 90
       50
176
     0
 90
        3
176
     0
 62
     5
420
      255
176
     0
290
     0
176
     0
 90
       50
176
     0
 90
       50
176
     0
 90
       50
176
     0
290
     0
176
     0
 90
       50
176
     0
 62
   256
176
     0
 40
1.0
176
     0
 90
        2
176
     0
  1
strokes_ogs.tif
176
     0
290
     0
176
     0
 40
1.0
176
     0
 40
1.0
176
     0
  0
VISUALSTYLE
  5
39
102
{ACAD_REACTORS
330
2A
102
}
330
2A
100
AcDbVisualStyle
  2
Facepattern
 70
    15
177
     3
291
     1
 70
    58
 90
        2
176
     1
 90
        2
176
     1
 90
        0
176
     1
 90
        0
176
     1
 40
0.6
176
     1
 40
30.0
176
     1
 62
     7
420
 16777215
176
     1
 90
        1
176
     1
 90
        4
176
     1
 62
     7
176
     1
 62
   257
176
     1
 90
        1
176
     1
 90
        1
176
     1
 40
1.0
176
     1
 90
        8
176
     1
 62
     7
176
     1
 40
1.0
176
     1
 90
        1
176
     1
 90
        6
176
     1
 90
        2
176
     1
 62
     7
176
     1
 90
        5
176
     1
 90
        0
176
     1
 90
        0
176
     1
290
     0
176
     1
 90
        1
176
     1
 40
0.0
176
     1
 90
        0
176
     1
290
     0
176
     1
290
     1
176
     1
290
     1
176
     1
290
     0
176
     1
290
     0
176
     1
290
     0
176
     1
290
     0
176
     1
290
     0
176
     1
290
     0
176
     1
 90
       50
176
     1
 40
0.0
176
     1
 40
1.0
176
     1
 90
        0
176
     1
 62
    18
420
        0
176
     1
 90
       50
176
     1
 90
        3
176
     1
 62
     5
420
      255
176
     1
290
     0
176
     1
 90
       50
176
     1
 90
       50
176
     1
 90
       50
176
     1
290
     0
176
     1
 90
       50
176
     1
 62
   256
176
     0
 40
1.0
176
     0
 90
        2
176
     1
  1
strokes_ogs.tif
176
     1
290
     0
176
     1
 40
1.0
176
     1
 40
1.0
176
     1
  0
VISUALSTYLE
  5
2B
102
{ACAD_REACTORS
330
2A
102
}
330
2A
100
AcDbVisualStyle
  2
Flat
 70
     0
177
     3
291
     1
 70
    58
 90
        2
176
     1
 90
        1
176
     1
 90
        1
176
     1
 90
        2
176
     1
 40
0.6
176
     1
 40
30.0
176
     1
 62
     7
420
 16777215
176
     1
 90
        0
176
     1
 90
        0
176
     1
 62
     7
176
     1
 62
   257
176
     1
 90
        1
176
     1
 90
        1
176
     1
 40
1.0
176
     1
 90
        8
176
     1
 62
     7
176
     1
 40
1.0
176
     1
 90
        1
176
     1
 90
        6
176
     1
 90
        2
176
     1
 62
     7
176
     1
 90
        5
176
     1
 90
        0
176
     1
 90
        0
176
     1
290
     0
176
     1
 90
       13
176
     1
 40
0.0
176
     1
 90
        0
176
     1
290
     0
176
     1
290
     1
176
     1
290
     1
176
     1
290
     0
176
     1
290
     0
176
     1
290
     0
176
     1
290
     0
176
     1
290
     0
176
     1
290
     0
176
     1
 90
       50
176
     1
 40
0.0
176
     1
 40
1.0
176
     1
 90
        0
176
     1
 62
    18
420
        0
176
     1
 90
       50
176
     1
 90
        3
176
     1
 62
     5
420
      255
176
     1
290
     0
176
     1
 90
       50
176
     1
 90
       50
176
     1
 90
       50
176
     1
290
     0
176
     1
 90
       50
176
     1
 62
   256
176
     0
 40
1.0
176
     0
 90
        2
176
     1
  1
strokes_ogs.tif
176
     1
290
     0
176
     1
 40
1.0
176
     1
 40
1.0
176
     1
  0
VISUALSTYLE
  5
2C
102
{ACAD_REACTORS
330
2A
102
}
330
2A
100
AcDbVisualStyle
  2
FlatWithEdges
 70
     1
177
     3
291
     1
 70
    58
 90
        2
176
     1
 90
        1
176
     1
 90
        1
176
     1
 90
        2
176
     1
 40
0.6
176
     1
 40
30.0
176
     1
 62
     7
420
 16777215
176
     1
 90
        1
176
     1
 90
        0
176
     1
 62
     7
176
     1
 62
   257
176
     1
 90
        1
176
     1
 90
        1
176
     1
 40
1.0
176
     1
 90
        0
176
     1
 62
   257
176
     1
 40
1.0
176
     1
 90
        1
176
     1
 90
        6
176
     1
 90
        2
176
     1
 62
     7
176
     1
 90
        5
176
     1
 90
        0
176
     1
 90
        0
176
     1
290
     0
176
     1
 90
       13
176
     1
 40
0.0
176
     1
 90
        0
176
     1
290
     0
176
     1
290
     1
176
     1
290
     1
176
     1
290
     0
176
     1
290
     0
176
     1
290
     0
176
     1
290
     0
176
     1
290
     0
176
     1
290
     0
176
     1
 90
       50
176
     1
 40
0.0
176
     1
 40
1.0
176
     1
 90
        0
176
     1
 62
    18
420
        0
176
     1
 90
       50
176
     1
 90
        3
176
     1
 62
     5
420
      255
176
     1
290
     0
176
     1
 90
       50
176
     1
 90
       50
176
     1
 90
       50
176
     1
290
     0
176
     1
 90
       50
176
     1
 62
   256
176
     0
 40
1.0
176
     0
 90
        2
176
     1
  1
strokes_ogs.tif
176
     1
290
     0
176
     1
 40
1.0
176
     1
 40
1.0
176
     1
  0
VISUALSTYLE
  5
2D
102
{ACAD_REACTORS
330
2A
102
}
330
2A
100
AcDbVisualStyle
  2
Gouraud
 70
     2
177
     3
291
     1
 70
    58
 90
        2
176
     1
 90
        2
176
     1
 90
        1
176
     1
 90
        2
176
     1
 40
0.6
176
     1
 40
30.0
176
     1
 62
     7
420
 16777215
176
     1
 90
        0
176
     1
 90
        0
176
     1
 62
     7
176
     1
 62
   257
176
     1
 90
        1
176
     1
 90
        1
176
     1
 40
1.0
176
     1
 90
        0
176
     1
 62
     7
176
     1
 40
1.0
176
     1
 90
        1
176
     1
 90
        6
176
     1
 90
        2
176
     1
 62
     7
176
     1
 90
        5
176
     1
 90
        0
176
     1
 90
        0
176
     1
290
     0
176
     1
 90
       13
176
     1
 40
0.0
176
     1
 90
        0
176
     1
290
     0
176
     1
290
     1
176
     1
290
     1
176
     1
290
     0
176
     1
290
     0
176
     1
290
     0
176
     1
290
     0
176
     1
290
     0
176
     1
290
     0
176
     1
 90
       50
176
     1
 40
0.0
176
     1
 40
1.0
176
     1
 90
        0
176
     1
 62
    18
420
        0
176
     1
 90
       50
176
     1
 90
        3
176
     1
 62
     5
420
      255
176
     1
290
     0
176
     1
 90
       50
176
     1
 90
       50
176
     1
 90
       50
176
     1
290
     0
176
     1
 90
       50
176
     1
 62
   256
176
     0
 40
1.0
176
     0
 90
        2
176
     1
  1
strokes_ogs.tif
176
     1
290
     0
176
     1
 40
1.0
176
     1
 40
1.0
176
     1
  0
VISUALSTYLE
  5
2E
102
{ACAD_REACTORS
330
2A
102
}
330
2A
100
AcDbVisualStyle
  2
GouraudWithEdges
 70
     3
177
     3
291
     1
 70
    58
 90
        2
176
     1
 90
        2
176
     1
 90
        1
176
     1
 90
        2
176
     1
 40
0.6
176
     1
 40
30.0
176
     1
 62
     7
420
 16777215
176
     1
 90
        1
176
     1
 90
        0
176
     1
 62
     7
176
     1
 62
   257
176
     1
 90
        1
176
     1
 90
        1
176
     1
 40
1.0
176
     1
 90
        0
176
     1
 62
   257
176
     1
 40
1.0
176
     1
 90
        1
176
     1
 90
        6
176
     1
 90
        2
176
     1
 62
     7
176
     1
 90
        5
176
     1
 90
        0
176
     1
 90
        0
176
     1
290
     0
176
     1
 90
       13
176
     1
 40
0.0
176
     1
 90
        0
176
     1
290
     0
176
     1
290
     1
176
     1
290
     1
176
     1
290
     0
176
     1
290
     0
176
     1
290
     0
176
     1
290
     0
176
     1
290
     0
176
     1
290
     0
176
     1
 90
       50
176
     1
 40
0.0
176
     1
 40
1.0
176
     1
 90
        0
176
     1
 62
    18
420
        0
176
     1
 90
       50
176
     1
 90
        3
176
     1
 62
     5
420
      255
176
     1
290
     0
176
     1
 90
       50
176
     1
 90
       50
176
     1
 90
       50
176
     1
290
     0
176
     1
 90
       50
176
     1
 62
   256
176
     0
 40
1.0
176
     0
 90
        2
176
     1
  1
strokes_ogs.tif
176
     1
290
     0
176
     1
 40
1.0
176
     1
 40
1.0
176
     1
  0
VISUALSTYLE
  5
31
102
{ACAD_REACTORS
330
2A
102
}
330
2A
100
AcDbVisualStyle
  2
Hidden
 70
     6
177
     3
291
     0
 70
    58
 90
        1
176
     1
 90
        2
176
     1
 90
        2
176
     1
 90
        0
176
     1
 40
0.6
176
     1
 40
30.0
176
     1
 62
     7
420
 16777215
176
     1
 90
        2
176
     1
 90
        2
176
     1
 62
     7
176
     1
 62
   257
176
     1
 90
        2
176
     1
 90
        1
176
     1
 40
40.0
176
     1
 90
        0
176
     1
 62
   257
176
     1
 40
1.0
176
     1
 90
        1
176
     1
 90
        6
176
     1
 90
        2
176
     1
 62
     7
176
     1
 90
        3
176
     1
 90
        0
176
     1
 90
        0
176
     1
290
     0
176
     1
 90
        1
176
     1
 40
0.0
176
     1
 90
        0
176
     1
290
     0
176
     1
290
     1
176
     1
290
     1
176
     1
290
     0
176
     1
290
     0
176
     1
290
     0
176
     1
290
     0
176
     1
290
     0
176
     1
290
     0
176
     1
 90
       50
176
     1
 40
0.0
176
     1
 40
1.0
176
     1
 90
        0
176
     1
 62
    18
420
        0
176
     1
 90
       50
176
     1
 90
        3
176
     1
 62
     5
420
      255
176
     1
290
     0
176
     1
 90
       50
176
     1
 90
       50
176
     1
 90
       50
176
     1
290
     0
176
     1
 90
       50
176
     1
 62
   256
176
     0
 40
1.0
176
     0
 90
        2
176
     1
  1
strokes_ogs.tif
176
     1
290
     0
176
     1
 40
1.0
176
     1
 40
1.0
176
     1
  0
VISUALSTYLE
  5
3B
102
{ACAD_REACTORS
330
2A
102
}
330
2A
100
AcDbVisualStyle
  2
JitterOff
 70
    20
177
     3
291
     1
 70
    58
 90
        2
176
     0
 90
        2
176
     0
 90
        0
176
     0
 90
        0
176
     0
 40
0.6
176
     0
 40
30.0
176
     0
 62
     7
420
 16777215
176
     0
 90
        1
176
     0
 90
        4
176
     0
 62
     7
176
     0
 62
   257
176
     0
 90
        1
176
     0
 90
        1
176
     0
 40
1.0
176
     0
 90
       10
176
     2
 62
     7
176
     0
 40
1.0
176
     0
 90
        1
176
     0
 90
        6
176
     0
 90
        2
176
     0
 62
     7
176
     0
 90
        5
176
     0
 90
        0
176
     0
 90
        0
176
     0
290
     0
176
     0
 90
        1
176
     0
 40
0.0
176
     0
 90
        0
176
     0
290
     0
176
     0
290
     1
176
     0
290
     1
176
     0
290
     0
176
     0
290
     0
176
     0
290
     0
176
     0
290
     0
176
     0
290
     0
176
     0
290
     0
176
     0
 90
       50
176
     0
 40
0.0
176
     0
 40
1.0
176
     0
 90
        0
176
     0
 62
    18
420
        0
176
     0
 90
       50
176
     0
 90
        3
176
     0
 62
     5
420
      255
176
     0
290
     0
176
     0
 90
       50
176
     0
 90
       50
176
     0
 90
       50
176
     0
290
     0
176
     0
 90
       50
176
     0
 62
   256
176
     0
 40
1.0
176
     0
 90
        2
176
     0
  1
strokes_ogs.tif
176
     0
290
     0
176
     0
 40
1.0
176
     0
 40
1.0
176
     0
  0
VISUALSTYLE
  5
38
102
{ACAD_REACTORS
330
2A
102
}
330
2A
100
AcDbVisualStyle
  2
Linepattern
 70
    14
177
     3
291
     1
 70
    58
 90
        2
176
     1
 90
        2
176
     1
 90
        0
176
     1
 90
        0
176
     1
 40
0.6
176
     1
 40
30.0
176
     1
 62
     7
420
 16777215
176
     1
 90
        1
176
     1
 90
        4
176
     1
 62
     7
176
     1
 62
   257
176
     1
 90
        7
176
     1
 90
        7
176
     1
 40
1.0
176
     1
 90
        8
176
     1
 62
     7
176
     1
 40
1.0
176
     1
 90
        1
176
     1
 90
        6
176
     1
 90
        2
176
     1
 62
     7
176
     1
 90
        5
176
     1
 90
        0
176
     1
 90
        0
176
     1
290
     0
176
     1
 90
        1
176
     1
 40
0.0
176
     1
 90
        0
176
     1
290
     0
176
     1
290
     1
176
     1
290
     1
176
     1
290
     0
176
     1
290
     0
176
     1
290
     0
176
     1
290
     0
176
     1
290
     0
176
     1
290
     0
176
     1
 90
       50
176
     1
 40
0.0
176
     1
 40
1.0
176
     1
 90
        0
176
     1
 62
    18
420
        0
176
     1
 90
       50
176
     1
 90
        3
176
     1
 62
     5
420
      255
176
     1
290
     0
176
     1
 90
       50
176
     1
 90
       50
176
     1
 90
       50
176
     1
290
     0
176
     1
 90
       50
176
     1
 62
   256
176
     0
 40
1.0
176
     0
 90
        2
176
     1
  1
strokes_ogs.tif
176
     1
290
     0
176
     1
 40
1.0
176
     1
 40
1.0
176
     1
  0
VISUALSTYLE
  5
3C
102
{ACAD_REACTORS
330
2A
102
}
330
2A
100
AcDbVisualStyle
  2
OverhangOff
 70
    21
177
     3
291
     1
 70
    58
 90
        2
176
     0
 90
        2
176
     0
 90
        0
176
     0
 90
        0
176
     0
 40
0.6
176
     0
 40
30.0
176
     0
 62
     7
420
 16777215
176
     0
 90
        1
176
     0
 90
        4
176
     0
 62
     7
176
     0
 62
   257
176
     0
 90
        1
176
     0
 90
        1
176
     0
 40
1.0
176
     0
 90
        9
176
     2
 62
     7
176
     0
 40
1.0
176
     0
 90
        1
176
     0
 90
        6
176
     0
 90
        2
176
     0
 62
     7
176
     0
 90
        5
176
     0
 90
        0
176
     0
 90
        0
176
     0
290
     0
176
     0
 90
        1
176
     0
 40
0.0
176
     0
 90
        0
176
     0
290
     0
176
     0
290
     1
176
     0
290
     1
176
     0
290
     0
176
     0
290
     0
176
     0
290
     0
176
     0
290
     0
176
     0
290
     0
176
     0
290
     0
176
     0
 90
       50
176
     0
 40
0.0
176
     0
 40
1.0
176
     0
 90
        0
176
     0
 62
    18
420
        0
176
     0
 90
       50
176
     0
 90
        3
176
     0
 62
     5
420
      255
176
     0
290
     0
176
     0
 90
       50
176
     0
 90
       50
176
     0
 90
       50
176
     0
290
     0
176
     0
 90
       50
176
     0
 62
   256
176
     0
 40
1.0
176
     0
 90
        2
176
     0
  1
strokes_ogs.tif
176
     0
290
     0
176
     0
 40
1.0
176
     0
 40
1.0
176
     0
  0
VISUALSTYLE
  5
33
102
{ACAD_REACTORS
330
2A
102
}
330
2A
100
AcDbVisualStyle
  2
Realistic
 70
     8
177
     3
291
     0
 70
    58
 90
        2
176
     1
 90
        3
176
     1
 90
        0
176
     1
 90
        2
176
     1
 40
0.6
176
     1
 40
30.0
176
     1
 62
     7
420
 16777215
176
     1
 90
        0
176
     1
 90
        0
176
     1
 62
     7
176
     1
 62
   257
176
     1
 90
        1
176
     1
 90
        1
176
     1
 40
1.0
176
     1
 90
        8
176
     1
 62
   257
176
     1
 40
1.0
176
     1
 90
        1
176
     1
 90
        6
176
     1
 90
        2
176
     1
 62
     7
176
     1
 90
        3
176
     1
 90
        0
176
     1
 90
        0
176
     1
290
     0
176
     1
 90
       13
176
     1
 40
0.0
176
     1
 90
        0
176
     1
290
     0
176
     1
290
     1
176
     1
290
     1
176
     1
290
     0
176
     1
290
     0
176
     1
290
     0
176
     1
290
     0
176
     1
290
     0
176
     1
290
     0
176
     1
 90
       50
176
     1
 40
0.0
176
     1
 40
1.0
176
     1
 90
        0
176
     1
 62
    18
420
        0
176
     1
 90
       50
176
     1
 90
        3
176
     1
 62
     5
420
      255
176
     1
290
     0
176
     1
 90
       50
176
     1
 90
       50
176
     1
 90
       50
176
     1
290
     0
176
     1
 90
       50
176
     1
 62
   256
176
     0
 40
1.0
176
     0
 90
        2
176
     1
  1
strokes_ogs.tif
176
     1
290
     0
176
     1
 40
1.0
176
     1
 40
1.0
176
     1
  0
VISUALSTYLE
  5
42
102
{ACAD_REACTORS
330
2A
102
}
330
2A
100
AcDbVisualStyle
  2
Shaded
 70
    27
177
     3
291
     0
 70
    58
 90
        2
176
     1
 90
        2
176
     1
 90
        1
176
     1
 90
        2
176
     1
 40
0.6
176
     1
 40
30.0
176
     1
 62
     7
420
 16777215
176
     1
 90
        0
176
     1
 90
        4
176
     1
 62
     7
176
     1
 62
   257
176
     1
 90
        1
176
     1
 90
        1
176
     1
 40
1.0
176
     1
 90
        8
176
     1
 62
   257
176
     1
 40
1.0
176
     1
 90
        1
176
     1
 90
        6
176
     1
 90
        2
176
     1
 62
     8
420
  7895160
176
     1
 90
        3
176
     1
 90
        0
176
     1
 90
        0
176
     1
290
     0
176
     1
 90
        5
176
     1
 40
0.0
176
     1
 90
        0
176
     1
290
     0
176
     1
290
     1
176
     1
290
     1
176
     1
290
     0
176
     1
290
     0
176
     1
290
     0
176
     1
290
     0
176
     1
290
     0
176
     1
290
     0
176
     1
 90
       50
176
     1
 40
0.0
176
     1
 40
1.0
176
     1
 90
        0
176
     1
 62
    18
420
        0
176
     1
 90
       50
176
     1
 90
        3
176
     1
 62
     5
420
      255
176
     1
290
     0
176
     1
 90
       50
176
     1
 90
       50
176
     1
 90
       50
176
     1
290
     0
176
     1
 90
       50
176
     1
 62
   256
176
     0
 40
1.0
176
     0
 90
        2
176
     1
  1
strokes_ogs.tif
176
     1
290
     0
176
     1
 40
1.0
176
     1
 40
1.0
176
     1
  0
VISUALSTYLE
  5
41
102
{ACAD_REACTORS
330
2A
102
}
330
2A
100
AcDbVisualStyle
  2
Shaded with edges
 70
    26
177
     3
291
     0
 70
    58
 90
        2
176
     1
 90
        2
176
     1
 90
        1
176
     1
 90
        2
176
     1
 40
0.6
176
     1
 40
30.0
176
     1
 62
     7
420
 16777215
176
     1
 90
        1
176
     1
 90
       10
176
     1
 62
     7
176
     1
 62
   257
176
     1
 90
        2
176
     1
 90
        1
176
     1
 40
1.0
176
     1
 90
        8
176
     1
 62
   257
176
     1
 40
1.0
176
     1
 90
        1
176
     1
 90
        6
176
     1
 90
        2
176
     1
 62
     7
176
     1
 90
        3
176
     1
 90
        0
176
     1
 90
        0
176
     1
290
     0
176
     1
 90
        5
176
     1
 40
0.0
176
     1
 90
        0
176
     1
290
     0
176
     1
290
     1
176
     1
290
     1
176
     1
290
     0
176
     1
290
     0
176
     1
290
     0
176
     1
290
     0
176
     1
290
     0
176
     1
290
     0
176
     1
 90
       50
176
     1
 40
0.0
176
     1
 40
1.0
176
     1
 90
        0
176
     1
 62
    18
420
        0
176
     1
 90
       50
176
     1
 90
        3
176
     1
 62
     5
420
      255
176
     1
290
     0
176
     1
 90
       50
176
     1
 90
       50
176
     1
 90
       50
176
     1
290
     0
176
     1
 90
       50
176
     1
 62
   256
176
     0
 40
1.0
176
     0
 90
        2
176
     1
  1
strokes_ogs.tif
176
     1
290
     0
176
     1
 40
1.0
176
     1
 40
1.0
176
     1
  0
VISUALSTYLE
  5
3E
102
{ACAD_REACTORS
330
2A
102
}
330
2A
100
AcDbVisualStyle
  2
Shades of Gray
 70
    23
177
     3
291
     0
 70
    58
 90
        2
176
     1
 90
        2
176
     1
 90
        3
176
     1
 90
        0
176
     1
 40
0.6
176
     1
 40
30.0
176
     1
 62
     7
420
 16777215
176
     1
 90
        2
176
     1
 90
        2
176
     1
 62
     7
176
     1
 62
     7
176
     1
 90
        1
176
     1
 90
        1
176
     1
 40
40.0
176
     1
 90
        8
176
     1
 62
     7
176
     1
 40
1.0
176
     1
 90
        1
176
     1
 90
        6
176
     1
 90
        2
176
     1
 62
     7
176
     1
 90
        3
176
     1
 90
        0
176
     1
 90
        0
176
     1
290
     0
176
     1
 90
        1
176
     1
 40
0.0
176
     1
 90
        0
176
     1
290
     0
176
     1
290
     1
176
     1
290
     1
176
     1
290
     0
176
     1
290
     0
176
     1
290
     0
176
     1
290
     0
176
     1
290
     0
176
     1
290
     0
176
     1
 90
       50
176
     1
 40
0.0
176
     1
 40
1.0
176
     1
 90
        0
176
     1
 62
    18
420
        0
176
     1
 90
       50
176
     1
 90
        3
176
     1
 62
     5
420
      255
176
     1
290
     0
176
     1
 90
       50
176
     1
 90
       50
176
     1
 90
       50
176
     1
290
     0
176
     1
 90
       50
176
     1
 62
   256
176
     0
 40
1.0
176
     0
 90
        2
176
     1
  1
strokes_ogs.tif
176
     1
290
     0
176
     1
 40
1.0
176
     1
 40
1.0
176
     1
  0
VISUALSTYLE
  5
3F
102
{ACAD_REACTORS
330
2A
102
}
330
2A
100
AcDbVisualStyle
  2
Sketchy
 70
    24
177
     3
291
     0
 70
    58
 90
        1
176
     1
 90
        2
176
     1
 90
        2
176
     1
 90
        0
176
     1
 40
0.6
176
     1
 40
30.0
176
     1
 62
     7
420
 16777215
176
     1
 90
        2
176
     1
 90
        2
176
     1
 62
     7
176
     1
 62
     7
176
     1
 90
        1
176
     1
 90
        1
176
     1
 40
40.0
176
     1
 90
       11
176
     1
 62
     7
176
     1
 40
1.0
176
     1
 90
        1
176
     1
 90
        6
176
     1
 90
        2
176
     1
 62
     7
176
     1
 90
        6
176
     1
 90
        0
176
     1
 90
        0
176
     1
290
     0
176
     1
 90
        1
176
     1
 40
0.0
176
     1
 90
        0
176
     1
290
     0
176
     1
290
     1
176
     1
290
     1
176
     1
290
     0
176
     1
290
     0
176
     1
290
     0
176
     1
290
     0
176
     1
290
     0
176
     1
290
     0
176
     1
 90
       50
176
     1
 40
0.0
176
     1
 40
1.0
176
     1
 90
        0
176
     1
 62
    18
420
        0
176
     1
 90
       50
176
     1
 90
        3
176
     1
 62
     5
420
      255
176
     1
290
     0
176
     1
 90
       50
176
     1
 90
       50
176
     1
 90
       50
176
     1
290
     0
176
     1
 90
       50
176
     1
 62
   256
176
     0
 40
1.0
176
     0
 90
        2
176
     1
  1
strokes_ogs.tif
176
     1
290
     0
176
     1
 40
1.0
176
     1
 40
1.0
176
     1
  0
VISUALSTYLE
  5
37
102
{ACAD_REACTORS
330
2A
102
}
330
2A
100
AcDbVisualStyle
  2
Thicken
 70
    13
177
     3
291
     1
 70
    58
 90
        2
176
     1
 90
        2
176
     1
 90
        0
176
     1
 90
        0
176
     1
 40
0.6
176
     1
 40
30.0
176
     1
 62
     7
420
 16777215
176
     1
 90
        1
176
     1
 90
        4
176
     1
 62
     7
176
     1
 62
   257
176
     1
 90
        1
176
     1
 90
        1
176
     1
 40
1.0
176
     1
 90
       12
176
     1
 62
     7
176
     1
 40
1.0
176
     1
 90
        1
176
     1
 90
        6
176
     1
 90
        2
176
     1
 62
     7
176
     1
 90
        5
176
     1
 90
        0
176
     1
 90
        0
176
     1
290
     0
176
     1
 90
        1
176
     1
 40
0.0
176
     1
 90
        0
176
     1
290
     0
176
     1
290
     1
176
     1
290
     1
176
     1
290
     0
176
     1
290
     0
176
     1
290
     0
176
     1
290
     0
176
     1
290
     0
176
     1
290
     0
176
     1
 90
       50
176
     1
 40
0.0
176
     1
 40
1.0
176
     1
 90
        0
176
     1
 62
    18
420
        0
176
     1
 90
       50
176
     1
 90
        3
176
     1
 62
     5
420
      255
176
     1
290
     0
176
     1
 90
       50
176
     1
 90
       50
176
     1
 90
       50
176
     1
290
     0
176
     1
 90
       50
176
     1
 62
   256
176
     0
 40
1.0
176
     0
 90
        2
176
     1
  1
strokes_ogs.tif
176
     1
290
     0
176
     1
 40
1.0
176
     1
 40
1.0
176
     1
  0
VISUALSTYLE
  5
30
102
{ACAD_REACTORS
330
2A
102
}
330
2A
100
AcDbVisualStyle
  2
Wireframe
 70
     5
177
     3
291
     0
 70
    58
 90
        0
176
     1
 90
        2
176
     1
 90
        0
176
     1
 90
        0
176
     1
 40
0.6
176
     1
 40
30.0
176
     1
 62
     7
420
 16777215
176
     1
 90
        1
176
     1
 90
        4
176
     1
 62
     7
176
     1
 62
   257
176
     1
 90
        1
176
     1
 90
        1
176
     1
 40
1.0
176
     1
 90
        0
176
     1
 62
   257
176
     1
 40
1.0
176
     1
 90
        1
176
     1
 90
        6
176
     1
 90
        2
176
     1
 62
     7
176
     1
 90
        3
176
     1
 90
        0
176
     1
 90
        0
176
     1
290
     0
176
     1
 90
        1
176
     1
 40
0.0
176
     1
 90
        0
176
     1
290
     0
176
     1
290
     1
176
     1
290
     1
176
     1
290
     0
176
     1
290
     0
176
     1
290
     0
176
     1
290
     0
176
     1
290
     0
176
     1
290
     0
176
     1
 90
       50
176
     1
 40
0.0
176
     1
 40
1.0
176
     1
 90
        0
176
     1
 62
    18
420
        0
176
     1
 90
       50
176
     1
 90
        3
176
     1
 62
     5
420
      255
176
     1
290
     0
176
     1
 90
       50
176
     1
 90
       50
176
     1
 90
       50
176
     1
290
     0
176
     1
 90
       50
176
     1
 62
   256
176
     0
 40
1.0
176
     0
 90
        2
176
     1
  1
strokes_ogs.tif
176
     1
290
     0
176
     1
 40
1.0
176
     1
 40
1.0
176
     1
  0
VISUALSTYLE
  5
40
102
{ACAD_REACTORS
330
2A
102
}
330
2A
100
AcDbVisualStyle
  2
X-Ray
 70
    25
177
     3
291
     0
 70
    58
 90
        2
176
     1
 90
        2
176
     1
 90
        1
176
     1
 90
        1
176
     1
 40
0.5
176
     1
 40
30.0
176
     1
 62
     7
420
 16777215
176
     1
 90
        1
176
     1
 90
        0
176
     1
 62
     7
176
     1
 62
   257
176
     1
 90
        1
176
     1
 90
        1
176
     1
 40
1.0
176
     1
 90
        8
176
     1
 62
     7
176
     1
 40
1.0
176
     1
 90
        1
176
     1
 90
        6
176
     1
 90
        2
176
     1
 62
     7
176
     1
 90
        3
176
     1
 90
        0
176
     1
 90
        0
176
     1
290
     0
176
     1
 90
       13
176
     1
 40
0.0
176
     1
 90
        0
176
     1
290
     0
176
     1
290
     1
176
     1
290
     1
176
     1
290
     0
176
     1
290
     0
176
     1
290
     0
176
     1
290
     0
176
     1
290
     0
176
     1
290
     0
176
     1
 90
       50
176
     1
 40
0.0
176
     1
 40
1.0
176
     1
 90
        0
176
     1
 62
    18
420
        0
176
     1
 90
       50
176
     1
 90
        3
176
     1
 62
     5
420
      255
176
     1
290
     0
176
     1
 90
       50
176
     1
 90
       50
176
     1
 90
       50
176
     1
290
     0
176
     1
 90
       50
176
     1
 62
   256
176
     0
 40
1.0
176
     0
 90
        2
176
     1
  1
strokes_ogs.tif
176
     1
290
     0
176
     1
 40
1.0
176
     1
 40
1.0
176
     1
  0
DICTIONARYVAR
  5
2EF
102
{ACAD_REACTORS
330
2EE
102
}
330
2EE
100
DictionaryVariables
280
     0
  1
1:1
  0
DICTIONARYVAR
  5
2F4
102
{ACAD_REACTORS
330
2EE
102
}
330
2EE
100
DictionaryVariables
280
     0
  1
Standard
  0
DICTIONARYVAR
  5
2F3
102
{ACAD_REACTORS
330
2EE
102
}
330
2EE
100
DictionaryVariables
280
     0
  1
Standard
  0
DICTIONARY
  5
2F0
330
6A
100
AcDbDictionary
280
     1
281
     1
  3
ACAD_ROUNDTRIP_2008_TABLESTYLE_CELLSTYLEMAP
360
2F1
  0
CELLSTYLEMAP
  5
2F1
102
{ACAD_REACTORS
330
2F0
102
}
330
2F0
100
AcDbCellStyleMap
 90
        3
300
CELLSTYLE
  1
TABLEFORMAT_BEGIN
 90
        5
170
     1
 91
        0
 92
    32768
 62
   257
 93
        1
300
CONTENTFORMAT
  1
CONTENTFORMAT_BEGIN
 90
        0
 91
        0
 92
        4
 93
        0
300

 40
0.0
140
1.0
 94
        5
 62
     0
340
11
144
6.0
309
CONTENTFORMAT_END
171
     1
301
MARGIN
  1
CELLMARGIN_BEGIN
 40
1.5
 40
1.5
 40
1.5
 40
1.5
 40
1.5
 40
1.5
309
CELLMARGIN_END
 94
        6
 95
        1
302
GRIDFORMAT
  1
GRIDFORMAT_BEGIN
 90
        0
 91
        1
 62
     0
 92
       -2
340
14
 93
        0
 40
0.045
309
GRIDFORMAT_END
 95
        2
302
GRIDFORMAT
  1
GRIDFORMAT_BEGIN
 90
        0
 91
        1
 62
     0
 92
       -2
340
14
 93
        0
 40
0.045
309
GRIDFORMAT_END
 95
        4
302
GRIDFORMAT
  1
GRIDFORMAT_BEGIN
 90
        0
 91
        1
 62
     0
 92
       -2
340
14
 93
        0
 40
0.045
309
GRIDFORMAT_END
 95
        8
302
GRIDFORMAT
  1
GRIDFORMAT_BEGIN
 90
        0
 91
        1
 62
     0
 92
       -2
340
14
 93
        0
 40
0.045
309
GRIDFORMAT_END
 95
       16
302
GRIDFORMAT
  1
GRIDFORMAT_BEGIN
 90
        0
 91
        1
 62
     0
 92
       -2
340
14
 93
        0
 40
0.045
309
GRIDFORMAT_END
 95
       32
302
GRIDFORMAT
  1
GRIDFORMAT_BEGIN
 90
        0
 91
        1
 62
     0
 92
       -2
340
14
 93
        0
 40
0.045
309
GRIDFORMAT_END
309
TABLEFORMAT_END
  1
CELLSTYLE_BEGIN
 90
        1
 91
        1
300
_TITLE
309
CELLSTYLE_END
300
CELLSTYLE
  1
TABLEFORMAT_BEGIN
 90
        5
170
     1
 91
        0
 92
        0
 62
   257
 93
        1
300
CONTENTFORMAT
  1
CONTENTFORMAT_BEGIN
 90
        0
 91
        0
 92
        4
 93
        0
300

 40
0.0
140
1.0
 94
        5
 62
     0
340
11
144
4.5
309
CONTENTFORMAT_END
171
     1
301
MARGIN
  1
CELLMARGIN_BEGIN
 40
1.5
 40
1.5
 40
1.5
 40
1.5
 40
1.5
 40
1.5
309
CELLMARGIN_END
 94
        6
 95
        1
302
GRIDFORMAT
  1
GRIDFORMAT_BEGIN
 90
        0
 91
        1
 62
     0
 92
       -2
340
14
 93
        0
 40
0.045
309
GRIDFORMAT_END
 95
        2
302
GRIDFORMAT
  1
GRIDFORMAT_BEGIN
 90
        0
 91
        1
 62
     0
 92
       -2
340
14
 93
        0
 40
0.045
309
GRIDFORMAT_END
 95
        4
302
GRIDFORMAT
  1
GRIDFORMAT_BEGIN
 90
        0
 91
        1
 62
     0
 92
       -2
340
14
 93
        0
 40
0.045
309
GRIDFORMAT_END
 95
        8
302
GRIDFORMAT
  1
GRIDFORMAT_BEGIN
 90
        0
 91
        1
 62
     0
 92
       -2
340
14
 93
        0
 40
0.045
309
GRIDFORMAT_END
 95
       16
302
GRIDFORMAT
  1
GRIDFORMAT_BEGIN
 90
        0
 91
        1
 62
     0
 92
       -2
340
14
 93
        0
 40
0.045
309
GRIDFORMAT_END
 95
       32
302
GRIDFORMAT
  1
GRIDFORMAT_BEGIN
 90
        0
 91
        1
 62
     0
 92
       -2
340
14
 93
        0
 40
0.045
309
GRIDFORMAT_END
309
TABLEFORMAT_END
  1
CELLSTYLE_BEGIN
 90
        2
 91
        1
300
_HEADER
309
CELLSTYLE_END
300
CELLSTYLE
  1
TABLEFORMAT_BEGIN
 90
        5
170
     1
 91
        0
 92
        0
 62
   257
 93
        1
300
CONTENTFORMAT
  1
CONTENTFORMAT_BEGIN
 90
        0
 91
        0
 92
        4
 93
        0
300

 40
0.0
140
1.0
 94
        2
 62
     0
340
11
144
4.5
309
CONTENTFORMAT_END
171
     1
301
MARGIN
  1
CELLMARGIN_BEGIN
 40
1.5
 40
1.5
 40
1.5
 40
1.5
 40
1.5
 40
1.5
309
CELLMARGIN_END
 94
        6
 95
        1
302
GRIDFORMAT
  1
GRIDFORMAT_BEGIN
 90
        0
 91
        1
 62
     0
 92
       -2
340
14
 93
        0
 40
0.045
309
GRIDFORMAT_END
 95
        2
302
GRIDFORMAT
  1
GRIDFORMAT_BEGIN
 90
        0
 91
        1
 62
     0
 92
       -2
340
14
 93
        0
 40
0.045
309
GRIDFORMAT_END
 95
        4
302
GRIDFORMAT
  1
GRIDFORMAT_BEGIN
 90
        0
 91
        1
 62
     0
 92
       -2
340
14
 93
        0
 40
0.045
309
GRIDFORMAT_END
 95
        8
302
GRIDFORMAT
  1
GRIDFORMAT_BEGIN
 90
        0
 91
        1
 62
     0
 92
       -2
340
14
 93
        0
 40
0.045
309
GRIDFORMAT_END
 95
       16
302
GRIDFORMAT
  1
GRIDFORMAT_BEGIN
 90
        0
 91
        1
 62
     0
 92
       -2
340
14
 93
        0
 40
0.045
309
GRIDFORMAT_END
 95
       32
302
GRIDFORMAT
  1
GRIDFORMAT_BEGIN
 90
        0
 91
        1
 62
     0
 92
       -2
340
14
 93
        0
 40
0.045
309
GRIDFORMAT_END
309
TABLEFORMAT_END
  1
CELLSTYLE_BEGIN
 90
        3
 91
        2
300
_DATA
309
CELLSTYLE_END
  0
ENDSEC
  0
EOF