0
SECTION
  2
HEADER
  9
$ACADVER
  1
AC1027
  9
$ACADMAINTVER
 70
     8
  9
$DWGCODEPAGE
  3
ANSI_1252
  9
$REQUIREDVERSIONS
160
                 0
  9
$COMMENTS
  1
File was created by Cadenas
  9
$CUSTOMPROPERTYTAG
  1
NN
  9
$CUSTOMPROPERTY
  1
Grip Tight Two-Bolt Pillow Block - Polymer Housing, Corrision Resistant Insert Metric Bore
  9
$CUSTOMPROPERTYTAG
  1
NT
  9
$CUSTOMPROPERTY
  1
GTEZ Normal Duty Polymer Housed Pillow Blocks
  9
$CUSTOMPROPERTYTAG
  1
NB
  9
$CUSTOMPROPERTY
  1
129257
  9
$CUSTOMPROPERTYTAG
  1
NBSYN
  9
$CUSTOMPROPERTY
  1
$PN.$LUBE.
  9
$CUSTOMPROPERTYTAG
  1
LINA
  9
$CUSTOMPROPERTY
  1
129257
  9
$CUSTOMPROPERTYTAG
  1
SERIES
  9
$CUSTOMPROPERTY
  1
209
  9
$CUSTOMPROPERTYTAG
  1
SS
  9
$CUSTOMPROPERTY
  1
45
  9
$CUSTOMPROPERTYTAG
  1
PN
  9
$CUSTOMPROPERTY
  1
129257
  9
$CUSTOMPROPERTYTAG
  1
DESCRIPTION
  9
$CUSTOMPROPERTY
  1
P2B-GTEZ-45M-PCR
  9
$CUSTOMPROPERTYTAG
  1
A
  9
$CUSTOMPROPERTY
  1
46.8
  9
$CUSTOMPROPERTYTAG
  1
B
  9
$CUSTOMPROPERTY
  1
183.0
  9
$CUSTOMPROPERTYTAG
  1
C
  9
$CUSTOMPROPERTY
  1
53.6
  9
$CUSTOMPROPERTYTAG
  1
DMIN
  9
$CUSTOMPROPERTY
  1
137.7
  9
$CUSTOMPROPERTYTAG
  1
DMAX
  9
$CUSTOMPROPERTY
  1
151.6
  9
$CUSTOMPROPERTYTAG
  1
F
  9
$CUSTOMPROPERTY
  1
M12
  9
$CUSTOMPROPERTYTAG
  1
G
  9
$CUSTOMPROPERTY
  1
22.2
  9
$CUSTOMPROPERTYTAG
  1
H
  9
$CUSTOMPROPERTY
  1
21.4
  9
$CUSTOMPROPERTYTAG
  1
J
  9
$CUSTOMPROPERTY
  1
109.5
  9
$CUSTOMPROPERTYTAG
  1
L
  9
$CUSTOMPROPERTY
  1
67.9
  9
$CUSTOMPROPERTYTAG
  1
M
  9
$CUSTOMPROPERTY
  1
54.0
  9
$CUSTOMPROPERTYTAG
  1
R
  9
$CUSTOMPROPERTY
  1
16.7
  9
$CUSTOMPROPERTYTAG
  1
S
  9
$CUSTOMPROPERTY
  1
30.2
  9
$CUSTOMPROPERTYTAG
  1
Z
  9
$CUSTOMPROPERTY
  1
29.4
  9
$CUSTOMPROPERTYTAG
  1
COMPANY
  9
$CUSTOMPROPERTY
  1
baldor
  9
$INSBASE
 10
0.0
 20
0.0
 30
0.0
  9
$EXTMIN
 10
1.000000000000000E+20
 20
1.000000000000000E+20
 30
1.000000000000000E+20
  9
$EXTMAX
 10
-1.000000000000000E+20
 20
-1.000000000000000E+20
 30
-1.000000000000000E+20
  9
$LIMMIN
 10
0.0
 20
0.0
  9
$LIMMAX
 10
420.0
 20
297.0
  9
$ORTHOMODE
 70
     0
  9
$REGENMODE
 70
     1
  9
$FILLMODE
 70
     1
  9
$QTEXTMODE
 70
     0
  9
$MIRRTEXT
 70
     1
  9
$LTSCALE
 40
1.0
  9
$ATTMODE
 70
     1
  9
$TEXTSIZE
 40
2.5
  9
$TRACEWID
 40
1.0
  9
$TEXTSTYLE
  7
Standard
  9
$CLAYER
  8
0
  9
$CELTYPE
  6
ByLayer
  9
$CECOLOR
 62
   256
  9
$CELTSCALE
 40
1.0
  9
$DISPSILH
 70
     0
  9
$DIMSCALE
 40
1.0
  9
$DIMASZ
 40
2.5
  9
$DIMEXO
 40
0.625
  9
$DIMDLI
 40
3.75
  9
$DIMRND
 40
0.0
  9
$DIMDLE
 40
0.0
  9
$DIMEXE
 40
1.25
  9
$DIMTP
 40
0.0
  9
$DIMTM
 40
0.0
  9
$DIMTXT
 40
2.5
  9
$DIMCEN
 40
2.5
  9
$DIMTSZ
 40
0.0
  9
$DIMTOL
 70
     0
  9
$DIMLIM
 70
     0
  9
$DIMTIH
 70
     0
  9
$DIMTOH
 70
     0
  9
$DIMSE1
 70
     0
  9
$DIMSE2
 70
     0
  9
$DIMTAD
 70
     1
  9
$DIMZIN
 70
     8
  9
$DIMBLK
  1

  9
$DIMASO
 70
     1
  9
$DIMSHO
 70
     1
  9
$DIMPOST
  1

  9
$DIMAPOST
  1

  9
$DIMALT
 70
     0
  9
$DIMALTD
 70
     3
  9
$DIMALTF
 40
0.03937007874016
  9
$DIMLFAC
 40
1.0
  9
$DIMTOFL
 70
     1
  9
$DIMTVP
 40
0.0
  9
$DIMTIX
 70
     0
  9
$DIMSOXD
 70
     0
  9
$DIMSAH
 70
     0
  9
$DIMBLK1
  1

  9
$DIMBLK2
  1

  9
$DIMSTYLE
  2
ISO-25
  9
$DIMCLRD
 70
     0
  9
$DIMCLRE
 70
     0
  9
$DIMCLRT
 70
     0
  9
$DIMTFAC
 40
1.0
  9
$DIMGAP
 40
0.625
  9
$DIMJUST
 70
     0
  9
$DIMSD1
 70
     0
  9
$DIMSD2
 70
     0
  9
$DIMTOLJ
 70
     0
  9
$DIMTZIN
 70
     8
  9
$DIMALTZ
 70
     0
  9
$DIMALTTZ
 70
     0
  9
$DIMUPT
 70
     0
  9
$DIMDEC
 70
     2
  9
$DIMTDEC
 70
     2
  9
$DIMALTU
 70
     2
  9
$DIMALTTD
 70
     3
  9
$DIMTXSTY
  7
Standard
  9
$DIMAUNIT
 70
     0
  9
$DIMADEC
 70
     0
  9
$DIMALTRND
 40
0.0
  9
$DIMAZIN
 70
     0
  9
$DIMDSEP
 70
    44
  9
$DIMATFIT
 70
     3
  9
$DIMFRAC
 70
     0
  9
$DIMLDRBLK
  1

  9
$DIMLUNIT
 70
     2
  9
$DIMLWD
 70
    -2
  9
$DIMLWE
 70
    -2
  9
$DIMTMOVE
 70
     0
  9
$DIMFXL
 40
1.0
  9
$DIMFXLON
 70
     0
  9
$DIMJOGANG
 40
0.7853981633974483
  9
$DIMTFILL
 70
     0
  9
$DIMTFILLCLR
 70
     0
  9
$DIMARCSYM
 70
     0
  9
$DIMLTYPE
  6

  9
$DIMLTEX1
  6

  9
$DIMLTEX2
  6

  9
$DIMTXTDIRECTION
 70
     0
  9
$LUNITS
 70
     2
  9
$LUPREC
 70
     4
  9
$SKETCHINC
 40
1.0
  9
$FILLETRAD
 40
10.0
  9
$AUNITS
 70
     0
  9
$AUPREC
 70
     0
  9
$MENU
  1
.
  9
$ELEVATION
 40
0.0
  9
$PELEVATION
 40
0.0
  9
$THICKNESS
 40
0.0
  9
$LIMCHECK
 70
     0
  9
$CHAMFERA
 40
0.0
  9
$CHAMFERB
 40
0.0
  9
$CHAMFERC
 40
0.0
  9
$CHAMFERD
 40
0.0
  9
$SKPOLY
 70
     0
  9
$TDCREATE
 40
2458168.992599607
  9
$TDUCREATE
 40
2458168.95093294
  9
$TDUPDATE
 40
2458168.992599792
  9
$TDUUPDATE
 40
2458168.950933125
  9
$TDINDWG
 40
0.0000000116
  9
$TDUSRTIMER
 40
0.0000000116
  9
$USRTIMER
 70
     1
  9
$ANGBASE
 50
0.0
  9
$ANGDIR
 70
     0
  9
$PDMODE
 70
     0
  9
$PDSIZE
 40
0.0
  9
$PLINEWID
 40
0.0
  9
$SPLFRAME
 70
     0
  9
$SPLINETYPE
 70
     6
  9
$SPLINESEGS
 70
     8
  9
$HANDSEED
  5
207
  9
$SURFTAB1
 70
     6
  9
$SURFTAB2
 70
     6
  9
$SURFTYPE
 70
     6
  9
$SURFU
 70
     6
  9
$SURFV
 70
     6
  9
$UCSBASE
  2

  9
$UCSNAME
  2

  9
$UCSORG
 10
0.0
 20
0.0
 30
0.0
  9
$UCSXDIR
 10
1.0
 20
0.0
 30
0.0
  9
$UCSYDIR
 10
0.0
 20
1.0
 30
0.0
  9
$UCSORTHOREF
  2

  9
$UCSORTHOVIEW
 70
     0
  9
$UCSORGTOP
 10
0.0
 20
0.0
 30
0.0
  9
$UCSORGBOTTOM
 10
0.0
 20
0.0
 30
0.0
  9
$UCSORGLEFT
 10
0.0
 20
0.0
 30
0.0
  9
$UCSORGRIGHT
 10
0.0
 20
0.0
 30
0.0
  9
$UCSORGFRONT
 10
0.0
 20
0.0
 30
0.0
  9
$UCSORGBACK
 10
0.0
 20
0.0
 30
0.0
  9
$PUCSBASE
  2

  9
$PUCSNAME
  2

  9
$PUCSORG
 10
0.0
 20
0.0
 30
0.0
  9
$PUCSXDIR
 10
1.0
 20
0.0
 30
0.0
  9
$PUCSYDIR
 10
0.0
 20
1.0
 30
0.0
  9
$PUCSORTHOREF
  2

  9
$PUCSORTHOVIEW
 70
     0
  9
$PUCSORGTOP
 10
0.0
 20
0.0
 30
0.0
  9
$PUCSORGBOTTOM
 10
0.0
 20
0.0
 30
0.0
  9
$PUCSORGLEFT
 10
0.0
 20
0.0
 30
0.0
  9
$PUCSORGRIGHT
 10
0.0
 20
0.0
 30
0.0
  9
$PUCSORGFRONT
 10
0.0
 20
0.0
 30
0.0
  9
$PUCSORGBACK
 10
0.0
 20
0.0
 30
0.0
  9
$USERI1
 70
     0
  9
$USERI2
 70
     0
  9
$USERI3
 70
     0
  9
$USERI4
 70
     0
  9
$USERI5
 70
     0
  9
$USERR1
 40
0.0
  9
$USERR2
 40
0.0
  9
$USERR3
 40
0.0
  9
$USERR4
 40
0.0
  9
$USERR5
 40
0.0
  9
$WORLDVIEW
 70
     1
  9
$SHADEDGE
 70
     3
  9
$SHADEDIF
 70
    70
  9
$TILEMODE
 70
     1
  9
$MAXACTVP
 70
    64
  9
$PINSBASE
 10
0.0
 20
0.0
 30
0.0
  9
$PLIMCHECK
 70
     0
  9
$PEXTMIN
 10
1.000000000000000E+20
 20
1.000000000000000E+20
 30
1.000000000000000E+20
  9
$PEXTMAX
 10
-1.000000000000000E+20
 20
-1.000000000000000E+20
 30
-1.000000000000000E+20
  9
$PLIMMIN
 10
0.0
 20
0.0
  9
$PLIMMAX
 10
420.0
 20
297.0
  9
$UNITMODE
 70
     0
  9
$VISRETAIN
 70
     1
  9
$PLINEGEN
 70
     0
  9
$PSLTSCALE
 70
     1
  9
$TREEDEPTH
 70
  3020
  9
$CMLSTYLE
  2
Standard
  9
$CMLJUST
 70
     0
  9
$CMLSCALE
 40
20.0
  9
$PROXYGRAPHICS
 70
     1
  9
$MEASUREMENT
 70
     1
  9
$CELWEIGHT
370
    -1
  9
$ENDCAPS
280
     0
  9
$JOINSTYLE
280
     0
  9
$LWDISPLAY
290
     0
  9
$INSUNITS
 70
     4
  9
$HYPERLINKBASE
  1

  9
$STYLESHEET
  1

  9
$XEDIT
290
     1
  9
$CEPSNTYPE
380
     0
  9
$PSTYLEMODE
290
     1
  9
$FINGERPRINTGUID
  2
{473A3C71-A204-41AD-95F5-AD9D3D4CB5C1}
  9
$VERSIONGUID
  2
{FAEB1C32-E019-11D5-929B-00C0DF256EC4}
  9
$EXTNAMES
290
     1
  9
$PSVPSCALE
 40
0.0
  9
$OLESTARTUP
290
     0
  9
$SORTENTS
280
   127
  9
$INDEXCTL
280
     0
  9
$HIDETEXT
280
     1
  9
$XCLIPFRAME
280
     2
  9
$HALOGAP
280
     0
  9
$OBSCOLOR
 70
   257
  9
$OBSLTYPE
280
     0
  9
$INTERSECTIONDISPLAY
280
     0
  9
$INTERSECTIONCOLOR
 70
   257
  9
$DIMASSOC
280
     2
  9
$PROJECTNAME
  1

  9
$CAMERADISPLAY
290
     0
  9
$LENSLENGTH
 40
50.0
  9
$CAMERAHEIGHT
 40
0.0
  9
$STEPSPERSEC
 40
2.0
  9
$STEPSIZE
 40
6.0
  9
$3DDWFPREC
 40
2.0
  9
$PSOLWIDTH
 40
5.0
  9
$PSOLHEIGHT
 40
80.0
  9
$LOFTANG1
 40
1.570796326794897
  9
$LOFTANG2
 40
1.570796326794897
  9
$LOFTMAG1
 40
0.0
  9
$LOFTMAG2
 40
0.0
  9
$LOFTPARAM
 70
     7
  9
$LOFTNORMALS
280
     1
  9
$LATITUDE
 40
37.795
  9
$LONGITUDE
 40
-122.394
  9
$NORTHDIRECTION
 40
0.0
  9
$TIMEZONE
 70
 -8000
  9
$LIGHTGLYPHDISPLAY
280
     1
  9
$TILEMODELIGHTSYNCH
280
     1
  9
$CMATERIAL
347
44
  9
$SOLIDHIST
280
     0
  9
$SHOWHIST
280
     1
  9
$DWFFRAME
280
     2
  9
$DGNFRAME
280
     2
  9
$REALWORLDSCALE
290
     1
  9
$INTERFERECOLOR
 62
   256
  9
$CSHADOW
280
     0
  9
$SHADOWPLANELOCATION
 40
0.0
  0
ENDSEC
  0
SECTION
  2
CLASSES
  0
CLASS
  1
ACDBDICTIONARYWDFLT
  2
AcDbDictionaryWithDefault
  3
ObjectDBX Classes
 90
        0
 91
        4
280
     0
281
     0
  0
CLASS
  1
VISUALSTYLE
  2
AcDbVisualStyle
  3
ObjectDBX Classes
 90
     4095
 91
        4
280
     0
281
     0
  0
CLASS
  1
MATERIAL
  2
AcDbMaterial
  3
ObjectDBX Classes
 90
     1153
 91
        4
280
     0
281
     0
  0
CLASS
  1
SCALE
  2
AcDbScale
  3
ObjectDBX Classes
 90
     1153
 91
        4
280
     0
281
     0
  0
CLASS
  1
TABLESTYLE
  2
AcDbTableStyle
  3
ObjectDBX Classes
 90
     4095
 91
        4
280
     0
281
     0
  0
CLASS
  1
MLEADERSTYLE
  2
AcDbMLeaderStyle
  3
ACDB_MLEADERSTYLE_CLASS
 90
     4095
 91
        4
280
     0
281
     0
  0
CLASS
  1
SUN
  2
AcDbSun
  3
SCENEOE
 90
     1153
 91
        4
280
     0
281
     0
  0
CLASS
  1
DICTIONARYVAR
  2
AcDbDictionaryVar
  3
ObjectDBX Classes
 90
        0
 91
        4
280
     0
281
     0
  0
CLASS
  1
CELLSTYLEMAP
  2
AcDbCellStyleMap
  3
ObjectDBX Classes
 90
     1152
 91
        4
280
     0
281
     0
  0
ENDSEC
  0
SECTION
  2
TABLES
  0
TABLE
  2
VPORT
  5
8
330
0
100
AcDbSymbolTable
 70
     1
  0
VPORT
  5
29
330
8
100
AcDbSymbolTableRecord
100
AcDbViewportTableRecord
  2
*Active
 70
     0
 10
0.0
 20
0.0
 11
1.0
 21
1.0
 12
0.0
 22
14.18749999999983
 13
0.0
 23
0.0
 14
10.0
 24
10.0
 15
10.0
 25
10.0
 16
0.0
 26
0.0
 36
1.0
 17
0.0
 27
0.0
 37
0.0
 40
139.1024999999997
 41
1.341888175985338
 42
50.0
 43
0.0
 44
0.0
 50
0.0
 51
0.0
 71
     0
 72
   100
 73
     1
 74
     3
 75
     0
 76
     0
 77
     0
 78
     0
281
     0
 65
     1
110
0.0
120
0.0
130
0.0
111
1.0
121
0.0
131
0.0
112
0.0
122
1.0
132
0.0
 79
     0
146
0.0
348
2F
 60
     3
 61
     5
292
     1
282
     1
141
0.0
142
0.0
 63
   250
361
6D
  0
ENDTAB
  0
TABLE
  2
LTYPE
  5
5
330
0
100
AcDbSymbolTable
 70
     3
  0
LTYPE
  5
14
330
5
100
AcDbSymbolTableRecord
100
AcDbLinetypeTableRecord
  2
ByBlock
 70
     0
  3

 72
    65
 73
     0
 40
0.0
  0
LTYPE
  5
15
330
5
100
AcDbSymbolTableRecord
100
AcDbLinetypeTableRecord
  2
ByLayer
 70
     0
  3

 72
    65
 73
     0
 40
0.0
  0
LTYPE
  5
16
330
5
100
AcDbSymbolTableRecord
100
AcDbLinetypeTableRecord
  2
Continuous
 70
     0
  3
Solid line
 72
    65
 73
     0
 40
0.0
  0
LTYPE
  5
A1
330
5
100
AcDbSymbolTableRecord
100
AcDbLinetypeTableRecord
  2
Dashed
 70
     0
  3

 72
    65
 73
     2
 40
2.0
 49
1.0
 74
     0
 49
-1.0
 74
     0
  0
LTYPE
  5
AA
330
5
100
AcDbSymbolTableRecord
100
AcDbLinetypeTableRecord
  2
Center
 70
     0
  3

 72
    65
 73
     4
 40
1.5
 49
0.45
 74
     0
 49
-0.5
 74
     0
 49
0.05
 74
     0
 49
-0.5
 74
     0
  0
ENDTAB
  0
TABLE
  2
LAYER
  5
2
330
0
100
AcDbSymbolTable
 70
     7
  0
LAYER
  5
10
330
2
100
AcDbSymbolTableRecord
100
AcDbLayerTableRecord
  2
0
 70
     0
 62
     7
  6
Continuous
370
    -3
390
F
347
46
348
0
  0
LAYER
  5
72
330
2
100
AcDbSymbolTableRecord
100
AcDbLayerTableRecord
  2
AM_6
 70
     0
 62
    -2
  6
Continuous
370
    35
390
F
347
46
348
0
  0
LAYER
  5
A2
330
2
100
AcDbSymbolTableRecord
100
AcDbLayerTableRecord
  2
AM_9
 70
     0
 62
     6
  6
Dashed
370
    25
390
F
347
46
348
0
  0
LAYER
  5
AB
330
2
100
AcDbSymbolTableRecord
100
AcDbLayerTableRecord
  2
AM_7
 70
     0
 62
     7
  6
Center
370
    25
390
F
347
46
348
0
  0
LAYER
  5
AE
330
2
100
AcDbSymbolTableRecord
100
AcDbLayerTableRecord
  2
AM_4
 70
     0
 62
     3
  6
Continuous
370
    25
390
F
347
46
348
0
  0
LAYER
  5
DE
330
2
100
AcDbSymbolTableRecord
100
AcDbLayerTableRecord
  2
AM_5
 70
     0
 62
     3
  6
Continuous
370
    25
390
F
347
46
348
0
  0
LAYER
  5
1F9
330
2
100
AcDbSymbolTableRecord
100
AcDbLayerTableRecord
  2
ConnectionPoints
 70
     0
 62
     7
  6
Continuous
370
    50
390
F
347
46
348
0
  0
ENDTAB
  0
TABLE
  2
STYLE
  5
3
330
0
100
AcDbSymbolTable
 70
     1
  0
STYLE
  5
11
330
3
100
AcDbSymbolTableRecord
100
AcDbTextStyleTableRecord
  2
Standard
 70
     0
 40
0.0
 41
1.0
 50
0.0
 71
     0
 42
2.5
  3
txt
  4

  0
ENDTAB
  0
TABLE
  2
VIEW
  5
6
330
0
100
AcDbSymbolTable
 70
     0
  0
ENDTAB
  0
TABLE
  2
UCS
  5
7
330
0
100
AcDbSymbolTable
 70
     0
  0
ENDTAB
  0
TABLE
  2
APPID
  5
9
330
0
100
AcDbSymbolTable
 70
     1
  0
APPID
  5
12
330
9
100
AcDbSymbolTableRecord
100
AcDbRegAppTableRecord
  2
ACAD
 70
     0
  0
ENDTAB
  0
TABLE
  2
DIMSTYLE
  5
A
330
0
100
AcDbSymbolTable
 70
     1
100
AcDbDimStyleTable
  0
DIMSTYLE
105
27
330
A
100
AcDbSymbolTableRecord
100
AcDbDimStyleTableRecord
  2
ISO-25
 70
     0
 41
2.5
 42
0.625
 43
3.75
 44
1.25
 73
     0
 74
     0
 77
     1
 78
     8
140
2.5
141
2.5
143
0.03937007874016
147
0.625
171
     3
172
     1
178
     0
271
     2
272
     2
274
     3
278
    44
283
     0
284
     8
340
11
  0
ENDTAB
  0
TABLE
  2
BLOCK_RECORD
  5
1
330
0
100
AcDbSymbolTable
 70
     5
  0
BLOCK_RECORD
  5
1F
330
1
100
AcDbSymbolTableRecord
100
AcDbBlockTableRecord
  2
*Model_Space
340
22
 70
     0
280
     1
281
     0
  0
BLOCK_RECORD
  5
1B
330
1
100
AcDbSymbolTableRecord
100
AcDbBlockTableRecord
  2
*Paper_Space
340
1E
 70
     0
280
     1
281
     0
  0
BLOCK_RECORD
  5
23
330
1
100
AcDbSymbolTableRecord
100
AcDbBlockTableRecord
  2
*Paper_Space0
340
26
 70
     0
280
     1
281
     0
  0
BLOCK_RECORD
  5
6E
330
1
100
AcDbSymbolTableRecord
100
AcDbBlockTableRecord
  2
1_129257_0
340
0
102
{BLKREFS
331
6F
102
}
 70
     0
280
     1
281
     0
  0
BLOCK_RECORD
  5
8B
330
1
100
AcDbSymbolTableRecord
100
AcDbBlockTableRecord
  2
2_INS_GT_09_CR_0_in_129257_0
340
0
102
{BLKREFS
331
8C
102
}
 70
     0
280
     1
281
     0
  0
BLOCK_RECORD
  5
B6
330
1
100
AcDbSymbolTableRecord
100
AcDbBlockTableRecord
  2
3_129985_0_in_129257_0
340
0
102
{BLKREFS
331
B7
102
}
 70
     0
280
     1
281
     0
  0
BLOCK_RECORD
  5
F8
330
1
100
AcDbSymbolTableRecord
100
AcDbBlockTableRecord
  2
4_P2B_GTEZ_09_PCR_0_in_129257_0
340
0
102
{BLKREFS
331
F9
102
}
 70
     0
280
     1
281
     0
  0
ENDTAB
  0
ENDSEC
  0
SECTION
  2
BLOCKS
  0
BLOCK
  5
20
330
1F
100
AcDbEntity
  8
0
100
AcDbBlockBegin
  2
*Model_Space
 70
     0
 10
0.0
 20
0.0
 30
0.0
  3
*Model_Space
  1

  0
ENDBLK
  5
21
330
1F
100
AcDbEntity
  8
0
100
AcDbBlockEnd
  0
BLOCK
  5
1C
330
1B
100
AcDbEntity
 67
     1
  8
0
100
AcDbBlockBegin
  2
*Paper_Space
 70
     0
 10
0.0
 20
0.0
 30
0.0
  3
*Paper_Space
  1

  0
ENDBLK
  5
1D
330
1B
100
AcDbEntity
 67
     1
  8
0
100
AcDbBlockEnd
  0
BLOCK
  5
24
330
23
100
AcDbEntity
  8
0
100
AcDbBlockBegin
  2
*Paper_Space0
 70
     0
 10
0.0
 20
0.0
 30
0.0
  3
*Paper_Space0
  1

  0
ENDBLK
  5
25
330
23
100
AcDbEntity
  8
0
100
AcDbBlockEnd
  0
BLOCK
  5
70
330
6E
100
AcDbEntity
  8
0
100
AcDbBlockBegin
  2
1_129257_0
 70
     2
 10
0.0
 20
0.0
 30
0.0
  3
1_129257_0
  1

  0
ATTDEF
  5
73
330
6E
100
AcDbEntity
  8
AM_6
100
AcDbText
 10
96.5
 20
82.37499999999999
 30
0.0
 40
0.5
  1
Grip Tight Two-Bolt Pillow Block - Polymer Housing, Corrision Resistant Insert Metric Bore
100
AcDbAttributeDefinition
  3

  2
NN
 70
     8
280
     0
  0
ATTDEF
  5
74
330
6E
100
AcDbEntity
  8
AM_6
100
AcDbText
 10
96.5
 20
81.87499999999999
 30
0.0
 40
0.5
  1
GTEZ Normal Duty Polymer Housed Pillow Blocks
100
AcDbAttributeDefinition
  3

  2
NT
 70
     8
280
     0
  0
ATTDEF
  5
75
330
6E
100
AcDbEntity
  8
AM_6
100
AcDbText
 10
96.5
 20
81.37499999999999
 30
0.0
 40
0.5
  1
129257
100
AcDbAttributeDefinition
  3

  2
NB
 70
     8
280
     0
  0
ATTDEF
  5
76
330
6E
100
AcDbEntity
  8
AM_6
100
AcDbText
 10
96.5
 20
80.87499999999999
 30
0.0
 40
0.5
  1
$PN.$LUBE.
100
AcDbAttributeDefinition
  3

  2
NBSYN
 70
     8
280
     0
  0
ATTDEF
  5
77
330
6E
100
AcDbEntity
  8
AM_6
100
AcDbText
 10
96.5
 20
80.37499999999999
 30
0.0
 40
0.5
  1
129257
100
AcDbAttributeDefinition
  3

  2
LINA
 70
     8
280
     0
  0
ATTDEF
  5
78
330
6E
100
AcDbEntity
  8
AM_6
100
AcDbText
 10
96.5
 20
79.87499999999999
 30
0.0
 40
0.5
  1
209
100
AcDbAttributeDefinition
  3

  2
SERIES
 70
     8
280
     0
  0
ATTDEF
  5
79
330
6E
100
AcDbEntity
  8
AM_6
100
AcDbText
 10
96.5
 20
79.37499999999999
 30
0.0
 40
0.5
  1
45
100
AcDbAttributeDefinition
  3

  2
SS
 70
     8
280
     0
  0
ATTDEF
  5
7A
330
6E
100
AcDbEntity
  8
AM_6
100
AcDbText
 10
96.5
 20
78.87499999999999
 30
0.0
 40
0.5
  1
129257
100
AcDbAttributeDefinition
  3

  2
PN
 70
     8
280
     0
  0
ATTDEF
  5
7B
330
6E
100
AcDbEntity
  8
AM_6
100
AcDbText
 10
96.5
 20
78.37499999999999
 30
0.0
 40
0.5
  1
P2B-GTEZ-45M-PCR
100
AcDbAttributeDefinition
  3

  2
DESCRIPTION
 70
     8
280
     0
  0
ATTDEF
  5
7C
330
6E
100
AcDbEntity
  8
AM_6
100
AcDbText
 10
96.5
 20
77.87499999999999
 30
0.0
 40
0.5
  1
46.8
100
AcDbAttributeDefinition
  3

  2
A
 70
     8
280
     0
  0
ATTDEF
  5
7D
330
6E
100
AcDbEntity
  8
AM_6
100
AcDbText
 10
96.5
 20
77.37499999999999
 30
0.0
 40
0.5
  1
183.0
100
AcDbAttributeDefinition
  3

  2
B
 70
     8
280
     0
  0
ATTDEF
  5
7E
330
6E
100
AcDbEntity
  8
AM_6
100
AcDbText
 10
96.5
 20
76.87499999999999
 30
0.0
 40
0.5
  1
53.6
100
AcDbAttributeDefinition
  3

  2
C
 70
     8
280
     0
  0
ATTDEF
  5
7F
330
6E
100
AcDbEntity
  8
AM_6
100
AcDbText
 10
96.5
 20
76.37499999999999
 30
0.0
 40
0.5
  1
137.7
100
AcDbAttributeDefinition
  3

  2
DMIN
 70
     8
280
     0
  0
ATTDEF
  5
80
330
6E
100
AcDbEntity
  8
AM_6
100
AcDbText
 10
96.5
 20
75.87499999999999
 30
0.0
 40
0.5
  1
151.6
100
AcDbAttributeDefinition
  3

  2
DMAX
 70
     8
280
     0
  0
ATTDEF
  5
81
330
6E
100
AcDbEntity
  8
AM_6
100
AcDbText
 10
96.5
 20
75.37499999999999
 30
0.0
 40
0.5
  1
M12
100
AcDbAttributeDefinition
  3

  2
F
 70
     8
280
     0
  0
ATTDEF
  5
82
330
6E
100
AcDbEntity
  8
AM_6
100
AcDbText
 10
96.5
 20
74.87499999999999
 30
0.0
 40
0.5
  1
22.2
100
AcDbAttributeDefinition
  3

  2
G
 70
     8
280
     0
  0
ATTDEF
  5
83
330
6E
100
AcDbEntity
  8
AM_6
100
AcDbText
 10
96.5
 20
74.37499999999999
 30
0.0
 40
0.5
  1
21.4
100
AcDbAttributeDefinition
  3

  2
H
 70
     8
280
     0
  0
ATTDEF
  5
84
330
6E
100
AcDbEntity
  8
AM_6
100
AcDbText
 10
96.5
 20
73.87499999999999
 30
0.0
 40
0.5
  1
109.5
100
AcDbAttributeDefinition
  3

  2
J
 70
     8
280
     0
  0
ATTDEF
  5
85
330
6E
100
AcDbEntity
  8
AM_6
100
AcDbText
 10
96.5
 20
73.37499999999999
 30
0.0
 40
0.5
  1
67.9
100
AcDbAttributeDefinition
  3

  2
L
 70
     8
280
     0
  0
ATTDEF
  5
86
330
6E
100
AcDbEntity
  8
AM_6
100
AcDbText
 10
96.5
 20
72.87499999999999
 30
0.0
 40
0.5
  1
54.0
100
AcDbAttributeDefinition
  3

  2
M
 70
     8
280
     0
  0
ATTDEF
  5
87
330
6E
100
AcDbEntity
  8
AM_6
100
AcDbText
 10
96.5
 20
72.37499999999999
 30
0.0
 40
0.5
  1
16.7
100
AcDbAttributeDefinition
  3

  2
R
 70
     8
280
     0
  0
ATTDEF
  5
88
330
6E
100
AcDbEntity
  8
AM_6
100
AcDbText
 10
96.5
 20
71.87499999999999
 30
0.0
 40
0.5
  1
30.2
100
AcDbAttributeDefinition
  3

  2
S
 70
     8
280
     0
  0
ATTDEF
  5
89
330
6E
100
AcDbEntity
  8
AM_6
100
AcDbText
 10
96.5
 20
71.37499999999999
 30
0.0
 40
0.5
  1
29.4
100
AcDbAttributeDefinition
  3

  2
Z
 70
     8
280
     0
  0
ATTDEF
  5
8A
330
6E
100
AcDbEntity
  8
AM_6
100
AcDbText
 10
96.5
 20
70.87499999999999
 30
0.0
 40
0.5
  1
baldor
100
AcDbAttributeDefinition
  3

  2
COMPANY
 70
     8
280
     0
  0
INSERT
  5
8C
330
6E
100
AcDbEntity
  8
0
100
AcDbBlockReference
  2
2_INS_GT_09_CR_0_in_129257_0
 10
0.0
 20
0.0
 30
0.0
  0
INSERT
  5
B7
330
6E
100
AcDbEntity
  8
0
100
AcDbBlockReference
  2
3_129985_0_in_129257_0
 10
0.0
 20
0.0
 30
0.0
  0
INSERT
  5
F9
330
6E
100
AcDbEntity
  8
0
100
AcDbBlockReference
  2
4_P2B_GTEZ_09_PCR_0_in_129257_0
 10
0.0
 20
0.0
 30
0.0
  0
ENDBLK
  5
71
330
6E
100
AcDbEntity
  8
0
100
AcDbBlockEnd
  0
BLOCK
  5
8D
330
8B
100
AcDbEntity
  8
0
100
AcDbBlockBegin
  2
2_INS_GT_09_CR_0_in_129257_0
 70
     2
 10
0.0
 20
0.0
 30
0.0
  3
2_INS_GT_09_CR_0_in_129257_0
  1

  0
ATTDEF
  5
8F
330
8B
100
AcDbEntity
  8
AM_6
100
AcDbText
 10
49.18872446740852
 20
44.18872446740852
 30
0.0
 40
0.5
  1
INS-GT-CR-M
100
AcDbAttributeDefinition
  3

  2
NN
 70
     8
280
     0
  0
ATTDEF
  5
90
330
8B
100
AcDbEntity
  8
AM_6
100
AcDbText
 10
49.18872446740852
 20
43.68872446740852
 30
0.0
 40
0.5
  1
GT Normal Duty Corrosion Resistant Bearing Inserts
100
AcDbAttributeDefinition
  3

  2
NT
 70
     8
280
     0
  0
ATTDEF
  5
91
330
8B
100
AcDbEntity
  8
AM_6
100
AcDbText
 10
49.18872446740852
 20
43.18872446740852
 30
0.0
 40
0.5
  1
INS-GT-09-CR
100
AcDbAttributeDefinition
  3

  2
NB
 70
     8
280
     0
  0
ATTDEF
  5
92
330
8B
100
AcDbEntity
  8
AM_6
100
AcDbText
 10
49.18872446740852
 20
42.68872446740852
 30
0.0
 40
0.5
  1
$PN.
100
AcDbAttributeDefinition
  3

  2
NBSYN
 70
     8
280
     0
  0
ATTDEF
  5
93
330
8B
100
AcDbEntity
  8
AM_6
100
AcDbText
 10
49.18872446740852
 20
42.18872446740852
 30
0.0
 40
0.5
  1
INS-GT-09-CR
100
AcDbAttributeDefinition
  3

  2
LINA
 70
     8
280
     0
  0
ATTDEF
  5
94
330
8B
100
AcDbEntity
  8
AM_6
100
AcDbText
 10
49.18872446740852
 20
41.68872446740852
 30
0.0
 40
0.5
  1
209
100
AcDbAttributeDefinition
  3

  2
SERIES
 70
     8
280
     0
  0
ATTDEF
  5
95
330
8B
100
AcDbEntity
  8
AM_6
100
AcDbText
 10
49.18872446740852
 20
41.18872446740852
 30
0.0
 40
0.5
  1
INS-GT-09-CR
100
AcDbAttributeDefinition
  3

  2
PN
 70
     8
280
     0
  0
ATTDEF
  5
96
330
8B
100
AcDbEntity
  8
AM_6
100
AcDbText
 10
49.18872446740852
 20
40.68872446740852
 30
0.0
 40
0.5
  1
INS-GT-09-CR
100
AcDbAttributeDefinition
  3

  2
DESCRIPTION
 70
     8
280
     0
  0
ATTDEF
  5
97
330
8B
100
AcDbEntity
  8
AM_6
100
AcDbText
 10
49.18872446740852
 20
40.18872446740852
 30
0.0
 40
0.5
  1
46.8
100
AcDbAttributeDefinition
  3

  2
A
 70
     8
280
     0
  0
ATTDEF
  5
98
330
8B
100
AcDbEntity
  8
AM_6
100
AcDbText
 10
49.18872446740852
 20
39.68872446740852
 30
0.0
 40
0.5
  1
22.0
100
AcDbAttributeDefinition
  3

  2
C
 70
     8
280
     0
  0
ATTDEF
  5
99
330
8B
100
AcDbEntity
  8
AM_6
100
AcDbText
 10
49.18872446740852
 20
39.18872446740852
 30
0.0
 40
0.5
  1
85.0
100
AcDbAttributeDefinition
  3

  2
D
 70
     8
280
     0
  0
ATTDEF
  5
9A
330
8B
100
AcDbEntity
  8
AM_6
100
AcDbText
 10
49.18872446740852
 20
38.68872446740852
 30
0.0
 40
0.5
  1
6.3
100
AcDbAttributeDefinition
  3

  2
J
 70
     8
280
     0
  0
ATTDEF
  5
9B
330
8B
100
AcDbEntity
  8
AM_6
100
AcDbText
 10
49.18872446740852
 20
38.18872446740852
 30
0.0
 40
0.5
  1
67.9
100
AcDbAttributeDefinition
  3

  2
L
 70
     8
280
     0
  0
ATTDEF
  5
9C
330
8B
100
AcDbEntity
  8
AM_6
100
AcDbText
 10
49.18872446740852
 20
37.68872446740852
 30
0.0
 40
0.5
  1
10 - 32 x 1/4
100
AcDbAttributeDefinition
  3

  2
N
 70
     8
280
     0
  0
ATTDEF
  5
9D
330
8B
100
AcDbEntity
  8
AM_6
100
AcDbText
 10
49.18872446740852
 20
37.18872446740852
 30
0.0
 40
0.5
  1
16.7
100
AcDbAttributeDefinition
  3

  2
W
 70
     8
280
     0
  0
ATTDEF
  5
9E
330
8B
100
AcDbEntity
  8
AM_6
100
AcDbText
 10
49.18872446740852
 20
36.68872446740852
 30
0.0
 40
0.5
  1
29.4
100
AcDbAttributeDefinition
  3

  2
X
 70
     8
280
     0
  0
ATTDEF
  5
9F
330
8B
100
AcDbEntity
  8
AM_6
100
AcDbText
 10
49.18872446740852
 20
36.18872446740852
 30
0.0
 40
0.5
  1
30.2
100
AcDbAttributeDefinition
  3

  2
Y
 70
     8
280
     0
  0
ATTDEF
  5
A0
330
8B
100
AcDbEntity
  8
AM_6
100
AcDbText
 10
49.18872446740852
 20
35.68872446740852
 30
0.0
 40
0.5
  1
baldor
100
AcDbAttributeDefinition
  3

  2
COMPANY
 70
     8
280
     0
  0
CIRCLE
  5
A3
330
8B
100
AcDbEntity
  8
AM_9
100
AcDbCircle
 10
0.0
 20
0.0
 30
0.0
 40
26.23763842688527
  0
ARC
  5
A4
330
8B
100
AcDbEntity
  8
AM_9
100
AcDbCircle
 10
0.0000000000000071
 20
0.0000000000000355
 30
0.0
 40
42.50000000000001
100
AcDbArc
 50
193.2752674832529
 51
346.7247325167469
  0
CIRCLE
  5
A5
330
8B
100
AcDbEntity
  8
AM_9
100
AcDbCircle
 10
0.0
 20
0.0
 30
0.0
 40
40.3
  0
CIRCLE
  5
A6
330
8B
100
AcDbEntity
  8
AM_9
100
AcDbCircle
 10
0.0
 20
0.0
 30
0.0
 40
41.19278292882571
  0
CIRCLE
  5
A7
330
8B
100
AcDbEntity
  8
AM_9
100
AcDbCircle
 10
0.0
 20
0.0
 30
0.0
 40
27.75277777777778
  0
CIRCLE
  5
A8
330
8B
100
AcDbEntity
  8
AM_9
100
AcDbCircle
 10
0.0
 20
0.0
 30
0.0
 40
30.17777777777778
  0
CIRCLE
  5
A9
330
8B
100
AcDbEntity
  8
AM_9
100
AcDbCircle
 10
0.0
 20
0.0
 30
0.0
 40
29.29777777777779
  0
LINE
  5
AC
330
8B
100
AcDbEntity
  8
AM_7
100
AcDbLine
 10
-44.18872446740852
 20
0.0
 30
0.0
 11
44.18872446740852
 21
0.0
 31
0.0
  0
LINE
  5
AD
330
8B
100
AcDbEntity
  8
AM_7
100
AcDbLine
 10
0.0
 20
-44.18872446740852
 30
0.0
 11
0.0
 21
44.18872446740852
 31
0.0
  0
CIRCLE
  5
AF
330
8B
100
AcDbEntity
  8
AM_4
100
AcDbCircle
 10
0.0
 20
0.0
 30
0.0
 40
42.08449949277001
  0
CIRCLE
  5
B0
330
8B
100
AcDbEntity
  8
AM_4
100
AcDbCircle
 10
0.0
 20
0.0
 30
0.0
 40
41.86769565379619
  0
CIRCLE
  5
B1
330
8B
100
AcDbEntity
  8
AM_4
100
AcDbCircle
 10
0.0
 20
0.0
 30
0.0
 40
41.41278292882571
  0
CIRCLE
  5
B2
330
8B
100
AcDbEntity
  8
AM_4
100
AcDbCircle
 10
0.0
 20
0.0
 30
0.0
 40
41.40435489585091
  0
CIRCLE
  5
B3
330
8B
100
AcDbEntity
  8
AM_4
100
AcDbCircle
 10
0.0
 20
0.0
 30
0.0
 40
39.70666580556273
  0
CIRCLE
  5
B4
330
8B
100
AcDbEntity
  8
AM_4
100
AcDbCircle
 10
0.0
 20
0.0
 30
0.0
 40
40.52592503748536
  0
ARC
  5
B5
330
8B
100
AcDbEntity
  8
AM_4
100
AcDbCircle
 10
0.0000000000000006
 20
0.0000000000072298
 30
0.0
 40
25.32777777777055
100
AcDbArc
 50
87.17113632714444
 51
92.82886367285556
  0
ENDBLK
  5
8E
330
8B
100
AcDbEntity
  8
0
100
AcDbBlockEnd
  0
BLOCK
  5
B8
330
B6
100
AcDbEntity
  8
0
100
AcDbBlockBegin
  2
3_129985_0_in_129257_0
 70
     2
 10
0.0
 20
0.0
 30
0.0
  3
3_129985_0_in_129257_0
  1

  0
ATTDEF
  5
BA
330
B6
100
AcDbEntity
  8
AM_6
100
AcDbText
 10
38.80355010941899
 20
33.94983873913766
 30
0.0
 40
0.5
  1
Grip Tight Adapter and Nut - Corrosion Resistant Metric Bore
100
AcDbAttributeDefinition
  3

  2
NN
 70
     8
280
     0
  0
ATTDEF
  5
BB
330
B6
100
AcDbEntity
  8
AM_6
100
AcDbText
 10
38.80355010941899
 20
33.44983873913766
 30
0.0
 40
0.5
  1
GT and GTM Adapter & Lock Nut Assemblies
100
AcDbAttributeDefinition
  3

  2
NT
 70
     8
280
     0
  0
ATTDEF
  5
BC
330
B6
100
AcDbEntity
  8
AM_6
100
AcDbText
 10
38.80355010941899
 20
32.94983873913766
 30
0.0
 40
0.5
  1
129985
100
AcDbAttributeDefinition
  3

  2
NB
 70
     8
280
     0
  0
ATTDEF
  5
BD
330
B6
100
AcDbEntity
  8
AM_6
100
AcDbText
 10
38.80355010941899
 20
32.44983873913766
 30
0.0
 40
0.5
  1
$PN.
100
AcDbAttributeDefinition
  3

  2
NBSYN
 70
     8
280
     0
  0
ATTDEF
  5
BE
330
B6
100
AcDbEntity
  8
AM_6
100
AcDbText
 10
38.80355010941899
 20
31.94983873913766
 30
0.0
 40
0.5
  1
129985
100
AcDbAttributeDefinition
  3

  2
LINA
 70
     8
280
     0
  0
ATTDEF
  5
BF
330
B6
100
AcDbEntity
  8
AM_6
100
AcDbText
 10
38.80355010941899
 20
31.44983873913766
 30
0.0
 40
0.5
  1
209
100
AcDbAttributeDefinition
  3

  2
SERIES
 70
     8
280
     0
  0
ATTDEF
  5
C0
330
B6
100
AcDbEntity
  8
AM_6
100
AcDbText
 10
38.80355010941899
 20
30.94983873913766
 30
0.0
 40
0.5
  1
45
100
AcDbAttributeDefinition
  3

  2
SS
 70
     8
280
     0
  0
ATTDEF
  5
C1
330
B6
100
AcDbEntity
  8
AM_6
100
AcDbText
 10
38.80355010941899
 20
30.44983873913766
 30
0.0
 40
0.5
  1
129985
100
AcDbAttributeDefinition
  3

  2
PN
 70
     8
280
     0
  0
ATTDEF
  5
C2
330
B6
100
AcDbEntity
  8
AM_6
100
AcDbText
 10
38.80355010941899
 20
29.94983873913766
 30
0.0
 40
0.5
  1
AN-GT-09-45M-CR
100
AcDbAttributeDefinition
  3

  2
DESCRIPTION
 70
     8
280
     0
  0
ATTDEF
  5
C3
330
B6
100
AcDbEntity
  8
AM_6
100
AcDbText
 10
38.80355010941899
 20
29.44983873913766
 30
0.0
 40
0.5
  1
46.8
100
AcDbAttributeDefinition
  3

  2
A
 70
     8
280
     0
  0
ATTDEF
  5
C4
330
B6
100
AcDbEntity
  8
AM_6
100
AcDbText
 10
38.80355010941899
 20
28.94983873913766
 30
0.0
 40
0.5
  1
22.0
100
AcDbAttributeDefinition
  3

  2
C
 70
     8
280
     0
  0
ATTDEF
  5
C5
330
B6
100
AcDbEntity
  8
AM_6
100
AcDbText
 10
38.80355010941899
 20
28.44983873913766
 30
0.0
 40
0.5
  1
85.0
100
AcDbAttributeDefinition
  3

  2
D
 70
     8
280
     0
  0
ATTDEF
  5
C6
330
B6
100
AcDbEntity
  8
AM_6
100
AcDbText
 10
38.80355010941899
 20
27.94983873913766
 30
0.0
 40
0.5
  1
6.3
100
AcDbAttributeDefinition
  3

  2
J
 70
     8
280
     0
  0
ATTDEF
  5
C7
330
B6
100
AcDbEntity
  8
AM_6
100
AcDbText
 10
38.80355010941899
 20
27.44983873913766
 30
0.0
 40
0.5
  1
67.9
100
AcDbAttributeDefinition
  3

  2
L
 70
     8
280
     0
  0
ATTDEF
  5
C8
330
B6
100
AcDbEntity
  8
AM_6
100
AcDbText
 10
38.80355010941899
 20
26.94983873913766
 30
0.0
 40
0.5
  1
10 - 32 x 1/4
100
AcDbAttributeDefinition
  3

  2
N
 70
     8
280
     0
  0
ATTDEF
  5
C9
330
B6
100
AcDbEntity
  8
AM_6
100
AcDbText
 10
38.80355010941899
 20
26.44983873913766
 30
0.0
 40
0.5
  1
16.7
100
AcDbAttributeDefinition
  3

  2
W
 70
     8
280
     0
  0
ATTDEF
  5
CA
330
B6
100
AcDbEntity
  8
AM_6
100
AcDbText
 10
38.80355010941899
 20
25.94983873913766
 30
0.0
 40
0.5
  1
29.4
100
AcDbAttributeDefinition
  3

  2
X
 70
     8
280
     0
  0
ATTDEF
  5
CB
330
B6
100
AcDbEntity
  8
AM_6
100
AcDbText
 10
38.80355010941899
 20
25.44983873913766
 30
0.0
 40
0.5
  1
30.2
100
AcDbAttributeDefinition
  3

  2
Y
 70
     8
280
     0
  0
ATTDEF
  5
CC
330
B6
100
AcDbEntity
  8
AM_6
100
AcDbText
 10
38.80355010941899
 20
24.94983873913766
 30
0.0
 40
0.5
  1
baldor
100
AcDbAttributeDefinition
  3

  2
COMPANY
 70
     8
280
     0
  0
LINE
  5
CD
330
B6
100
AcDbEntity
  8
AM_9
100
AcDbLine
 10
1.25
 20
25.32794904191262
 30
0.0
 11
1.25
 21
26.26622941803581
 31
0.0
  0
LINE
  5
CE
330
B6
100
AcDbEntity
  8
AM_9
100
AcDbLine
 10
-1.25
 20
25.32794904191262
 30
0.0
 11
-1.25
 21
26.26622941803581
 31
0.0
  0
ARC
  5
CF
330
B6
100
AcDbEntity
  8
AM_9
100
AcDbCircle
 10
0.0
 20
-0.000000000000001
 30
0.0
 40
26.29595611193648
100
AcDbArc
 50
92.72462899589306
 51
87.27537100410697
  0
CIRCLE
  5
D0
330
B6
100
AcDbEntity
  8
AM_9
100
AcDbCircle
 10
0.0
 20
0.0
 30
0.0
 40
27.75277777777777
  0
CIRCLE
  5
D1
330
B6
100
AcDbEntity
  8
AM_9
100
AcDbCircle
 10
0.0
 20
0.0
 30
0.0
 40
30.51727777777778
  0
LINE
  5
D2
330
B6
100
AcDbEntity
  8
AM_9
100
AcDbLine
 10
-33.51820000000001
 20
-1.981200000000003
 30
0.0
 11
-25.8943
 21
-1.981200000000003
 31
0.0
  0
LINE
  5
D3
330
B6
100
AcDbEntity
  8
AM_9
100
AcDbLine
 10
-25.8943
 20
1.981200000000003
 30
0.0
 11
-33.51820000000001
 21
1.981200000000003
 31
0.0
  0
LINE
  5
D4
330
B6
100
AcDbEntity
  8
AM_9
100
AcDbLine
 10
-25.8943
 20
-1.981200000000003
 30
0.0
 11
-25.4625
 21
-2.413000000000002
 31
0.0
  0
LINE
  5
D5
330
B6
100
AcDbEntity
  8
AM_9
100
AcDbLine
 10
-25.4625
 20
2.413000000000002
 30
0.0
 11
-25.8943
 21
1.981200000000003
 31
0.0
  0
LINE
  5
D6
330
B6
100
AcDbEntity
  8
AM_9
100
AcDbLine
 10
-25.4625
 20
2.413000000000002
 30
0.0
 11
-25.4625
 21
-2.413000000000002
 31
0.0
  0
LINE
  5
D7
330
B6
100
AcDbEntity
  8
AM_9
100
AcDbLine
 10
-25.8943
 20
1.981200000000003
 30
0.0
 11
-25.8943
 21
-1.981200000000003
 31
0.0
  0
LINE
  5
D8
330
B6
100
AcDbEntity
  8
AM_9
100
AcDbLine
 10
-33.51820000000001
 20
1.981200000000003
 30
0.0
 11
-33.85710265703992
 21
2.320102657039914
 31
0.0
  0
LINE
  5
D9
330
B6
100
AcDbEntity
  8
AM_9
100
AcDbLine
 10
-33.86677280799073
 20
-2.329772807990734
 30
0.0
 11
-33.51820000000001
 21
-1.981200000000003
 31
0.0
  0
LINE
  5
DA
330
B6
100
AcDbEntity
  8
AM_9
100
AcDbLine
 10
-33.51820000000001
 20
1.981200000000003
 30
0.0
 11
-33.51820000000001
 21
-1.981200000000003
 31
0.0
  0
LWPOLYLINE
  5
DB
330
B6
100
AcDbEntity
  8
AM_9
100
AcDbPolyline
 90
        5
 70
     0
 43
0.0
 10
-33.92963168124634
 20
1.175837563171607
 10
-33.90802684310801
 20
1.68766572728917
 10
-33.88378636935894
 20
2.119320946823587
 10
-33.87043931900447
 20
2.322894818461791
 10
-33.86976124073815
 20
2.332760916894832
  0
LINE
  5
DC
330
B6
100
AcDbEntity
  8
AM_9
100
AcDbLine
 10
-33.92110634093348
 20
-1.400373024262542
 30
0.0
 11
-33.9297184353178
 21
-1.173331538848757
 31
0.0
  0
LINE
  5
DD
330
B6
100
AcDbEntity
  8
AM_9
100
AcDbLine
 10
-33.86976122402204
 20
-2.332761159598919
 30
0.0
 11
-33.92110634093348
 21
-1.400373024262542
 31
0.0
  0
LINE
  5
DF
330
B6
100
AcDbEntity
  8
AM_5
100
AcDbLine
 10
-33.86413930694238
 20
-2.413000000000002
 30
0.0
 11
-25.4625
 21
-2.413000000000002
 31
0.0
  0
LINE
  5
E0
330
B6
100
AcDbEntity
  8
AM_5
100
AcDbLine
 10
-33.86413930694238
 20
2.412999999999998
 30
0.0
 11
-25.46250000000001
 21
2.412999999999998
 31
0.0
  0
LWPOLYLINE
  5
E1
330
B6
100
AcDbEntity
  8
AM_4
100
AcDbPolyline
 90
        6
 70
     0
 43
0.0
 10
-33.9297184353178
 20
-1.173331538848757
 10
-33.93093808060068
 20
-1.13751526163099
 10
-33.94770838706329
 20
-0.394455658994675
 10
-33.94796434130424
 20
0.3717755795309075
 10
-33.93263594872852
 20
1.085687602884595
 10
-33.92963168124634
 20
1.175837563171607
  0
LINE
  5
E2
330
B6
100
AcDbEntity
  8
AM_4
100
AcDbLine
 10
-14.1737950327885
 20
-30.84973313285708
 30
0.0
 11
-13.11534953917755
 21
-29.01645176088059
 31
0.0
  0
LINE
  5
E3
330
B6
100
AcDbEntity
  8
AM_4
100
AcDbLine
 10
31.68665912219708
 20
-3.15
 30
0.0
 11
33.80355010941899
 21
-3.15
 31
0.0
  0
ARC
  5
E4
330
B6
100
AcDbEntity
  8
AM_4
100
AcDbCircle
 10
0.0000000000000002
 20
0.0
 30
0.0
 40
33.95
100
AcDbArc
 50
245.3237604809485
 51
354.6762395190515
  0
LINE
  5
E5
330
B6
100
AcDbEntity
  8
AM_4
100
AcDbLine
 10
-13.11534953917757
 20
29.01645176088058
 30
0.0
 11
-14.17379503278852
 21
30.84973313285707
 31
0.0
  0
LINE
  5
E6
330
B6
100
AcDbEntity
  8
AM_4
100
AcDbLine
 10
33.80355010941899
 20
3.15
 30
0.0
 11
31.68665912219708
 21
3.15
 31
0.0
  0
ARC
  5
E7
330
B6
100
AcDbEntity
  8
AM_4
100
AcDbCircle
 10
0.0000000000000071
 20
0.0
 30
0.0
 40
33.95
100
AcDbArc
 50
5.323760480948492
 51
114.6762395190516
  0
LINE
  5
E8
330
B6
100
AcDbEntity
  8
AM_4
100
AcDbLine
 10
-19.62975507663048
 20
27.69973313285707
 30
0.0
 11
-18.57130958301953
 21
25.86645176088058
 31
0.0
  0
LINE
  5
E9
330
B6
100
AcDbEntity
  8
AM_4
100
AcDbLine
 10
-18.57130958301951
 20
-25.86645176088059
 30
0.0
 11
-19.62975507663047
 21
-27.69973313285709
 31
0.0
  0
ARC
  5
EA
330
B6
100
AcDbEntity
  8
AM_4
100
AcDbCircle
 10
-0.0000000000000107
 20
0.0000000000000107
 30
0.0
 40
33.94999999999999
100
AcDbArc
 50
125.3237604809485
 51
178.0233217185665
  0
LWPOLYLINE
  5
EB
330
B6
100
AcDbEntity
  8
AM_4
100
AcDbPolyline
 90
        5
 70
     0
 43
0.0
 10
-33.92979804388686
 20
1.171027199108119
 10
-33.8262152083015
 20
0.6157546904929291
 10
-33.78689414581038
 20
0.024213891565664
 10
-33.82092651513692
 20
-0.572973777513795
 10
-33.92979804388686
 20
-1.171027199108133
  0
ARC
  5
EC
330
B6
100
AcDbEntity
  8
AM_4
100
AcDbCircle
 10
-0.0000000000000178
 20
-0.0000000000000213
 30
0.0
 40
33.94999999999998
100
AcDbArc
 50
181.9766782814336
 51
234.6762395190516
  0
LINE
  5
ED
330
B6
100
AcDbEntity
  8
AM_4
100
AcDbLine
 10
1.25
 20
22.46525094451428
 30
0.0
 11
1.25
 21
25.32777777777778
 31
0.0
  0
LINE
  5
EE
330
B6
100
AcDbEntity
  8
AM_4
100
AcDbLine
 10
-1.25
 20
22.46525094451428
 30
0.0
 11
-1.250000000000001
 21
25.32777777777778
 31
0.0
  0
LINE
  5
EF
330
B6
100
AcDbEntity
  8
AM_4
100
AcDbLine
 10
-1.250000000000001
 20
25.32777777777778
 30
0.0
 11
1.25
 21
25.32777777777778
 31
0.0
  0
LINE
  5
F0
330
B6
100
AcDbEntity
  8
AM_4
100
AcDbLine
 10
31.68665912219708
 20
3.15
 30
0.0
 11
31.68665912219708
 21
-3.15
 31
0.0
  0
ARC
  5
F1
330
B6
100
AcDbEntity
  8
AM_4
100
AcDbCircle
 10
0.0000000000000036
 20
-0.0000000000000018
 30
0.0
 40
33.07
100
AcDbArc
 50
5.46585259661803
 51
114.534147403382
  0
LINE
  5
F2
330
B6
100
AcDbEntity
  8
AM_4
100
AcDbLine
 10
-18.57130958301953
 20
25.86645176088058
 30
0.0
 11
-13.11534953917757
 21
29.01645176088058
 31
0.0
  0
ARC
  5
F3
330
B6
100
AcDbEntity
  8
AM_4
100
AcDbCircle
 10
0.0000000000000213
 20
0.0000000000000018
 30
0.0
 40
33.07000000000001
100
AcDbArc
 50
125.465852596618
 51
234.534147403382
  0
LINE
  5
F4
330
B6
100
AcDbEntity
  8
AM_4
100
AcDbLine
 10
-13.11534953917755
 20
-29.01645176088059
 30
0.0
 11
-18.57130958301951
 21
-25.86645176088059
 31
0.0
  0
ARC
  5
F5
330
B6
100
AcDbEntity
  8
AM_4
100
AcDbCircle
 10
0.0000000000000056
 20
0.0000000000000036
 30
0.0
 40
33.07000000000001
100
AcDbArc
 50
245.465852596618
 51
354.534147403382
  0
ARC
  5
F6
330
B6
100
AcDbEntity
  8
AM_4
100
AcDbCircle
 10
0.0
 20
0.0000000000000014
 30
0.0
 40
22.5
100
AcDbArc
 50
93.18473853672042
 51
86.81526146327961
  0
ARC
  5
F7
330
B6
100
AcDbEntity
  8
AM_4
100
AcDbCircle
 10
0.0
 20
-0.0000000000000009
 30
0.0
 40
25.32777777777777
100
AcDbArc
 50
92.82886367285475
 51
87.17113632714525
  0
ENDBLK
  5
B9
330
B6
100
AcDbEntity
  8
0
100
AcDbBlockEnd
  0
BLOCK
  5
FA
330
F8
100
AcDbEntity
  8
0
100
AcDbBlockBegin
  2
4_P2B_GTEZ_09_PCR_0_in_129257_0
 70
     2
 10
0.0
 20
0.0
 30
0.0
  3
4_P2B_GTEZ_09_PCR_0_in_129257_0
  1

  0
ATTDEF
  5
FC
330
F8
100
AcDbEntity
  8
AM_6
100
AcDbText
 10
96.5
 20
82.37499999999999
 30
0.0
 40
0.5
  1
P2B-GTEZ-PCR-M-Body
100
AcDbAttributeDefinition
  3

  2
NN
 70
     8
280
     0
  0
ATTDEF
  5
FD
330
F8
100
AcDbEntity
  8
AM_6
100
AcDbText
 10
96.5
 20
81.87499999999999
 30
0.0
 40
0.5
  1
GTEZ Normal Duty Polymer Housed Pillow Blocks
100
AcDbAttributeDefinition
  3

  2
NT
 70
     8
280
     0
  0
ATTDEF
  5
FE
330
F8
100
AcDbEntity
  8
AM_6
100
AcDbText
 10
96.5
 20
81.37499999999999
 30
0.0
 40
0.5
  1
P2B-GTEZ-09-PCR
100
AcDbAttributeDefinition
  3

  2
NB
 70
     8
280
     0
  0
ATTDEF
  5
FF
330
F8
100
AcDbEntity
  8
AM_6
100
AcDbText
 10
96.5
 20
80.87499999999999
 30
0.0
 40
0.5
  1
$PN.$LUBE.
100
AcDbAttributeDefinition
  3

  2
NBSYN
 70
     8
280
     0
  0
ATTDEF
  5
100
330
F8
100
AcDbEntity
  8
AM_6
100
AcDbText
 10
96.5
 20
80.37499999999999
 30
0.0
 40
0.5
  1
P2B-GTEZ-09-PCR
100
AcDbAttributeDefinition
  3

  2
LINA
 70
     8
280
     0
  0
ATTDEF
  5
101
330
F8
100
AcDbEntity
  8
AM_6
100
AcDbText
 10
96.5
 20
79.87499999999999
 30
0.0
 40
0.5
  1
209
100
AcDbAttributeDefinition
  3

  2
SERIES
 70
     8
280
     0
  0
ATTDEF
  5
102
330
F8
100
AcDbEntity
  8
AM_6
100
AcDbText
 10
96.5
 20
79.37499999999999
 30
0.0
 40
0.5
  1
P2B-GTEZ-09-PCR
100
AcDbAttributeDefinition
  3

  2
PN
 70
     8
280
     0
  0
ATTDEF
  5
103
330
F8
100
AcDbEntity
  8
AM_6
100
AcDbText
 10
96.5
 20
78.87499999999999
 30
0.0
 40
0.5
  1
P2B-GTEZ-09-PCR
100
AcDbAttributeDefinition
  3

  2
DESCRIPTION
 70
     8
280
     0
  0
ATTDEF
  5
104
330
F8
100
AcDbEntity
  8
AM_6
100
AcDbText
 10
96.5
 20
78.37499999999999
 30
0.0
 40
0.5
  1
With Lube
100
AcDbAttributeDefinition
  3

  2
LUBE
 70
     8
280
     0
  0
ATTDEF
  5
105
330
F8
100
AcDbEntity
  8
AM_6
100
AcDbText
 10
96.5
 20
77.87499999999999
 30
0.0
 40
0.5
  1
85.0
100
AcDbAttributeDefinition
  3

  2
BOD
 70
     8
280
     0
  0
ATTDEF
  5
106
330
F8
100
AcDbEntity
  8
AM_6
100
AcDbText
 10
96.5
 20
77.37499999999999
 30
0.0
 40
0.5
  1
46.8
100
AcDbAttributeDefinition
  3

  2
A
 70
     8
280
     0
  0
ATTDEF
  5
107
330
F8
100
AcDbEntity
  8
AM_6
100
AcDbText
 10
96.5
 20
76.87499999999999
 30
0.0
 40
0.5
  1
183.0
100
AcDbAttributeDefinition
  3

  2
B
 70
     8
280
     0
  0
ATTDEF
  5
108
330
F8
100
AcDbEntity
  8
AM_6
100
AcDbText
 10
96.5
 20
76.37499999999999
 30
0.0
 40
0.5
  1
53.6
100
AcDbAttributeDefinition
  3

  2
C
 70
     8
280
     0
  0
ATTDEF
  5
109
330
F8
100
AcDbEntity
  8
AM_6
100
AcDbText
 10
96.5
 20
75.87499999999999
 30
0.0
 40
0.5
  1
137.7
100
AcDbAttributeDefinition
  3

  2
DMIN
 70
     8
280
     0
  0
ATTDEF
  5
10A
330
F8
100
AcDbEntity
  8
AM_6
100
AcDbText
 10
96.5
 20
75.37499999999999
 30
0.0
 40
0.5
  1
151.6
100
AcDbAttributeDefinition
  3

  2
DMAX
 70
     8
280
     0
  0
ATTDEF
  5
10B
330
F8
100
AcDbEntity
  8
AM_6
100
AcDbText
 10
96.5
 20
74.87499999999999
 30
0.0
 40
0.5
  1
M12
100
AcDbAttributeDefinition
  3

  2
F
 70
     8
280
     0
  0
ATTDEF
  5
10C
330
F8
100
AcDbEntity
  8
AM_6
100
AcDbText
 10
96.5
 20
74.37499999999999
 30
0.0
 40
0.5
  1
22.2
100
AcDbAttributeDefinition
  3

  2
G
 70
     8
280
     0
  0
ATTDEF
  5
10D
330
F8
100
AcDbEntity
  8
AM_6
100
AcDbText
 10
96.5
 20
73.87499999999999
 30
0.0
 40
0.5
  1
21.4
100
AcDbAttributeDefinition
  3

  2
H
 70
     8
280
     0
  0
ATTDEF
  5
10E
330
F8
100
AcDbEntity
  8
AM_6
100
AcDbText
 10
96.5
 20
73.37499999999999
 30
0.0
 40
0.5
  1
109.5
100
AcDbAttributeDefinition
  3

  2
J
 70
     8
280
     0
  0
ATTDEF
  5
10F
330
F8
100
AcDbEntity
  8
AM_6
100
AcDbText
 10
96.5
 20
72.87499999999999
 30
0.0
 40
0.5
  1
67.9
100
AcDbAttributeDefinition
  3

  2
L
 70
     8
280
     0
  0
ATTDEF
  5
110
330
F8
100
AcDbEntity
  8
AM_6
100
AcDbText
 10
96.5
 20
72.37499999999999
 30
0.0
 40
0.5
  1
54.0
100
AcDbAttributeDefinition
  3

  2
M
 70
     8
280
     0
  0
ATTDEF
  5
111
330
F8
100
AcDbEntity
  8
AM_6
100
AcDbText
 10
96.5
 20
71.87499999999999
 30
0.0
 40
0.5
  1
16.7
100
AcDbAttributeDefinition
  3

  2
R
 70
     8
280
     0
  0
ATTDEF
  5
112
330
F8
100
AcDbEntity
  8
AM_6
100
AcDbText
 10
96.5
 20
71.37499999999999
 30
0.0
 40
0.5
  1
30.2
100
AcDbAttributeDefinition
  3

  2
S
 70
     8
280
     0
  0
ATTDEF
  5
113
330
F8
100
AcDbEntity
  8
AM_6
100
AcDbText
 10
96.5
 20
70.87499999999999
 30
0.0
 40
0.5
  1
29.4
100
AcDbAttributeDefinition
  3

  2
Z
 70
     8
280
     0
  0
ATTDEF
  5
114
330
F8
100
AcDbEntity
  8
AM_6
100
AcDbText
 10
96.5
 20
70.37499999999999
 30
0.0
 40
0.5
  1
baldor
100
AcDbAttributeDefinition
  3

  2
COMPANY
 70
     8
280
     0
  0
LINE
  5
115
330
F8
100
AcDbEntity
  8
AM_9
100
AcDbLine
 10
75.8
 20
-32.6
 30
0.0
 11
75.8
 21
-54.0
 31
0.0
  0
LINE
  5
116
330
F8
100
AcDbEntity
  8
AM_9
100
AcDbLine
 10
83.42500000000001
 20
-54.0
 30
0.0
 11
83.42500000000001
 21
-32.6
 31
0.0
  0
LINE
  5
117
330
F8
100
AcDbEntity
  8
AM_9
100
AcDbLine
 10
-68.85
 20
-32.6
 30
0.0
 11
-68.85
 21
-54.0
 31
0.0
  0
LINE
  5
118
330
F8
100
AcDbEntity
  8
AM_9
100
AcDbLine
 10
-61.22499999999999
 20
-54.0
 30
0.0
 11
-61.22499999999999
 21
-32.6
 31
0.0
  0
LINE
  5
119
330
F8
100
AcDbEntity
  8
AM_9
100
AcDbLine
 10
68.85
 20
-32.6
 30
0.0
 11
68.85
 21
-54.0
 31
0.0
  0
LINE
  5
11A
330
F8
100
AcDbEntity
  8
AM_9
100
AcDbLine
 10
61.22499999999999
 20
-32.6
 30
0.0
 11
61.22499999999999
 21
-54.0
 31
0.0
  0
LINE
  5
11B
330
F8
100
AcDbEntity
  8
AM_9
100
AcDbLine
 10
-75.80000000000001
 20
-32.6
 30
0.0
 11
-75.80000000000001
 21
-54.0
 31
0.0
  0
LINE
  5
11C
330
F8
100
AcDbEntity
  8
AM_9
100
AcDbLine
 10
-83.42500000000001
 20
-32.6
 30
0.0
 11
-83.42500000000001
 21
-54.0
 31
0.0
  0
LINE
  5
11D
330
F8
100
AcDbEntity
  8
AM_9
100
AcDbLine
 10
47.41
 20
30.21643040671807
 30
0.0
 11
47.41
 21
-32.6
 31
0.0
  0
LINE
  5
11E
330
F8
100
AcDbEntity
  8
AM_9
100
AcDbLine
 10
-47.41
 20
-32.6
 30
0.0
 11
-47.41
 21
30.21643040671807
 31
0.0
  0
LINE
  5
11F
330
F8
100
AcDbEntity
  8
AM_7
100
AcDbLine
 10
68.85
 20
-38.075
 30
0.0
 11
68.85
 21
82.37499999999999
 31
0.0
  0
LINE
  5
120
330
F8
100
AcDbEntity
  8
AM_7
100
AcDbLine
 10
-68.85
 20
-38.075
 30
0.0
 11
-68.85
 21
82.37499999999999
 31
0.0
  0
LINE
  5
121
330
F8
100
AcDbEntity
  8
AM_7
100
AcDbLine
 10
34.63366713009171
 20
34.63366713009163
 30
0.0
 11
47.2777919596392
 21
47.27779195963912
 31
0.0
  0
LINE
  5
122
330
F8
100
AcDbEntity
  8
AM_4
100
AcDbLine
 10
47.24980125781356
 20
44.94588775651064
 30
0.0
 11
44.9458878952678
 21
47.24980111905641
 31
0.0
  0
ARC
  5
123
330
F8
100
AcDbEntity
  8
AM_4
100
AcDbCircle
 10
44.80446640027341
 20
47.1083799015762
 30
0.0
 40
0.1999999999999695
100
AcDbArc
 50
44.99999999999136
 51
107.3005271919495
  0
ARC
  5
124
330
F8
100
AcDbEntity
  8
AM_4
100
AcDbCircle
 10
47.10837990157631
 20
44.80446640027334
 30
0.0
 40
0.1999999999999456
100
AcDbArc
 50
342.6994728080442
 51
45.00000000000288
  0
LINE
  5
125
330
F8
100
AcDbEntity
  8
AM_4
100
AcDbLine
 10
45.03718433538231
 20
39.38033008588985
 30
0.0
 11
39.38033008588991
 21
45.03718433538225
 31
0.0
  0
LINE
  5
126
330
F8
100
AcDbEntity
  8
AM_4
100
AcDbLine
 10
39.38033008588991
 20
45.03718433538225
 30
0.0
 11
38.82552725292183
 21
45.35749990034356
 31
0.0
  0
LINE
  5
127
330
F8
100
AcDbEntity
  8
AM_4
100
AcDbLine
 10
42.56231060122943
 20
36.9054563517369
 30
0.0
 11
36.90545635173699
 21
42.56231060122934
 31
0.0
  0
LINE
  5
128
330
F8
100
AcDbEntity
  8
AM_4
100
AcDbLine
 10
36.58514078677571
 20
43.11711343419742
 30
0.0
 11
36.90545635173699
 21
42.56231060122934
 31
0.0
  0
LINE
  5
129
330
F8
100
AcDbEntity
  8
AM_4
100
AcDbLine
 10
42.56231060122943
 20
36.9054563517369
 30
0.0
 11
43.11711343419751
 21
36.58514078677561
 31
0.0
  0
LINE
  5
12A
330
F8
100
AcDbEntity
  8
AM_4
100
AcDbLine
 10
45.35749990034362
 20
38.82552725292173
 30
0.0
 11
45.03718433538231
 21
39.38033008588985
 31
0.0
  0
LINE
  5
12B
330
F8
100
AcDbEntity
  8
AM_4
100
AcDbLine
 10
47.29933151422549
 20
44.74498966846454
 30
0.0
 11
44.74498966846463
 21
47.29933151422541
 31
0.0
  0
LINE
  5
12C
330
F8
100
AcDbEntity
  8
AM_4
100
AcDbLine
 10
44.74498966846463
 20
47.29933151422541
 30
0.0
 11
43.03124267548014
 21
46.76554146723023
 31
0.0
  0
LINE
  5
12D
330
F8
100
AcDbEntity
  8
AM_4
100
AcDbLine
 10
46.76554146723031
 20
43.03124267548004
 30
0.0
 11
47.29933151422549
 21
44.74498966846454
 31
0.0
  0
LINE
  5
12E
330
F8
100
AcDbEntity
  8
AM_4
100
AcDbLine
 10
46.76554146723031
 20
43.03124267548004
 30
0.0
 11
43.03124267548013
 21
46.76554146723021
 31
0.0
  0
ARC
  5
12F
330
F8
100
AcDbEntity
  8
AM_4
100
AcDbCircle
 10
43.1799345050021
 20
46.28816243560708
 30
0.0
 40
0.5000000000000285
100
AcDbArc
 50
107.3005271919465
 51
172.2172747954374
  0
ARC
  5
130
330
F8
100
AcDbEntity
  8
AM_4
100
AcDbCircle
 10
46.28816243560716
 20
43.17993450500203
 30
0.0
 40
0.5000000000000518
100
AcDbArc
 50
277.7827252045647
 51
342.6994728080519
  0
LINE
  5
131
330
F8
100
AcDbEntity
  8
AM_4
100
AcDbLine
 10
46.35587086248592
 20
42.68454014801998
 30
0.0
 11
42.68454014802008
 21
46.35587086248582
 31
0.0
  0
ARC
  5
132
330
F8
100
AcDbEntity
  8
AM_4
100
AcDbCircle
 10
40.60598183994663
 20
46.63995970607175
 30
0.0
 40
2.097882530341291
100
AcDbArc
 50
269.3562542858253
 51
352.2172695091479
  0
ARC
  5
133
330
F8
100
AcDbEntity
  8
AM_4
100
AcDbCircle
 10
46.63995970607187
 20
40.6059818399465
 30
0.0
 40
2.097882530341336
100
AcDbArc
 50
97.78273049085293
 51
180.643745714173
  0
LINE
  5
134
330
F8
100
AcDbEntity
  8
AM_4
100
AcDbLine
 10
37.7539844891609
 20
41.71378246380547
 30
0.0
 11
36.87010101267771
 21
40.82989898732227
 31
0.0
  0
LINE
  5
135
330
F8
100
AcDbEntity
  8
AM_4
100
AcDbLine
 10
40.82989898732237
 20
36.87010101267763
 30
0.0
 11
41.71378246380554
 21
37.75398448916081
 31
0.0
  0
LINE
  5
136
330
F8
100
AcDbEntity
  8
AM_4
100
AcDbLine
 10
44.54220958855172
 20
40.58241161390701
 30
0.0
 11
40.5824116139071
 21
44.54220958855164
 31
0.0
  0
LINE
  5
137
330
F8
100
AcDbEntity
  8
AM_4
100
AcDbLine
 10
40.5824116139071
 20
44.54220958855164
 30
0.0
 11
40.22885822331381
 21
44.18865619795836
 31
0.0
  0
LINE
  5
138
330
F8
100
AcDbEntity
  8
AM_4
100
AcDbLine
 10
44.18865619795845
 20
40.22885822331373
 30
0.0
 11
44.54220958855174
 21
40.58241161390701
 31
0.0
  0
LINE
  5
139
330
F8
100
AcDbEntity
  8
AM_4
100
AcDbLine
 10
38.82552725292183
 20
45.35749990034354
 30
0.0
 11
36.5851407867757
 21
43.11711343419742
 31
0.0
  0
LWPOLYLINE
  5
13A
330
F8
100
AcDbEntity
  8
AM_4
100
AcDbPolyline
 90
        3
 70
     0
 43
0.0
 10
37.28439373370003
 20
42.1833732192663
 10
36.90709174326925
 20
42.62256780976325
 10
36.5851407867757
 20
43.11711343419742
  0
LINE
  5
13B
330
F8
100
AcDbEntity
  8
AM_4
100
AcDbLine
 10
40.45852041477728
 20
43.7245067384881
 30
0.0
 11
38.21813394863116
 21
41.48412027234198
 31
0.0
  0
LWPOLYLINE
  5
13C
330
F8
100
AcDbEntity
  8
AM_4
100
AcDbPolyline
 90
        3
 70
     0
 43
0.0
 10
38.82552725292183
 20
45.35749990034354
 10
39.31796389006674
 20
45.03711114504882
 10
39.75926746785295
 20
44.65824695341922
  0
LINE
  5
13D
330
F8
100
AcDbEntity
  8
AM_4
100
AcDbLine
 10
43.72450673848817
 20
40.45852041477718
 30
0.0
 11
41.48412027234206
 21
38.21813394863107
 31
0.0
  0
LWPOLYLINE
  5
13E
330
F8
100
AcDbEntity
  8
AM_4
100
AcDbPolyline
 90
        3
 70
     0
 43
0.0
 10
43.11711343419751
 20
36.58514078677561
 10
42.62467679705261
 20
36.90552954207035
 10
42.18337321926639
 20
37.28439373369996
  0
LINE
  5
13F
330
F8
100
AcDbEntity
  8
AM_4
100
AcDbLine
 10
45.35749990034363
 20
38.82552725292173
 30
0.0
 11
43.11711343419751
 21
36.58514078677561
 31
0.0
  0
LWPOLYLINE
  5
140
330
F8
100
AcDbEntity
  8
AM_4
100
AcDbPolyline
 90
        3
 70
     0
 43
0.0
 10
44.6582469534193
 20
39.75926746785286
 10
45.03554894385007
 20
39.3200728773559
 10
45.35749990034363
 20
38.82552725292173
  0
LWPOLYLINE
  5
141
330
F8
100
AcDbEntity
  8
AM_4
100
AcDbPolyline
 90
        3
 70
     0
 43
0.0
 10
39.75926746785295
 20
44.65824695341922
 10
40.13656945828372
 20
44.21905236292228
 10
40.45852041477728
 20
43.7245067384881
  0
LWPOLYLINE
  5
142
330
F8
100
AcDbEntity
  8
AM_4
100
AcDbPolyline
 90
        3
 70
     0
 43
0.0
 10
40.45852041477728
 20
43.7245067384881
 10
41.35736974814201
 20
42.99770528697353
 10
42.20875721063613
 20
42.20875721063604
  0
LWPOLYLINE
  5
143
330
F8
100
AcDbEntity
  8
AM_4
100
AcDbPolyline
 90
        3
 70
     0
 43
0.0
 10
42.20875721063613
 20
42.20875721063604
 10
42.99430749153077
 20
41.36131432967522
 10
43.72450673848817
 20
40.45852041477718
  0
LWPOLYLINE
  5
144
330
F8
100
AcDbEntity
  8
AM_4
100
AcDbPolyline
 90
        3
 70
     0
 43
0.0
 10
43.72450673848817
 20
40.45852041477718
 10
44.21694337563308
 20
40.13813165948245
 10
44.6582469534193
 20
39.75926746785286
  0
LWPOLYLINE
  5
145
330
F8
100
AcDbEntity
  8
AM_4
100
AcDbPolyline
 90
        3
 70
     0
 43
0.0
 10
39.73388347648321
 20
39.73388347648312
 10
38.94833319558857
 20
40.58132635744393
 10
38.21813394863116
 20
41.48412027234198
  0
LWPOLYLINE
  5
146
330
F8
100
AcDbEntity
  8
AM_4
100
AcDbPolyline
 90
        3
 70
     0
 43
0.0
 10
38.21813394863116
 20
41.48412027234198
 10
37.72569731148624
 20
41.80450902763671
 10
37.28439373370003
 20
42.1833732192663
  0
LWPOLYLINE
  5
147
330
F8
100
AcDbEntity
  8
AM_4
100
AcDbPolyline
 90
        3
 70
     0
 43
0.0
 10
42.18337321926639
 20
37.28439373369996
 10
41.80607122883561
 20
37.72358832419689
 10
41.48412027234206
 20
38.21813394863107
  0
LWPOLYLINE
  5
148
330
F8
100
AcDbEntity
  8
AM_4
100
AcDbPolyline
 90
        3
 70
     0
 43
0.0
 10
41.48412027234206
 20
38.21813394863107
 10
40.58527093897732
 20
38.94493540014562
 10
39.73388347648321
 20
39.73388347648312
  0
LINE
  5
149
330
F8
100
AcDbEntity
  8
AM_4
100
AcDbLine
 10
-3.848439999999991
 20
43.94401000000001
 30
0.0
 11
-4.159429999999997
 21
44.01801000000002
 31
0.0
  0
LINE
  5
14A
330
F8
100
AcDbEntity
  8
AM_4
100
AcDbLine
 10
-3.226470000000001
 20
43.94401000000001
 30
0.0
 11
-3.848439999999991
 21
43.94401000000001
 31
0.0
  0
LINE
  5
14B
330
F8
100
AcDbEntity
  8
AM_4
100
AcDbLine
 10
-2.915489999999997
 20
44.01801000000002
 30
0.0
 11
-3.226470000000001
 21
43.94401000000001
 31
0.0
  0
LINE
  5
14C
330
F8
100
AcDbEntity
  8
AM_4
100
AcDbLine
 10
-4.625899999999995
 20
45.79405200000002
 30
0.0
 11
-4.548159999999996
 21
46.09005899999998
 31
0.0
  0
LINE
  5
14D
330
F8
100
AcDbEntity
  8
AM_4
100
AcDbLine
 10
-4.625899999999988
 20
44.684028
 30
0.0
 11
-4.625899999999995
 21
45.79405200000002
 31
0.0
  0
LINE
  5
14E
330
F8
100
AcDbEntity
  8
AM_4
100
AcDbLine
 10
-4.548160000000007
 20
44.38802100000002
 30
0.0
 11
-4.625899999999988
 21
44.684028
 31
0.0
  0
LINE
  5
14F
330
F8
100
AcDbEntity
  8
AM_4
100
AcDbLine
 10
-4.392659999999997
 20
44.16602000000001
 30
0.0
 11
-4.548160000000007
 21
44.38802100000002
 31
0.0
  0
LINE
  5
150
330
F8
100
AcDbEntity
  8
AM_4
100
AcDbLine
 10
-4.159429999999997
 20
44.01801000000002
 30
0.0
 11
-4.392659999999997
 21
44.16602000000001
 31
0.0
  0
LINE
  5
151
330
F8
100
AcDbEntity
  8
AM_4
100
AcDbLine
 10
-2.682250000000006
 20
44.16602
 30
0.0
 11
-2.915489999999997
 21
44.01801000000002
 31
0.0
  0
LINE
  5
152
330
F8
100
AcDbEntity
  8
AM_4
100
AcDbLine
 10
-2.526749999999996
 20
44.38802100000002
 30
0.0
 11
-2.682250000000006
 21
44.16602
 31
0.0
  0
LINE
  5
153
330
F8
100
AcDbEntity
  8
AM_4
100
AcDbLine
 10
-2.449009999999994
 20
44.68402799999999
 30
0.0
 11
-2.526749999999996
 21
44.38802100000002
 31
0.0
  0
LINE
  5
154
330
F8
100
AcDbEntity
  8
AM_4
100
AcDbLine
 10
-2.449010000000001
 20
45.79405200000002
 30
0.0
 11
-2.449009999999994
 21
44.68402799999999
 31
0.0
  0
LINE
  5
155
330
F8
100
AcDbEntity
  8
AM_4
100
AcDbLine
 10
-2.526750000000006
 20
46.09005900000001
 30
0.0
 11
-2.449010000000001
 21
45.79405200000002
 31
0.0
  0
LINE
  5
156
330
F8
100
AcDbEntity
  8
AM_4
100
AcDbLine
 10
-2.682249999999985
 20
46.31206
 30
0.0
 11
-2.526750000000006
 21
46.09005900000001
 31
0.0
  0
LINE
  5
157
330
F8
100
AcDbEntity
  8
AM_4
100
AcDbLine
 10
-2.915489999999997
 20
46.46007
 30
0.0
 11
-2.682249999999985
 21
46.31206
 31
0.0
  0
LINE
  5
158
330
F8
100
AcDbEntity
  8
AM_4
100
AcDbLine
 10
-3.226469999999991
 20
46.53407000000001
 30
0.0
 11
-2.915489999999997
 21
46.46007
 31
0.0
  0
LINE
  5
159
330
F8
100
AcDbEntity
  8
AM_4
100
AcDbLine
 10
-3.848440000000001
 20
46.53407000000001
 30
0.0
 11
-3.226469999999991
 21
46.53407000000001
 31
0.0
  0
LINE
  5
15A
330
F8
100
AcDbEntity
  8
AM_4
100
AcDbLine
 10
-4.159429999999997
 20
46.46006999999999
 30
0.0
 11
-3.848440000000001
 21
46.53407000000001
 31
0.0
  0
LINE
  5
15B
330
F8
100
AcDbEntity
  8
AM_4
100
AcDbLine
 10
-4.392660000000018
 20
46.31205999999998
 30
0.0
 11
-4.159429999999997
 21
46.46006999999999
 31
0.0
  0
LINE
  5
15C
330
F8
100
AcDbEntity
  8
AM_4
100
AcDbLine
 10
-4.548159999999996
 20
46.09005899999998
 30
0.0
 11
-4.392660000000018
 21
46.31205999999998
 31
0.0
  0
LINE
  5
15D
330
F8
100
AcDbEntity
  8
AM_4
100
AcDbLine
 10
-8.357729999999998
 20
43.94401000000001
 30
0.0
 11
-8.357729999999998
 21
46.53407000000001
 31
0.0
  0
LINE
  5
15E
330
F8
100
AcDbEntity
  8
AM_4
100
AcDbLine
 10
-6.958290000000006
 20
43.94401000000001
 30
0.0
 11
-8.357729999999998
 21
43.94401000000001
 31
0.0
  0
LINE
  5
15F
330
F8
100
AcDbEntity
  8
AM_4
100
AcDbLine
 10
-6.647309999999981
 20
44.01801000000002
 30
0.0
 11
-6.958290000000006
 21
43.94401000000001
 31
0.0
  0
LINE
  5
160
330
F8
100
AcDbEntity
  8
AM_4
100
AcDbLine
 10
-6.414069999999995
 20
44.16602000000001
 30
0.0
 11
-6.647309999999981
 21
44.01801000000002
 31
0.0
  0
LINE
  5
161
330
F8
100
AcDbEntity
  8
AM_4
100
AcDbLine
 10
-6.258579999999995
 20
44.38802100000002
 30
0.0
 11
-6.414069999999995
 21
44.16602000000001
 31
0.0
  0
LINE
  5
162
330
F8
100
AcDbEntity
  8
AM_4
100
AcDbLine
 10
-6.18083
 20
44.68402799999999
 30
0.0
 11
-6.258579999999995
 21
44.38802100000002
 31
0.0
  0
LINE
  5
163
330
F8
100
AcDbEntity
  8
AM_4
100
AcDbLine
 10
-6.180829999999998
 20
45.79405200000002
 30
0.0
 11
-6.18083
 21
44.68402799999999
 31
0.0
  0
LINE
  5
164
330
F8
100
AcDbEntity
  8
AM_4
100
AcDbLine
 10
-6.258579999999993
 20
46.09005900000001
 30
0.0
 11
-6.180829999999998
 21
45.79405200000002
 31
0.0
  0
LINE
  5
165
330
F8
100
AcDbEntity
  8
AM_4
100
AcDbLine
 10
-6.414069999999995
 20
46.31206000000001
 30
0.0
 11
-6.258579999999993
 21
46.09005900000001
 31
0.0
  0
LINE
  5
166
330
F8
100
AcDbEntity
  8
AM_4
100
AcDbLine
 10
-6.647309999999981
 20
46.46006999999999
 30
0.0
 11
-6.414069999999995
 21
46.31206000000001
 31
0.0
  0
LINE
  5
167
330
F8
100
AcDbEntity
  8
AM_4
100
AcDbLine
 10
-6.958289999999988
 20
46.53407000000001
 30
0.0
 11
-6.647309999999981
 21
46.46006999999999
 31
0.0
  0
LINE
  5
168
330
F8
100
AcDbEntity
  8
AM_4
100
AcDbLine
 10
-8.357729999999998
 20
46.53407000000001
 30
0.0
 11
-6.958289999999988
 21
46.53407000000001
 31
0.0
  0
LINE
  5
169
330
F8
100
AcDbEntity
  8
AM_4
100
AcDbLine
 10
-0.8940819999999996
 20
43.94401000000001
 30
0.0
 11
-0.8940819999999998
 21
46.53407000000001
 31
0.0
  0
LINE
  5
16A
330
F8
100
AcDbEntity
  8
AM_4
100
AcDbLine
 10
0.5053509999999872
 20
43.94401000000001
 30
0.0
 11
-0.8940819999999996
 21
43.94401000000001
 31
0.0
  0
LINE
  5
16B
330
F8
100
AcDbEntity
  8
AM_4
100
AcDbLine
 10
0.8163359999999867
 20
44.01801
 30
0.0
 11
0.5053509999999872
 21
43.94401000000001
 31
0.0
  0
LINE
  5
16C
330
F8
100
AcDbEntity
  8
AM_4
100
AcDbLine
 10
1.049569999999993
 20
44.16602
 30
0.0
 11
0.8163359999999867
 21
44.01801
 31
0.0
  0
LINE
  5
16D
330
F8
100
AcDbEntity
  8
AM_4
100
AcDbLine
 10
1.205070000000016
 20
44.38802099999999
 30
0.0
 11
1.049569999999993
 21
44.16602
 31
0.0
  0
LINE
  5
16E
330
F8
100
AcDbEntity
  8
AM_4
100
AcDbLine
 10
1.282810000000004
 20
44.68402799999999
 30
0.0
 11
1.205070000000016
 21
44.38802099999999
 31
0.0
  0
LINE
  5
16F
330
F8
100
AcDbEntity
  8
AM_4
100
AcDbLine
 10
1.282809999999998
 20
45.79405200000002
 30
0.0
 11
1.282810000000004
 21
44.68402799999999
 31
0.0
  0
LINE
  5
170
330
F8
100
AcDbEntity
  8
AM_4
100
AcDbLine
 10
1.205069999999995
 20
46.09005899999998
 30
0.0
 11
1.282809999999998
 21
45.79405200000002
 31
0.0
  0
LINE
  5
171
330
F8
100
AcDbEntity
  8
AM_4
100
AcDbLine
 10
1.049570000000014
 20
46.31206000000001
 30
0.0
 11
1.205069999999995
 21
46.09005899999998
 31
0.0
  0
LINE
  5
172
330
F8
100
AcDbEntity
  8
AM_4
100
AcDbLine
 10
0.8163360000000006
 20
46.46007000000002
 30
0.0
 11
1.049570000000014
 21
46.31206000000001
 31
0.0
  0
LINE
  5
173
330
F8
100
AcDbEntity
  8
AM_4
100
AcDbLine
 10
0.5053509999999939
 20
46.53407000000001
 30
0.0
 11
0.8163360000000006
 21
46.46007000000002
 31
0.0
  0
LINE
  5
174
330
F8
100
AcDbEntity
  8
AM_4
100
AcDbLine
 10
-0.8940819999999998
 20
46.53407000000001
 30
0.0
 11
0.5053509999999939
 21
46.53407000000001
 31
0.0
  0
ARC
  5
175
330
F8
100
AcDbEntity
  8
AM_4
100
AcDbCircle
 10
0.0000000000000071
 20
0.0000000000000071
 30
0.0
 40
42.50000000000001
100
AcDbArc
 50
193.2752674832529
 51
346.7247325167471
  0
LWPOLYLINE
  5
176
330
F8
100
AcDbEntity
  8
AM_4
100
AcDbPolyline
 90
       19
 70
     0
 43
0.0
 10
-91.5
 20
-34.1
 10
-91.49429204713762
 20
-33.96926638587851
 10
-91.47721162951831
 20
-33.8395277334996
 10
-91.4488887394336
 20
-33.71177143234622
 10
-91.40953893117886
 20
-33.5869697850115
 10
-91.35946168055497
 20
-33.46607260738895
 10
-91.29903810567664
 20
-33.34999999999999
 10
-91.22872806643348
 20
-33.23963534547343
 10
-91.14906666467847
 20
-33.13581858547019
 10
-91.06066017177982
 20
-33.03933982822018
 10
-90.9641814145298
 20
-32.95093333532154
 10
-90.86036465452658
 20
-32.87127193356651
 10
-90.75
 20
-32.80096189432334
 10
-90.63392739261104
 20
-32.74053831944502
 10
-90.51303021498849
 20
-32.69046106882114
 10
-90.38822856765377
 20
-32.6511112605664
 10
-90.2604722665004
 20
-32.62278837048169
 10
-90.13073361412148
 20
-32.60570795286238
 10
-90.0
 20
-32.6
  0
LINE
  5
177
330
F8
100
AcDbEntity
  8
AM_4
100
AcDbLine
 10
-91.5
 20
-34.1
 30
0.0
 11
-91.5
 21
-54.0
 31
0.0
  0
LINE
  5
178
330
F8
100
AcDbEntity
  8
AM_4
100
AcDbLine
 10
-44.44545454545455
 20
-9.759259259259224
 30
0.0
 11
-44.44545454545455
 21
-54.0
 31
0.0
  0
LINE
  5
179
330
F8
100
AcDbEntity
  8
AM_4
100
AcDbLine
 10
-47.385
 20
30.315
 30
0.0
 11
-63.34200000000001
 21
-32.59999999999999
 31
0.0
  0
LINE
  5
17A
330
F8
100
AcDbEntity
  8
AM_4
100
AcDbLine
 10
63.34199999999998
 20
-32.59999999999999
 30
0.0
 11
47.385
 21
30.315
 31
0.0
  0
LINE
  5
17B
330
F8
100
AcDbEntity
  8
AM_4
100
AcDbLine
 10
-47.41000000000005
 20
-32.59999999999997
 30
0.0
 11
-44.44545454545455
 21
-9.759259259259224
 31
0.0
  0
LINE
  5
17C
330
F8
100
AcDbEntity
  8
AM_4
100
AcDbLine
 10
-44.44545454545455
 20
-9.759259259259224
 30
0.0
 11
-41.36431866609873
 21
-9.75925925925921
 31
0.0
  0
LWPOLYLINE
  5
17D
330
F8
100
AcDbEntity
  8
AM_4
100
AcDbPolyline
 90
       43
 70
     0
 43
0.0
 10
41.36431866609872
 20
-9.759259259259283
 10
42.05749043475266
 20
-6.116984414782224
 10
42.4305793061911
 20
-2.428155625372498
 10
42.48074584882515
 20
1.279152894506766
 10
42.20760826497398
 20
4.976726288485199
 10
41.6132452965757
 20
8.636423790378766
 10
40.70218040470598
 20
12.23039289241229
 10
39.48134734330796
 20
15.73128131962142
 10
37.96003738913805
 20
19.11244519718085
 10
36.14982862953955
 20
22.34815182637981
 10
34.06449784620693
 20
25.413775525997
 10
31.7199156655585
 20
28.28598504860414
 10
29.13392577368644
 20
30.94292114544665
 10
26.32620911513127
 20
33.36436292852569
 10
23.31813410901026
 20
35.53188176376552
 10
20.13259402244536
 20
37.42898152404628
 10
16.79383273897702
 20
39.04122413469209
 10
13.3272602479716
 20
40.35633945593723
 10
9.759259259259359
 20
41.3643186660987
 10
6.116984414782302
 20
42.05749043475265
 10
2.428155625372576
 20
42.43057930619109
 10
-1.279152894506688
 20
42.48074584882515
 10
-4.976726288485121
 20
42.20760826497399
 10
-8.63642379037869
 20
41.61324529657572
 10
-12.23039289241221
 20
40.70218040470601
 10
-15.73128131962134
 20
39.48134734330799
 10
-19.11244519718078
 20
37.96003738913809
 10
-22.34815182637974
 20
36.14982862953959
 10
-25.41377552599694
 20
34.06449784620697
 10
-28.28598504860408
 20
31.71991566555855
 10
-30.9429211454466
 20
29.1339257736865
 10
-33.36436292852564
 20
26.32620911513133
 10
-35.53188176376547
 20
23.31813410901033
 10
-37.42898152404624
 20
20.13259402244543
 10
-39.04122413469206
 20
16.79383273897709
 10
-40.35633945593721
 20
13.32726024797167
 10
-41.36431866609868
 20
9.759259259259434
 10
-42.05749043475264
 20
6.11698441478238
 10
-42.43057930619109
 20
2.428155625372654
 10
-42.48074584882516
 20
-1.27915289450661
 10
-42.20760826497401
 20
-4.976726288485044
 10
-41.61324529657573
 20
-8.636423790378615
 10
-41.36431866609873
 20
-9.759259259259192
  0
LINE
  5
17E
330
F8
100
AcDbEntity
  8
AM_4
100
AcDbLine
 10
41.36431866609872
 20
-9.759259259259267
 30
0.0
 11
44.44545454545455
 21
-9.75925925925928
 31
0.0
  0
LINE
  5
17F
330
F8
100
AcDbEntity
  8
AM_4
100
AcDbLine
 10
47.385
 20
30.315
 30
0.0
 11
22.2
 21
55.5
 31
0.0
  0
LINE
  5
180
330
F8
100
AcDbEntity
  8
AM_4
100
AcDbLine
 10
22.2
 20
55.5
 30
0.0
 11
-22.2
 21
55.5
 31
0.0
  0
LINE
  5
181
330
F8
100
AcDbEntity
  8
AM_4
100
AcDbLine
 10
-22.2
 20
55.5
 30
0.0
 11
-47.385
 21
30.315
 31
0.0
  0
LINE
  5
182
330
F8
100
AcDbEntity
  8
AM_4
100
AcDbLine
 10
-8.824199999999998
 20
43.50000000000001
 30
0.0
 11
-8.824200000000015
 21
46.97808000000003
 31
0.0
  0
LINE
  5
183
330
F8
100
AcDbEntity
  8
AM_4
100
AcDbLine
 10
-8.824200000000015
 20
46.97808000000003
 30
0.0
 11
-6.958290000000016
 21
46.97808
 31
0.0
  0
LINE
  5
184
330
F8
100
AcDbEntity
  8
AM_4
100
AcDbLine
 10
-6.958290000000016
 20
46.97808
 30
0.0
 11
-6.569560000000002
 21
46.90407999999999
 31
0.0
  0
LINE
  5
185
330
F8
100
AcDbEntity
  8
AM_4
100
AcDbLine
 10
-6.569560000000002
 20
46.90407999999999
 30
0.0
 11
-6.258580000000006
 21
46.75607000000003
 31
0.0
  0
LINE
  5
186
330
F8
100
AcDbEntity
  8
AM_4
100
AcDbLine
 10
-6.258580000000006
 20
46.75607000000003
 30
0.0
 11
-5.947590000000001
 21
46.46006999999999
 31
0.0
  0
LINE
  5
187
330
F8
100
AcDbEntity
  8
AM_4
100
AcDbLine
 10
-5.947590000000001
 20
46.46006999999999
 30
0.0
 11
-5.792100000000003
 21
46.16406
 31
0.0
  0
LINE
  5
188
330
F8
100
AcDbEntity
  8
AM_4
100
AcDbLine
 10
-5.792100000000003
 20
46.16406
 30
0.0
 11
-5.714350000000006
 21
45.79405200000002
 31
0.0
  0
LINE
  5
189
330
F8
100
AcDbEntity
  8
AM_4
100
AcDbLine
 10
-5.714350000000006
 20
45.79405200000002
 30
0.0
 11
-5.714350000000002
 21
44.68402799999999
 31
0.0
  0
LINE
  5
18A
330
F8
100
AcDbEntity
  8
AM_4
100
AcDbLine
 10
-5.714350000000002
 20
44.68402799999999
 30
0.0
 11
-5.792099999999989
 21
44.31402
 31
0.0
  0
LINE
  5
18B
330
F8
100
AcDbEntity
  8
AM_4
100
AcDbLine
 10
-5.792099999999989
 20
44.31402
 30
0.0
 11
-5.947589999999994
 21
44.01801
 31
0.0
  0
LINE
  5
18C
330
F8
100
AcDbEntity
  8
AM_4
100
AcDbLine
 10
-5.947589999999994
 20
44.01801
 30
0.0
 11
-6.258579999999993
 21
43.72200999999998
 31
0.0
  0
LINE
  5
18D
330
F8
100
AcDbEntity
  8
AM_4
100
AcDbLine
 10
-6.258579999999993
 20
43.72200999999998
 30
0.0
 11
-6.56955999999998
 21
43.574
 31
0.0
  0
LINE
  5
18E
330
F8
100
AcDbEntity
  8
AM_4
100
AcDbLine
 10
-6.56955999999998
 20
43.574
 30
0.0
 11
-6.958290000000016
 21
43.50000000000001
 31
0.0
  0
LINE
  5
18F
330
F8
100
AcDbEntity
  8
AM_4
100
AcDbLine
 10
-6.958290000000016
 20
43.50000000000001
 30
0.0
 11
-8.824199999999998
 21
43.50000000000001
 31
0.0
  0
LINE
  5
190
330
F8
100
AcDbEntity
  8
AM_4
100
AcDbLine
 10
-5.092380000000007
 20
44.68402799999998
 30
0.0
 11
-5.092380000000005
 21
45.79405200000002
 31
0.0
  0
LINE
  5
191
330
F8
100
AcDbEntity
  8
AM_4
100
AcDbLine
 10
-5.092380000000005
 20
45.79405200000002
 30
0.0
 11
-5.014640000000008
 21
46.16406000000003
 31
0.0
  0
LINE
  5
192
330
F8
100
AcDbEntity
  8
AM_4
100
AcDbLine
 10
-5.014640000000008
 20
46.16406000000003
 30
0.0
 11
-4.859140000000018
 21
46.46007
 31
0.0
  0
LINE
  5
193
330
F8
100
AcDbEntity
  8
AM_4
100
AcDbLine
 10
-4.859140000000018
 20
46.46007
 30
0.0
 11
-4.548160000000003
 21
46.75607000000003
 31
0.0
  0
LINE
  5
194
330
F8
100
AcDbEntity
  8
AM_4
100
AcDbLine
 10
-4.548160000000003
 20
46.75607000000003
 30
0.0
 11
-4.23717
 21
46.90408000000001
 31
0.0
  0
LINE
  5
195
330
F8
100
AcDbEntity
  8
AM_4
100
AcDbLine
 10
-4.23717
 20
46.90408000000001
 30
0.0
 11
-3.848440000000019
 21
46.97808
 31
0.0
  0
LINE
  5
196
330
F8
100
AcDbEntity
  8
AM_4
100
AcDbLine
 10
-3.848440000000019
 20
46.97808
 30
0.0
 11
-3.226470000000001
 21
46.97808000000001
 31
0.0
  0
LINE
  5
197
330
F8
100
AcDbEntity
  8
AM_4
100
AcDbLine
 10
-3.226470000000001
 20
46.97808000000001
 30
0.0
 11
-2.837739999999989
 21
46.90408000000001
 31
0.0
  0
LINE
  5
198
330
F8
100
AcDbEntity
  8
AM_4
100
AcDbLine
 10
-2.837739999999989
 20
46.90408000000001
 30
0.0
 11
-2.526750000000026
 21
46.75607000000003
 31
0.0
  0
LINE
  5
199
330
F8
100
AcDbEntity
  8
AM_4
100
AcDbLine
 10
-2.526750000000026
 20
46.75607000000003
 30
0.0
 11
-2.21576999999999
 21
46.46007000000002
 31
0.0
  0
LINE
  5
19A
330
F8
100
AcDbEntity
  8
AM_4
100
AcDbLine
 10
-2.21576999999999
 20
46.46007000000002
 30
0.0
 11
-2.060280000000006
 21
46.16406000000001
 31
0.0
  0
LINE
  5
19B
330
F8
100
AcDbEntity
  8
AM_4
100
AcDbLine
 10
-2.060280000000006
 20
46.16406000000001
 30
0.0
 11
-1.982530000000002
 21
45.79405200000001
 31
0.0
  0
LINE
  5
19C
330
F8
100
AcDbEntity
  8
AM_4
100
AcDbLine
 10
-1.982530000000002
 20
45.79405200000001
 30
0.0
 11
-1.982530000000006
 21
44.68402799999999
 31
0.0
  0
LINE
  5
19D
330
F8
100
AcDbEntity
  8
AM_4
100
AcDbLine
 10
-1.982530000000006
 20
44.68402799999999
 30
0.0
 11
-2.060279999999998
 21
44.31402
 31
0.0
  0
LINE
  5
19E
330
F8
100
AcDbEntity
  8
AM_4
100
AcDbLine
 10
-2.060279999999998
 20
44.31402
 30
0.0
 11
-2.215770000000004
 21
44.01801
 31
0.0
  0
LINE
  5
19F
330
F8
100
AcDbEntity
  8
AM_4
100
AcDbLine
 10
-2.215770000000004
 20
44.01801
 30
0.0
 11
-2.526749999999991
 21
43.72201
 31
0.0
  0
LINE
  5
1A0
330
F8
100
AcDbEntity
  8
AM_4
100
AcDbLine
 10
-2.526749999999991
 20
43.72201
 30
0.0
 11
-2.83774000000001
 21
43.57399999999998
 31
0.0
  0
LINE
  5
1A1
330
F8
100
AcDbEntity
  8
AM_4
100
AcDbLine
 10
-2.83774000000001
 20
43.57399999999998
 30
0.0
 11
-3.226470000000033
 21
43.49999999999999
 31
0.0
  0
LINE
  5
1A2
330
F8
100
AcDbEntity
  8
AM_4
100
AcDbLine
 10
-3.226470000000033
 20
43.49999999999999
 30
0.0
 11
-3.848440000000001
 21
43.50000000000001
 31
0.0
  0
LINE
  5
1A3
330
F8
100
AcDbEntity
  8
AM_4
100
AcDbLine
 10
-3.848440000000001
 20
43.50000000000001
 30
0.0
 11
-4.237170000000021
 21
43.574
 31
0.0
  0
LINE
  5
1A4
330
F8
100
AcDbEntity
  8
AM_4
100
AcDbLine
 10
-4.237170000000021
 20
43.574
 30
0.0
 11
-4.548159999999985
 21
43.72201
 31
0.0
  0
LINE
  5
1A5
330
F8
100
AcDbEntity
  8
AM_4
100
AcDbLine
 10
-4.548159999999985
 20
43.72201
 30
0.0
 11
-4.859140000000006
 21
44.01801000000002
 31
0.0
  0
LINE
  5
1A6
330
F8
100
AcDbEntity
  8
AM_4
100
AcDbLine
 10
-4.859140000000006
 20
44.01801000000002
 30
0.0
 11
-5.014640000000021
 21
44.31402
 31
0.0
  0
LINE
  5
1A7
330
F8
100
AcDbEntity
  8
AM_4
100
AcDbLine
 10
-5.014640000000021
 20
44.31402
 30
0.0
 11
-5.092380000000007
 21
44.68402799999998
 31
0.0
  0
LINE
  5
1A8
330
F8
100
AcDbEntity
  8
AM_4
100
AcDbLine
 10
0.50535099999998
 20
43.50000000000001
 30
0.0
 11
-1.36056
 21
43.50000000000001
 31
0.0
  0
LINE
  5
1A9
330
F8
100
AcDbEntity
  8
AM_4
100
AcDbLine
 10
-1.36056
 20
43.50000000000001
 30
0.0
 11
-1.36056
 21
46.97808000000001
 31
0.0
  0
LINE
  5
1AA
330
F8
100
AcDbEntity
  8
AM_4
100
AcDbLine
 10
-1.36056
 20
46.97808000000001
 30
0.0
 11
0.5053509999999872
 21
46.97808000000001
 31
0.0
  0
LINE
  5
1AB
330
F8
100
AcDbEntity
  8
AM_4
100
AcDbLine
 10
0.5053509999999872
 20
46.97808000000001
 30
0.0
 11
0.8940820000000094
 21
46.90408000000001
 31
0.0
  0
LINE
  5
1AC
330
F8
100
AcDbEntity
  8
AM_4
100
AcDbLine
 10
0.8940820000000094
 20
46.90408000000001
 30
0.0
 11
1.205070000000002
 21
46.75607000000002
 31
0.0
  0
LINE
  5
1AD
330
F8
100
AcDbEntity
  8
AM_4
100
AcDbLine
 10
1.205070000000002
 20
46.75607000000002
 30
0.0
 11
1.51605000000001
 21
46.46006999999999
 31
0.0
  0
LINE
  5
1AE
330
F8
100
AcDbEntity
  8
AM_4
100
AcDbLine
 10
1.51605000000001
 20
46.46006999999999
 30
0.0
 11
1.671550000000011
 21
46.16406000000001
 31
0.0
  0
LINE
  5
1AF
330
F8
100
AcDbEntity
  8
AM_4
100
AcDbLine
 10
1.671550000000011
 20
46.16406000000001
 30
0.0
 11
1.749290000000001
 21
45.79405200000002
 31
0.0
  0
LINE
  5
1B0
330
F8
100
AcDbEntity
  8
AM_4
100
AcDbLine
 10
1.749290000000001
 20
45.79405200000002
 30
0.0
 11
1.749290000000008
 21
44.68402799999999
 31
0.0
  0
LINE
  5
1B1
330
F8
100
AcDbEntity
  8
AM_4
100
AcDbLine
 10
1.749290000000008
 20
44.68402799999999
 30
0.0
 11
1.67155
 21
44.31402
 31
0.0
  0
LINE
  5
1B2
330
F8
100
AcDbEntity
  8
AM_4
100
AcDbLine
 10
1.67155
 20
44.31402
 30
0.0
 11
1.516050000000002
 21
44.01801
 31
0.0
  0
LINE
  5
1B3
330
F8
100
AcDbEntity
  8
AM_4
100
AcDbLine
 10
1.516050000000002
 20
44.01801
 30
0.0
 11
1.205070000000005
 21
43.72201
 31
0.0
  0
LINE
  5
1B4
330
F8
100
AcDbEntity
  8
AM_4
100
AcDbLine
 10
1.205070000000005
 20
43.72201
 30
0.0
 11
0.8940820000000094
 21
43.57399999999998
 31
0.0
  0
LINE
  5
1B5
330
F8
100
AcDbEntity
  8
AM_4
100
AcDbLine
 10
0.8940820000000094
 20
43.57399999999998
 30
0.0
 11
0.50535099999998
 21
43.50000000000001
 31
0.0
  0
LINE
  5
1B6
330
F8
100
AcDbEntity
  8
AM_4
100
AcDbLine
 10
2.371260000000006
 20
44.684028
 30
0.0
 11
2.371260000000007
 21
45.79405200000002
 31
0.0
  0
LINE
  5
1B7
330
F8
100
AcDbEntity
  8
AM_4
100
AcDbLine
 10
2.371260000000007
 20
45.79405200000002
 30
0.0
 11
2.449010000000013
 21
46.16406
 31
0.0
  0
LINE
  5
1B8
330
F8
100
AcDbEntity
  8
AM_4
100
AcDbLine
 10
2.449010000000013
 20
46.16406
 30
0.0
 11
2.604500000000012
 21
46.46006999999999
 31
0.0
  0
LINE
  5
1B9
330
F8
100
AcDbEntity
  8
AM_4
100
AcDbLine
 10
2.604500000000012
 20
46.46006999999999
 30
0.0
 11
2.915489999999997
 21
46.75607000000003
 31
0.0
  0
LINE
  5
1BA
330
F8
100
AcDbEntity
  8
AM_4
100
AcDbLine
 10
2.915489999999997
 20
46.75607000000003
 30
0.0
 11
3.226469999999998
 21
46.90407999999999
 31
0.0
  0
LINE
  5
1BB
330
F8
100
AcDbEntity
  8
AM_4
100
AcDbLine
 10
3.226469999999998
 20
46.90407999999999
 30
0.0
 11
3.615200000000021
 21
46.97808000000001
 31
0.0
  0
LINE
  5
1BC
330
F8
100
AcDbEntity
  8
AM_4
100
AcDbLine
 10
3.615200000000021
 20
46.97808000000001
 30
0.0
 11
4.314920000000001
 21
46.97808000000001
 31
0.0
  0
LINE
  5
1BD
330
F8
100
AcDbEntity
  8
AM_4
100
AcDbLine
 10
4.314920000000001
 20
46.97808000000001
 30
0.0
 11
4.703650000000016
 21
46.90408000000001
 31
0.0
  0
LINE
  5
1BE
330
F8
100
AcDbEntity
  8
AM_4
100
AcDbLine
 10
4.703650000000016
 20
46.90408000000001
 30
0.0
 11
5.014639999999994
 21
46.75607
 31
0.0
  0
LINE
  5
1BF
330
F8
100
AcDbEntity
  8
AM_4
100
AcDbLine
 10
5.014639999999994
 20
46.75607
 30
0.0
 11
5.325620000000015
 21
46.46006999999999
 31
0.0
  0
LINE
  5
1C0
330
F8
100
AcDbEntity
  8
AM_4
100
AcDbLine
 10
5.325620000000015
 20
46.46006999999999
 30
0.0
 11
5.40337
 21
46.090059
 31
0.0
  0
LINE
  5
1C1
330
F8
100
AcDbEntity
  8
AM_4
100
AcDbLine
 10
5.40337
 20
46.090059
 30
0.0
 11
4.936890000000001
 21
46.090059
 31
0.0
  0
LINE
  5
1C2
330
F8
100
AcDbEntity
  8
AM_4
100
AcDbLine
 10
4.936890000000001
 20
46.090059
 30
0.0
 11
4.859140000000006
 21
46.31206000000001
 31
0.0
  0
LINE
  5
1C3
330
F8
100
AcDbEntity
  8
AM_4
100
AcDbLine
 10
4.859140000000006
 20
46.31206000000001
 30
0.0
 11
4.625899999999967
 21
46.46007000000002
 31
0.0
  0
LINE
  5
1C4
330
F8
100
AcDbEntity
  8
AM_4
100
AcDbLine
 10
4.625899999999967
 20
46.46007000000002
 30
0.0
 11
4.314920000000014
 21
46.53407000000001
 31
0.0
  0
LINE
  5
1C5
330
F8
100
AcDbEntity
  8
AM_4
100
AcDbLine
 10
4.314920000000014
 20
46.53407000000001
 30
0.0
 11
3.615200000000001
 21
46.53407000000001
 31
0.0
  0
LINE
  5
1C6
330
F8
100
AcDbEntity
  8
AM_4
100
AcDbLine
 10
3.615200000000001
 20
46.53407000000001
 30
0.0
 11
3.304219999999985
 21
46.46006999999999
 31
0.0
  0
LINE
  5
1C7
330
F8
100
AcDbEntity
  8
AM_4
100
AcDbLine
 10
3.304219999999985
 20
46.46006999999999
 30
0.0
 11
3.070980000000022
 21
46.31206000000001
 31
0.0
  0
LINE
  5
1C8
330
F8
100
AcDbEntity
  8
AM_4
100
AcDbLine
 10
3.070980000000022
 20
46.31206000000001
 30
0.0
 11
2.915489999999993
 21
46.09005899999998
 31
0.0
  0
LINE
  5
1C9
330
F8
100
AcDbEntity
  8
AM_4
100
AcDbLine
 10
2.915489999999993
 20
46.09005899999998
 30
0.0
 11
2.837739999999993
 21
45.79405200000002
 31
0.0
  0
LINE
  5
1CA
330
F8
100
AcDbEntity
  8
AM_4
100
AcDbLine
 10
2.837739999999993
 20
45.79405200000002
 30
0.0
 11
2.837740000000003
 21
44.68402799999999
 31
0.0
  0
LINE
  5
1CB
330
F8
100
AcDbEntity
  8
AM_4
100
AcDbLine
 10
2.837740000000003
 20
44.68402799999999
 30
0.0
 11
2.915489999999997
 21
44.38802099999999
 31
0.0
  0
LINE
  5
1CC
330
F8
100
AcDbEntity
  8
AM_4
100
AcDbLine
 10
2.915489999999997
 20
44.38802099999999
 30
0.0
 11
3.070979999999994
 21
44.16602000000002
 31
0.0
  0
LINE
  5
1CD
330
F8
100
AcDbEntity
  8
AM_4
100
AcDbLine
 10
3.070979999999994
 20
44.16602000000002
 30
0.0
 11
3.304219999999999
 21
44.01800999999999
 31
0.0
  0
LINE
  5
1CE
330
F8
100
AcDbEntity
  8
AM_4
100
AcDbLine
 10
3.304219999999999
 20
44.01800999999999
 30
0.0
 11
3.615200000000021
 21
43.94401
 31
0.0
  0
LINE
  5
1CF
330
F8
100
AcDbEntity
  8
AM_4
100
AcDbLine
 10
3.615200000000021
 20
43.94401
 30
0.0
 11
4.314920000000001
 21
43.94401000000001
 31
0.0
  0
LINE
  5
1D0
330
F8
100
AcDbEntity
  8
AM_4
100
AcDbLine
 10
4.314920000000001
 20
43.94401000000001
 30
0.0
 11
4.625900000000009
 21
44.01801000000002
 31
0.0
  0
LINE
  5
1D1
330
F8
100
AcDbEntity
  8
AM_4
100
AcDbLine
 10
4.625900000000009
 20
44.01801000000002
 30
0.0
 11
4.85914
 21
44.16602
 31
0.0
  0
LINE
  5
1D2
330
F8
100
AcDbEntity
  8
AM_4
100
AcDbLine
 10
4.85914
 20
44.16602
 30
0.0
 11
4.936889999999986
 21
44.38802100000002
 31
0.0
  0
LINE
  5
1D3
330
F8
100
AcDbEntity
  8
AM_4
100
AcDbLine
 10
4.936889999999986
 20
44.38802100000002
 30
0.0
 11
4.93689
 21
44.98003400000001
 31
0.0
  0
LINE
  5
1D4
330
F8
100
AcDbEntity
  8
AM_4
100
AcDbLine
 10
4.93689
 20
44.98003400000001
 30
0.0
 11
4.237170000000001
 21
44.98003400000001
 31
0.0
  0
LINE
  5
1D5
330
F8
100
AcDbEntity
  8
AM_4
100
AcDbLine
 10
4.237170000000001
 20
44.98003400000001
 30
0.0
 11
4.237170000000007
 21
45.42404400000002
 31
0.0
  0
LINE
  5
1D6
330
F8
100
AcDbEntity
  8
AM_4
100
AcDbLine
 10
4.237170000000007
 20
45.42404400000002
 30
0.0
 11
5.403370000000001
 21
45.42404400000002
 31
0.0
  0
LINE
  5
1D7
330
F8
100
AcDbEntity
  8
AM_4
100
AcDbLine
 10
5.403370000000001
 20
45.42404400000002
 30
0.0
 11
5.403369999999996
 21
44.31402
 31
0.0
  0
LINE
  5
1D8
330
F8
100
AcDbEntity
  8
AM_4
100
AcDbLine
 10
5.403369999999996
 20
44.31402
 30
0.0
 11
5.325620000000009
 21
44.01801
 31
0.0
  0
LINE
  5
1D9
330
F8
100
AcDbEntity
  8
AM_4
100
AcDbLine
 10
5.325620000000009
 20
44.01801
 30
0.0
 11
5.014640000000008
 21
43.72201
 31
0.0
  0
LINE
  5
1DA
330
F8
100
AcDbEntity
  8
AM_4
100
AcDbLine
 10
5.014640000000008
 20
43.72201
 30
0.0
 11
4.703650000000002
 21
43.57399999999998
 31
0.0
  0
LINE
  5
1DB
330
F8
100
AcDbEntity
  8
AM_4
100
AcDbLine
 10
4.703650000000002
 20
43.57399999999998
 30
0.0
 11
4.314919999999986
 21
43.50000000000001
 31
0.0
  0
LINE
  5
1DC
330
F8
100
AcDbEntity
  8
AM_4
100
AcDbLine
 10
4.314919999999986
 20
43.50000000000001
 30
0.0
 11
3.615200000000001
 21
43.50000000000001
 31
0.0
  0
LINE
  5
1DD
330
F8
100
AcDbEntity
  8
AM_4
100
AcDbLine
 10
3.615200000000001
 20
43.50000000000001
 30
0.0
 11
3.226469999999977
 21
43.574
 31
0.0
  0
LINE
  5
1DE
330
F8
100
AcDbEntity
  8
AM_4
100
AcDbLine
 10
3.226469999999977
 20
43.574
 30
0.0
 11
2.915489999999997
 21
43.72200999999998
 31
0.0
  0
LINE
  5
1DF
330
F8
100
AcDbEntity
  8
AM_4
100
AcDbLine
 10
2.915489999999997
 20
43.72200999999998
 30
0.0
 11
2.604499999999991
 21
44.01801000000002
 31
0.0
  0
LINE
  5
1E0
330
F8
100
AcDbEntity
  8
AM_4
100
AcDbLine
 10
2.604499999999991
 20
44.01801000000002
 30
0.0
 11
2.449010000000001
 21
44.31402
 31
0.0
  0
LINE
  5
1E1
330
F8
100
AcDbEntity
  8
AM_4
100
AcDbLine
 10
2.449010000000001
 20
44.31402
 30
0.0
 11
2.371260000000006
 21
44.684028
 31
0.0
  0
LINE
  5
1E2
330
F8
100
AcDbEntity
  8
AM_4
100
AcDbLine
 10
8.824199999999998
 20
43.50000000000001
 30
0.0
 11
6.025339999999993
 21
43.50000000000001
 31
0.0
  0
LINE
  5
1E3
330
F8
100
AcDbEntity
  8
AM_4
100
AcDbLine
 10
6.025339999999993
 20
43.50000000000001
 30
0.0
 11
6.025339999999993
 21
46.97808000000001
 31
0.0
  0
LINE
  5
1E4
330
F8
100
AcDbEntity
  8
AM_4
100
AcDbLine
 10
6.025339999999993
 20
46.97808000000001
 30
0.0
 11
8.824199999999976
 21
46.97808000000001
 31
0.0
  0
LINE
  5
1E5
330
F8
100
AcDbEntity
  8
AM_4
100
AcDbLine
 10
8.824199999999976
 20
46.97808000000001
 30
0.0
 11
8.824199999999998
 21
46.53407000000001
 31
0.0
  0
LINE
  5
1E6
330
F8
100
AcDbEntity
  8
AM_4
100
AcDbLine
 10
8.824199999999998
 20
46.53407000000001
 30
0.0
 11
6.491809999999993
 21
46.53407000000001
 31
0.0
  0
LINE
  5
1E7
330
F8
100
AcDbEntity
  8
AM_4
100
AcDbLine
 10
6.491809999999993
 20
46.53407000000001
 30
0.0
 11
6.49180999999999
 21
45.57204700000001
 31
0.0
  0
LINE
  5
1E8
330
F8
100
AcDbEntity
  8
AM_4
100
AcDbLine
 10
6.49180999999999
 20
45.57204700000001
 30
0.0
 11
8.513219999999993
 21
45.572047
 31
0.0
  0
LINE
  5
1E9
330
F8
100
AcDbEntity
  8
AM_4
100
AcDbLine
 10
8.513219999999993
 20
45.572047
 30
0.0
 11
8.513219999999992
 21
45.128038
 31
0.0
  0
LINE
  5
1EA
330
F8
100
AcDbEntity
  8
AM_4
100
AcDbLine
 10
8.513219999999992
 20
45.128038
 30
0.0
 11
6.491809999999993
 21
45.128038
 31
0.0
  0
LINE
  5
1EB
330
F8
100
AcDbEntity
  8
AM_4
100
AcDbLine
 10
6.491809999999993
 20
45.128038
 30
0.0
 11
6.49180999999999
 21
43.94401
 31
0.0
  0
LINE
  5
1EC
330
F8
100
AcDbEntity
  8
AM_4
100
AcDbLine
 10
6.49180999999999
 20
43.94401
 30
0.0
 11
8.824199999999992
 21
43.94401000000001
 31
0.0
  0
LINE
  5
1ED
330
F8
100
AcDbEntity
  8
AM_4
100
AcDbLine
 10
8.824199999999992
 20
43.94401000000001
 30
0.0
 11
8.824199999999998
 21
43.50000000000001
 31
0.0
  0
LINE
  5
1EE
330
F8
100
AcDbEntity
  8
AM_4
100
AcDbLine
 10
-47.41000000000005
 20
-32.59999999999997
 30
0.0
 11
-47.41
 21
-54.0
 31
0.0
  0
LINE
  5
1EF
330
F8
100
AcDbEntity
  8
AM_4
100
AcDbLine
 10
-47.41000000000005
 20
-32.59999999999997
 30
0.0
 11
-90.0
 21
-32.6
 31
0.0
  0
LINE
  5
1F0
330
F8
100
AcDbEntity
  8
AM_4
100
AcDbLine
 10
-85.54444444444445
 20
-54.0
 30
0.0
 11
-85.54444444444445
 21
-32.59999999999999
 31
0.0
  0
LINE
  5
1F1
330
F8
100
AcDbEntity
  8
AM_4
100
AcDbLine
 10
91.5
 20
-34.10000000000001
 30
0.0
 11
91.5
 21
-54.0
 31
0.0
  0
LWPOLYLINE
  5
1F2
330
F8
100
AcDbEntity
  8
AM_4
100
AcDbPolyline
 90
       19
 70
     0
 43
0.0
 10
90.0
 20
-32.6
 10
90.13073361412148
 20
-32.60570795286238
 10
90.26047226650039
 20
-32.62278837048169
 10
90.38822856765377
 20
-32.6511112605664
 10
90.51303021498849
 20
-32.69046106882114
 10
90.63392739261104
 20
-32.74053831944502
 10
90.75
 20
-32.80096189432335
 10
90.86036465452658
 20
-32.87127193356652
 10
90.9641814145298
 20
-32.95093333532154
 10
91.06066017177982
 20
-33.03933982822018
 10
91.14906666467847
 20
-33.1358185854702
 10
91.22872806643348
 20
-33.23963534547343
 10
91.29903810567666
 20
-33.35
 10
91.35946168055497
 20
-33.46607260738895
 10
91.40953893117886
 20
-33.5869697850115
 10
91.4488887394336
 20
-33.71177143234623
 10
91.47721162951831
 20
-33.83952773349961
 10
91.49429204713762
 20
-33.96926638587851
 10
91.5
 20
-34.10000000000001
  0
LINE
  5
1F3
330
F8
100
AcDbEntity
  8
AM_4
100
AcDbLine
 10
47.40999999999999
 20
-32.59999999999997
 30
0.0
 11
90.0
 21
-32.6
 31
0.0
  0
LINE
  5
1F4
330
F8
100
AcDbEntity
  8
AM_4
100
AcDbLine
 10
85.54444444444445
 20
-32.6
 30
0.0
 11
85.54444444444445
 21
-54.0
 31
0.0
  0
LINE
  5
1F5
330
F8
100
AcDbEntity
  8
AM_4
100
AcDbLine
 10
91.5
 20
-54.0
 30
0.0
 11
-91.5
 21
-54.0
 31
0.0
  0
LINE
  5
1F6
330
F8
100
AcDbEntity
  8
AM_4
100
AcDbLine
 10
44.44545454545455
 20
-9.75925925925928
 30
0.0
 11
47.40999999999999
 21
-32.59999999999997
 31
0.0
  0
LINE
  5
1F7
330
F8
100
AcDbEntity
  8
AM_4
100
AcDbLine
 10
44.44545454545455
 20
-9.75925925925928
 30
0.0
 11
44.44545454545455
 21
-54.0
 31
0.0
  0
LINE
  5
1F8
330
F8
100
AcDbEntity
  8
AM_4
100
AcDbLine
 10
47.41
 20
-54.0
 30
0.0
 11
47.40999999999999
 21
-32.59999999999997
 31
0.0
  0
ENDBLK
  5
FB
330
F8
100
AcDbEntity
  8
0
100
AcDbBlockEnd
  0
ENDSEC
  0
SECTION
  2
ENTITIES
  0
INSERT
  5
6F
330
1F
100
AcDbEntity
  8
0
100
AcDbBlockReference
  2
1_129257_0
 10
0.0
 20
0.0
 30
0.0
  0
POINT
  5
1FA
330
1F
100
AcDbEntity
  8
ConnectionPoints
100
AcDbPoint
 10
0.0
 20
0.0
 30
0.0
  0
POINT
  5
1FB
330
1F
100
AcDbEntity
  8
ConnectionPoints
100
AcDbPoint
 10
0.0
 20
0.0
 30
-16.7
  0
POINT
  5
1FC
330
1F
100
AcDbEntity
  8
ConnectionPoints
100
AcDbPoint
 10
0.0
 20
0.0
 30
0.0
  0
POINT
  5
1FD
330
1F
100
AcDbEntity
  8
ConnectionPoints
100
AcDbPoint
 10
0.0
 20
0.0
 30
0.0
  0
ENDSEC
  0
SECTION
  2
OBJECTS
  0
DICTIONARY
  5
C
330
0
100
AcDbDictionary
281
     1
  3
ACAD_DETAILVIEWSTYLE
350
205
  3
ACAD_GROUP
350
D
  3
ACAD_LAYOUT
350
1A
  3
ACAD_MATERIAL
350
43
  3
ACAD_MLEADERSTYLE
350
6B
  3
ACAD_MLINESTYLE
350
17
  3
ACAD_PLOTSETTINGS
350
19
  3
ACAD_PLOTSTYLENAME
350
E
  3
ACAD_SCALELIST
350
47
  3
ACAD_SECTIONVIEWSTYLE
350
206
  3
ACAD_TABLESTYLE
350
69
  3
ACAD_VISUALSTYLE
350
2A
  3
ACDB_RECOMPOSE_DATA
350
202
  3
AcDbVariableDictionary
350
1FE
  0
SUN
  5
6D
330
29
100
AcDbSun
 90
        1
290
     0
 63
     7
421
 16777215
 40
1.0
291
     1
 91
  2455826
 92
 54000000
292
     0
 70
     2
 71
   256
280
     1
  0
DICTIONARY
  5
205
102
{ACAD_REACTORS
330
C
102
}
330
C
100
AcDbDictionary
281
     1
  0
DICTIONARY
  5
D
102
{ACAD_REACTORS
330
C
102
}
330
C
100
AcDbDictionary
281
     1
  0
DICTIONARY
  5
1A
102
{ACAD_REACTORS
330
C
102
}
330
C
100
AcDbDictionary
281
     1
  3
Layout1
350
1E
  3
Layout2
350
26
  3
Model
350
22
  0
DICTIONARY
  5
43
102
{ACAD_REACTORS
330
C
102
}
330
C
100
AcDbDictionary
281
     1
  3
ByBlock
350
45
  3
ByLayer
350
44
  3
Global
350
46
  0
DICTIONARY
  5
6B
102
{ACAD_REACTORS
330
C
102
}
330
C
100
AcDbDictionary
281
     1
  3
Standard
350
6C
  0
DICTIONARY
  5
17
102
{ACAD_REACTORS
330
C
102
}
330
C
100
AcDbDictionary
281
     1
  3
Standard
350
18
  0
DICTIONARY
  5
19
102
{ACAD_REACTORS
330
C
102
}
330
C
100
AcDbDictionary
281
     1
  0
ACDBDICTIONARYWDFLT
  5
E
102
{ACAD_REACTORS
330
C
102
}
330
C
100
AcDbDictionary
281
     1
  3
Normal
350
F
100
AcDbDictionaryWithDefault
340
F
  0
DICTIONARY
  5
47
102
{ACAD_REACTORS
330
C
102
}
330
C
100
AcDbDictionary
281
     1
  3
A0
350
48
  3
A1
350
49
  3
A2
350
4A
  3
A3
350
4B
  3
A4
350
4C
  3
A5
350
4D
  3
A6
350
4E
  3
A7
350
4F
  3
A8
350
50
  3
A9
350
51
  3
B0
350
52
  3
B1
350
53
  3
B2
350
54
  3
B3
350
55
  3
B4
350
56
  3
B5
350
57
  3
B6
350
58
  3
B7
350
59
  3
B8
350
5A
  3
B9
350
5B
  3
C0
350
5C
  3
C1
350
5D
  3
C2
350
5E
  3
C3
350
5F
  3
C4
350
60
  3
C5
350
61
  3
C6
350
62
  3
C7
350
63
  3
C8
350
64
  3
C9
350
65
  3
D0
350
66
  3
D1
350
67
  3
D2
350
68
  0
DICTIONARY
  5
206
102
{ACAD_REACTORS
330
C
102
}
330
C
100
AcDbDictionary
281
     1
  0
DICTIONARY
  5
69
102
{ACAD_REACTORS
330
C
102
}
330
C
100
AcDbDictionary
281
     1
  3
Standard
350
6A
  0
DICTIONARY
  5
2A
102
{ACAD_REACTORS
330
C
102
}
330
C
100
AcDbDictionary
281
     1
  3
2dWireframe
350
2F
  3
Basic
350
32
  3
Brighten
350
36
  3
ColorChange
350
3A
  3
Conceptual
350
34
  3
Dim
350
35
  3
EdgeColorOff
350
3D
  3
Facepattern
350
39
  3
Flat
350
2B
  3
FlatWithEdges
350
2C
  3
Gouraud
350
2D
  3
GouraudWithEdges
350
2E
  3
Hidden
350
31
  3
JitterOff
350
3B
  3
Linepattern
350
38
  3
OverhangOff
350
3C
  3
Realistic
350
33
  3
Shaded
350
42
  3
Shaded with edges
350
41
  3
Shades of Gray
350
3E
  3
Sketchy
350
3F
  3
Thicken
350
37
  3
Wireframe
350
30
  3
X-Ray
350
40
  0
XRECORD
  5
202
102
{ACAD_REACTORS
330
C
102
}
330
C
100
AcDbXrecord
280
     1
 90
        1
330
6A
  0
DICTIONARY
  5
1FE
102
{ACAD_REACTORS
330
C
102
}
330
C
100
AcDbDictionary
281
     1
  3
CANNOSCALE
350
1FF
  3
CMLEADERSTYLE
350
204
  3
CTABLESTYLE
350
203
  0
LAYOUT
  5
1E
102
{ACAD_REACTORS
330
1A
102
}
330
1A
100
AcDbPlotSettings
  1

  2
none_device
  4

  6

 40
0.0
 41
0.0
 42
0.0
 43
0.0
 44
0.0
 45
0.0
 46
0.0
 47
0.0
 48
0.0
 49
0.0
140
0.0
141
0.0
142
1.0
143
1.0
 70
   688
 72
     1
 73
     0
 74
     5
  7

 75
    16
 76
     0
 77
     2
 78
   300
147
1.0
148
0.0
149
0.0
100
AcDbLayout
  1
Layout1
 70
     1
 71
     1
 10
0.0
 20
0.0
 11
420.0
 21
297.0
 12
0.0
 22
0.0
 32
0.0
 14
1.000000000000000E+20
 24
1.000000000000000E+20
 34
1.000000000000000E+20
 15
-1.000000000000000E+20
 25
-1.000000000000000E+20
 35
-1.000000000000000E+20
146
0.0
 13
0.0
 23
0.0
 33
0.0
 16
1.0
 26
0.0
 36
0.0
 17
0.0
 27
1.0
 37
0.0
 76
     0
330
1B
  0
LAYOUT
  5
26
102
{ACAD_REACTORS
330
1A
102
}
330
1A
100
AcDbPlotSettings
  1

  2
none_device
  4

  6

 40
0.0
 41
0.0
 42
0.0
 43
0.0
 44
0.0
 45
0.0
 46
0.0
 47
0.0
 48
0.0
 49
0.0
140
0.0
141
0.0
142
1.0
143
1.0
 70
   688
 72
     1
 73
     0
 74
     5
  7

 75
    16
 76
     0
 77
     2
 78
   300
147
1.0
148
0.0
149
0.0
100
AcDbLayout
  1
Layout2
 70
     1
 71
     2
 10
0.0
 20
0.0
 11
0.0
 21
0.0
 12
0.0
 22
0.0
 32
0.0
 14
0.0
 24
0.0
 34
0.0
 15
0.0
 25
0.0
 35
0.0
146
0.0
 13
0.0
 23
0.0
 33
0.0
 16
1.0
 26
0.0
 36
0.0
 17
0.0
 27
1.0
 37
0.0
 76
     0
330
23
  0
LAYOUT
  5
22
102
{ACAD_REACTORS
330
1A
102
}
330
1A
100
AcDbPlotSettings
  1

  2
none_device
  4
Letter_(8.50_x_11.00_Inches)
  6

 40
6.35
 41
6.35
 42
6.35000508
 43
6.35000508
 44
215.9
 45
279.4
 46
0.0
 47
0.0
 48
0.0
 49
0.0
140
0.0
141
0.0
142
1.0
143
1.0
 70
  1712
 72
     1
 73
     0
 74
     0
  7

 75
     0
 76
     0
 77
     2
 78
   300
147
1.0
148
0.0
149
0.0
100
AcDbLayout
  1
Model
 70
     1
 71
     0
 10
0.0
 20
0.0
 11
420.0
 21
297.0
 12
0.0
 22
0.0
 32
0.0
 14
1.000000000000000E+20
 24
1.000000000000000E+20
 34
1.000000000000000E+20
 15
-1.000000000000000E+20
 25
-1.000000000000000E+20
 35
-1.000000000000000E+20
146
0.0
 13
0.0
 23
0.0
 33
0.0
 16
1.0
 26
0.0
 36
0.0
 17
0.0
 27
1.0
 37
0.0
 76
     0
330
1F
331
29
  0
MATERIAL
  5
45
102
{ACAD_REACTORS
330
43
102
}
330
43
100
AcDbMaterial
  1
ByBlock
 72
     1
 94
      127
  0
MATERIAL
  5
44
102
{ACAD_REACTORS
330
43
102
}
330
43
100
AcDbMaterial
  1
ByLayer
 72
     1
 94
      127
  0
MATERIAL
  5
46
102
{ACAD_REACTORS
330
43
102
}
330
43
100
AcDbMaterial
  1
Global
 72
     1
 94
      127
  0
MLEADERSTYLE
  5
6C
102
{ACAD_REACTORS
330
6B
102
}
330
6B
100
AcDbMLeaderStyle
179
     2
170
     2
171
     1
172
     0
 90
        2
 40
0.0
 41
0.0
173
     1
 91
-1056964608
340
14
 92
       -2
290
     1
 42
2.0
291
     1
 43
8.0
  3
Standard
341
0
 44
4.0
300

342
11
174
     1
178
     6
175
     1
176
     0
 93
-1056964608
 45
4.0
292
     0
297
     0
 46
4.0
343
0
 94
-1056964608
 47
1.0
 49
1.0
140
1.0
293
     1
141
0.0
294
     1
177
     0
142
1.0
295
     0
296
     0
143
3.75
271
     0
272
     9
273
     9
298
     0
  0
MLINESTYLE
  5
18
102
{ACAD_REACTORS
330
17
102
}
330
17
100
AcDbMlineStyle
  2
Standard
 70
     0
  3

 62
   256
 51
90.0
 52
90.0
 71
     2
 49
0.5
 62
   256
  6
BYLAYER
 49
-0.5
 62
   256
  6
BYLAYER
  0
ACDBPLACEHOLDER
  5
F
102
{ACAD_REACTORS
330
E
102
}
330
E
  0
SCALE
  5
48
102
{ACAD_REACTORS
330
47
102
}
330
47
100
AcDbScale
 70
     0
300
1:1
140
1.0
141
1.0
290
     1
  0
SCALE
  5
49
102
{ACAD_REACTORS
330
47
102
}
330
47
100
AcDbScale
 70
     0
300
1:2
140
1.0
141
2.0
290
     0
  0
SCALE
  5
4A
102
{ACAD_REACTORS
330
47
102
}
330
47
100
AcDbScale
 70
     0
300
1:4
140
1.0
141
4.0
290
     0
  0
SCALE
  5
4B
102
{ACAD_REACTORS
330
47
102
}
330
47
100
AcDbScale
 70
     0
300
1:5
140
1.0
141
5.0
290
     0
  0
SCALE
  5
4C
102
{ACAD_REACTORS
330
47
102
}
330
47
100
AcDbScale
 70
     0
300
1:8
140
1.0
141
8.0
290
     0
  0
SCALE
  5
4D
102
{ACAD_REACTORS
330
47
102
}
330
47
100
AcDbScale
 70
     0
300
1:10
140
1.0
141
10.0
290
     0
  0
SCALE
  5
4E
102
{ACAD_REACTORS
330
47
102
}
330
47
100
AcDbScale
 70
     0
300
1:16
140
1.0
141
16.0
290
     0
  0
SCALE
  5
4F
102
{ACAD_REACTORS
330
47
102
}
330
47
100
AcDbScale
 70
     0
300
1:20
140
1.0
141
20.0
290
     0
  0
SCALE
  5
50
102
{ACAD_REACTORS
330
47
102
}
330
47
100
AcDbScale
 70
     0
300
1:30
140
1.0
141
30.0
290
     0
  0
SCALE
  5
51
102
{ACAD_REACTORS
330
47
102
}
330
47
100
AcDbScale
 70
     0
300
1:40
140
1.0
141
40.0
290
     0
  0
SCALE
  5
52
102
{ACAD_REACTORS
330
47
102
}
330
47
100
AcDbScale
 70
     0
300
1:50
140
1.0
141
50.0
290
     0
  0
SCALE
  5
53
102
{ACAD_REACTORS
330
47
102
}
330
47
100
AcDbScale
 70
     0
300
1:100
140
1.0
141
100.0
290
     0
  0
SCALE
  5
54
102
{ACAD_REACTORS
330
47
102
}
330
47
100
AcDbScale
 70
     0
300
2:1
140
2.0
141
1.0
290
     0
  0
SCALE
  5
55
102
{ACAD_REACTORS
330
47
102
}
330
47
100
AcDbScale
 70
     0
300
4:1
140
4.0
141
1.0
290
     0
  0
SCALE
  5
56
102
{ACAD_REACTORS
330
47
102
}
330
47
100
AcDbScale
 70
     0
300
8:1
140
8.0
141
1.0
290
     0
  0
SCALE
  5
57
102
{ACAD_REACTORS
330
47
102
}
330
47
100
AcDbScale
 70
     0
300
10:1
140
10.0
141
1.0
290
     0
  0
SCALE
  5
58
102
{ACAD_REACTORS
330
47
102
}
330
47
100
AcDbScale
 70
     0
300
100:1
140
100.0
141
1.0
290
     0
  0
SCALE
  5
59
102
{ACAD_REACTORS
330
47
102
}
330
47
100
AcDbScale
 70
     0
300
1/128" = 1'-0"
140
0.0078125
141
12.0
290
     0
  0
SCALE
  5
5A
102
{ACAD_REACTORS
330
47
102
}
330
47
100
AcDbScale
 70
     0
300
1/64" = 1'-0"
140
0.015625
141
12.0
290
     0
  0
SCALE
  5
5B
102
{ACAD_REACTORS
330
47
102
}
330
47
100
AcDbScale
 70
     0
300
1/32" = 1'-0"
140
0.03125
141
12.0
290
     0
  0
SCALE
  5
5C
102
{ACAD_REACTORS
330
47
102
}
330
47
100
AcDbScale
 70
     0
300
1/16" = 1'-0"
140
0.0625
141
12.0
290
     0
  0
SCALE
  5
5D
102
{ACAD_REACTORS
330
47
102
}
330
47
100
AcDbScale
 70
     0
300
3/32" = 1'-0"
140
0.09375
141
12.0
290
     0
  0
SCALE
  5
5E
102
{ACAD_REACTORS
330
47
102
}
330
47
100
AcDbScale
 70
     0
300
1/8" = 1'-0"
140
0.125
141
12.0
290
     0
  0
SCALE
  5
5F
102
{ACAD_REACTORS
330
47
102
}
330
47
100
AcDbScale
 70
     0
300
3/16" = 1'-0"
140
0.1875
141
12.0
290
     0
  0
SCALE
  5
60
102
{ACAD_REACTORS
330
47
102
}
330
47
100
AcDbScale
 70
     0
300
1/4" = 1'-0"
140
0.25
141
12.0
290
     0
  0
SCALE
  5
61
102
{ACAD_REACTORS
330
47
102
}
330
47
100
AcDbScale
 70
     0
300
3/8" = 1'-0"
140
0.375
141
12.0
290
     0
  0
SCALE
  5
62
102
{ACAD_REACTORS
330
47
102
}
330
47
100
AcDbScale
 70
     0
300
1/2" = 1'-0"
140
0.5
141
12.0
290
     0
  0
SCALE
  5
63
102
{ACAD_REACTORS
330
47
102
}
330
47
100
AcDbScale
 70
     0
300
3/4" = 1'-0"
140
0.75
141
12.0
290
     0
  0
SCALE
  5
64
102
{ACAD_REACTORS
330
47
102
}
330
47
100
AcDbScale
 70
     0
300
1" = 1'-0"
140
1.0
141
12.0
290
     0
  0
SCALE
  5
65
102
{ACAD_REACTORS
330
47
102
}
330
47
100
AcDbScale
 70
     0
300
1-1/2" = 1'-0"
140
1.5
141
12.0
290
     0
  0
SCALE
  5
66
102
{ACAD_REACTORS
330
47
102
}
330
47
100
AcDbScale
 70
     0
300
3" = 1'-0"
140
3.0
141
12.0
290
     0
  0
SCALE
  5
67
102
{ACAD_REACTORS
330
47
102
}
330
47
100
AcDbScale
 70
     0
300
6" = 1'-0"
140
6.0
141
12.0
290
     0
  0
SCALE
  5
68
102
{ACAD_REACTORS
330
47
102
}
330
47
100
AcDbScale
 70
     0
300
1'-0" = 1'-0"
140
12.0
141
12.0
290
     0
  0
TABLESTYLE
  5
6A
102
{ACAD_REACTORS
330
69
102
}
102
{ACAD_XDICTIONARY
360
200
102
}
330
69
100
AcDbTableStyle
  3
Standard
 70
     0
 71
     0
 40
0.06
 41
0.06
280
     0
281
     0
  7
Standard
140
4.5
170
     2
 62
     0
 63
   257
283
     0
 90
        4
 91
        0
  1

274
    -2
284
     1
 64
     0
275
    -2
285
     1
 65
     0
276
    -2
286
     1
 66
     0
277
    -2
287
     1
 67
     0
278
    -2
288
     1
 68
     0
279
    -2
289
     1
 69
     0
  7
Standard
140
6.0
170
     5
 62
     0
 63
   257
283
     0
 90
        4
 91
        0
  1

274
    -2
284
     1
 64
     0
275
    -2
285
     1
 65
     0
276
    -2
286
     1
 66
     0
277
    -2
287
     1
 67
     0
278
    -2
288
     1
 68
     0
279
    -2
289
     1
 69
     0
  7
Standard
140
4.5
170
     5
 62
     0
 63
   257
283
     0
 90
        4
 91
        0
  1

274
    -2
284
     1
 64
     0
275
    -2
285
     1
 65
     0
276
    -2
286
     1
 66
     0
277
    -2
287
     1
 67
     0
278
    -2
288
     1
 68
     0
279
    -2
289
     1
 69
     0
  0
VISUALSTYLE
  5
2F
102
{ACAD_REACTORS
330
2A
102
}
330
2A
100
AcDbVisualStyle
  2
2dWireframe
 70
     4
177
     3
291
     0
 70
    58
 90
        0
176
     1
 90
        2
176
     1
 90
        0
176
     1
 90
        0
176
     1
 40
0.6
176
     1
 40
30.0
176
     1
 62
     7
420
 16777215
176
     1
 90
        1
176
     1
 90
        4
176
     1
 62
     7
176
     1
 62
   257
176
     1
 90
        1
176
     1
 90
        1
176
     1
 40
1.0
176
     1
 90
        0
176
     1
 62
   257
176
     1
 40
1.0
176
     1
 90
        1
176
     1
 90
        6
176
     1
 90
        2
176
     1
 62
     7
176
     1
 90
        5
176
     1
 90
        0
176
     1
 90
        0
176
     1
290
     0
176
     1
 90
        1
176
     1
 40
0.0
176
     1
 90
        0
176
     1
290
     1
176
     1
290
     1
176
     1
290
     0
176
     1
290
     0
176
     1
290
     0
176
     1
290
     0
176
     1
290
     0
176
     1
290
     0
176
     1
290
     0
176
     1
 90
       50
176
     1
 40
0.0
176
     1
 40
1.0
176
     1
 90
        0
176
     1
 62
    18
420
        0
176
     1
 90
       50
176
     1
 90
        3
176
     1
 62
     5
420
      255
176
     1
290
     0
176
     1
 90
       50
176
     1
 90
       50
176
     1
 90
       50
176
     1
290
     0
176
     1
 90
       50
176
     1
 62
   256
176
     0
 40
1.0
176
     0
 90
        2
176
     1
  1
strokes_ogs.tif
176
     1
290
     0
176
     1
 40
1.0
176
     1
 40
1.0
176
     1
  0
VISUALSTYLE
  5
32
102
{ACAD_REACTORS
330
2A
102
}
330
2A
100
AcDbVisualStyle
  2
Basic
 70
     7
177
     3
291
     1
 70
    58
 90
        1
176
     1
 90
        0
176
     1
 90
        1
176
     1
 90
        0
176
     1
 40
0.6
176
     1
 40
30.0
176
     1
 62
     7
420
 16777215
176
     1
 90
        0
176
     1
 90
        4
176
     1
 62
     7
176
     1
 62
   257
176
     1
 90
        1
176
     1
 90
        1
176
     1
 40
1.0
176
     1
 90
        8
176
     1
 62
     7
176
     1
 40
1.0
176
     1
 90
        1
176
     1
 90
        6
176
     1
 90
        2
176
     1
 62
     7
176
     1
 90
        5
176
     1
 90
        0
176
     1
 90
        0
176
     1
290
     0
176
     1
 90
        1
176
     1
 40
0.0
176
     1
 90
        0
176
     1
290
     0
176
     1
290
     1
176
     1
290
     1
176
     1
290
     0
176
     1
290
     0
176
     1
290
     0
176
     1
290
     0
176
     1
290
     0
176
     1
290
     0
176
     1
 90
       50
176
     1
 40
0.0
176
     1
 40
1.0
176
     1
 90
        0
176
     1
 62
    18
420
        0
176
     1
 90
       50
176
     1
 90
        3
176
     1
 62
     5
420
      255
176
     1
290
     0
176
     1
 90
       50
176
     1
 90
       50
176
     1
 90
       50
176
     1
290
     0
176
     1
 90
       50
176
     1
 62
   256
176
     0
 40
1.0
176
     0
 90
        2
176
     1
  1
strokes_ogs.tif
176
     1
290
     0
176
     1
 40
1.0
176
     1
 40
1.0
176
     1
  0
VISUALSTYLE
  5
36
102
{ACAD_REACTORS
330
2A
102
}
330
2A
100
AcDbVisualStyle
  2
Brighten
 70
    12
177
     3
291
     1
 70
    58
 90
        2
176
     1
 90
        2
176
     1
 90
        0
176
     1
 90
        0
176
     1
 40
0.6
176
     1
 40
30.0
176
     1
 62
     7
420
 16777215
176
     1
 90
        1
176
     1
 90
        4
176
     1
 62
     7
176
     1
 62
   257
176
     1
 90
        1
176
     1
 90
        1
176
     1
 40
1.0
176
     1
 90
        8
176
     1
 62
     7
176
     1
 40
1.0
176
     1
 90
        1
176
     1
 90
        6
176
     1
 90
        2
176
     1
 62
     7
176
     1
 90
        5
176
     1
 90
        0
176
     1
 90
        0
176
     1
290
     0
176
     1
 90
        1
176
     1
 40
50.0
176
     1
 90
        0
176
     1
290
     0
176
     1
290
     1
176
     1
290
     1
176
     1
290
     0
176
     1
290
     0
176
     1
290
     0
176
     1
290
     0
176
     1
290
     0
176
     1
290
     0
176
     1
 90
       50
176
     1
 40
0.0
176
     1
 40
1.0
176
     1
 90
        0
176
     1
 62
    18
420
        0
176
     1
 90
       50
176
     1
 90
        3
176
     1
 62
     5
420
      255
176
     1
290
     0
176
     1
 90
       50
176
     1
 90
       50
176
     1
 90
       50
176
     1
290
     0
176
     1
 90
       50
176
     1
 62
   256
176
     0
 40
1.0
176
     0
 90
        2
176
     1
  1
strokes_ogs.tif
176
     1
290
     0
176
     1
 40
1.0
176
     1
 40
1.0
176
     1
  0
VISUALSTYLE
  5
3A
102
{ACAD_REACTORS
330
2A
102
}
330
2A
100
AcDbVisualStyle
  2
ColorChange
 70
    16
177
     3
291
     1
 70
    58
 90
        2
176
     1
 90
        2
176
     1
 90
        3
176
     1
 90
        0
176
     1
 40
0.6
176
     1
 40
30.0
176
     1
 62
     8
420
  8421504
176
     1
 90
        1
176
     1
 90
        4
176
     1
 62
     7
176
     1
 62
   257
176
     1
 90
        1
176
     1
 90
        1
176
     1
 40
1.0
176
     1
 90
        8
176
     1
 62
     8
420
  8421504
176
     1
 40
1.0
176
     1
 90
        1
176
     1
 90
        6
176
     1
 90
        2
176
     1
 62
     7
176
     1
 90
        5
176
     1
 90
        0
176
     1
 90
        0
176
     1
290
     0
176
     1
 90
        1
176
     1
 40
0.0
176
     1
 90
        0
176
     1
290
     0
176
     1
290
     1
176
     1
290
     1
176
     1
290
     0
176
     1
290
     0
176
     1
290
     0
176
     1
290
     0
176
     1
290
     0
176
     1
290
     0
176
     1
 90
       50
176
     1
 40
0.0
176
     1
 40
1.0
176
     1
 90
        0
176
     1
 62
    18
420
        0
176
     1
 90
       50
176
     1
 90
        3
176
     1
 62
     5
420
      255
176
     1
290
     0
176
     1
 90
       50
176
     1
 90
       50
176
     1
 90
       50
176
     1
290
     0
176
     1
 90
       50
176
     1
 62
   256
176
     0
 40
1.0
176
     0
 90
        2
176
     1
  1
strokes_ogs.tif
176
     1
290
     0
176
     1
 40
1.0
176
     1
 40
1.0
176
     1
  0
VISUALSTYLE
  5
34
102
{ACAD_REACTORS
330
2A
102
}
330
2A
100
AcDbVisualStyle
  2
Conceptual
 70
     9
177
     3
291
     0
 70
    58
 90
        3
176
     1
 90
        2
176
     1
 90
        0
176
     1
 90
        0
176
     1
 40
0.6
176
     1
 40
30.0
176
     1
 62
     7
420
 16777215
176
     1
 90
        2
176
     1
 90
        2
176
     1
 62
     7
176
     1
 62
   257
176
     1
 90
        1
176
     1
 90
        1
176
     1
 40
179.0
176
     1
 90
        8
176
     1
 62
     7
176
     1
 40
1.0
176
     1
 90
        1
176
     1
 90
        6
176
     1
 90
        2
176
     1
 62
     7
176
     1
 90
        3
176
     1
 90
        0
176
     1
 90
        0
176
     1
290
     0
176
     1
 90
        1
176
     1
 40
0.0
176
     1
 90
        0
176
     1
290
     0
176
     1
290
     1
176
     1
290
     1
176
     1
290
     0
176
     1
290
     0
176
     1
290
     0
176
     1
290
     0
176
     1
290
     0
176
     1
290
     0
176
     1
 90
       50
176
     1
 40
0.0
176
     1
 40
1.0
176
     1
 90
        0
176
     1
 62
    18
420
        0
176
     1
 90
       50
176
     1
 90
        3
176
     1
 62
     5
420
      255
176
     1
290
     0
176
     1
 90
       50
176
     1
 90
       50
176
     1
 90
       50
176
     1
290
     0
176
     1
 90
       50
176
     1
 62
   256
176
     0
 40
1.0
176
     0
 90
        2
176
     1
  1
strokes_ogs.tif
176
     1
290
     0
176
     1
 40
1.0
176
     1
 40
1.0
176
     1
  0
VISUALSTYLE
  5
35
102
{ACAD_REACTORS
330
2A
102
}
330
2A
100
AcDbVisualStyle
  2
Dim
 70
    11
177
     3
291
     1
 70
    58
 90
        2
176
     1
 90
        2
176
     1
 90
        0
176
     1
 90
        0
176
     1
 40
0.6
176
     1
 40
30.0
176
     1
 62
     7
420
 16777215
176
     1
 90
        1
176
     1
 90
        4
176
     1
 62
     7
176
     1
 62
   257
176
     1
 90
        1
176
     1
 90
        1
176
     1
 40
1.0
176
     1
 90
        8
176
     1
 62
     7
176
     1
 40
1.0
176
     1
 90
        1
176
     1
 90
        6
176
     1
 90
        2
176
     1
 62
     7
176
     1
 90
        5
176
     1
 90
        0
176
     1
 90
        0
176
     1
290
     0
176
     1
 90
        1
176
     1
 40
-50.0
176
     1
 90
        0
176
     1
290
     0
176
     1
290
     1
176
     1
290
     1
176
     1
290
     0
176
     1
290
     0
176
     1
290
     0
176
     1
290
     0
176
     1
290
     0
176
     1
290
     0
176
     1
 90
       50
176
     1
 40
0.0
176
     1
 40
1.0
176
     1
 90
        0
176
     1
 62
    18
420
        0
176
     1
 90
       50
176
     1
 90
        3
176
     1
 62
     5
420
      255
176
     1
290
     0
176
     1
 90
       50
176
     1
 90
       50
176
     1
 90
       50
176
     1
290
     0
176
     1
 90
       50
176
     1
 62
   256
176
     0
 40
1.0
176
     0
 90
        2
176
     1
  1
strokes_ogs.tif
176
     1
290
     0
176
     1
 40
1.0
176
     1
 40
1.0
176
     1
  0
VISUALSTYLE
  5
3D
102
{ACAD_REACTORS
330
2A
102
}
330
2A
100
AcDbVisualStyle
  2
EdgeColorOff
 70
    22
177
     3
291
     1
 70
    58
 90
        2
176
     0
 90
        2
176
     0
 90
        0
176
     0
 90
        0
176
     0
 40
0.6
176
     0
 40
30.0
176
     0
 62
     7
420
 16777215
176
     0
 90
        1
176
     0
 90
        4
176
     0
 62
     7
176
     0
 62
   257
176
     0
 90
        1
176
     0
 90
        1
176
     0
 40
1.0
176
     0
 90
        8
176
     2
 62
     7
176
     0
 40
1.0
176
     0
 90
        1
176
     0
 90
        6
176
     0
 90
        2
176
     0
 62
     7
176
     0
 90
        5
176
     0
 90
        0
176
     0
 90
        0
176
     0
290
     0
176
     0
 90
        1
176
     0
 40
0.0
176
     0
 90
        0
176
     0
290
     0
176
     0
290
     1
176
     0
290
     1
176
     0
290
     0
176
     0
290
     0
176
     0
290
     0
176
     0
290
     0
176
     0
290
     0
176
     0
290
     0
176
     0
 90
       50
176
     0
 40
0.0
176
     0
 40
1.0
176
     0
 90
        0
176
     0
 62
    18
420
        0
176
     0
 90
       50
176
     0
 90
        3
176
     0
 62
     5
420
      255
176
     0
290
     0
176
     0
 90
       50
176
     0
 90
       50
176
     0
 90
       50
176
     0
290
     0
176
     0
 90
       50
176
     0
 62
   256
176
     0
 40
1.0
176
     0
 90
        2
176
     0
  1
strokes_ogs.tif
176
     0
290
     0
176
     0
 40
1.0
176
     0
 40
1.0
176
     0
  0
VISUALSTYLE
  5
39
102
{ACAD_REACTORS
330
2A
102
}
330
2A
100
AcDbVisualStyle
  2
Facepattern
 70
    15
177
     3
291
     1
 70
    58
 90
        2
176
     1
 90
        2
176
     1
 90
        0
176
     1
 90
        0
176
     1
 40
0.6
176
     1
 40
30.0
176
     1
 62
     7
420
 16777215
176
     1
 90
        1
176
     1
 90
        4
176
     1
 62
     7
176
     1
 62
   257
176
     1
 90
        1
176
     1
 90
        1
176
     1
 40
1.0
176
     1
 90
        8
176
     1
 62
     7
176
     1
 40
1.0
176
     1
 90
        1
176
     1
 90
        6
176
     1
 90
        2
176
     1
 62
     7
176
     1
 90
        5
176
     1
 90
        0
176
     1
 90
        0
176
     1
290
     0
176
     1
 90
        1
176
     1
 40
0.0
176
     1
 90
        0
176
     1
290
     0
176
     1
290
     1
176
     1
290
     1
176
     1
290
     0
176
     1
290
     0
176
     1
290
     0
176
     1
290
     0
176
     1
290
     0
176
     1
290
     0
176
     1
 90
       50
176
     1
 40
0.0
176
     1
 40
1.0
176
     1
 90
        0
176
     1
 62
    18
420
        0
176
     1
 90
       50
176
     1
 90
        3
176
     1
 62
     5
420
      255
176
     1
290
     0
176
     1
 90
       50
176
     1
 90
       50
176
     1
 90
       50
176
     1
290
     0
176
     1
 90
       50
176
     1
 62
   256
176
     0
 40
1.0
176
     0
 90
        2
176
     1
  1
strokes_ogs.tif
176
     1
290
     0
176
     1
 40
1.0
176
     1
 40
1.0
176
     1
  0
VISUALSTYLE
  5
2B
102
{ACAD_REACTORS
330
2A
102
}
330
2A
100
AcDbVisualStyle
  2
Flat
 70
     0
177
     3
291
     1
 70
    58
 90
        2
176
     1
 90
        1
176
     1
 90
        1
176
     1
 90
        2
176
     1
 40
0.6
176
     1
 40
30.0
176
     1
 62
     7
420
 16777215
176
     1
 90
        0
176
     1
 90
        0
176
     1
 62
     7
176
     1
 62
   257
176
     1
 90
        1
176
     1
 90
        1
176
     1
 40
1.0
176
     1
 90
        8
176
     1
 62
     7
176
     1
 40
1.0
176
     1
 90
        1
176
     1
 90
        6
176
     1
 90
        2
176
     1
 62
     7
176
     1
 90
        5
176
     1
 90
        0
176
     1
 90
        0
176
     1
290
     0
176
     1
 90
       13
176
     1
 40
0.0
176
     1
 90
        0
176
     1
290
     0
176
     1
290
     1
176
     1
290
     1
176
     1
290
     0
176
     1
290
     0
176
     1
290
     0
176
     1
290
     0
176
     1
290
     0
176
     1
290
     0
176
     1
 90
       50
176
     1
 40
0.0
176
     1
 40
1.0
176
     1
 90
        0
176
     1
 62
    18
420
        0
176
     1
 90
       50
176
     1
 90
        3
176
     1
 62
     5
420
      255
176
     1
290
     0
176
     1
 90
       50
176
     1
 90
       50
176
     1
 90
       50
176
     1
290
     0
176
     1
 90
       50
176
     1
 62
   256
176
     0
 40
1.0
176
     0
 90
        2
176
     1
  1
strokes_ogs.tif
176
     1
290
     0
176
     1
 40
1.0
176
     1
 40
1.0
176
     1
  0
VISUALSTYLE
  5
2C
102
{ACAD_REACTORS
330
2A
102
}
330
2A
100
AcDbVisualStyle
  2
FlatWithEdges
 70
     1
177
     3
291
     1
 70
    58
 90
        2
176
     1
 90
        1
176
     1
 90
        1
176
     1
 90
        2
176
     1
 40
0.6
176
     1
 40
30.0
176
     1
 62
     7
420
 16777215
176
     1
 90
        1
176
     1
 90
        0
176
     1
 62
     7
176
     1
 62
   257
176
     1
 90
        1
176
     1
 90
        1
176
     1
 40
1.0
176
     1
 90
        0
176
     1
 62
   257
176
     1
 40
1.0
176
     1
 90
        1
176
     1
 90
        6
176
     1
 90
        2
176
     1
 62
     7
176
     1
 90
        5
176
     1
 90
        0
176
     1
 90
        0
176
     1
290
     0
176
     1
 90
       13
176
     1
 40
0.0
176
     1
 90
        0
176
     1
290
     0
176
     1
290
     1
176
     1
290
     1
176
     1
290
     0
176
     1
290
     0
176
     1
290
     0
176
     1
290
     0
176
     1
290
     0
176
     1
290
     0
176
     1
 90
       50
176
     1
 40
0.0
176
     1
 40
1.0
176
     1
 90
        0
176
     1
 62
    18
420
        0
176
     1
 90
       50
176
     1
 90
        3
176
     1
 62
     5
420
      255
176
     1
290
     0
176
     1
 90
       50
176
     1
 90
       50
176
     1
 90
       50
176
     1
290
     0
176
     1
 90
       50
176
     1
 62
   256
176
     0
 40
1.0
176
     0
 90
        2
176
     1
  1
strokes_ogs.tif
176
     1
290
     0
176
     1
 40
1.0
176
     1
 40
1.0
176
     1
  0
VISUALSTYLE
  5
2D
102
{ACAD_REACTORS
330
2A
102
}
330
2A
100
AcDbVisualStyle
  2
Gouraud
 70
     2
177
     3
291
     1
 70
    58
 90
        2
176
     1
 90
        2
176
     1
 90
        1
176
     1
 90
        2
176
     1
 40
0.6
176
     1
 40
30.0
176
     1
 62
     7
420
 16777215
176
     1
 90
        0
176
     1
 90
        0
176
     1
 62
     7
176
     1
 62
   257
176
     1
 90
        1
176
     1
 90
        1
176
     1
 40
1.0
176
     1
 90
        0
176
     1
 62
     7
176
     1
 40
1.0
176
     1
 90
        1
176
     1
 90
        6
176
     1
 90
        2
176
     1
 62
     7
176
     1
 90
        5
176
     1
 90
        0
176
     1
 90
        0
176
     1
290
     0
176
     1
 90
       13
176
     1
 40
0.0
176
     1
 90
        0
176
     1
290
     0
176
     1
290
     1
176
     1
290
     1
176
     1
290
     0
176
     1
290
     0
176
     1
290
     0
176
     1
290
     0
176
     1
290
     0
176
     1
290
     0
176
     1
 90
       50
176
     1
 40
0.0
176
     1
 40
1.0
176
     1
 90
        0
176
     1
 62
    18
420
        0
176
     1
 90
       50
176
     1
 90
        3
176
     1
 62
     5
420
      255
176
     1
290
     0
176
     1
 90
       50
176
     1
 90
       50
176
     1
 90
       50
176
     1
290
     0
176
     1
 90
       50
176
     1
 62
   256
176
     0
 40
1.0
176
     0
 90
        2
176
     1
  1
strokes_ogs.tif
176
     1
290
     0
176
     1
 40
1.0
176
     1
 40
1.0
176
     1
  0
VISUALSTYLE
  5
2E
102
{ACAD_REACTORS
330
2A
102
}
330
2A
100
AcDbVisualStyle
  2
GouraudWithEdges
 70
     3
177
     3
291
     1
 70
    58
 90
        2
176
     1
 90
        2
176
     1
 90
        1
176
     1
 90
        2
176
     1
 40
0.6
176
     1
 40
30.0
176
     1
 62
     7
420
 16777215
176
     1
 90
        1
176
     1
 90
        0
176
     1
 62
     7
176
     1
 62
   257
176
     1
 90
        1
176
     1
 90
        1
176
     1
 40
1.0
176
     1
 90
        0
176
     1
 62
   257
176
     1
 40
1.0
176
     1
 90
        1
176
     1
 90
        6
176
     1
 90
        2
176
     1
 62
     7
176
     1
 90
        5
176
     1
 90
        0
176
     1
 90
        0
176
     1
290
     0
176
     1
 90
       13
176
     1
 40
0.0
176
     1
 90
        0
176
     1
290
     0
176
     1
290
     1
176
     1
290
     1
176
     1
290
     0
176
     1
290
     0
176
     1
290
     0
176
     1
290
     0
176
     1
290
     0
176
     1
290
     0
176
     1
 90
       50
176
     1
 40
0.0
176
     1
 40
1.0
176
     1
 90
        0
176
     1
 62
    18
420
        0
176
     1
 90
       50
176
     1
 90
        3
176
     1
 62
     5
420
      255
176
     1
290
     0
176
     1
 90
       50
176
     1
 90
       50
176
     1
 90
       50
176
     1
290
     0
176
     1
 90
       50
176
     1
 62
   256
176
     0
 40
1.0
176
     0
 90
        2
176
     1
  1
strokes_ogs.tif
176
     1
290
     0
176
     1
 40
1.0
176
     1
 40
1.0
176
     1
  0
VISUALSTYLE
  5
31
102
{ACAD_REACTORS
330
2A
102
}
330
2A
100
AcDbVisualStyle
  2
Hidden
 70
     6
177
     3
291
     0
 70
    58
 90
        1
176
     1
 90
        2
176
     1
 90
        2
176
     1
 90
        0
176
     1
 40
0.6
176
     1
 40
30.0
176
     1
 62
     7
420
 16777215
176
     1
 90
        2
176
     1
 90
        2
176
     1
 62
     7
176
     1
 62
   257
176
     1
 90
        2
176
     1
 90
        1
176
     1
 40
40.0
176
     1
 90
        0
176
     1
 62
   257
176
     1
 40
1.0
176
     1
 90
        1
176
     1
 90
        6
176
     1
 90
        2
176
     1
 62
     7
176
     1
 90
        3
176
     1
 90
        0
176
     1
 90
        0
176
     1
290
     0
176
     1
 90
        1
176
     1
 40
0.0
176
     1
 90
        0
176
     1
290
     0
176
     1
290
     1
176
     1
290
     1
176
     1
290
     0
176
     1
290
     0
176
     1
290
     0
176
     1
290
     0
176
     1
290
     0
176
     1
290
     0
176
     1
 90
       50
176
     1
 40
0.0
176
     1
 40
1.0
176
     1
 90
        0
176
     1
 62
    18
420
        0
176
     1
 90
       50
176
     1
 90
        3
176
     1
 62
     5
420
      255
176
     1
290
     0
176
     1
 90
       50
176
     1
 90
       50
176
     1
 90
       50
176
     1
290
     0
176
     1
 90
       50
176
     1
 62
   256
176
     0
 40
1.0
176
     0
 90
        2
176
     1
  1
strokes_ogs.tif
176
     1
290
     0
176
     1
 40
1.0
176
     1
 40
1.0
176
     1
  0
VISUALSTYLE
  5
3B
102
{ACAD_REACTORS
330
2A
102
}
330
2A
100
AcDbVisualStyle
  2
JitterOff
 70
    20
177
     3
291
     1
 70
    58
 90
        2
176
     0
 90
        2
176
     0
 90
        0
176
     0
 90
        0
176
     0
 40
0.6
176
     0
 40
30.0
176
     0
 62
     7
420
 16777215
176
     0
 90
        1
176
     0
 90
        4
176
     0
 62
     7
176
     0
 62
   257
176
     0
 90
        1
176
     0
 90
        1
176
     0
 40
1.0
176
     0
 90
       10
176
     2
 62
     7
176
     0
 40
1.0
176
     0
 90
        1
176
     0
 90
        6
176
     0
 90
        2
176
     0
 62
     7
176
     0
 90
        5
176
     0
 90
        0
176
     0
 90
        0
176
     0
290
     0
176
     0
 90
        1
176
     0
 40
0.0
176
     0
 90
        0
176
     0
290
     0
176
     0
290
     1
176
     0
290
     1
176
     0
290
     0
176
     0
290
     0
176
     0
290
     0
176
     0
290
     0
176
     0
290
     0
176
     0
290
     0
176
     0
 90
       50
176
     0
 40
0.0
176
     0
 40
1.0
176
     0
 90
        0
176
     0
 62
    18
420
        0
176
     0
 90
       50
176
     0
 90
        3
176
     0
 62
     5
420
      255
176
     0
290
     0
176
     0
 90
       50
176
     0
 90
       50
176
     0
 90
       50
176
     0
290
     0
176
     0
 90
       50
176
     0
 62
   256
176
     0
 40
1.0
176
     0
 90
        2
176
     0
  1
strokes_ogs.tif
176
     0
290
     0
176
     0
 40
1.0
176
     0
 40
1.0
176
     0
  0
VISUALSTYLE
  5
38
102
{ACAD_REACTORS
330
2A
102
}
330
2A
100
AcDbVisualStyle
  2
Linepattern
 70
    14
177
     3
291
     1
 70
    58
 90
        2
176
     1
 90
        2
176
     1
 90
        0
176
     1
 90
        0
176
     1
 40
0.6
176
     1
 40
30.0
176
     1
 62
     7
420
 16777215
176
     1
 90
        1
176
     1
 90
        4
176
     1
 62
     7
176
     1
 62
   257
176
     1
 90
        7
176
     1
 90
        7
176
     1
 40
1.0
176
     1
 90
        8
176
     1
 62
     7
176
     1
 40
1.0
176
     1
 90
        1
176
     1
 90
        6
176
     1
 90
        2
176
     1
 62
     7
176
     1
 90
        5
176
     1
 90
        0
176
     1
 90
        0
176
     1
290
     0
176
     1
 90
        1
176
     1
 40
0.0
176
     1
 90
        0
176
     1
290
     0
176
     1
290
     1
176
     1
290
     1
176
     1
290
     0
176
     1
290
     0
176
     1
290
     0
176
     1
290
     0
176
     1
290
     0
176
     1
290
     0
176
     1
 90
       50
176
     1
 40
0.0
176
     1
 40
1.0
176
     1
 90
        0
176
     1
 62
    18
420
        0
176
     1
 90
       50
176
     1
 90
        3
176
     1
 62
     5
420
      255
176
     1
290
     0
176
     1
 90
       50
176
     1
 90
       50
176
     1
 90
       50
176
     1
290
     0
176
     1
 90
       50
176
     1
 62
   256
176
     0
 40
1.0
176
     0
 90
        2
176
     1
  1
strokes_ogs.tif
176
     1
290
     0
176
     1
 40
1.0
176
     1
 40
1.0
176
     1
  0
VISUALSTYLE
  5
3C
102
{ACAD_REACTORS
330
2A
102
}
330
2A
100
AcDbVisualStyle
  2
OverhangOff
 70
    21
177
     3
291
     1
 70
    58
 90
        2
176
     0
 90
        2
176
     0
 90
        0
176
     0
 90
        0
176
     0
 40
0.6
176
     0
 40
30.0
176
     0
 62
     7
420
 16777215
176
     0
 90
        1
176
     0
 90
        4
176
     0
 62
     7
176
     0
 62
   257
176
     0
 90
        1
176
     0
 90
        1
176
     0
 40
1.0
176
     0
 90
        9
176
     2
 62
     7
176
     0
 40
1.0
176
     0
 90
        1
176
     0
 90
        6
176
     0
 90
        2
176
     0
 62
     7
176
     0
 90
        5
176
     0
 90
        0
176
     0
 90
        0
176
     0
290
     0
176
     0
 90
        1
176
     0
 40
0.0
176
     0
 90
        0
176
     0
290
     0
176
     0
290
     1
176
     0
290
     1
176
     0
290
     0
176
     0
290
     0
176
     0
290
     0
176
     0
290
     0
176
     0
290
     0
176
     0
290
     0
176
     0
 90
       50
176
     0
 40
0.0
176
     0
 40
1.0
176
     0
 90
        0
176
     0
 62
    18
420
        0
176
     0
 90
       50
176
     0
 90
        3
176
     0
 62
     5
420
      255
176
     0
290
     0
176
     0
 90
       50
176
     0
 90
       50
176
     0
 90
       50
176
     0
290
     0
176
     0
 90
       50
176
     0
 62
   256
176
     0
 40
1.0
176
     0
 90
        2
176
     0
  1
strokes_ogs.tif
176
     0
290
     0
176
     0
 40
1.0
176
     0
 40
1.0
176
     0
  0
VISUALSTYLE
  5
33
102
{ACAD_REACTORS
330
2A
102
}
330
2A
100
AcDbVisualStyle
  2
Realistic
 70
     8
177
     3
291
     0
 70
    58
 90
        2
176
     1
 90
        3
176
     1
 90
        0
176
     1
 90
        2
176
     1
 40
0.6
176
     1
 40
30.0
176
     1
 62
     7
420
 16777215
176
     1
 90
        0
176
     1
 90
        0
176
     1
 62
     7
176
     1
 62
   257
176
     1
 90
        1
176
     1
 90
        1
176
     1
 40
1.0
176
     1
 90
        8
176
     1
 62
   257
176
     1
 40
1.0
176
     1
 90
        1
176
     1
 90
        6
176
     1
 90
        2
176
     1
 62
     7
176
     1
 90
        3
176
     1
 90
        0
176
     1
 90
        0
176
     1
290
     0
176
     1
 90
       13
176
     1
 40
0.0
176
     1
 90
        0
176
     1
290
     0
176
     1
290
     1
176
     1
290
     1
176
     1
290
     0
176
     1
290
     0
176
     1
290
     0
176
     1
290
     0
176
     1
290
     0
176
     1
290
     0
176
     1
 90
       50
176
     1
 40
0.0
176
     1
 40
1.0
176
     1
 90
        0
176
     1
 62
    18
420
        0
176
     1
 90
       50
176
     1
 90
        3
176
     1
 62
     5
420
      255
176
     1
290
     0
176
     1
 90
       50
176
     1
 90
       50
176
     1
 90
       50
176
     1
290
     0
176
     1
 90
       50
176
     1
 62
   256
176
     0
 40
1.0
176
     0
 90
        2
176
     1
  1
strokes_ogs.tif
176
     1
290
     0
176
     1
 40
1.0
176
     1
 40
1.0
176
     1
  0
VISUALSTYLE
  5
42
102
{ACAD_REACTORS
330
2A
102
}
330
2A
100
AcDbVisualStyle
  2
Shaded
 70
    27
177
     3
291
     0
 70
    58
 90
        2
176
     1
 90
        2
176
     1
 90
        1
176
     1
 90
        2
176
     1
 40
0.6
176
     1
 40
30.0
176
     1
 62
     7
420
 16777215
176
     1
 90
        0
176
     1
 90
        4
176
     1
 62
     7
176
     1
 62
   257
176
     1
 90
        1
176
     1
 90
        1
176
     1
 40
1.0
176
     1
 90
        8
176
     1
 62
   257
176
     1
 40
1.0
176
     1
 90
        1
176
     1
 90
        6
176
     1
 90
        2
176
     1
 62
     8
420
  7895160
176
     1
 90
        3
176
     1
 90
        0
176
     1
 90
        0
176
     1
290
     0
176
     1
 90
        5
176
     1
 40
0.0
176
     1
 90
        0
176
     1
290
     0
176
     1
290
     1
176
     1
290
     1
176
     1
290
     0
176
     1
290
     0
176
     1
290
     0
176
     1
290
     0
176
     1
290
     0
176
     1
290
     0
176
     1
 90
       50
176
     1
 40
0.0
176
     1
 40
1.0
176
     1
 90
        0
176
     1
 62
    18
420
        0
176
     1
 90
       50
176
     1
 90
        3
176
     1
 62
     5
420
      255
176
     1
290
     0
176
     1
 90
       50
176
     1
 90
       50
176
     1
 90
       50
176
     1
290
     0
176
     1
 90
       50
176
     1
 62
   256
176
     0
 40
1.0
176
     0
 90
        2
176
     1
  1
strokes_ogs.tif
176
     1
290
     0
176
     1
 40
1.0
176
     1
 40
1.0
176
     1
  0
VISUALSTYLE
  5
41
102
{ACAD_REACTORS
330
2A
102
}
330
2A
100
AcDbVisualStyle
  2
Shaded with edges
 70
    26
177
     3
291
     0
 70
    58
 90
        2
176
     1
 90
        2
176
     1
 90
        1
176
     1
 90
        2
176
     1
 40
0.6
176
     1
 40
30.0
176
     1
 62
     7
420
 16777215
176
     1
 90
        1
176
     1
 90
       10
176
     1
 62
     7
176
     1
 62
   257
176
     1
 90
        2
176
     1
 90
        1
176
     1
 40
1.0
176
     1
 90
        8
176
     1
 62
   257
176
     1
 40
1.0
176
     1
 90
        1
176
     1
 90
        6
176
     1
 90
        2
176
     1
 62
     7
176
     1
 90
        3
176
     1
 90
        0
176
     1
 90
        0
176
     1
290
     0
176
     1
 90
        5
176
     1
 40
0.0
176
     1
 90
        0
176
     1
290
     0
176
     1
290
     1
176
     1
290
     1
176
     1
290
     0
176
     1
290
     0
176
     1
290
     0
176
     1
290
     0
176
     1
290
     0
176
     1
290
     0
176
     1
 90
       50
176
     1
 40
0.0
176
     1
 40
1.0
176
     1
 90
        0
176
     1
 62
    18
420
        0
176
     1
 90
       50
176
     1
 90
        3
176
     1
 62
     5
420
      255
176
     1
290
     0
176
     1
 90
       50
176
     1
 90
       50
176
     1
 90
       50
176
     1
290
     0
176
     1
 90
       50
176
     1
 62
   256
176
     0
 40
1.0
176
     0
 90
        2
176
     1
  1
strokes_ogs.tif
176
     1
290
     0
176
     1
 40
1.0
176
     1
 40
1.0
176
     1
  0
VISUALSTYLE
  5
3E
102
{ACAD_REACTORS
330
2A
102
}
330
2A
100
AcDbVisualStyle
  2
Shades of Gray
 70
    23
177
     3
291
     0
 70
    58
 90
        2
176
     1
 90
        2
176
     1
 90
        3
176
     1
 90
        0
176
     1
 40
0.6
176
     1
 40
30.0
176
     1
 62
     7
420
 16777215
176
     1
 90
        2
176
     1
 90
        2
176
     1
 62
     7
176
     1
 62
     7
176
     1
 90
        1
176
     1
 90
        1
176
     1
 40
40.0
176
     1
 90
        8
176
     1
 62
     7
176
     1
 40
1.0
176
     1
 90
        1
176
     1
 90
        6
176
     1
 90
        2
176
     1
 62
     7
176
     1
 90
        3
176
     1
 90
        0
176
     1
 90
        0
176
     1
290
     0
176
     1
 90
        1
176
     1
 40
0.0
176
     1
 90
        0
176
     1
290
     0
176
     1
290
     1
176
     1
290
     1
176
     1
290
     0
176
     1
290
     0
176
     1
290
     0
176
     1
290
     0
176
     1
290
     0
176
     1
290
     0
176
     1
 90
       50
176
     1
 40
0.0
176
     1
 40
1.0
176
     1
 90
        0
176
     1
 62
    18
420
        0
176
     1
 90
       50
176
     1
 90
        3
176
     1
 62
     5
420
      255
176
     1
290
     0
176
     1
 90
       50
176
     1
 90
       50
176
     1
 90
       50
176
     1
290
     0
176
     1
 90
       50
176
     1
 62
   256
176
     0
 40
1.0
176
     0
 90
        2
176
     1
  1
strokes_ogs.tif
176
     1
290
     0
176
     1
 40
1.0
176
     1
 40
1.0
176
     1
  0
VISUALSTYLE
  5
3F
102
{ACAD_REACTORS
330
2A
102
}
330
2A
100
AcDbVisualStyle
  2
Sketchy
 70
    24
177
     3
291
     0
 70
    58
 90
        1
176
     1
 90
        2
176
     1
 90
        2
176
     1
 90
        0
176
     1
 40
0.6
176
     1
 40
30.0
176
     1
 62
     7
420
 16777215
176
     1
 90
        2
176
     1
 90
        2
176
     1
 62
     7
176
     1
 62
     7
176
     1
 90
        1
176
     1
 90
        1
176
     1
 40
40.0
176
     1
 90
       11
176
     1
 62
     7
176
     1
 40
1.0
176
     1
 90
        1
176
     1
 90
        6
176
     1
 90
        2
176
     1
 62
     7
176
     1
 90
        6
176
     1
 90
        0
176
     1
 90
        0
176
     1
290
     0
176
     1
 90
        1
176
     1
 40
0.0
176
     1
 90
        0
176
     1
290
     0
176
     1
290
     1
176
     1
290
     1
176
     1
290
     0
176
     1
290
     0
176
     1
290
     0
176
     1
290
     0
176
     1
290
     0
176
     1
290
     0
176
     1
 90
       50
176
     1
 40
0.0
176
     1
 40
1.0
176
     1
 90
        0
176
     1
 62
    18
420
        0
176
     1
 90
       50
176
     1
 90
        3
176
     1
 62
     5
420
      255
176
     1
290
     0
176
     1
 90
       50
176
     1
 90
       50
176
     1
 90
       50
176
     1
290
     0
176
     1
 90
       50
176
     1
 62
   256
176
     0
 40
1.0
176
     0
 90
        2
176
     1
  1
strokes_ogs.tif
176
     1
290
     0
176
     1
 40
1.0
176
     1
 40
1.0
176
     1
  0
VISUALSTYLE
  5
37
102
{ACAD_REACTORS
330
2A
102
}
330
2A
100
AcDbVisualStyle
  2
Thicken
 70
    13
177
     3
291
     1
 70
    58
 90
        2
176
     1
 90
        2
176
     1
 90
        0
176
     1
 90
        0
176
     1
 40
0.6
176
     1
 40
30.0
176
     1
 62
     7
420
 16777215
176
     1
 90
        1
176
     1
 90
        4
176
     1
 62
     7
176
     1
 62
   257
176
     1
 90
        1
176
     1
 90
        1
176
     1
 40
1.0
176
     1
 90
       12
176
     1
 62
     7
176
     1
 40
1.0
176
     1
 90
        1
176
     1
 90
        6
176
     1
 90
        2
176
     1
 62
     7
176
     1
 90
        5
176
     1
 90
        0
176
     1
 90
        0
176
     1
290
     0
176
     1
 90
        1
176
     1
 40
0.0
176
     1
 90
        0
176
     1
290
     0
176
     1
290
     1
176
     1
290
     1
176
     1
290
     0
176
     1
290
     0
176
     1
290
     0
176
     1
290
     0
176
     1
290
     0
176
     1
290
     0
176
     1
 90
       50
176
     1
 40
0.0
176
     1
 40
1.0
176
     1
 90
        0
176
     1
 62
    18
420
        0
176
     1
 90
       50
176
     1
 90
        3
176
     1
 62
     5
420
      255
176
     1
290
     0
176
     1
 90
       50
176
     1
 90
       50
176
     1
 90
       50
176
     1
290
     0
176
     1
 90
       50
176
     1
 62
   256
176
     0
 40
1.0
176
     0
 90
        2
176
     1
  1
strokes_ogs.tif
176
     1
290
     0
176
     1
 40
1.0
176
     1
 40
1.0
176
     1
  0
VISUALSTYLE
  5
30
102
{ACAD_REACTORS
330
2A
102
}
330
2A
100
AcDbVisualStyle
  2
Wireframe
 70
     5
177
     3
291
     0
 70
    58
 90
        0
176
     1
 90
        2
176
     1
 90
        0
176
     1
 90
        0
176
     1
 40
0.6
176
     1
 40
30.0
176
     1
 62
     7
420
 16777215
176
     1
 90
        1
176
     1
 90
        4
176
     1
 62
     7
176
     1
 62
   257
176
     1
 90
        1
176
     1
 90
        1
176
     1
 40
1.0
176
     1
 90
        0
176
     1
 62
   257
176
     1
 40
1.0
176
     1
 90
        1
176
     1
 90
        6
176
     1
 90
        2
176
     1
 62
     7
176
     1
 90
        3
176
     1
 90
        0
176
     1
 90
        0
176
     1
290
     0
176
     1
 90
        1
176
     1
 40
0.0
176
     1
 90
        0
176
     1
290
     0
176
     1
290
     1
176
     1
290
     1
176
     1
290
     0
176
     1
290
     0
176
     1
290
     0
176
     1
290
     0
176
     1
290
     0
176
     1
290
     0
176
     1
 90
       50
176
     1
 40
0.0
176
     1
 40
1.0
176
     1
 90
        0
176
     1
 62
    18
420
        0
176
     1
 90
       50
176
     1
 90
        3
176
     1
 62
     5
420
      255
176
     1
290
     0
176
     1
 90
       50
176
     1
 90
       50
176
     1
 90
       50
176
     1
290
     0
176
     1
 90
       50
176
     1
 62
   256
176
     0
 40
1.0
176
     0
 90
        2
176
     1
  1
strokes_ogs.tif
176
     1
290
     0
176
     1
 40
1.0
176
     1
 40
1.0
176
     1
  0
VISUALSTYLE
  5
40
102
{ACAD_REACTORS
330
2A
102
}
330
2A
100
AcDbVisualStyle
  2
X-Ray
 70
    25
177
     3
291
     0
 70
    58
 90
        2
176
     1
 90
        2
176
     1
 90
        1
176
     1
 90
        1
176
     1
 40
0.5
176
     1
 40
30.0
176
     1
 62
     7
420
 16777215
176
     1
 90
        1
176
     1
 90
        0
176
     1
 62
     7
176
     1
 62
   257
176
     1
 90
        1
176
     1
 90
        1
176
     1
 40
1.0
176
     1
 90
        8
176
     1
 62
     7
176
     1
 40
1.0
176
     1
 90
        1
176
     1
 90
        6
176
     1
 90
        2
176
     1
 62
     7
176
     1
 90
        3
176
     1
 90
        0
176
     1
 90
        0
176
     1
290
     0
176
     1
 90
       13
176
     1
 40
0.0
176
     1
 90
        0
176
     1
290
     0
176
     1
290
     1
176
     1
290
     1
176
     1
290
     0
176
     1
290
     0
176
     1
290
     0
176
     1
290
     0
176
     1
290
     0
176
     1
290
     0
176
     1
 90
       50
176
     1
 40
0.0
176
     1
 40
1.0
176
     1
 90
        0
176
     1
 62
    18
420
        0
176
     1
 90
       50
176
     1
 90
        3
176
     1
 62
     5
420
      255
176
     1
290
     0
176
     1
 90
       50
176
     1
 90
       50
176
     1
 90
       50
176
     1
290
     0
176
     1
 90
       50
176
     1
 62
   256
176
     0
 40
1.0
176
     0
 90
        2
176
     1
  1
strokes_ogs.tif
176
     1
290
     0
176
     1
 40
1.0
176
     1
 40
1.0
176
     1
  0
DICTIONARYVAR
  5
1FF
102
{ACAD_REACTORS
330
1FE
102
}
330
1FE
100
DictionaryVariables
280
     0
  1
1:1
  0
DICTIONARYVAR
  5
204
102
{ACAD_REACTORS
330
1FE
102
}
330
1FE
100
DictionaryVariables
280
     0
  1
Standard
  0
DICTIONARYVAR
  5
203
102
{ACAD_REACTORS
330
1FE
102
}
330
1FE
100
DictionaryVariables
280
     0
  1
Standard
  0
DICTIONARY
  5
200
330
6A
100
AcDbDictionary
280
     1
281
     1
  3
ACAD_ROUNDTRIP_2008_TABLESTYLE_CELLSTYLEMAP
360
201
  0
CELLSTYLEMAP
  5
201
102
{ACAD_REACTORS
330
200
102
}
330
200
100
AcDbCellStyleMap
 90
        3
300
CELLSTYLE
  1
TABLEFORMAT_BEGIN
 90
        5
170
     1
 91
        0
 92
    32768
 62
   257
 93
        1
300
CONTENTFORMAT
  1
CONTENTFORMAT_BEGIN
 90
        0
 91
        0
 92
        4
 93
        0
300

 40
0.0
140
1.0
 94
        5
 62
     0
340
11
144
6.0
309
CONTENTFORMAT_END
171
     1
301
MARGIN
  1
CELLMARGIN_BEGIN
 40
1.5
 40
1.5
 40
1.5
 40
1.5
 40
1.5
 40
1.5
309
CELLMARGIN_END
 94
        6
 95
        1
302
GRIDFORMAT
  1
GRIDFORMAT_BEGIN
 90
        0
 91
        1
 62
     0
 92
       -2
340
14
 93
        0
 40
0.045
309
GRIDFORMAT_END
 95
        2
302
GRIDFORMAT
  1
GRIDFORMAT_BEGIN
 90
        0
 91
        1
 62
     0
 92
       -2
340
14
 93
        0
 40
0.045
309
GRIDFORMAT_END
 95
        4
302
GRIDFORMAT
  1
GRIDFORMAT_BEGIN
 90
        0
 91
        1
 62
     0
 92
       -2
340
14
 93
        0
 40
0.045
309
GRIDFORMAT_END
 95
        8
302
GRIDFORMAT
  1
GRIDFORMAT_BEGIN
 90
        0
 91
        1
 62
     0
 92
       -2
340
14
 93
        0
 40
0.045
309
GRIDFORMAT_END
 95
       16
302
GRIDFORMAT
  1
GRIDFORMAT_BEGIN
 90
        0
 91
        1
 62
     0
 92
       -2
340
14
 93
        0
 40
0.045
309
GRIDFORMAT_END
 95
       32
302
GRIDFORMAT
  1
GRIDFORMAT_BEGIN
 90
        0
 91
        1
 62
     0
 92
       -2
340
14
 93
        0
 40
0.045
309
GRIDFORMAT_END
309
TABLEFORMAT_END
  1
CELLSTYLE_BEGIN
 90
        1
 91
        1
300
_TITLE
309
CELLSTYLE_END
300
CELLSTYLE
  1
TABLEFORMAT_BEGIN
 90
        5
170
     1
 91
        0
 92
        0
 62
   257
 93
        1
300
CONTENTFORMAT
  1
CONTENTFORMAT_BEGIN
 90
        0
 91
        0
 92
        4
 93
        0
300

 40
0.0
140
1.0
 94
        5
 62
     0
340
11
144
4.5
309
CONTENTFORMAT_END
171
     1
301
MARGIN
  1
CELLMARGIN_BEGIN
 40
1.5
 40
1.5
 40
1.5
 40
1.5
 40
1.5
 40
1.5
309
CELLMARGIN_END
 94
        6
 95
        1
302
GRIDFORMAT
  1
GRIDFORMAT_BEGIN
 90
        0
 91
        1
 62
     0
 92
       -2
340
14
 93
        0
 40
0.045
309
GRIDFORMAT_END
 95
        2
302
GRIDFORMAT
  1
GRIDFORMAT_BEGIN
 90
        0
 91
        1
 62
     0
 92
       -2
340
14
 93
        0
 40
0.045
309
GRIDFORMAT_END
 95
        4
302
GRIDFORMAT
  1
GRIDFORMAT_BEGIN
 90
        0
 91
        1
 62
     0
 92
       -2
340
14
 93
        0
 40
0.045
309
GRIDFORMAT_END
 95
        8
302
GRIDFORMAT
  1
GRIDFORMAT_BEGIN
 90
        0
 91
        1
 62
     0
 92
       -2
340
14
 93
        0
 40
0.045
309
GRIDFORMAT_END
 95
       16
302
GRIDFORMAT
  1
GRIDFORMAT_BEGIN
 90
        0
 91
        1
 62
     0
 92
       -2
340
14
 93
        0
 40
0.045
309
GRIDFORMAT_END
 95
       32
302
GRIDFORMAT
  1
GRIDFORMAT_BEGIN
 90
        0
 91
        1
 62
     0
 92
       -2
340
14
 93
        0
 40
0.045
309
GRIDFORMAT_END
309
TABLEFORMAT_END
  1
CELLSTYLE_BEGIN
 90
        2
 91
        1
300
_HEADER
309
CELLSTYLE_END
300
CELLSTYLE
  1
TABLEFORMAT_BEGIN
 90
        5
170
     1
 91
        0
 92
        0
 62
   257
 93
        1
300
CONTENTFORMAT
  1
CONTENTFORMAT_BEGIN
 90
        0
 91
        0
 92
        4
 93
        0
300

 40
0.0
140
1.0
 94
        2
 62
     0
340
11
144
4.5
309
CONTENTFORMAT_END
171
     1
301
MARGIN
  1
CELLMARGIN_BEGIN
 40
1.5
 40
1.5
 40
1.5
 40
1.5
 40
1.5
 40
1.5
309
CELLMARGIN_END
 94
        6
 95
        1
302
GRIDFORMAT
  1
GRIDFORMAT_BEGIN
 90
        0
 91
        1
 62
     0
 92
       -2
340
14
 93
        0
 40
0.045
309
GRIDFORMAT_END
 95
        2
302
GRIDFORMAT
  1
GRIDFORMAT_BEGIN
 90
        0
 91
        1
 62
     0
 92
       -2
340
14
 93
        0
 40
0.045
309
GRIDFORMAT_END
 95
        4
302
GRIDFORMAT
  1
GRIDFORMAT_BEGIN
 90
        0
 91
        1
 62
     0
 92
       -2
340
14
 93
        0
 40
0.045
309
GRIDFORMAT_END
 95
        8
302
GRIDFORMAT
  1
GRIDFORMAT_BEGIN
 90
        0
 91
        1
 62
     0
 92
       -2
340
14
 93
        0
 40
0.045
309
GRIDFORMAT_END
 95
       16
302
GRIDFORMAT
  1
GRIDFORMAT_BEGIN
 90
        0
 91
        1
 62
     0
 92
       -2
340
14
 93
        0
 40
0.045
309
GRIDFORMAT_END
 95
       32
302
GRIDFORMAT
  1
GRIDFORMAT_BEGIN
 90
        0
 91
        1
 62
     0
 92
       -2
340
14
 93
        0
 40
0.045
309
GRIDFORMAT_END
309
TABLEFORMAT_END
  1
CELLSTYLE_BEGIN
 90
        3
 91
        2
300
_DATA
309
CELLSTYLE_END
  0
ENDSEC
  0
EOF