0
SECTION
  2
HEADER
  9
$ACADVER
  1
AC1027
  9
$ACADMAINTVER
 70
     8
  9
$DWGCODEPAGE
  3
ANSI_1252
  9
$REQUIREDVERSIONS
160
                 0
  9
$COMMENTS
  1
File was created by Cadenas
  9
$CUSTOMPROPERTYTAG
  1
NN
  9
$CUSTOMPROPERTY
  1
Grip Tight Two-Bolt Pillow Block - Polymer Housing, Corrision Resistant Insert Inch Bore
  9
$CUSTOMPROPERTYTAG
  1
NT
  9
$CUSTOMPROPERTY
  1
GTEZ Normal Duty Polymer Housed Pillow Blocks
  9
$CUSTOMPROPERTYTAG
  1
NB
  9
$CUSTOMPROPERTY
  1
129252
  9
$CUSTOMPROPERTYTAG
  1
NBSYN
  9
$CUSTOMPROPERTY
  1
$PN.$LUBE.
  9
$CUSTOMPROPERTYTAG
  1
LINA
  9
$CUSTOMPROPERTY
  1
129252
  9
$CUSTOMPROPERTYTAG
  1
SERIES
  9
$CUSTOMPROPERTY
  1
207
  9
$CUSTOMPROPERTYTAG
  1
SS
  9
$CUSTOMPROPERTY
  1
1-7/16
  9
$CUSTOMPROPERTYTAG
  1
PN
  9
$CUSTOMPROPERTY
  1
129252
  9
$CUSTOMPROPERTYTAG
  1
DESCRIPTION
  9
$CUSTOMPROPERTY
  1
P2B-GTEZ-107-PCR
  9
$CUSTOMPROPERTYTAG
  1
A
  9
$CUSTOMPROPERTY
  1
1-5/8
  9
$CUSTOMPROPERTYTAG
  1
B
  9
$CUSTOMPROPERTY
  1
6-35/64
  9
$CUSTOMPROPERTYTAG
  1
C
  9
$CUSTOMPROPERTY
  1
1-7/8
  9
$CUSTOMPROPERTYTAG
  1
DMIN
  9
$CUSTOMPROPERTY
  1
4-13/16
  9
$CUSTOMPROPERTYTAG
  1
DMAX
  9
$CUSTOMPROPERTY
  1
5-1/8
  9
$CUSTOMPROPERTYTAG
  1
F
  9
$CUSTOMPROPERTY
  1
1/2
  9
$CUSTOMPROPERTYTAG
  1
G
  9
$CUSTOMPROPERTY
  1
23/32
  9
$CUSTOMPROPERTYTAG
  1
H
  9
$CUSTOMPROPERTY
  1
23/32
  9
$CUSTOMPROPERTYTAG
  1
J
  9
$CUSTOMPROPERTY
  1
3-57/64
  9
$CUSTOMPROPERTYTAG
  1
L
  9
$CUSTOMPROPERTY
  1
2-19/64
  9
$CUSTOMPROPERTYTAG
  1
M
  9
$CUSTOMPROPERTY
  1
1-7/8
  9
$CUSTOMPROPERTYTAG
  1
R
  9
$CUSTOMPROPERTY
  1
9/16
  9
$CUSTOMPROPERTYTAG
  1
S
  9
$CUSTOMPROPERTY
  1
1-1/16
  9
$CUSTOMPROPERTYTAG
  1
Z
  9
$CUSTOMPROPERTY
  1
1-3/64
  9
$CUSTOMPROPERTYTAG
  1
COMPANY
  9
$CUSTOMPROPERTY
  1
baldor
  9
$INSBASE
 10
0.0
 20
0.0
 30
0.0
  9
$EXTMIN
 10
1.000000000000000E+20
 20
1.000000000000000E+20
 30
1.000000000000000E+20
  9
$EXTMAX
 10
-1.000000000000000E+20
 20
-1.000000000000000E+20
 30
-1.000000000000000E+20
  9
$LIMMIN
 10
0.0
 20
0.0
  9
$LIMMAX
 10
12.0
 20
9.0
  9
$ORTHOMODE
 70
     0
  9
$REGENMODE
 70
     1
  9
$FILLMODE
 70
     1
  9
$QTEXTMODE
 70
     0
  9
$MIRRTEXT
 70
     1
  9
$LTSCALE
 40
1.0
  9
$ATTMODE
 70
     1
  9
$TEXTSIZE
 40
0.2
  9
$TRACEWID
 40
0.05
  9
$TEXTSTYLE
  7
Standard
  9
$CLAYER
  8
0
  9
$CELTYPE
  6
ByLayer
  9
$CECOLOR
 62
   256
  9
$CELTSCALE
 40
1.0
  9
$DISPSILH
 70
     0
  9
$DIMSCALE
 40
1.0
  9
$DIMASZ
 40
0.18
  9
$DIMEXO
 40
0.0625
  9
$DIMDLI
 40
0.38
  9
$DIMRND
 40
0.0
  9
$DIMDLE
 40
0.0
  9
$DIMEXE
 40
0.18
  9
$DIMTP
 40
0.0
  9
$DIMTM
 40
0.0
  9
$DIMTXT
 40
0.18
  9
$DIMCEN
 40
0.09
  9
$DIMTSZ
 40
0.0
  9
$DIMTOL
 70
     0
  9
$DIMLIM
 70
     0
  9
$DIMTIH
 70
     1
  9
$DIMTOH
 70
     1
  9
$DIMSE1
 70
     0
  9
$DIMSE2
 70
     0
  9
$DIMTAD
 70
     0
  9
$DIMZIN
 70
     0
  9
$DIMBLK
  1

  9
$DIMASO
 70
     1
  9
$DIMSHO
 70
     1
  9
$DIMPOST
  1

  9
$DIMAPOST
  1

  9
$DIMALT
 70
     0
  9
$DIMALTD
 70
     2
  9
$DIMALTF
 40
25.4
  9
$DIMLFAC
 40
1.0
  9
$DIMTOFL
 70
     0
  9
$DIMTVP
 40
0.0
  9
$DIMTIX
 70
     0
  9
$DIMSOXD
 70
     0
  9
$DIMSAH
 70
     0
  9
$DIMBLK1
  1

  9
$DIMBLK2
  1

  9
$DIMSTYLE
  2
Standard
  9
$DIMCLRD
 70
     0
  9
$DIMCLRE
 70
     0
  9
$DIMCLRT
 70
     0
  9
$DIMTFAC
 40
1.0
  9
$DIMGAP
 40
0.09
  9
$DIMJUST
 70
     0
  9
$DIMSD1
 70
     0
  9
$DIMSD2
 70
     0
  9
$DIMTOLJ
 70
     1
  9
$DIMTZIN
 70
     0
  9
$DIMALTZ
 70
     0
  9
$DIMALTTZ
 70
     0
  9
$DIMUPT
 70
     0
  9
$DIMDEC
 70
     4
  9
$DIMTDEC
 70
     4
  9
$DIMALTU
 70
     2
  9
$DIMALTTD
 70
     2
  9
$DIMTXSTY
  7
Standard
  9
$DIMAUNIT
 70
     0
  9
$DIMADEC
 70
     0
  9
$DIMALTRND
 40
0.0
  9
$DIMAZIN
 70
     0
  9
$DIMDSEP
 70
    46
  9
$DIMATFIT
 70
     3
  9
$DIMFRAC
 70
     0
  9
$DIMLDRBLK
  1

  9
$DIMLUNIT
 70
     2
  9
$DIMLWD
 70
    -2
  9
$DIMLWE
 70
    -2
  9
$DIMTMOVE
 70
     0
  9
$DIMFXL
 40
1.0
  9
$DIMFXLON
 70
     0
  9
$DIMJOGANG
 40
0.7853981633974483
  9
$DIMTFILL
 70
     0
  9
$DIMTFILLCLR
 70
     0
  9
$DIMARCSYM
 70
     0
  9
$DIMLTYPE
  6

  9
$DIMLTEX1
  6

  9
$DIMLTEX2
  6

  9
$DIMTXTDIRECTION
 70
     0
  9
$LUNITS
 70
     2
  9
$LUPREC
 70
     4
  9
$SKETCHINC
 40
0.1
  9
$FILLETRAD
 40
0.5
  9
$AUNITS
 70
     0
  9
$AUPREC
 70
     0
  9
$MENU
  1
.
  9
$ELEVATION
 40
0.0
  9
$PELEVATION
 40
0.0
  9
$THICKNESS
 40
0.0
  9
$LIMCHECK
 70
     0
  9
$CHAMFERA
 40
0.0
  9
$CHAMFERB
 40
0.0
  9
$CHAMFERC
 40
0.0
  9
$CHAMFERD
 40
0.0
  9
$SKPOLY
 70
     0
  9
$TDCREATE
 40
2458168.992664352
  9
$TDUCREATE
 40
2458168.950997685
  9
$TDUPDATE
 40
2458168.992664711
  9
$TDUUPDATE
 40
2458168.950998044
  9
$TDINDWG
 40
0.0000000116
  9
$TDUSRTIMER
 40
0.0000000116
  9
$USRTIMER
 70
     1
  9
$ANGBASE
 50
0.0
  9
$ANGDIR
 70
     0
  9
$PDMODE
 70
     0
  9
$PDSIZE
 40
0.0
  9
$PLINEWID
 40
0.0
  9
$SPLFRAME
 70
     0
  9
$SPLINETYPE
 70
     6
  9
$SPLINESEGS
 70
     8
  9
$HANDSEED
  5
2F3
  9
$SURFTAB1
 70
     6
  9
$SURFTAB2
 70
     6
  9
$SURFTYPE
 70
     6
  9
$SURFU
 70
     6
  9
$SURFV
 70
     6
  9
$UCSBASE
  2

  9
$UCSNAME
  2

  9
$UCSORG
 10
0.0
 20
0.0
 30
0.0
  9
$UCSXDIR
 10
1.0
 20
0.0
 30
0.0
  9
$UCSYDIR
 10
0.0
 20
1.0
 30
0.0
  9
$UCSORTHOREF
  2

  9
$UCSORTHOVIEW
 70
     0
  9
$UCSORGTOP
 10
0.0
 20
0.0
 30
0.0
  9
$UCSORGBOTTOM
 10
0.0
 20
0.0
 30
0.0
  9
$UCSORGLEFT
 10
0.0
 20
0.0
 30
0.0
  9
$UCSORGRIGHT
 10
0.0
 20
0.0
 30
0.0
  9
$UCSORGFRONT
 10
0.0
 20
0.0
 30
0.0
  9
$UCSORGBACK
 10
0.0
 20
0.0
 30
0.0
  9
$PUCSBASE
  2

  9
$PUCSNAME
  2

  9
$PUCSORG
 10
0.0
 20
0.0
 30
0.0
  9
$PUCSXDIR
 10
1.0
 20
0.0
 30
0.0
  9
$PUCSYDIR
 10
0.0
 20
1.0
 30
0.0
  9
$PUCSORTHOREF
  2

  9
$PUCSORTHOVIEW
 70
     0
  9
$PUCSORGTOP
 10
0.0
 20
0.0
 30
0.0
  9
$PUCSORGBOTTOM
 10
0.0
 20
0.0
 30
0.0
  9
$PUCSORGLEFT
 10
0.0
 20
0.0
 30
0.0
  9
$PUCSORGRIGHT
 10
0.0
 20
0.0
 30
0.0
  9
$PUCSORGFRONT
 10
0.0
 20
0.0
 30
0.0
  9
$PUCSORGBACK
 10
0.0
 20
0.0
 30
0.0
  9
$USERI1
 70
     0
  9
$USERI2
 70
     0
  9
$USERI3
 70
     0
  9
$USERI4
 70
     0
  9
$USERI5
 70
     0
  9
$USERR1
 40
0.0
  9
$USERR2
 40
0.0
  9
$USERR3
 40
0.0
  9
$USERR4
 40
0.0
  9
$USERR5
 40
0.0
  9
$WORLDVIEW
 70
     1
  9
$SHADEDGE
 70
     3
  9
$SHADEDIF
 70
    70
  9
$TILEMODE
 70
     1
  9
$MAXACTVP
 70
    64
  9
$PINSBASE
 10
0.0
 20
0.0
 30
0.0
  9
$PLIMCHECK
 70
     0
  9
$PEXTMIN
 10
1.000000000000000E+20
 20
1.000000000000000E+20
 30
1.000000000000000E+20
  9
$PEXTMAX
 10
-1.000000000000000E+20
 20
-1.000000000000000E+20
 30
-1.000000000000000E+20
  9
$PLIMMIN
 10
0.0
 20
0.0
  9
$PLIMMAX
 10
12.0
 20
9.0
  9
$UNITMODE
 70
     0
  9
$VISRETAIN
 70
     1
  9
$PLINEGEN
 70
     0
  9
$PSLTSCALE
 70
     1
  9
$TREEDEPTH
 70
  3020
  9
$CMLSTYLE
  2
Standard
  9
$CMLJUST
 70
     0
  9
$CMLSCALE
 40
1.0
  9
$PROXYGRAPHICS
 70
     1
  9
$MEASUREMENT
 70
     0
  9
$CELWEIGHT
370
    -1
  9
$ENDCAPS
280
     0
  9
$JOINSTYLE
280
     0
  9
$LWDISPLAY
290
     0
  9
$INSUNITS
 70
     1
  9
$HYPERLINKBASE
  1

  9
$STYLESHEET
  1

  9
$XEDIT
290
     1
  9
$CEPSNTYPE
380
     0
  9
$PSTYLEMODE
290
     1
  9
$FINGERPRINTGUID
  2
{AB980371-A118-4BE2-8A4C-841AD724E969}
  9
$VERSIONGUID
  2
{FAEB1C32-E019-11D5-929B-00C0DF256EC4}
  9
$EXTNAMES
290
     1
  9
$PSVPSCALE
 40
0.0
  9
$OLESTARTUP
290
     0
  9
$SORTENTS
280
   127
  9
$INDEXCTL
280
     0
  9
$HIDETEXT
280
     1
  9
$XCLIPFRAME
280
     2
  9
$HALOGAP
280
     0
  9
$OBSCOLOR
 70
   257
  9
$OBSLTYPE
280
     0
  9
$INTERSECTIONDISPLAY
280
     0
  9
$INTERSECTIONCOLOR
 70
   257
  9
$DIMASSOC
280
     2
  9
$PROJECTNAME
  1

  9
$CAMERADISPLAY
290
     0
  9
$LENSLENGTH
 40
50.0
  9
$CAMERAHEIGHT
 40
0.0
  9
$STEPSPERSEC
 40
2.0
  9
$STEPSIZE
 40
6.0
  9
$3DDWFPREC
 40
2.0
  9
$PSOLWIDTH
 40
0.25
  9
$PSOLHEIGHT
 40
4.0
  9
$LOFTANG1
 40
1.570796326794897
  9
$LOFTANG2
 40
1.570796326794897
  9
$LOFTMAG1
 40
0.0
  9
$LOFTMAG2
 40
0.0
  9
$LOFTPARAM
 70
     7
  9
$LOFTNORMALS
280
     1
  9
$LATITUDE
 40
37.795
  9
$LONGITUDE
 40
-122.394
  9
$NORTHDIRECTION
 40
0.0
  9
$TIMEZONE
 70
 -8000
  9
$LIGHTGLYPHDISPLAY
280
     1
  9
$TILEMODELIGHTSYNCH
280
     1
  9
$CMATERIAL
347
44
  9
$SOLIDHIST
280
     0
  9
$SHOWHIST
280
     1
  9
$DWFFRAME
280
     2
  9
$DGNFRAME
280
     2
  9
$REALWORLDSCALE
290
     1
  9
$INTERFERECOLOR
 62
   256
  9
$CSHADOW
280
     0
  9
$SHADOWPLANELOCATION
 40
0.0
  0
ENDSEC
  0
SECTION
  2
CLASSES
  0
CLASS
  1
ACDBDICTIONARYWDFLT
  2
AcDbDictionaryWithDefault
  3
ObjectDBX Classes
 90
        0
 91
        4
280
     0
281
     0
  0
CLASS
  1
VISUALSTYLE
  2
AcDbVisualStyle
  3
ObjectDBX Classes
 90
     4095
 91
        4
280
     0
281
     0
  0
CLASS
  1
MATERIAL
  2
AcDbMaterial
  3
ObjectDBX Classes
 90
     1153
 91
        4
280
     0
281
     0
  0
CLASS
  1
SCALE
  2
AcDbScale
  3
ObjectDBX Classes
 90
     1153
 91
        4
280
     0
281
     0
  0
CLASS
  1
TABLESTYLE
  2
AcDbTableStyle
  3
ObjectDBX Classes
 90
     4095
 91
        4
280
     0
281
     0
  0
CLASS
  1
MLEADERSTYLE
  2
AcDbMLeaderStyle
  3
ACDB_MLEADERSTYLE_CLASS
 90
     4095
 91
        4
280
     0
281
     0
  0
CLASS
  1
SUN
  2
AcDbSun
  3
SCENEOE
 90
     1153
 91
        4
280
     0
281
     0
  0
CLASS
  1
DICTIONARYVAR
  2
AcDbDictionaryVar
  3
ObjectDBX Classes
 90
        0
 91
        4
280
     0
281
     0
  0
CLASS
  1
CELLSTYLEMAP
  2
AcDbCellStyleMap
  3
ObjectDBX Classes
 90
     1152
 91
        4
280
     0
281
     0
  0
ENDSEC
  0
SECTION
  2
TABLES
  0
TABLE
  2
VPORT
  5
8
330
0
100
AcDbSymbolTable
 70
     1
  0
VPORT
  5
29
330
8
100
AcDbSymbolTableRecord
100
AcDbViewportTableRecord
  2
*Active
 70
     0
 10
0.0
 20
0.0
 11
1.0
 21
1.0
 12
0.0
 22
-0.0562500000000004
 13
0.0
 23
0.0
 14
0.5
 24
0.5
 15
0.5
 25
0.5
 16
0.0
 26
0.0
 36
1.0
 17
0.0
 27
0.0
 37
0.0
 40
2.2185
 41
3.010114942528736
 42
50.0
 43
0.0
 44
0.0
 50
0.0
 51
0.0
 71
     0
 72
   100
 73
     1
 74
     3
 75
     0
 76
     0
 77
     0
 78
     0
281
     0
 65
     1
110
0.0
120
0.0
130
0.0
111
1.0
121
0.0
131
0.0
112
0.0
122
1.0
132
0.0
 79
     0
146
0.0
348
2F
 60
     3
 61
     5
292
     1
282
     1
141
0.0
142
0.0
 63
   250
361
6D
  0
ENDTAB
  0
TABLE
  2
LTYPE
  5
5
330
0
100
AcDbSymbolTable
 70
     3
  0
LTYPE
  5
14
330
5
100
AcDbSymbolTableRecord
100
AcDbLinetypeTableRecord
  2
ByBlock
 70
     0
  3

 72
    65
 73
     0
 40
0.0
  0
LTYPE
  5
15
330
5
100
AcDbSymbolTableRecord
100
AcDbLinetypeTableRecord
  2
ByLayer
 70
     0
  3

 72
    65
 73
     0
 40
0.0
  0
LTYPE
  5
16
330
5
100
AcDbSymbolTableRecord
100
AcDbLinetypeTableRecord
  2
Continuous
 70
     0
  3
Solid line
 72
    65
 73
     0
 40
0.0
  0
LTYPE
  5
A1
330
5
100
AcDbSymbolTableRecord
100
AcDbLinetypeTableRecord
  2
Dashed
 70
     0
  3

 72
    65
 73
     2
 40
2.0
 49
1.0
 74
     0
 49
-1.0
 74
     0
  0
LTYPE
  5
111
330
5
100
AcDbSymbolTableRecord
100
AcDbLinetypeTableRecord
  2
Center
 70
     0
  3

 72
    65
 73
     4
 40
1.5
 49
0.45
 74
     0
 49
-0.5
 74
     0
 49
0.05
 74
     0
 49
-0.5
 74
     0
  0
ENDTAB
  0
TABLE
  2
LAYER
  5
2
330
0
100
AcDbSymbolTable
 70
     7
  0
LAYER
  5
10
330
2
100
AcDbSymbolTableRecord
100
AcDbLayerTableRecord
  2
0
 70
     0
 62
     7
  6
Continuous
370
    -3
390
F
347
46
348
0
  0
LAYER
  5
72
330
2
100
AcDbSymbolTableRecord
100
AcDbLayerTableRecord
  2
AM_6
 70
     0
 62
    -2
  6
Continuous
370
    35
390
F
347
46
348
0
  0
LAYER
  5
A2
330
2
100
AcDbSymbolTableRecord
100
AcDbLayerTableRecord
  2
AM_9
 70
     0
 62
     6
  6
Dashed
370
    25
390
F
347
46
348
0
  0
LAYER
  5
10E
330
2
100
AcDbSymbolTableRecord
100
AcDbLayerTableRecord
  2
AM_5
 70
     0
 62
     3
  6
Continuous
370
    25
390
F
347
46
348
0
  0
LAYER
  5
112
330
2
100
AcDbSymbolTableRecord
100
AcDbLayerTableRecord
  2
AM_7
 70
     0
 62
     7
  6
Center
370
    25
390
F
347
46
348
0
  0
LAYER
  5
114
330
2
100
AcDbSymbolTableRecord
100
AcDbLayerTableRecord
  2
AM_4
 70
     0
 62
     7
  6
Continuous
370
    50
390
F
347
46
348
0
  0
LAYER
  5
2E5
330
2
100
AcDbSymbolTableRecord
100
AcDbLayerTableRecord
  2
ConnectionPoints
 70
     0
 62
     7
  6
Continuous
370
    50
390
F
347
46
348
0
  0
ENDTAB
  0
TABLE
  2
STYLE
  5
3
330
0
100
AcDbSymbolTable
 70
     1
  0
STYLE
  5
11
330
3
100
AcDbSymbolTableRecord
100
AcDbTextStyleTableRecord
  2
Standard
 70
     0
 40
0.0
 41
1.0
 50
0.0
 71
     0
 42
0.2
  3
txt
  4

  0
ENDTAB
  0
TABLE
  2
VIEW
  5
6
330
0
100
AcDbSymbolTable
 70
     0
  0
ENDTAB
  0
TABLE
  2
UCS
  5
7
330
0
100
AcDbSymbolTable
 70
     0
  0
ENDTAB
  0
TABLE
  2
APPID
  5
9
330
0
100
AcDbSymbolTable
 70
     1
  0
APPID
  5
12
330
9
100
AcDbSymbolTableRecord
100
AcDbRegAppTableRecord
  2
ACAD
 70
     0
  0
ENDTAB
  0
TABLE
  2
DIMSTYLE
  5
A
330
0
100
AcDbSymbolTable
 70
     1
100
AcDbDimStyleTable
  0
DIMSTYLE
105
27
330
A
100
AcDbSymbolTableRecord
100
AcDbDimStyleTableRecord
  2
Standard
 70
     0
178
     0
340
11
  0
ENDTAB
  0
TABLE
  2
BLOCK_RECORD
  5
1
330
0
100
AcDbSymbolTable
 70
     5
  0
BLOCK_RECORD
  5
1F
330
1
100
AcDbSymbolTableRecord
100
AcDbBlockTableRecord
  2
*Model_Space
340
22
 70
     0
280
     1
281
     0
  0
BLOCK_RECORD
  5
1B
330
1
100
AcDbSymbolTableRecord
100
AcDbBlockTableRecord
  2
*Paper_Space
340
1E
 70
     0
280
     1
281
     0
  0
BLOCK_RECORD
  5
23
330
1
100
AcDbSymbolTableRecord
100
AcDbBlockTableRecord
  2
*Paper_Space0
340
26
 70
     0
280
     1
281
     0
  0
BLOCK_RECORD
  5
6E
330
1
100
AcDbSymbolTableRecord
100
AcDbBlockTableRecord
  2
1_129252_4
340
0
102
{BLKREFS
331
6F
102
}
 70
     0
280
     1
281
     0
  0
BLOCK_RECORD
  5
8B
330
1
100
AcDbSymbolTableRecord
100
AcDbBlockTableRecord
  2
2_INS_GT_07_CRI_0_in_129252_4
340
0
102
{BLKREFS
331
8C
102
}
 70
     0
280
     1
281
     0
  0
BLOCK_RECORD
  5
D0
330
1
100
AcDbSymbolTableRecord
100
AcDbBlockTableRecord
  2
3_129974_0_in_129252_4
340
0
102
{BLKREFS
331
D1
102
}
 70
     0
280
     1
281
     0
  0
BLOCK_RECORD
  5
128
330
1
100
AcDbSymbolTableRecord
100
AcDbBlockTableRecord
  2
4_P2B_GTEZ_07_PCRI_0_in_129252_4
340
0
102
{BLKREFS
331
129
102
}
 70
     0
280
     1
281
     0
  0
ENDTAB
  0
ENDSEC
  0
SECTION
  2
BLOCKS
  0
BLOCK
  5
20
330
1F
100
AcDbEntity
  8
0
100
AcDbBlockBegin
  2
*Model_Space
 70
     0
 10
0.0
 20
0.0
 30
0.0
  3
*Model_Space
  1

  0
ENDBLK
  5
21
330
1F
100
AcDbEntity
  8
0
100
AcDbBlockEnd
  0
BLOCK
  5
1C
330
1B
100
AcDbEntity
 67
     1
  8
0
100
AcDbBlockBegin
  2
*Paper_Space
 70
     0
 10
0.0
 20
0.0
 30
0.0
  3
*Paper_Space
  1

  0
ENDBLK
  5
1D
330
1B
100
AcDbEntity
 67
     1
  8
0
100
AcDbBlockEnd
  0
BLOCK
  5
24
330
23
100
AcDbEntity
  8
0
100
AcDbBlockBegin
  2
*Paper_Space0
 70
     0
 10
0.0
 20
0.0
 30
0.0
  3
*Paper_Space0
  1

  0
ENDBLK
  5
25
330
23
100
AcDbEntity
  8
0
100
AcDbBlockEnd
  0
BLOCK
  5
70
330
6E
100
AcDbEntity
  8
0
100
AcDbBlockBegin
  2
1_129252_4
 70
     2
 10
0.0
 20
0.0
 30
0.0
  3
1_129252_4
  1

  0
ATTDEF
  5
73
330
6E
100
AcDbEntity
  8
AM_6
100
AcDbText
 10
8.2735
 20
1.03125
 30
0.0
 40
0.5
  1
Grip Tight Two-Bolt Pillow Block - Polymer Housing, Corrision Resistant Insert Inch Bore
100
AcDbAttributeDefinition
  3

  2
NN
 70
     8
280
     0
  0
ATTDEF
  5
74
330
6E
100
AcDbEntity
  8
AM_6
100
AcDbText
 10
8.2735
 20
0.53125
 30
0.0
 40
0.5
  1
GTEZ Normal Duty Polymer Housed Pillow Blocks
100
AcDbAttributeDefinition
  3

  2
NT
 70
     8
280
     0
  0
ATTDEF
  5
75
330
6E
100
AcDbEntity
  8
AM_6
100
AcDbText
 10
8.2735
 20
0.03125
 30
0.0
 40
0.5
  1
129252
100
AcDbAttributeDefinition
  3

  2
NB
 70
     8
280
     0
  0
ATTDEF
  5
76
330
6E
100
AcDbEntity
  8
AM_6
100
AcDbText
 10
8.2735
 20
-0.46875
 30
0.0
 40
0.5
  1
$PN.$LUBE.
100
AcDbAttributeDefinition
  3

  2
NBSYN
 70
     8
280
     0
  0
ATTDEF
  5
77
330
6E
100
AcDbEntity
  8
AM_6
100
AcDbText
 10
8.2735
 20
-0.96875
 30
0.0
 40
0.5
  1
129252
100
AcDbAttributeDefinition
  3

  2
LINA
 70
     8
280
     0
  0
ATTDEF
  5
78
330
6E
100
AcDbEntity
  8
AM_6
100
AcDbText
 10
8.2735
 20
-1.46875
 30
0.0
 40
0.5
  1
207
100
AcDbAttributeDefinition
  3

  2
SERIES
 70
     8
280
     0
  0
ATTDEF
  5
79
330
6E
100
AcDbEntity
  8
AM_6
100
AcDbText
 10
8.2735
 20
-1.96875
 30
0.0
 40
0.5
  1
1-7/16
100
AcDbAttributeDefinition
  3

  2
SS
 70
     8
280
     0
  0
ATTDEF
  5
7A
330
6E
100
AcDbEntity
  8
AM_6
100
AcDbText
 10
8.2735
 20
-2.46875
 30
0.0
 40
0.5
  1
129252
100
AcDbAttributeDefinition
  3

  2
PN
 70
     8
280
     0
  0
ATTDEF
  5
7B
330
6E
100
AcDbEntity
  8
AM_6
100
AcDbText
 10
8.2735
 20
-2.96875
 30
0.0
 40
0.5
  1
P2B-GTEZ-107-PCR
100
AcDbAttributeDefinition
  3

  2
DESCRIPTION
 70
     8
280
     0
  0
ATTDEF
  5
7C
330
6E
100
AcDbEntity
  8
AM_6
100
AcDbText
 10
8.2735
 20
-3.46875
 30
0.0
 40
0.5
  1
1-5/8
100
AcDbAttributeDefinition
  3

  2
A
 70
     8
280
     0
  0
ATTDEF
  5
7D
330
6E
100
AcDbEntity
  8
AM_6
100
AcDbText
 10
8.2735
 20
-3.96875
 30
0.0
 40
0.5
  1
6-35/64
100
AcDbAttributeDefinition
  3

  2
B
 70
     8
280
     0
  0
ATTDEF
  5
7E
330
6E
100
AcDbEntity
  8
AM_6
100
AcDbText
 10
8.2735
 20
-4.46875
 30
0.0
 40
0.5
  1
1-7/8
100
AcDbAttributeDefinition
  3

  2
C
 70
     8
280
     0
  0
ATTDEF
  5
7F
330
6E
100
AcDbEntity
  8
AM_6
100
AcDbText
 10
8.2735
 20
-4.96875
 30
0.0
 40
0.5
  1
4-13/16
100
AcDbAttributeDefinition
  3

  2
DMIN
 70
     8
280
     0
  0
ATTDEF
  5
80
330
6E
100
AcDbEntity
  8
AM_6
100
AcDbText
 10
8.2735
 20
-5.46875
 30
0.0
 40
0.5
  1
5-1/8
100
AcDbAttributeDefinition
  3

  2
DMAX
 70
     8
280
     0
  0
ATTDEF
  5
81
330
6E
100
AcDbEntity
  8
AM_6
100
AcDbText
 10
8.2735
 20
-5.96875
 30
0.0
 40
0.5
  1
1/2
100
AcDbAttributeDefinition
  3

  2
F
 70
     8
280
     0
  0
ATTDEF
  5
82
330
6E
100
AcDbEntity
  8
AM_6
100
AcDbText
 10
8.2735
 20
-6.46875
 30
0.0
 40
0.5
  1
23/32
100
AcDbAttributeDefinition
  3

  2
G
 70
     8
280
     0
  0
ATTDEF
  5
83
330
6E
100
AcDbEntity
  8
AM_6
100
AcDbText
 10
8.2735
 20
-6.96875
 30
0.0
 40
0.5
  1
23/32
100
AcDbAttributeDefinition
  3

  2
H
 70
     8
280
     0
  0
ATTDEF
  5
84
330
6E
100
AcDbEntity
  8
AM_6
100
AcDbText
 10
8.2735
 20
-7.46875
 30
0.0
 40
0.5
  1
3-57/64
100
AcDbAttributeDefinition
  3

  2
J
 70
     8
280
     0
  0
ATTDEF
  5
85
330
6E
100
AcDbEntity
  8
AM_6
100
AcDbText
 10
8.2735
 20
-7.96875
 30
0.0
 40
0.5
  1
2-19/64
100
AcDbAttributeDefinition
  3

  2
L
 70
     8
280
     0
  0
ATTDEF
  5
86
330
6E
100
AcDbEntity
  8
AM_6
100
AcDbText
 10
8.2735
 20
-8.46875
 30
0.0
 40
0.5
  1
1-7/8
100
AcDbAttributeDefinition
  3

  2
M
 70
     8
280
     0
  0
ATTDEF
  5
87
330
6E
100
AcDbEntity
  8
AM_6
100
AcDbText
 10
8.2735
 20
-8.96875
 30
0.0
 40
0.5
  1
9/16
100
AcDbAttributeDefinition
  3

  2
R
 70
     8
280
     0
  0
ATTDEF
  5
88
330
6E
100
AcDbEntity
  8
AM_6
100
AcDbText
 10
8.2735
 20
-9.46875
 30
0.0
 40
0.5
  1
1-1/16
100
AcDbAttributeDefinition
  3

  2
S
 70
     8
280
     0
  0
ATTDEF
  5
89
330
6E
100
AcDbEntity
  8
AM_6
100
AcDbText
 10
8.2735
 20
-9.96875
 30
0.0
 40
0.5
  1
1-3/64
100
AcDbAttributeDefinition
  3

  2
Z
 70
     8
280
     0
  0
ATTDEF
  5
8A
330
6E
100
AcDbEntity
  8
AM_6
100
AcDbText
 10
8.2735
 20
-10.46875
 30
0.0
 40
0.5
  1
baldor
100
AcDbAttributeDefinition
  3

  2
COMPANY
 70
     8
280
     0
  0
INSERT
  5
8C
330
6E
100
AcDbEntity
  8
0
100
AcDbBlockReference
  2
2_INS_GT_07_CRI_0_in_129252_4
 10
0.0
 20
0.0
 30
0.0
  0
INSERT
  5
D1
330
6E
100
AcDbEntity
  8
0
100
AcDbBlockReference
  2
3_129974_0_in_129252_4
 10
0.0
 20
0.0
 30
0.0
  0
INSERT
  5
129
330
6E
100
AcDbEntity
  8
0
100
AcDbBlockReference
  2
4_P2B_GTEZ_07_PCRI_0_in_129252_4
 10
0.0
 20
0.0
 30
0.0
  0
ENDBLK
  5
71
330
6E
100
AcDbEntity
  8
0
100
AcDbBlockEnd
  0
BLOCK
  5
8D
330
8B
100
AcDbEntity
  8
0
100
AcDbBlockBegin
  2
2_INS_GT_07_CRI_0_in_129252_4
 70
     2
 10
0.0
 20
0.0
 30
0.0
  3
2_INS_GT_07_CRI_0_in_129252_4
  1

  0
ATTDEF
  5
8F
330
8B
100
AcDbEntity
  8
AM_6
100
AcDbText
 10
6.417270403970533
 20
0.50625
 30
0.0
 40
0.5
  1
INS-GT-CR-I
100
AcDbAttributeDefinition
  3

  2
NN
 70
     8
280
     0
  0
ATTDEF
  5
90
330
8B
100
AcDbEntity
  8
AM_6
100
AcDbText
 10
6.417270403970533
 20
0.00625
 30
0.0
 40
0.5
  1
GT Normal Duty Corrosion Resistant Bearing Inserts
100
AcDbAttributeDefinition
  3

  2
NT
 70
     8
280
     0
  0
ATTDEF
  5
91
330
8B
100
AcDbEntity
  8
AM_6
100
AcDbText
 10
6.417270403970533
 20
-0.49375
 30
0.0
 40
0.5
  1
INS-GT-07-CRI
100
AcDbAttributeDefinition
  3

  2
NB
 70
     8
280
     0
  0
ATTDEF
  5
92
330
8B
100
AcDbEntity
  8
AM_6
100
AcDbText
 10
6.417270403970533
 20
-0.99375
 30
0.0
 40
0.5
  1
$PN.I
100
AcDbAttributeDefinition
  3

  2
NBSYN
 70
     8
280
     0
  0
ATTDEF
  5
93
330
8B
100
AcDbEntity
  8
AM_6
100
AcDbText
 10
6.417270403970533
 20
-1.49375
 30
0.0
 40
0.5
  1
INS-GT-07-CR
100
AcDbAttributeDefinition
  3

  2
LINA
 70
     8
280
     0
  0
ATTDEF
  5
94
330
8B
100
AcDbEntity
  8
AM_6
100
AcDbText
 10
6.417270403970533
 20
-1.99375
 30
0.0
 40
0.5
  1
207
100
AcDbAttributeDefinition
  3

  2
SERIES
 70
     8
280
     0
  0
ATTDEF
  5
95
330
8B
100
AcDbEntity
  8
AM_6
100
AcDbText
 10
6.417270403970533
 20
-2.49375
 30
0.0
 40
0.5
  1
INS-GT-07-CR
100
AcDbAttributeDefinition
  3

  2
PN
 70
     8
280
     0
  0
ATTDEF
  5
96
330
8B
100
AcDbEntity
  8
AM_6
100
AcDbText
 10
6.417270403970533
 20
-2.99375
 30
0.0
 40
0.5
  1
INS-GT-07-CR
100
AcDbAttributeDefinition
  3

  2
DESCRIPTION
 70
     8
280
     0
  0
ATTDEF
  5
97
330
8B
100
AcDbEntity
  8
AM_6
100
AcDbText
 10
6.417270403970533
 20
-3.49375
 30
0.0
 40
0.5
  1
1-5/8
100
AcDbAttributeDefinition
  3

  2
A
 70
     8
280
     0
  0
ATTDEF
  5
98
330
8B
100
AcDbEntity
  8
AM_6
100
AcDbText
 10
6.417270403970533
 20
-3.99375
 30
0.0
 40
0.5
  1
0.7480
100
AcDbAttributeDefinition
  3

  2
C
 70
     8
280
     0
  0
ATTDEF
  5
99
330
8B
100
AcDbEntity
  8
AM_6
100
AcDbText
 10
6.417270403970533
 20
-4.49375
 30
0.0
 40
0.5
  1
2.8346
100
AcDbAttributeDefinition
  3

  2
D
 70
     8
280
     0
  0
ATTDEF
  5
9A
330
8B
100
AcDbEntity
  8
AM_6
100
AcDbText
 10
6.417270403970533
 20
-4.99375
 30
0.0
 40
0.5
  1
0.202
100
AcDbAttributeDefinition
  3

  2
J
 70
     8
280
     0
  0
ATTDEF
  5
9B
330
8B
100
AcDbEntity
  8
AM_6
100
AcDbText
 10
6.417270403970533
 20
-5.49375
 30
0.0
 40
0.5
  1
2-19/64
100
AcDbAttributeDefinition
  3

  2
L
 70
     8
280
     0
  0
ATTDEF
  5
9C
330
8B
100
AcDbEntity
  8
AM_6
100
AcDbText
 10
6.417270403970533
 20
-5.99375
 30
0.0
 40
0.5
  1
10 - 32 x 1/4
100
AcDbAttributeDefinition
  3

  2
N
 70
     8
280
     0
  0
ATTDEF
  5
9D
330
8B
100
AcDbEntity
  8
AM_6
100
AcDbText
 10
6.417270403970533
 20
-6.49375
 30
0.0
 40
0.5
  1
9/16
100
AcDbAttributeDefinition
  3

  2
W
 70
     8
280
     0
  0
ATTDEF
  5
9E
330
8B
100
AcDbEntity
  8
AM_6
100
AcDbText
 10
6.417270403970533
 20
-6.99375
 30
0.0
 40
0.5
  1
1-3/64
100
AcDbAttributeDefinition
  3

  2
X
 70
     8
280
     0
  0
ATTDEF
  5
9F
330
8B
100
AcDbEntity
  8
AM_6
100
AcDbText
 10
6.417270403970533
 20
-7.49375
 30
0.0
 40
0.5
  1
1-1/16
100
AcDbAttributeDefinition
  3

  2
Y
 70
     8
280
     0
  0
ATTDEF
  5
A0
330
8B
100
AcDbEntity
  8
AM_6
100
AcDbText
 10
6.417270403970533
 20
-7.99375
 30
0.0
 40
0.5
  1
baldor
100
AcDbAttributeDefinition
  3

  2
COMPANY
 70
     8
280
     0
  0
LINE
  5
A3
330
8B
100
AcDbEntity
  8
AM_9
100
AcDbLine
 10
0.8567707677083334
 20
-0.7851555852330452
 30
0.0
 11
0.8567707677083334
 21
-0.3925774602330431
 31
0.0
  0
LINE
  5
A4
330
8B
100
AcDbEntity
  8
AM_9
100
AcDbLine
 10
-0.8567707677083334
 20
-0.3925774602330431
 30
0.0
 11
-0.8567707677083334
 21
-0.7851555852330452
 31
0.0
  0
LINE
  5
A5
330
8B
100
AcDbEntity
  8
AM_9
100
AcDbLine
 10
-0.8567707677083334
 20
-0.3925774602330431
 30
0.0
 11
0.8567707677083334
 21
-0.3925774602330431
 31
0.0
  0
LINE
  5
A6
330
8B
100
AcDbEntity
  8
AM_9
100
AcDbLine
 10
0.8567707677083334
 20
-0.3925774602330431
 30
0.0
 11
0.8881585142599845
 21
0.50625
 31
0.0
  0
LINE
  5
A7
330
8B
100
AcDbEntity
  8
AM_9
100
AcDbLine
 10
-0.8881585142599845
 20
0.50625
 30
0.0
 11
-0.8567707677083334
 21
-0.3925774602330431
 31
0.0
  0
LINE
  5
A8
330
8B
100
AcDbEntity
  8
AM_9
100
AcDbLine
 10
0.9388020505208333
 20
-0.6542962102330453
 30
0.0
 11
0.9388020505208333
 21
-0.5234374999999999
 31
0.0
  0
LINE
  5
A9
330
8B
100
AcDbEntity
  8
AM_9
100
AcDbLine
 10
-0.9388020505208333
 20
-0.5234374999999999
 30
0.0
 11
-0.9388020505208333
 21
-0.6542962102330453
 31
0.0
  0
LINE
  5
AA
330
8B
100
AcDbEntity
  8
AM_9
100
AcDbLine
 10
1.020833333333333
 20
-0.7552355852330452
 30
0.0
 11
1.020833333333333
 21
-0.6542962102330453
 31
0.0
  0
LINE
  5
AB
330
8B
100
AcDbEntity
  8
AM_9
100
AcDbLine
 10
-1.020833333333333
 20
-0.6542962102330453
 30
0.0
 11
-1.020833333333333
 21
-0.7552355852330452
 31
0.0
  0
LINE
  5
AC
330
8B
100
AcDbEntity
  8
AM_9
100
AcDbLine
 10
-1.020833333333333
 20
-0.6542962102330453
 30
0.0
 11
1.020833333333333
 21
-0.6542962102330453
 31
0.0
  0
LINE
  5
AD
330
8B
100
AcDbEntity
  8
AM_9
100
AcDbLine
 10
1.020833333333333
 20
0.374
 30
0.0
 11
1.020833333333333
 21
0.47633
 31
0.0
  0
LINE
  5
AE
330
8B
100
AcDbEntity
  8
AM_9
100
AcDbLine
 10
-1.020833333333333
 20
0.47633
 30
0.0
 11
-1.020833333333333
 21
0.374
 31
0.0
  0
LINE
  5
AF
330
8B
100
AcDbEntity
  8
AM_9
100
AcDbLine
 10
0.9909133333333333
 20
-0.7851555852330452
 30
0.0
 11
1.020833333333333
 21
-0.7552355852330452
 31
0.0
  0
LINE
  5
B0
330
8B
100
AcDbEntity
  8
AM_9
100
AcDbLine
 10
-1.020833333333333
 20
-0.7552355852330452
 30
0.0
 11
-0.9909133333333333
 21
-0.7851555852330452
 31
0.0
  0
LINE
  5
B1
330
8B
100
AcDbEntity
  8
AM_9
100
AcDbLine
 10
-0.9909133333333333
 20
-0.7851555852330452
 30
0.0
 11
0.9909133333333333
 21
-0.7851555852330452
 31
0.0
  0
LINE
  5
B2
330
8B
100
AcDbEntity
  8
AM_9
100
AcDbLine
 10
-1.020833333333333
 20
-0.7552355852330452
 30
0.0
 11
1.020833333333333
 21
-0.7552355852330452
 31
0.0
  0
LINE
  5
B3
330
8B
100
AcDbEntity
  8
AM_9
100
AcDbLine
 10
1.020833333333333
 20
-0.5234368352330454
 30
0.0
 11
1.020833333333333
 21
-0.374
 31
0.0
  0
LINE
  5
B4
330
8B
100
AcDbEntity
  8
AM_9
100
AcDbLine
 10
-1.020833333333333
 20
-0.374
 30
0.0
 11
-1.020833333333333
 21
-0.5234368352330454
 31
0.0
  0
LINE
  5
B5
330
8B
100
AcDbEntity
  8
AM_9
100
AcDbLine
 10
-1.020833333333333
 20
-0.5234368352330454
 30
0.0
 11
1.020833333333333
 21
-0.5234368352330454
 31
0.0
  0
LINE
  5
B6
330
8B
100
AcDbEntity
  8
AM_9
100
AcDbLine
 10
-1.020833333333333
 20
0.47633
 30
0.0
 11
1.020833333333333
 21
0.47633
 31
0.0
  0
LINE
  5
B7
330
8B
100
AcDbEntity
  8
AM_9
100
AcDbLine
 10
-0.9909133333333333
 20
0.50625
 30
0.0
 11
0.9909133333333333
 21
0.50625
 31
0.0
  0
LINE
  5
B8
330
8B
100
AcDbEntity
  8
AM_9
100
AcDbLine
 10
-0.9909133333333333
 20
0.50625
 30
0.0
 11
-1.020833333333333
 21
0.47633
 31
0.0
  0
LINE
  5
B9
330
8B
100
AcDbEntity
  8
AM_9
100
AcDbLine
 10
1.020833333333333
 20
0.47633
 30
0.0
 11
0.9909133333333333
 21
0.50625
 31
0.0
  0
LINE
  5
BA
330
8B
100
AcDbEntity
  8
AM_9
100
AcDbLine
 10
1.3425
 20
-0.2424
 30
0.0
 11
1.3425
 21
-0.1616
 31
0.0
  0
LINE
  5
BB
330
8B
100
AcDbEntity
  8
AM_9
100
AcDbLine
 10
-1.3425
 20
-0.1616
 30
0.0
 11
-1.3425
 21
-0.2424
 31
0.0
  0
LINE
  5
BC
330
8B
100
AcDbEntity
  8
AM_9
100
AcDbLine
 10
-1.322326637389132
 20
-0.3739999999999998
 30
0.0
 11
1.322326637389132
 21
-0.3739999999999998
 31
0.0
  0
ARC
  5
BD
330
8B
100
AcDbEntity
  8
AM_9
100
AcDbCircle
 10
1.322326637389132
 20
-0.3440799999999993
 30
0.0
 40
0.0299200000000004
100
AcDbArc
 50
270.0
 51
338.5875329531146
  0
ARC
  5
BE
330
8B
100
AcDbEntity
  8
AM_9
100
AcDbCircle
 10
-1.322326637389132
 20
-0.3440799999999993
 30
0.0
 40
0.0299200000000004
100
AcDbArc
 50
201.4124670468854
 51
270.0
  0
LINE
  5
BF
330
8B
100
AcDbEntity
  8
AM_9
100
AcDbLine
 10
-1.322326637389132
 20
0.374
 30
0.0
 11
1.322326637389132
 21
0.374
 31
0.0
  0
ARC
  5
C0
330
8B
100
AcDbEntity
  8
AM_9
100
AcDbCircle
 10
1.322326637389132
 20
0.3440799999999992
 30
0.0
 40
0.0299200000000008
100
AcDbArc
 50
21.41246704688535
 51
90.0
  0
ARC
  5
C1
330
8B
100
AcDbEntity
  8
AM_9
100
AcDbCircle
 10
-1.322326637389132
 20
0.3440799999999992
 30
0.0
 40
0.0299200000000008
100
AcDbArc
 50
90.0
 51
158.5875329531146
  0
LINE
  5
C2
330
8B
100
AcDbEntity
  8
AM_9
100
AcDbLine
 10
-1.350181451274502
 20
-0.3550031746031747
 30
0.0
 11
1.350181451274502
 21
-0.3550031746031747
 31
0.0
  0
ARC
  5
C3
330
8B
100
AcDbEntity
  8
AM_9
100
AcDbCircle
 10
0.4449000000000404
 20
-0.0000000000000173
 30
0.0
 40
0.9723999999999563
100
AcDbArc
 50
338.5875329531161
 51
344.9913735011805
  0
ARC
  5
C4
330
8B
100
AcDbEntity
  8
AM_9
100
AcDbCircle
 10
-0.4449000000000395
 20
-0.000000000000017
 30
0.0
 40
0.9723999999999573
100
AcDbArc
 50
195.0086264988194
 51
201.412467046884
  0
LINE
  5
C5
330
8B
100
AcDbEntity
  8
AM_9
100
AcDbLine
 10
-1.376903536473977
 20
-0.2424
 30
0.0
 11
1.376903536473977
 21
-0.2424
 31
0.0
  0
ARC
  5
C6
330
8B
100
AcDbEntity
  8
AM_9
100
AcDbCircle
 10
1.376903536473977
 20
-0.2498799999999999
 30
0.0
 40
0.00748
100
AcDbArc
 50
344.9913811387568
 51
90.0
  0
ARC
  5
C7
330
8B
100
AcDbEntity
  8
AM_9
100
AcDbCircle
 10
-1.376903536473977
 20
-0.2498799999999999
 30
0.0
 40
0.0074799999999999
100
AcDbArc
 50
90.0
 51
195.0086188612433
  0
LINE
  5
C8
330
8B
100
AcDbEntity
  8
AM_9
100
AcDbLine
 10
-1.384128370350267
 20
-0.2518170532930236
 30
0.0
 11
1.384128370350267
 21
-0.2518170532930236
 31
0.0
  0
LINE
  5
C9
330
8B
100
AcDbEntity
  8
AM_9
100
AcDbLine
 10
-1.397432220977328
 20
-0.1616
 30
0.0
 11
1.397432220977328
 21
-0.1616
 31
0.0
  0
ARC
  5
CA
330
8B
100
AcDbEntity
  8
AM_9
100
AcDbCircle
 10
1.397432220977327
 20
-0.1541199999999999
 30
0.0
 40
0.0074800000000001
100
AcDbArc
 50
270.0
 51
350.8091764947177
  0
ARC
  5
CB
330
8B
100
AcDbEntity
  8
AM_9
100
AcDbCircle
 10
-1.397432220977327
 20
-0.1541199999999999
 30
0.0
 40
0.0074800000000002
100
AcDbArc
 50
189.1908235052823
 51
270.0
  0
LINE
  5
CC
330
8B
100
AcDbEntity
  8
AM_9
100
AcDbLine
 10
-1.350181451274502
 20
0.3550031746031747
 30
0.0
 11
1.350181451274502
 21
0.3550031746031747
 31
0.0
  0
ARC
  5
CD
330
8B
100
AcDbEntity
  8
AM_9
100
AcDbCircle
 10
0.4449000000000041
 20
0.0000000000000012
 30
0.0
 40
0.9723999999999963
100
AcDbArc
 50
350.8091764947193
 51
21.41246704688408
  0
ARC
  5
CE
330
8B
100
AcDbEntity
  8
AM_9
100
AcDbCircle
 10
-0.4448999999999926
 20
0.0
 30
0.0
 40
0.9724000000000075
100
AcDbArc
 50
158.5875329531161
 51
189.1908235052805
  0
LINE
  5
CF
330
8B
100
AcDbEntity
  8
AM_9
100
AcDbLine
 10
-1.404816191682578
 20
-0.1553147286821707
 30
0.0
 11
1.404816191682578
 21
-0.1553147286821707
 31
0.0
  0
ENDBLK
  5
8E
330
8B
100
AcDbEntity
  8
0
100
AcDbBlockEnd
  0
BLOCK
  5
D2
330
D0
100
AcDbEntity
  8
0
100
AcDbBlockBegin
  2
3_129974_0_in_129252_4
 70
     2
 10
0.0
 20
0.0
 30
0.0
  3
3_129974_0_in_129252_4
  1

  0
ATTDEF
  5
D4
330
D0
100
AcDbEntity
  8
AM_6
100
AcDbText
 10
6.143987627295965
 20
0.5625000000000001
 30
0.0
 40
0.5
  1
Grip Tight Adapter and Nut - Corrosion Resistant Inch Bore
100
AcDbAttributeDefinition
  3

  2
NN
 70
     8
280
     0
  0
ATTDEF
  5
D5
330
D0
100
AcDbEntity
  8
AM_6
100
AcDbText
 10
6.143987627295965
 20
0.0625000000000001
 30
0.0
 40
0.5
  1
GT and GTM Adapter & Lock Nut Assemblies
100
AcDbAttributeDefinition
  3

  2
NT
 70
     8
280
     0
  0
ATTDEF
  5
D6
330
D0
100
AcDbEntity
  8
AM_6
100
AcDbText
 10
6.143987627295965
 20
-0.4374999999999999
 30
0.0
 40
0.5
  1
129974
100
AcDbAttributeDefinition
  3

  2
NB
 70
     8
280
     0
  0
ATTDEF
  5
D7
330
D0
100
AcDbEntity
  8
AM_6
100
AcDbText
 10
6.143987627295965
 20
-0.9374999999999999
 30
0.0
 40
0.5
  1
$PN.
100
AcDbAttributeDefinition
  3

  2
NBSYN
 70
     8
280
     0
  0
ATTDEF
  5
D8
330
D0
100
AcDbEntity
  8
AM_6
100
AcDbText
 10
6.143987627295965
 20
-1.4375
 30
0.0
 40
0.5
  1
129974
100
AcDbAttributeDefinition
  3

  2
LINA
 70
     8
280
     0
  0
ATTDEF
  5
D9
330
D0
100
AcDbEntity
  8
AM_6
100
AcDbText
 10
6.143987627295965
 20
-1.9375
 30
0.0
 40
0.5
  1
207
100
AcDbAttributeDefinition
  3

  2
SERIES
 70
     8
280
     0
  0
ATTDEF
  5
DA
330
D0
100
AcDbEntity
  8
AM_6
100
AcDbText
 10
6.143987627295965
 20
-2.4375
 30
0.0
 40
0.5
  1
1-7/16
100
AcDbAttributeDefinition
  3

  2
SS
 70
     8
280
     0
  0
ATTDEF
  5
DB
330
D0
100
AcDbEntity
  8
AM_6
100
AcDbText
 10
6.143987627295965
 20
-2.9375
 30
0.0
 40
0.5
  1
129974
100
AcDbAttributeDefinition
  3

  2
PN
 70
     8
280
     0
  0
ATTDEF
  5
DC
330
D0
100
AcDbEntity
  8
AM_6
100
AcDbText
 10
6.143987627295965
 20
-3.4375
 30
0.0
 40
0.5
  1
AN-GT-07-107-CR
100
AcDbAttributeDefinition
  3

  2
DESCRIPTION
 70
     8
280
     0
  0
ATTDEF
  5
DD
330
D0
100
AcDbEntity
  8
AM_6
100
AcDbText
 10
6.143987627295965
 20
-3.9375
 30
0.0
 40
0.5
  1
1-5/8
100
AcDbAttributeDefinition
  3

  2
A
 70
     8
280
     0
  0
ATTDEF
  5
DE
330
D0
100
AcDbEntity
  8
AM_6
100
AcDbText
 10
6.143987627295965
 20
-4.4375
 30
0.0
 40
0.5
  1
0.7480
100
AcDbAttributeDefinition
  3

  2
C
 70
     8
280
     0
  0
ATTDEF
  5
DF
330
D0
100
AcDbEntity
  8
AM_6
100
AcDbText
 10
6.143987627295965
 20
-4.9375
 30
0.0
 40
0.5
  1
2.8346
100
AcDbAttributeDefinition
  3

  2
D
 70
     8
280
     0
  0
ATTDEF
  5
E0
330
D0
100
AcDbEntity
  8
AM_6
100
AcDbText
 10
6.143987627295965
 20
-5.4375
 30
0.0
 40
0.5
  1
0.202
100
AcDbAttributeDefinition
  3

  2
J
 70
     8
280
     0
  0
ATTDEF
  5
E1
330
D0
100
AcDbEntity
  8
AM_6
100
AcDbText
 10
6.143987627295965
 20
-5.9375
 30
0.0
 40
0.5
  1
2-19/64
100
AcDbAttributeDefinition
  3

  2
L
 70
     8
280
     0
  0
ATTDEF
  5
E2
330
D0
100
AcDbEntity
  8
AM_6
100
AcDbText
 10
6.143987627295965
 20
-6.4375
 30
0.0
 40
0.5
  1
10 - 32 x 1/4
100
AcDbAttributeDefinition
  3

  2
N
 70
     8
280
     0
  0
ATTDEF
  5
E3
330
D0
100
AcDbEntity
  8
AM_6
100
AcDbText
 10
6.143987627295965
 20
-6.9375
 30
0.0
 40
0.5
  1
9/16
100
AcDbAttributeDefinition
  3

  2
W
 70
     8
280
     0
  0
ATTDEF
  5
E4
330
D0
100
AcDbEntity
  8
AM_6
100
AcDbText
 10
6.143987627295965
 20
-7.4375
 30
0.0
 40
0.5
  1
1-3/64
100
AcDbAttributeDefinition
  3

  2
X
 70
     8
280
     0
  0
ATTDEF
  5
E5
330
D0
100
AcDbEntity
  8
AM_6
100
AcDbText
 10
6.143987627295965
 20
-7.9375
 30
0.0
 40
0.5
  1
1-1/16
100
AcDbAttributeDefinition
  3

  2
Y
 70
     8
280
     0
  0
ATTDEF
  5
E6
330
D0
100
AcDbEntity
  8
AM_6
100
AcDbText
 10
6.143987627295965
 20
-8.4375
 30
0.0
 40
0.5
  1
baldor
100
AcDbAttributeDefinition
  3

  2
COMPANY
 70
     8
280
     0
  0
LINE
  5
E7
330
D0
100
AcDbEntity
  8
AM_9
100
AcDbLine
 10
-1.1314375
 20
-1.015083491660317
 30
0.0
 11
-0.8783281250000001
 21
-1.015083491660317
 31
0.0
  0
LINE
  5
E8
330
D0
100
AcDbEntity
  8
AM_9
100
AcDbLine
 10
-0.8783281250000001
 20
-0.8590834916603167
 30
0.0
 11
-1.1314375
 21
-0.8590834916603167
 31
0.0
  0
LINE
  5
E9
330
D0
100
AcDbEntity
  8
AM_9
100
AcDbLine
 10
-0.8783281250000001
 20
-1.015083491660317
 30
0.0
 11
-0.861328125
 21
-1.032083491660317
 31
0.0
  0
LINE
  5
EA
330
D0
100
AcDbEntity
  8
AM_9
100
AcDbLine
 10
-0.861328125
 20
-0.8420834916603167
 30
0.0
 11
-0.8783281250000001
 21
-0.8590834916603167
 31
0.0
  0
LINE
  5
EB
330
D0
100
AcDbEntity
  8
AM_9
100
AcDbLine
 10
-0.861328125
 20
-0.8420834916603167
 30
0.0
 11
-0.861328125
 21
-1.032083491660317
 31
0.0
  0
LINE
  5
EC
330
D0
100
AcDbEntity
  8
AM_9
100
AcDbLine
 10
-0.8783281250000001
 20
-0.8590834916603167
 30
0.0
 11
-0.8783281250000001
 21
-1.015083491660317
 31
0.0
  0
LINE
  5
ED
330
D0
100
AcDbEntity
  8
AM_9
100
AcDbLine
 10
-1.1314375
 20
-0.8590834916603167
 30
0.0
 11
-1.148356101208709
 21
-0.8421648904516079
 31
0.0
  0
LINE
  5
EE
330
D0
100
AcDbEntity
  8
AM_9
100
AcDbLine
 10
-1.140856633323558
 20
-1.024502624983875
 30
0.0
 11
-1.1314375
 21
-1.015083491660317
 31
0.0
  0
LINE
  5
EF
330
D0
100
AcDbEntity
  8
AM_9
100
AcDbLine
 10
-1.1314375
 20
-0.8590834916603167
 30
0.0
 11
-1.1314375
 21
-1.015083491660317
 31
0.0
  0
LINE
  5
F0
330
D0
100
AcDbEntity
  8
AM_9
100
AcDbLine
 10
1.071874805530861
 20
-0.5234375
 30
0.0
 11
1.071874805530861
 21
-1.046875
 31
0.0
  0
LINE
  5
F1
330
D0
100
AcDbEntity
  8
AM_9
100
AcDbLine
 10
0.71875
 20
-1.0625
 30
0.0
 11
0.71875
 21
0.5625000000000001
 31
0.0
  0
LINE
  5
F2
330
D0
100
AcDbEntity
  8
AM_9
100
AcDbLine
 10
-0.71875
 20
0.5625000000000001
 30
0.0
 11
-0.71875
 21
-1.0625
 31
0.0
  0
LINE
  5
F3
330
D0
100
AcDbEntity
  8
AM_9
100
AcDbLine
 10
0.8567708333333334
 20
-0.7851555852330451
 30
0.0
 11
0.8567708333333334
 21
-0.3925781249999991
 31
0.0
  0
LINE
  5
F4
330
D0
100
AcDbEntity
  8
AM_9
100
AcDbLine
 10
-0.8567708333333334
 20
-0.3925781249999991
 30
0.0
 11
-0.8567708333333334
 21
-0.7851555852330451
 31
0.0
  0
LINE
  5
F5
330
D0
100
AcDbEntity
  8
AM_9
100
AcDbLine
 10
-0.05
 20
0.5625000000000001
 30
0.0
 11
-0.05
 21
-1.046875
 31
0.0
  0
LINE
  5
F6
330
D0
100
AcDbEntity
  8
AM_9
100
AcDbLine
 10
0.05
 20
0.5625000000000001
 30
0.0
 11
0.05
 21
-1.046875
 31
0.0
  0
LINE
  5
F7
330
D0
100
AcDbEntity
  8
AM_9
100
AcDbLine
 10
-0.8567708333333333
 20
-0.3925781249999991
 30
0.0
 11
0.8567708333333333
 21
-0.3925781249999991
 31
0.0
  0
LINE
  5
F8
330
D0
100
AcDbEntity
  8
AM_9
100
AcDbLine
 10
0.8567708333333333
 20
-0.3925781249999991
 30
0.0
 11
0.8901228963830687
 21
0.5625
 31
0.0
  0
LINE
  5
F9
330
D0
100
AcDbEntity
  8
AM_9
100
AcDbLine
 10
-0.8901228963830687
 20
0.5625
 30
0.0
 11
-0.8567708333333333
 21
-0.3925781249999991
 31
0.0
  0
LINE
  5
FA
330
D0
100
AcDbEntity
  8
AM_9
100
AcDbLine
 10
-0.8901228963830687
 20
0.5625
 30
0.0
 11
0.8901228963830687
 21
0.5625
 31
0.0
  0
LINE
  5
FB
330
D0
100
AcDbEntity
  8
AM_9
100
AcDbLine
 10
0.9388020833333331
 20
-0.654296875
 30
0.0
 11
0.9388020833333331
 21
-0.5234374999999999
 31
0.0
  0
LINE
  5
FC
330
D0
100
AcDbEntity
  8
AM_9
100
AcDbLine
 10
-0.9388020833333331
 20
-0.5234374999999999
 30
0.0
 11
-0.9388020833333331
 21
-0.654296875
 31
0.0
  0
LINE
  5
FD
330
D0
100
AcDbEntity
  8
AM_9
100
AcDbLine
 10
-0.6444426221363487
 20
-0.5234374999999999
 30
0.0
 11
-0.6594623794302107
 21
-0.5533574999999998
 31
0.0
  0
LINE
  5
FE
330
D0
100
AcDbEntity
  8
AM_9
100
AcDbLine
 10
-1.1185175
 20
-0.5234374999999999
 30
0.0
 11
-1.1484375
 21
-0.5533575
 31
0.0
  0
LINE
  5
FF
330
D0
100
AcDbEntity
  8
AM_9
100
AcDbLine
 10
-0.6594623794302107
 20
-0.5533574999999998
 30
0.0
 11
-0.6594623794302107
 21
-0.632137738551808
 31
0.0
  0
LINE
  5
100
330
D0
100
AcDbEntity
  8
AM_9
100
AcDbLine
 10
-1.1484375
 20
-0.5533575
 30
0.0
 11
-1.1484375
 21
-0.685826051490187
 31
0.0
  0
LINE
  5
101
330
D0
100
AcDbEntity
  8
AM_9
100
AcDbLine
 10
-1.1484375
 20
-0.5533575
 30
0.0
 11
-0.6594623794302107
 21
-0.5533574999999998
 31
0.0
  0
LINE
  5
102
330
D0
100
AcDbEntity
  8
AM_9
100
AcDbLine
 10
-0.4484688369832025
 20
-0.5234374999999999
 30
0.0
 11
-0.4484688369832025
 21
-1.046875
 31
0.0
  0
LINE
  5
103
330
D0
100
AcDbEntity
  8
AM_9
100
AcDbLine
 10
-0.6234059685476592
 20
-0.5234374999999999
 30
0.0
 11
-0.6234059685476592
 21
-0.6298199088633993
 31
0.0
  0
LINE
  5
104
330
D0
100
AcDbEntity
  8
AM_9
100
AcDbLine
 10
-1.020833333333333
 20
-0.654296875
 30
0.0
 11
1.020833333333333
 21
-0.654296875
 31
0.0
  0
LINE
  5
105
330
D0
100
AcDbEntity
  8
AM_9
100
AcDbLine
 10
-1.020833333333333
 20
-0.78515625
 30
0.0
 11
1.020833333333333
 21
-0.78515625
 31
0.0
  0
LINE
  5
106
330
D0
100
AcDbEntity
  8
AM_9
100
AcDbLine
 10
1.020833333333333
 20
-0.78515625
 30
0.0
 11
1.020833333333333
 21
-0.654296875
 31
0.0
  0
LINE
  5
107
330
D0
100
AcDbEntity
  8
AM_9
100
AcDbLine
 10
-1.020833333333333
 20
-0.654296875
 30
0.0
 11
-1.020833333333333
 21
-0.78515625
 31
0.0
  0
LINE
  5
108
330
D0
100
AcDbEntity
  8
AM_9
100
AcDbLine
 10
1.143987627295964
 20
-0.5533575
 30
0.0
 11
1.143987627295964
 21
-0.6850513585431348
 31
0.0
  0
LINE
  5
109
330
D0
100
AcDbEntity
  8
AM_9
100
AcDbLine
 10
-0.4845252478657543
 20
-0.6223385628708924
 30
0.0
 11
-0.4845252478657543
 21
-0.5533574999999998
 31
0.0
  0
LINE
  5
10A
330
D0
100
AcDbEntity
  8
AM_9
100
AcDbLine
 10
1.11394811270824
 20
-0.5234374999999999
 30
0.0
 11
1.143987627295964
 21
-0.5533575
 31
0.0
  0
LINE
  5
10B
330
D0
100
AcDbEntity
  8
AM_9
100
AcDbLine
 10
-1.1185175
 20
-0.5234374999999999
 30
0.0
 11
1.11394811270824
 21
-0.5234374999999999
 31
0.0
  0
LINE
  5
10C
330
D0
100
AcDbEntity
  8
AM_9
100
AcDbLine
 10
-0.4845252478657543
 20
-0.5533574999999998
 30
0.0
 11
-0.4695054905718921
 21
-0.5234374999999999
 31
0.0
  0
LINE
  5
10D
330
D0
100
AcDbEntity
  8
AM_9
100
AcDbLine
 10
-0.4845252478657543
 20
-0.5533574999999998
 30
0.0
 11
1.143987627295964
 21
-0.5533575
 31
0.0
  0
LINE
  5
10F
330
D0
100
AcDbEntity
  8
AM_5
100
AcDbLine
 10
-1.133309008339683
 20
-1.032083491660317
 30
0.0
 11
-0.861328125
 21
-1.032083491660317
 31
0.0
  0
LINE
  5
110
330
D0
100
AcDbEntity
  8
AM_5
100
AcDbLine
 10
-1.1484375
 20
-0.8420834916603165
 30
0.0
 11
-0.861328125
 21
-0.8420834916603165
 31
0.0
  0
LINE
  5
113
330
D0
100
AcDbEntity
  8
AM_7
100
AcDbLine
 10
-0.84697265625
 20
-0.9370834916603167
 30
0.0
 11
-1.16279296875
 21
-0.9370834916603167
 31
0.0
  0
LINE
  5
115
330
D0
100
AcDbEntity
  8
AM_4
100
AcDbLine
 10
-0.05
 20
-1.0625
 30
0.0
 11
-0.05
 21
-1.046875
 31
0.0
  0
LINE
  5
116
330
D0
100
AcDbEntity
  8
AM_4
100
AcDbLine
 10
0.05
 20
-1.0625
 30
0.0
 11
0.05
 21
-1.046875
 31
0.0
  0
LINE
  5
117
330
D0
100
AcDbEntity
  8
AM_4
100
AcDbLine
 10
0.8567708333333331
 20
-1.0625
 30
0.0
 11
0.8567708333333331
 21
-1.046875
 31
0.0
  0
LINE
  5
118
330
D0
100
AcDbEntity
  8
AM_4
100
AcDbLine
 10
-0.8567708333333331
 20
-1.046875
 30
0.0
 11
-0.8567708333333331
 21
-1.0625
 31
0.0
  0
LINE
  5
119
330
D0
100
AcDbEntity
  8
AM_4
100
AcDbLine
 10
-0.8567708333333331
 20
-1.0625
 30
0.0
 11
0.8567708333333331
 21
-1.0625
 31
0.0
  0
LINE
  5
11A
330
D0
100
AcDbEntity
  8
AM_4
100
AcDbLine
 10
-0.6594623794302107
 20
-0.632137738551808
 30
0.0
 11
-0.6594623794302108
 21
-1.016955
 31
0.0
  0
LINE
  5
11B
330
D0
100
AcDbEntity
  8
AM_4
100
AcDbLine
 10
-1.1484375
 20
-0.685826051490187
 30
0.0
 11
-1.1484375
 21
-0.8422350457473741
 31
0.0
  0
LWPOLYLINE
  5
11C
330
D0
100
AcDbEntity
  8
AM_4
100
AcDbPolyline
 90
       17
 70
     0
 43
0.0
 10
-1.148437499999999
 20
-0.8420834916603347
 10
-1.148361459032061
 20
-0.8430839853727102
 10
-1.148111361355729
 20
-0.8464515619012123
 10
-1.147700235991567
 20
-0.8522742723179342
 10
-1.147186795356318
 20
-0.8601563676177827
 10
-1.146603620382192
 20
-0.8702172307033211
 10
-1.146021440895132
 20
-0.8820540659248164
 10
-1.145492017330086
 20
-0.8956431185735031
 10
-1.145084430539929
 20
-0.9104597891361973
 10
-1.144843903647286
 20
-0.9264062757387496
 10
-1.144810138162525
 20
-0.9426079860470146
 10
-1.144994048037215
 20
-0.9591125661503832
 10
-1.145285169246178
 20
-0.9718026770619421
 10
-1.145690322055493
 20
-0.9840750344644245
 10
-1.146174466487861
 20
-0.9954560980425321
 10
-1.146709038717889
 20
-1.00587671811363
 10
-1.147372786500038
 20
-1.016955
  0
LINE
  5
11D
330
D0
100
AcDbEntity
  8
AM_4
100
AcDbLine
 10
-1.147372786500038
 20
-1.016955
 30
0.0
 11
-0.6594623794302108
 21
-1.016955
 31
0.0
  0
LINE
  5
11E
330
D0
100
AcDbEntity
  8
AM_4
100
AcDbLine
 10
-1.147372786500038
 20
-1.016955
 30
0.0
 11
-1.140873254169867
 21
-1.024519245830129
 31
0.0
  0
LINE
  5
11F
330
D0
100
AcDbEntity
  8
AM_4
100
AcDbLine
 10
-0.6594623794302108
 20
-1.016955
 30
0.0
 11
-0.6444426221363486
 21
-1.046875
 31
0.0
  0
LINE
  5
120
330
D0
100
AcDbEntity
  8
AM_4
100
AcDbLine
 10
-1.141091037726582
 20
-1.024301462273418
 30
0.0
 11
-1.1185175
 21
-1.046875
 31
0.0
  0
LINE
  5
121
330
D0
100
AcDbEntity
  8
AM_4
100
AcDbLine
 10
-0.6234059685476592
 20
-0.6298199088633993
 30
0.0
 11
-0.6234059685476592
 21
-1.046875
 31
0.0
  0
LINE
  5
122
330
D0
100
AcDbEntity
  8
AM_4
100
AcDbLine
 10
1.143987627295964
 20
-0.6850513585431348
 30
0.0
 11
1.143987627295964
 21
-1.016955
 31
0.0
  0
LINE
  5
123
330
D0
100
AcDbEntity
  8
AM_4
100
AcDbLine
 10
-0.4845252478657542
 20
-1.016955
 30
0.0
 11
-0.4845252478657543
 21
-0.6223385628708924
 31
0.0
  0
LINE
  5
124
330
D0
100
AcDbEntity
  8
AM_4
100
AcDbLine
 10
1.143987627295964
 20
-1.016955
 30
0.0
 11
1.11394811270824
 21
-1.046875
 31
0.0
  0
LINE
  5
125
330
D0
100
AcDbEntity
  8
AM_4
100
AcDbLine
 10
-0.4845252478657542
 20
-1.016955
 30
0.0
 11
1.143987627295964
 21
-1.016955
 31
0.0
  0
LINE
  5
126
330
D0
100
AcDbEntity
  8
AM_4
100
AcDbLine
 10
-0.4695054905718922
 20
-1.046875
 30
0.0
 11
-0.4845252478657542
 21
-1.016955
 31
0.0
  0
LINE
  5
127
330
D0
100
AcDbEntity
  8
AM_4
100
AcDbLine
 10
-1.1185175
 20
-1.046875
 30
0.0
 11
1.11394811270824
 21
-1.046875
 31
0.0
  0
ENDBLK
  5
D3
330
D0
100
AcDbEntity
  8
0
100
AcDbBlockEnd
  0
BLOCK
  5
12A
330
128
100
AcDbEntity
  8
0
100
AcDbBlockBegin
  2
4_P2B_GTEZ_07_PCRI_0_in_129252_4
 70
     2
 10
0.0
 20
0.0
 30
0.0
  3
4_P2B_GTEZ_07_PCRI_0_in_129252_4
  1

  0
ATTDEF
  5
12C
330
128
100
AcDbEntity
  8
AM_6
100
AcDbText
 10
8.2735
 20
1.03125
 30
0.0
 40
0.5
  1
P2B-GTEZ-PCR-I
100
AcDbAttributeDefinition
  3

  2
NN
 70
     8
280
     0
  0
ATTDEF
  5
12D
330
128
100
AcDbEntity
  8
AM_6
100
AcDbText
 10
8.2735
 20
0.53125
 30
0.0
 40
0.5
  1
GTEZ Normal Duty Polymer Housed Pillow Blocks
100
AcDbAttributeDefinition
  3

  2
NT
 70
     8
280
     0
  0
ATTDEF
  5
12E
330
128
100
AcDbEntity
  8
AM_6
100
AcDbText
 10
8.2735
 20
0.03125
 30
0.0
 40
0.5
  1
P2B-GTEZ-07-PCRI
100
AcDbAttributeDefinition
  3

  2
NB
 70
     8
280
     0
  0
ATTDEF
  5
12F
330
128
100
AcDbEntity
  8
AM_6
100
AcDbText
 10
8.2735
 20
-0.46875
 30
0.0
 40
0.5
  1
$PN.$LUBE.I
100
AcDbAttributeDefinition
  3

  2
NBSYN
 70
     8
280
     0
  0
ATTDEF
  5
130
330
128
100
AcDbEntity
  8
AM_6
100
AcDbText
 10
8.2735
 20
-0.96875
 30
0.0
 40
0.5
  1
P2B-GTEZ-07-PCR
100
AcDbAttributeDefinition
  3

  2
LINA
 70
     8
280
     0
  0
ATTDEF
  5
131
330
128
100
AcDbEntity
  8
AM_6
100
AcDbText
 10
8.2735
 20
-1.46875
 30
0.0
 40
0.5
  1
207
100
AcDbAttributeDefinition
  3

  2
SERIES
 70
     8
280
     0
  0
ATTDEF
  5
132
330
128
100
AcDbEntity
  8
AM_6
100
AcDbText
 10
8.2735
 20
-1.96875
 30
0.0
 40
0.5
  1
P2B-GTEZ-07-PCR
100
AcDbAttributeDefinition
  3

  2
PN
 70
     8
280
     0
  0
ATTDEF
  5
133
330
128
100
AcDbEntity
  8
AM_6
100
AcDbText
 10
8.2735
 20
-2.46875
 30
0.0
 40
0.5
  1
P2B-GTEZ-07-PCR
100
AcDbAttributeDefinition
  3

  2
DESCRIPTION
 70
     8
280
     0
  0
ATTDEF
  5
134
330
128
100
AcDbEntity
  8
AM_6
100
AcDbText
 10
8.2735
 20
-2.96875
 30
0.0
 40
0.5
  1
With Lube
100
AcDbAttributeDefinition
  3

  2
LUBE
 70
     8
280
     0
  0
ATTDEF
  5
135
330
128
100
AcDbEntity
  8
AM_6
100
AcDbText
 10
8.2735
 20
-3.46875
 30
0.0
 40
0.5
  1
2.835
100
AcDbAttributeDefinition
  3

  2
BOD
 70
     8
280
     0
  0
ATTDEF
  5
136
330
128
100
AcDbEntity
  8
AM_6
100
AcDbText
 10
8.2735
 20
-3.96875
 30
0.0
 40
0.5
  1
1-5/8
100
AcDbAttributeDefinition
  3

  2
A
 70
     8
280
     0
  0
ATTDEF
  5
137
330
128
100
AcDbEntity
  8
AM_6
100
AcDbText
 10
8.2735
 20
-4.46875
 30
0.0
 40
0.5
  1
6-35/64
100
AcDbAttributeDefinition
  3

  2
B
 70
     8
280
     0
  0
ATTDEF
  5
138
330
128
100
AcDbEntity
  8
AM_6
100
AcDbText
 10
8.2735
 20
-4.96875
 30
0.0
 40
0.5
  1
1-7/8
100
AcDbAttributeDefinition
  3

  2
C
 70
     8
280
     0
  0
ATTDEF
  5
139
330
128
100
AcDbEntity
  8
AM_6
100
AcDbText
 10
8.2735
 20
-5.46875
 30
0.0
 40
0.5
  1
4-13/16
100
AcDbAttributeDefinition
  3

  2
DMIN
 70
     8
280
     0
  0
ATTDEF
  5
13A
330
128
100
AcDbEntity
  8
AM_6
100
AcDbText
 10
8.2735
 20
-5.96875
 30
0.0
 40
0.5
  1
5-1/8
100
AcDbAttributeDefinition
  3

  2
DMAX
 70
     8
280
     0
  0
ATTDEF
  5
13B
330
128
100
AcDbEntity
  8
AM_6
100
AcDbText
 10
8.2735
 20
-6.46875
 30
0.0
 40
0.5
  1
1/2
100
AcDbAttributeDefinition
  3

  2
F
 70
     8
280
     0
  0
ATTDEF
  5
13C
330
128
100
AcDbEntity
  8
AM_6
100
AcDbText
 10
8.2735
 20
-6.96875
 30
0.0
 40
0.5
  1
23/32
100
AcDbAttributeDefinition
  3

  2
G
 70
     8
280
     0
  0
ATTDEF
  5
13D
330
128
100
AcDbEntity
  8
AM_6
100
AcDbText
 10
8.2735
 20
-7.46875
 30
0.0
 40
0.5
  1
23/32
100
AcDbAttributeDefinition
  3

  2
H
 70
     8
280
     0
  0
ATTDEF
  5
13E
330
128
100
AcDbEntity
  8
AM_6
100
AcDbText
 10
8.2735
 20
-7.96875
 30
0.0
 40
0.5
  1
3-57/64
100
AcDbAttributeDefinition
  3

  2
J
 70
     8
280
     0
  0
ATTDEF
  5
13F
330
128
100
AcDbEntity
  8
AM_6
100
AcDbText
 10
8.2735
 20
-8.46875
 30
0.0
 40
0.5
  1
2-19/64
100
AcDbAttributeDefinition
  3

  2
L
 70
     8
280
     0
  0
ATTDEF
  5
140
330
128
100
AcDbEntity
  8
AM_6
100
AcDbText
 10
8.2735
 20
-8.96875
 30
0.0
 40
0.5
  1
1-7/8
100
AcDbAttributeDefinition
  3

  2
M
 70
     8
280
     0
  0
ATTDEF
  5
141
330
128
100
AcDbEntity
  8
AM_6
100
AcDbText
 10
8.2735
 20
-9.46875
 30
0.0
 40
0.5
  1
9/16
100
AcDbAttributeDefinition
  3

  2
R
 70
     8
280
     0
  0
ATTDEF
  5
142
330
128
100
AcDbEntity
  8
AM_6
100
AcDbText
 10
8.2735
 20
-9.96875
 30
0.0
 40
0.5
  1
1-1/16
100
AcDbAttributeDefinition
  3

  2
S
 70
     8
280
     0
  0
ATTDEF
  5
143
330
128
100
AcDbEntity
  8
AM_6
100
AcDbText
 10
8.2735
 20
-10.46875
 30
0.0
 40
0.5
  1
1-3/64
100
AcDbAttributeDefinition
  3

  2
Z
 70
     8
280
     0
  0
ATTDEF
  5
144
330
128
100
AcDbEntity
  8
AM_6
100
AcDbText
 10
8.2735
 20
-10.96875
 30
0.0
 40
0.5
  1
baldor
100
AcDbAttributeDefinition
  3

  2
COMPANY
 70
     8
280
     0
  0
LWPOLYLINE
  5
145
330
128
100
AcDbEntity
  8
AM_9
100
AcDbPolyline
 90
        3
 70
     0
 43
0.0
 10
1.661197760393508
 20
-0.0838127176360901
 10
1.671338620085382
 20
-0.1484511552061303
 10
1.685710364755646
 20
-0.2072734949874469
  0
LINE
  5
146
330
128
100
AcDbEntity
  8
AM_9
100
AcDbLine
 10
1.143987627295965
 20
-0.8333332500000001
 30
0.0
 11
-1.1484375
 21
-0.83333325
 31
0.0
  0
LINE
  5
147
330
128
100
AcDbEntity
  8
AM_9
100
AcDbLine
 10
1.4175
 20
-0.79107348518285
 30
0.0
 11
1.4175
 21
0.7910734851828503
 31
0.0
  0
LINE
  5
148
330
128
100
AcDbEntity
  8
AM_9
100
AcDbLine
 10
-1.4175
 20
0.7910734851828503
 30
0.0
 11
-1.4175
 21
-0.79107348518285
 31
0.0
  0
LWPOLYLINE
  5
149
330
128
100
AcDbEntity
  8
AM_9
100
AcDbPolyline
 90
        6
 70
     0
 43
0.0
 10
1.535496773542446
 20
-0.1574799999999999
 10
1.516312577209954
 20
-0.1962405145797212
 10
1.507419285062861
 20
-0.2157663145542289
 10
1.490760743591647
 20
-0.2565623780361766
 10
1.477225920384246
 20
-0.2955163660682673
 10
1.471205628636052
 20
-0.3149604999999999
  0
LINE
  5
14A
330
128
100
AcDbEntity
  8
AM_9
100
AcDbLine
 10
1.623701277041801
 20
-0.1574799999999999
 30
0.0
 11
1.535496773542446
 21
-0.1574799999999999
 31
0.0
  0
LWPOLYLINE
  5
14B
330
128
100
AcDbEntity
  8
AM_9
100
AcDbPolyline
 90
        6
 70
     0
 43
0.0
 10
1.471205628636052
 20
0.0000005000000001
 10
1.483669259932903
 20
-0.0387600145797235
 10
1.490718716704874
 20
-0.0582858145542321
 10
1.507370021581978
 20
-0.0990818780361731
 10
1.52564099641628
 20
-0.1380358660682662
 10
1.535496773542446
 20
-0.1574799999999999
  0
LINE
  5
14C
330
128
100
AcDbEntity
  8
AM_9
100
AcDbLine
 10
0.0352000999999995
 20
-0.6037075090181974
 30
0.0
 11
0.0352000999999997
 21
-0.5066999999999999
 31
0.0
  0
LINE
  5
14D
330
128
100
AcDbEntity
  8
AM_9
100
AcDbLine
 10
0.127026000000001
 20
-0.603707487581804
 30
0.0
 11
0.1270260000000002
 21
-0.5066999999999999
 31
0.0
  0
LINE
  5
14E
330
128
100
AcDbEntity
  8
AM_9
100
AcDbLine
 10
-0.1117220000000006
 20
-0.6037075143769309
 30
0.0
 11
-0.1117219999999999
 21
-0.5066999999999999
 31
0.0
  0
LINE
  5
14F
330
128
100
AcDbEntity
  8
AM_9
100
AcDbLine
 10
-0.2586439999999995
 20
-0.6037075143769309
 30
0.0
 11
-0.258644
 21
-0.5066999999999999
 31
0.0
  0
LINE
  5
150
330
128
100
AcDbEntity
  8
AM_9
100
AcDbLine
 10
-0.1668179999999999
 20
-0.6037074875818039
 30
0.0
 11
-0.1668179999999999
 21
-0.5066999999999999
 31
0.0
  0
LINE
  5
151
330
128
100
AcDbEntity
  8
AM_9
100
AcDbLine
 10
0.0198956999999999
 20
-0.6043225775168664
 30
0.0
 11
0.0198956999999999
 21
-0.591406289578184
 31
0.0
  0
LINE
  5
152
330
128
100
AcDbEntity
  8
AM_9
100
AcDbLine
 10
0.347409
 20
-0.6043225775168664
 30
0.0
 11
0.347409
 21
-0.591406289578184
 31
0.0
  0
LINE
  5
153
330
128
100
AcDbEntity
  8
AM_9
100
AcDbLine
 10
-0.1515129999999984
 20
-0.6043225775168664
 30
0.0
 11
-0.1515129999999986
 21
-0.5914062895781841
 31
0.0
  0
LINE
  5
154
330
128
100
AcDbEntity
  8
AM_9
100
AcDbLine
 10
-0.1270259999999999
 20
-0.6043225775168664
 30
0.0
 11
-0.1270259999999999
 21
-0.591406289578184
 31
0.0
  0
LINE
  5
155
330
128
100
AcDbEntity
  8
AM_9
100
AcDbLine
 10
0.1423310000000015
 20
-0.6043225775168665
 30
0.0
 11
0.1423310000000013
 21
-0.5914062895781841
 31
0.0
  0
LINE
  5
156
330
128
100
AcDbEntity
  8
AM_9
100
AcDbLine
 10
0.1698790000000002
 20
-0.6043225775168664
 30
0.0
 11
0.1698790000000002
 21
-0.591406289578184
 31
0.0
  0
LINE
  5
157
330
128
100
AcDbEntity
  8
AM_9
100
AcDbLine
 10
-0.273948
 20
-0.6043225775168664
 30
0.0
 11
-0.273948
 21
-0.591406289578184
 31
0.0
  0
LINE
  5
158
330
128
100
AcDbEntity
  8
AM_9
100
AcDbLine
 10
0.1821219999999995
 20
-0.6039535472328971
 30
0.0
 11
0.1821219999999996
 21
-0.591775319862153
 31
0.0
  0
LINE
  5
159
330
128
100
AcDbEntity
  8
AM_9
100
AcDbLine
 10
0.1300869999999998
 20
-0.6039535472328971
 30
0.0
 11
0.1300869999999998
 21
-0.5917753198621533
 31
0.0
  0
LINE
  5
15A
330
128
100
AcDbEntity
  8
AM_9
100
AcDbLine
 10
-0.1147830000000002
 20
-0.6039535472328972
 30
0.0
 11
-0.1147830000000001
 21
-0.5917753198621529
 31
0.0
  0
LINE
  5
15B
330
128
100
AcDbEntity
  8
AM_9
100
AcDbLine
 10
-0.2617049999999999
 20
-0.6039535472328971
 30
0.0
 11
-0.2617049999999999
 21
-0.591775319862153
 31
0.0
  0
LINE
  5
15C
330
128
100
AcDbEntity
  8
AM_9
100
AcDbLine
 10
-0.1637570000000001
 20
-0.6039535472328972
 30
0.0
 11
-0.1637570000000001
 21
-0.591775319862153
 31
0.0
  0
LINE
  5
15D
330
128
100
AcDbEntity
  8
AM_9
100
AcDbLine
 10
0.0321391999999994
 20
-0.6039535472328972
 30
0.0
 11
0.0321391999999994
 21
-0.5917753198621531
 31
0.0
  0
LINE
  5
15E
330
128
100
AcDbEntity
  8
AM_9
100
AcDbLine
 10
0.1974270000000001
 20
-0.5969418426376182
 30
0.0
 11
0.1974270000000002
 21
-0.5066999999999999
 31
0.0
  0
LINE
  5
15F
330
128
100
AcDbEntity
  8
AM_9
100
AcDbLine
 10
1.402298492469144
 20
-0.047244
 30
0.0
 11
1.367500000000002
 21
-0.047244
 31
0.0
  0
LINE
  5
160
330
128
100
AcDbEntity
  8
AM_9
100
AcDbLine
 10
1.367500000000002
 20
-0.2677159999999998
 30
0.0
 11
1.402298492469144
 21
-0.2677159999999998
 31
0.0
  0
LINE
  5
161
330
128
100
AcDbEntity
  8
AM_9
100
AcDbLine
 10
0.191305
 20
-0.6032154486649985
 30
0.0
 11
0.191305
 21
-0.5925134184300519
 31
0.0
  0
LINE
  5
162
330
128
100
AcDbEntity
  8
AM_9
100
AcDbLine
 10
0.1209049999999998
 20
-0.6032154486649985
 30
0.0
 11
0.1209049999999998
 21
-0.5925134184300522
 31
0.0
  0
LINE
  5
163
330
128
100
AcDbEntity
  8
AM_9
100
AcDbLine
 10
0.0413217000000001
 20
-0.6032154486649984
 30
0.0
 11
0.0413217000000001
 21
-0.5925134184300521
 31
0.0
  0
LINE
  5
164
330
128
100
AcDbEntity
  8
AM_9
100
AcDbLine
 10
-0.1056000000000006
 20
-0.6032154486649984
 30
0.0
 11
-0.1056000000000005
 21
-0.5925134184300519
 31
0.0
  0
LINE
  5
165
330
128
100
AcDbEntity
  8
AM_9
100
AcDbLine
 10
-0.2525220000000002
 20
-0.6032154486649987
 30
0.0
 11
-0.2525220000000002
 21
-0.5925134184300517
 31
0.0
  0
LINE
  5
166
330
128
100
AcDbEntity
  8
AM_9
100
AcDbLine
 10
-0.1729390000000004
 20
-0.6032154486649984
 30
0.0
 11
-0.1729390000000003
 21
-0.592513418430052
 31
0.0
  0
LINE
  5
167
330
128
100
AcDbEntity
  8
AM_9
100
AcDbLine
 10
0.2096699999999998
 20
-0.5969418426376182
 30
0.0
 11
0.2096700000000002
 21
-0.5066999999999999
 31
0.0
  0
LINE
  5
168
330
128
100
AcDbEntity
  8
AM_9
100
AcDbLine
 10
-0.0994784
 20
-0.602108357813091
 30
0.0
 11
-0.0994783999999999
 21
-0.5936205092819593
 31
0.0
  0
LINE
  5
169
330
128
100
AcDbEntity
  8
AM_9
100
AcDbLine
 10
0.1147830000000006
 20
-0.602108357813091
 30
0.0
 11
0.1147830000000005
 21
-0.5936205092819593
 31
0.0
  0
LINE
  5
16A
330
128
100
AcDbEntity
  8
AM_9
100
AcDbLine
 10
0.0474436999999993
 20
-0.602108357813091
 30
0.0
 11
0.0474436999999993
 21
-0.5936205092819593
 31
0.0
  0
LINE
  5
16B
330
128
100
AcDbEntity
  8
AM_9
100
AcDbLine
 10
-0.1790609999999995
 20
-0.6021083578130911
 30
0.0
 11
-0.1790609999999996
 21
-0.5936205092819594
 31
0.0
  0
LINE
  5
16C
330
128
100
AcDbEntity
  8
AM_9
100
AcDbLine
 10
-0.2464010000000006
 20
-0.6021083578130911
 30
0.0
 11
-0.2464010000000005
 21
-0.5936205092819592
 31
0.0
  0
ELLIPSE
  5
16D
330
128
100
AcDbEntity
  8
AM_9
100
AcDbEllipse
 10
1.402298492469144
 20
-0.1574799999999999
 30
0.0
 11
-2.892860668945854E-17
 21
-0.1574799999999987
 31
0.0
210
0.0
220
0.0
230
1.0
 40
0.7071067811865485
 41
0.0
 42
6.283185307179586
  0
LINE
  5
16E
330
128
100
AcDbEntity
  8
AM_9
100
AcDbLine
 10
0.1943660000000001
 20
-0.5969418426376182
 30
0.0
 11
0.1943660000000001
 21
-0.5936205092819593
 31
0.0
  0
LINE
  5
16F
330
128
100
AcDbEntity
  8
AM_9
100
AcDbLine
 10
0.2127310000000001
 20
-0.5969418426376182
 30
0.0
 11
0.2127310000000001
 21
-0.5066999999999999
 31
0.0
  0
LINE
  5
170
330
128
100
AcDbEntity
  8
AM_9
100
AcDbLine
 10
0.166818
 20
-0.5969418426376182
 30
0.0
 11
0.1668180000000001
 21
-0.5066999999999999
 31
0.0
  0
LINE
  5
171
330
128
100
AcDbEntity
  8
AM_9
100
AcDbLine
 10
0.335166
 20
-0.5962037719363572
 30
0.0
 11
0.335166
 21
-0.5066999999999999
 31
0.0
  0
LINE
  5
172
330
128
100
AcDbEntity
  8
AM_9
100
AcDbLine
 10
-0.0780524
 20
-0.5950966557511427
 30
0.0
 11
-0.0780523999999999
 21
-0.5066999999999999
 31
0.0
  0
LINE
  5
173
330
128
100
AcDbEntity
  8
AM_9
100
AcDbLine
 10
-0.2249740000000001
 20
-0.5950966557511426
 30
0.0
 11
-0.2249740000000001
 21
-0.5066999999999999
 31
0.0
  0
LINE
  5
174
330
128
100
AcDbEntity
  8
AM_9
100
AcDbLine
 10
-0.2004869999999999
 20
-0.5950966557511427
 30
0.0
 11
-0.200487
 21
-0.5066999999999999
 31
0.0
  0
LINE
  5
175
330
128
100
AcDbEntity
  8
AM_9
100
AcDbLine
 10
0.0933567000000001
 20
-0.5950966557511427
 30
0.0
 11
0.0933567000000002
 21
-0.5066999999999999
 31
0.0
  0
LINE
  5
176
330
128
100
AcDbEntity
  8
AM_9
100
AcDbLine
 10
0.0688696999999998
 20
-0.5950966557511429
 30
0.0
 11
0.0688696999999998
 21
-0.5066999999999999
 31
0.0
  0
LINE
  5
177
330
128
100
AcDbEntity
  8
AM_9
100
AcDbLine
 10
-0.24334
 20
-0.5906682290102457
 30
0.0
 11
-0.2433400000000001
 21
-0.5066999999999999
 31
0.0
  0
LINE
  5
178
330
128
100
AcDbEntity
  8
AM_9
100
AcDbLine
 10
-0.0964176999999999
 20
-0.5906682109255496
 30
0.0
 11
-0.0964176999999999
 21
-0.5066999999999999
 31
0.0
  0
LINE
  5
179
330
128
100
AcDbEntity
  8
AM_9
100
AcDbLine
 10
0.1117220000000002
 20
-0.5906682290102458
 30
0.0
 11
0.1117220000000002
 21
-0.5066999999999999
 31
0.0
  0
LINE
  5
17A
330
128
100
AcDbEntity
  8
AM_9
100
AcDbLine
 10
0.0505042999999996
 20
-0.5906682018829799
 30
0.0
 11
0.0505042999999997
 21
-0.5066999999999999
 31
0.0
  0
LINE
  5
17B
330
128
100
AcDbEntity
  8
AM_9
100
AcDbLine
 10
-0.182122
 20
-0.5906682290102457
 30
0.0
 11
-0.182122
 21
-0.5066999999999999
 31
0.0
  0
LINE
  5
17C
330
128
100
AcDbEntity
  8
AM_9
100
AcDbLine
 10
-0.1974270000000002
 20
-0.5932514789979901
 30
0.0
 11
-0.1974269999999999
 21
-0.5066999999999999
 31
0.0
  0
LINE
  5
17D
330
128
100
AcDbEntity
  8
AM_9
100
AcDbLine
 10
0.0964177000000009
 20
-0.5932514789979901
 30
0.0
 11
0.0964177000000002
 21
-0.5066999999999999
 31
0.0
  0
LINE
  5
17E
330
128
100
AcDbEntity
  8
AM_9
100
AcDbLine
 10
-0.2280350000000003
 20
-0.5932514789979901
 30
0.0
 11
-0.228035
 21
-0.5066999999999999
 31
0.0
  0
LINE
  5
17F
330
128
100
AcDbEntity
  8
AM_9
100
AcDbLine
 10
-0.0811134
 20
-0.5932514789979902
 30
0.0
 11
-0.0811133999999999
 21
-0.5066999999999999
 31
0.0
  0
LINE
  5
180
330
128
100
AcDbEntity
  8
AM_9
100
AcDbLine
 10
0.0658090999999997
 20
-0.59325147899799
 30
0.0
 11
0.0658090999999997
 21
-0.5066999999999999
 31
0.0
  0
LINE
  5
181
330
128
100
AcDbEntity
  8
AM_9
100
AcDbLine
 10
0.1943660000000002
 20
-0.5901146709176386
 30
0.0
 11
0.1943660000000002
 21
-0.5066999999999999
 31
0.0
  0
LINE
  5
182
330
128
100
AcDbEntity
  8
AM_9
100
AcDbLine
 10
0.0413216999999996
 20
-0.5899301310519056
 30
0.0
 11
0.0413216999999997
 21
-0.5066999999999999
 31
0.0
  0
LINE
  5
183
330
128
100
AcDbEntity
  8
AM_9
100
AcDbLine
 10
-0.2341569999999992
 20
-0.5917753198621533
 30
0.0
 11
-0.234157
 21
-0.5066999999999999
 31
0.0
  0
LINE
  5
184
330
128
100
AcDbEntity
  8
AM_9
100
AcDbLine
 10
0.1025390000000009
 20
-0.5917753198621533
 30
0.0
 11
0.1025390000000002
 21
-0.5066999999999999
 31
0.0
  0
LINE
  5
185
330
128
100
AcDbEntity
  8
AM_9
100
AcDbLine
 10
-0.1056
 20
-0.5899301551660955
 30
0.0
 11
-0.1055999999999999
 21
-0.5066999999999999
 31
0.0
  0
LINE
  5
186
330
128
100
AcDbEntity
  8
AM_9
100
AcDbLine
 10
-0.1729390000000001
 20
-0.589930112964786
 30
0.0
 11
-0.172939
 21
-0.5066999999999999
 31
0.0
  0
LINE
  5
187
330
128
100
AcDbEntity
  8
AM_9
100
AcDbLine
 10
-0.1913050000000005
 20
-0.5917753198621531
 30
0.0
 11
-0.1913049999999999
 21
-0.5066999999999999
 31
0.0
  0
LINE
  5
188
330
128
100
AcDbEntity
  8
AM_9
100
AcDbLine
 10
0.1209050000000003
 20
-0.589930112964786
 30
0.0
 11
0.1209050000000002
 21
-0.5066999999999999
 31
0.0
  0
LINE
  5
189
330
128
100
AcDbEntity
  8
AM_9
100
AcDbLine
 10
-0.2525220000000002
 20
-0.5899301732532148
 30
0.0
 11
-0.2525220000000001
 21
-0.5066999999999999
 31
0.0
  0
LINE
  5
18A
330
128
100
AcDbEntity
  8
AM_9
100
AcDbLine
 10
0.1913050000000008
 20
-0.5899301431090006
 30
0.0
 11
0.1913050000000001
 21
-0.5066999999999999
 31
0.0
  0
LINE
  5
18B
330
128
100
AcDbEntity
  8
AM_9
100
AcDbLine
 10
-0.0872349999999995
 20
-0.5917753198621533
 30
0.0
 11
-0.0872349999999999
 21
-0.5066999999999999
 31
0.0
  0
LINE
  5
18C
330
128
100
AcDbEntity
  8
AM_9
100
AcDbLine
 10
0.0596869999999988
 20
-0.591775319862153
 30
0.0
 11
0.0596869999999997
 21
-0.5066999999999999
 31
0.0
  0
LINE
  5
18D
330
128
100
AcDbEntity
  8
AM_9
100
AcDbLine
 10
-0.0352001000000003
 20
-0.5891920698744089
 30
0.0
 11
-0.0352001000000003
 21
-0.5066999999999999
 31
0.0
  0
LINE
  5
18E
330
128
100
AcDbEntity
  8
AM_9
100
AcDbLine
 10
-0.1637569999999985
 20
-0.5894872839682612
 30
0.0
 11
-0.163757
 21
-0.5066999999999999
 31
0.0
  0
LINE
  5
18F
330
128
100
AcDbEntity
  8
AM_9
100
AcDbLine
 10
0.1300870000000014
 20
-0.5894872839682612
 30
0.0
 11
0.1300870000000002
 21
-0.5066999999999999
 31
0.0
  0
LINE
  5
190
330
128
100
AcDbEntity
  8
AM_9
100
AcDbLine
 10
0.2555829999999999
 20
-0.5891920698744089
 30
0.0
 11
0.2555829999999999
 21
-0.5066999999999999
 31
0.0
  0
LINE
  5
191
330
128
100
AcDbEntity
  8
AM_9
100
AcDbLine
 10
0.182121999999999
 20
-0.5894872791457623
 30
0.0
 11
0.1821220000000002
 21
-0.5066999999999999
 31
0.0
  0
LINE
  5
192
330
128
100
AcDbEntity
  8
AM_9
100
AcDbLine
 10
0.0321392000000004
 20
-0.5894872834860241
 30
0.0
 11
0.0321391999999997
 21
-0.5066999999999999
 31
0.0
  0
LINE
  5
193
330
128
100
AcDbEntity
  8
AM_9
100
AcDbLine
 10
-0.1147830000000012
 20
-0.5894872791457623
 30
0.0
 11
-0.1147829999999999
 21
-0.5066999999999999
 31
0.0
  0
LINE
  5
194
330
128
100
AcDbEntity
  8
AM_9
100
AcDbLine
 10
-0.2617050000000004
 20
-0.5894872791457623
 30
0.0
 11
-0.2617050000000001
 21
-0.5066999999999999
 31
0.0
  0
LINE
  5
195
330
128
100
AcDbEntity
  8
AM_9
100
AcDbLine
 10
-0.3290440000000001
 20
-0.5891920698744089
 30
0.0
 11
-0.3290440000000001
 21
-0.5066999999999999
 31
0.0
  0
LINE
  5
196
330
128
100
AcDbEntity
  8
AM_9
100
AcDbLine
 10
-0.0994783999999993
 20
-0.5902991987262768
 30
0.0
 11
-0.0994783999999999
 21
-0.5066999999999999
 31
0.0
  0
LINE
  5
197
330
128
100
AcDbEntity
  8
AM_9
100
AcDbLine
 10
-0.2464009999999998
 20
-0.5902991987262766
 30
0.0
 11
-0.2464010000000001
 21
-0.5066999999999999
 31
0.0
  0
LINE
  5
198
330
128
100
AcDbEntity
  8
AM_9
100
AcDbLine
 10
0.1147829999999997
 20
-0.5902991987262768
 30
0.0
 11
0.1147830000000002
 21
-0.5066999999999999
 31
0.0
  0
LINE
  5
199
330
128
100
AcDbEntity
  8
AM_9
100
AcDbLine
 10
0.0474436999999993
 20
-0.5902991987262766
 30
0.0
 11
0.0474436999999997
 21
-0.5066999999999999
 31
0.0
  0
LINE
  5
19A
330
128
100
AcDbEntity
  8
AM_9
100
AcDbLine
 10
-0.179061
 20
-0.5902991987262767
 30
0.0
 11
-0.1790609999999999
 21
-0.5066999999999999
 31
0.0
  0
LINE
  5
19B
330
128
100
AcDbEntity
  8
AM_9
100
AcDbLine
 10
0.1851830000000008
 20
-0.6037075143769308
 30
0.0
 11
0.1851830000000002
 21
-0.5066999999999999
 31
0.0
  0
ELLIPSE
  5
19C
330
128
100
AcDbEntity
  8
AM_9
100
AcDbEllipse
 10
1.499734978489526
 20
-0.15748
 30
0.0
 11
6.750008227540402E-18
 21
0.1102360000000003
 31
0.0
210
0.0
220
0.0
230
1.0
 40
0.7071067811865483
 41
3.141592653589793
 42
6.283185307179586
  0
ELLIPSE
  5
19D
330
128
100
AcDbEntity
  8
AM_9
100
AcDbEllipse
 10
1.513654375477181
 20
-0.1574800000000003
 30
0.0
 11
6.750008227540431E-18
 21
0.1102360000000008
 31
0.0
210
0.0
220
0.0
230
1.0
 40
0.7071067811865493
 41
5.33376749103307
 42
6.283185307179586
  0
LINE
  5
19E
330
128
100
AcDbEntity
  8
AM_9
100
AcDbLine
 10
0.3474090000000002
 20
-0.5891920698744089
 30
0.0
 11
0.347409
 21
-0.5066999999999999
 31
0.0
  0
LINE
  5
19F
330
128
100
AcDbEntity
  8
AM_9
100
AcDbLine
 10
0.347409
 20
-0.5066999999999999
 30
0.0
 11
0.2372179999999999
 21
-0.5066999999999999
 31
0.0
  0
LINE
  5
1A0
330
128
100
AcDbEntity
  8
AM_9
100
AcDbLine
 10
0.2372179999999999
 20
-0.5891920698744089
 30
0.0
 11
0.2372179999999999
 21
-0.5066999999999999
 31
0.0
  0
LINE
  5
1A1
330
128
100
AcDbEntity
  8
AM_9
100
AcDbLine
 10
-0.1515129999999995
 20
-0.5891920698744086
 30
0.0
 11
-0.151513
 21
-0.5066999999999999
 31
0.0
  0
LINE
  5
1A2
330
128
100
AcDbEntity
  8
AM_9
100
AcDbLine
 10
-0.1270259999999999
 20
-0.5891920698744089
 30
0.0
 11
-0.1270259999999999
 21
-0.5066999999999999
 31
0.0
  0
LINE
  5
1A3
330
128
100
AcDbEntity
  8
AM_9
100
AcDbLine
 10
0.0198956999999999
 20
-0.5891920698744089
 30
0.0
 11
0.0198956999999997
 21
-0.5066999999999999
 31
0.0
  0
LINE
  5
1A4
330
128
100
AcDbEntity
  8
AM_9
100
AcDbLine
 10
0.2127310000000001
 20
-0.5066999999999999
 30
0.0
 11
0.0933567000000002
 21
-0.5066999999999999
 31
0.0
  0
LINE
  5
1A5
330
128
100
AcDbEntity
  8
AM_9
100
AcDbLine
 10
0.1698790000000002
 20
-0.5891920698744089
 30
0.0
 11
0.1698790000000002
 21
-0.5066999999999999
 31
0.0
  0
LINE
  5
1A6
330
128
100
AcDbEntity
  8
AM_9
100
AcDbLine
 10
-0.0780523999999999
 20
-0.5066999999999999
 30
0.0
 11
-0.200487
 21
-0.5066999999999999
 31
0.0
  0
LINE
  5
1A7
330
128
100
AcDbEntity
  8
AM_9
100
AcDbLine
 10
0.1423310000000009
 20
-0.5891920698744089
 30
0.0
 11
0.1423310000000002
 21
-0.5066999999999999
 31
0.0
  0
LINE
  5
1A8
330
128
100
AcDbEntity
  8
AM_9
100
AcDbLine
 10
0.0688696999999998
 20
-0.5066999999999999
 30
0.0
 11
-0.0535653000000003
 21
-0.5066999999999999
 31
0.0
  0
LINE
  5
1A9
330
128
100
AcDbEntity
  8
AM_9
100
AcDbLine
 10
-0.3474090000000001
 20
-0.5891920698744089
 30
0.0
 11
-0.3474090000000001
 21
-0.5066999999999999
 31
0.0
  0
LINE
  5
1AA
330
128
100
AcDbEntity
  8
AM_9
100
AcDbLine
 10
-0.2249740000000001
 20
-0.5066999999999999
 30
0.0
 11
-0.3474090000000001
 21
-0.5066999999999999
 31
0.0
  0
LINE
  5
1AB
330
128
100
AcDbEntity
  8
AM_9
100
AcDbLine
 10
-0.2739480000000001
 20
-0.5891920698744089
 30
0.0
 11
-0.2739480000000001
 21
-0.5066999999999999
 31
0.0
  0
LINE
  5
1AC
330
128
100
AcDbEntity
  8
AM_9
100
AcDbLine
 10
-0.0535653000000003
 20
-0.5891920698744089
 30
0.0
 11
-0.0535653000000003
 21
-0.5066999999999999
 31
0.0
  0
LWPOLYLINE
  5
1AD
330
128
100
AcDbEntity
  8
AM_9
100
AcDbPolyline
 90
        4
 70
     0
 43
0.0
 10
1.58514421963777
 20
-0.2619430982247052
 10
1.595861965472565
 20
-0.2369775725125035
 10
1.610893608454432
 20
-0.1972308141156225
 10
1.623701277041801
 20
-0.1574799999999999
  0
LWPOLYLINE
  5
1AE
330
128
100
AcDbEntity
  8
AM_9
100
AcDbPolyline
 90
        4
 70
     0
 43
0.0
 10
1.623701277041801
 20
-0.1574799999999999
 10
1.61121765326457
 20
-0.1186618278146276
 10
1.596480316714684
 20
-0.0794970725125035
 10
1.585123905590571
 20
-0.0529716419275363
  0
ELLIPSE
  5
1AF
330
128
100
AcDbEntity
  8
AM_9
100
AcDbEllipse
 10
1.499734978489523
 20
-0.157480000000001
 30
0.0
 11
9.642868896486445E-18
 21
0.157480000000003
 31
0.0
210
0.0
220
0.0
230
1.0
 40
0.7071067811865531
 41
3.988013310455722
 42
5.437082253614443
  0
ELLIPSE
  5
1B0
330
128
100
AcDbEntity
  8
AM_9
100
AcDbEllipse
 10
1.513654375477181
 20
-0.1574799999999988
 30
0.0
 11
6.750008227540466E-18
 21
0.1102360000000014
 31
0.0
210
0.0
220
0.0
230
1.0
 40
0.7071067811865497
 41
3.141592653589793
 42
4.096333500073687
  0
LINE
  5
1B1
330
128
100
AcDbEntity
  8
AM_9
100
AcDbLine
 10
1.543527041679272
 20
-0.2344315111363804
 30
0.0
 11
1.540779724568526
 21
-0.2311578905906962
 31
0.0
  0
LWPOLYLINE
  5
1B2
330
128
100
AcDbEntity
  8
AM_9
100
AcDbPolyline
 90
       23
 70
     0
 43
0.0
 10
1.591597787319626
 20
-0.1574799999999999
 10
1.591505816622298
 20
-0.1628169380728502
 10
1.590735630748346
 20
-0.1737686662700179
 10
1.589209356695641
 20
-0.1844191704404242
 10
1.586986340203433
 20
-0.1945583546597772
 10
1.5841554208482
 20
-0.2039977275806462
 10
1.580833507818534
 20
-0.2125709737486501
 10
1.57716277274411
 20
-0.2201413438059252
 10
1.573306335005536
 20
-0.2266090687100924
 10
1.569442324735351
 20
-0.2319180682246714
 10
1.565765622383339
 20
-0.2360520097662996
 10
1.562460478769847
 20
-0.2390622633650942
 10
1.559692998592539
 20
-0.2410580536303854
 10
1.557594852022469
 20
-0.2422044681422742
 10
1.556237697360774
 20
-0.2427181768805542
 10
1.55557253360097
 20
-0.2428566197160861
 10
1.55518232333297
 20
-0.2428484387187544
 10
1.554276952506226
 20
-0.2426219349030698
 10
1.552673131685655
 20
-0.2419359169596458
 10
1.550380030088713
 20
-0.2405659895070808
 10
1.547522958277347
 20
-0.2383587717501531
 10
1.543933765995264
 20
-0.2348756671155398
 10
1.543527041679272
 20
-0.2344315111363804
  0
LWPOLYLINE
  5
1B3
330
128
100
AcDbEntity
  8
AM_9
100
AcDbPolyline
 90
       22
 70
     0
 43
0.0
 10
1.542743983749521
 20
-0.0814125469814685
 10
1.546257042936069
 20
-0.0777407353914107
 10
1.549393115568121
 20
-0.0750976964680612
 10
1.551940955250038
 20
-0.0734180078563485
 10
1.553785927842642
 20
-0.0725180704144053
 10
1.554887830492394
 20
-0.0721650615505932
 10
1.555372371684609
 20
-0.0720954321927127
 10
1.556040015844758
 20
-0.0721892285823189
 10
1.557252178426612
 20
-0.072605231520571
 10
1.559213637923151
 20
-0.0736092749025686
 10
1.561803988702691
 20
-0.0753794172342296
 10
1.565228784968175
 20
-0.0783740687079967
 10
1.568975196483946
 20
-0.0824693862304942
 10
1.57286848355195
 20
-0.0876950602514383
 10
1.576742008986253
 20
-0.0940472458111438
 10
1.580433216884255
 20
-0.1014808599905086
 10
1.583784888315971
 20
-0.1098982021275563
 10
1.586663717154767
 20
-0.1191802960528268
 10
1.58895624070028
 20
-0.129179551728975
 10
1.590571810294322
 20
-0.1397231019360095
 10
1.591445703225701
 20
-0.1506187621159884
 10
1.591597787319626
 20
-0.1574799999999999
  0
LWPOLYLINE
  5
1B4
330
128
100
AcDbEntity
  8
AM_9
100
AcDbPolyline
 90
        3
 70
     0
 43
0.0
 10
1.53980962068152
 20
-0.0850764798065997
 10
1.542688992276001
 20
-0.0814760752872497
 10
1.542743983749521
 20
-0.0814125469814685
  0
LINE
  5
1B5
330
128
100
AcDbEntity
  8
AM_9
100
AcDbLine
 10
1.536213804826366
 20
-0.0903952858751447
 30
0.0
 11
1.536883797001709
 21
-0.0893284449942283
 31
0.0
  0
ELLIPSE
  5
1B6
330
128
100
AcDbEntity
  8
AM_9
100
AcDbEllipse
 10
1.513654375483141
 20
-0.1574799999999411
 30
0.0
 11
6.750008227024366E-18
 21
0.1102359999915728
 31
0.0
210
0.0
220
0.0
230
1.0
 40
0.7071067811865476
 41
4.71238898038469
 42
4.727058948507374
  0
ELLIPSE
  5
1B7
330
128
100
AcDbEntity
  8
AM_9
100
AcDbEllipse
 10
1.590736573081465
 20
-0.1574800000000139
 30
0.0
 11
6.258279876479193E-18
 21
0.1022054666020677
 31
0.0
210
0.0
220
0.0
230
1.0
 40
0.7071067811865388
 41
2.286198750855629
 42
7.136758036919831
  0
ELLIPSE
  5
1B8
330
128
100
AcDbEntity
  8
AM_9
100
AcDbEllipse
 10
1.605625737368326
 20
-0.1574799999999997
 30
0.0
 11
6.365617546288512E-18
 21
0.1039584237793379
 31
0.0
210
0.0
220
0.0
230
1.0
 40
0.7071067811865507
 41
3.694304707716629
 42
4.71238898038469
  0
ELLIPSE
  5
1B9
330
128
100
AcDbEntity
  8
AM_9
100
AcDbEllipse
 10
1.649868651958324
 20
-0.1574800000000011
 30
0.0
 11
4.354225479598875E-18
 21
0.07110989850511112
 31
0.0
210
0.0
220
0.0
230
1.0
 40
0.7071067811865476
 41
3.830022171602465
 42
5.562836045427104
  0
LINE
  5
1BA
330
128
100
AcDbEntity
  8
AM_9
100
AcDbLine
 10
1.613930000000001
 20
-0.2618393726238956
 30
0.0
 11
1.613930000000001
 21
-0.0530745893972453
 31
0.0
  0
ELLIPSE
  5
1BB
330
128
100
AcDbEntity
  8
AM_9
100
AcDbEllipse
 10
1.402298492469144
 20
-0.1574800000000001
 30
0.0
 11
6.750008227540361E-18
 21
0.1102359999999997
 31
0.0
210
0.0
220
0.0
230
1.0
 40
0.7071067811865506
 41
0.0
 42
6.283185307179586
  0
ELLIPSE
  5
1BC
330
128
100
AcDbEntity
  8
AM_9
100
AcDbEllipse
 10
1.367500000000002
 20
-0.1574799999999999
 30
0.0
 11
-2.025002468262114E-17
 21
-0.110236
 31
0.0
210
0.0
220
0.0
230
1.0
 40
0.7071067811865465
 41
0.0
 42
6.283185307179586
  0
LINE
  5
1BD
330
128
100
AcDbEntity
  8
AM_7
100
AcDbLine
 10
0.0
 20
1.03125
 30
0.0
 11
0.0
 21
-1.14375
 31
0.0
  0
LINE
  5
1BE
330
128
100
AcDbEntity
  8
AM_7
100
AcDbLine
 10
-2.858075
 20
0.0
 30
0.0
 11
-2.110924999999999
 21
0.0000000000000002
 31
0.0
  0
LINE
  5
1BF
330
128
100
AcDbEntity
  8
AM_7
100
AcDbLine
 10
-2.5625
 20
-0.2955750000000004
 30
0.0
 11
-2.5625
 21
0.2955750000000003
 31
0.0
  0
LINE
  5
1C0
330
128
100
AcDbEntity
  8
AM_7
100
AcDbLine
 10
2.110924999999999
 20
0.0
 30
0.0
 11
2.858075
 21
0.0000000000000002
 31
0.0
  0
LINE
  5
1C1
330
128
100
AcDbEntity
  8
AM_7
100
AcDbLine
 10
2.4065
 20
-0.2955750000000004
 30
0.0
 11
2.4065
 21
0.2955750000000003
 31
0.0
  0
LINE
  5
1C2
330
128
100
AcDbEntity
  8
AM_7
100
AcDbLine
 10
2.5625
 20
-0.2955750000000001
 30
0.0
 11
2.5625
 21
0.2955750000000005
 31
0.0
  0
LINE
  5
1C3
330
128
100
AcDbEntity
  8
AM_7
100
AcDbLine
 10
-2.4065
 20
-0.2955750000000001
 30
0.0
 11
-2.4065
 21
0.2955750000000005
 31
0.0
  0
LINE
  5
1C4
330
128
100
AcDbEntity
  8
AM_4
100
AcDbLine
 10
-3.086
 20
0.9374999999999999
 30
0.0
 11
-3.2735
 21
0.7499999999999999
 31
0.0
  0
LINE
  5
1C5
330
128
100
AcDbEntity
  8
AM_4
100
AcDbLine
 10
-3.2735
 20
-0.7499999999999999
 30
0.0
 11
-3.086
 21
-0.9374999999999999
 31
0.0
  0
LINE
  5
1C6
330
128
100
AcDbEntity
  8
AM_4
100
AcDbLine
 10
-3.2735
 20
-0.7499999999999999
 30
0.0
 11
-3.2735
 21
0.7500000000000001
 31
0.0
  0
LINE
  5
1C7
330
128
100
AcDbEntity
  8
AM_4
100
AcDbLine
 10
3.086
 20
-0.9375000000000002
 30
0.0
 11
3.2735
 21
-0.7500000000000003
 31
0.0
  0
LINE
  5
1C8
330
128
100
AcDbEntity
  8
AM_4
100
AcDbLine
 10
3.2735
 20
0.7499999999999998
 30
0.0
 11
3.086
 21
0.9374999999999997
 31
0.0
  0
LINE
  5
1C9
330
128
100
AcDbEntity
  8
AM_4
100
AcDbLine
 10
3.2735
 20
-0.7500000000000003
 30
0.0
 11
3.2735
 21
0.7499999999999996
 31
0.0
  0
LINE
  5
1CA
330
128
100
AcDbEntity
  8
AM_4
100
AcDbLine
 10
-1.656499595
 20
-0.9375000000000002
 30
0.0
 11
-3.086
 21
-0.9374999999999999
 31
0.0
  0
LINE
  5
1CB
330
128
100
AcDbEntity
  8
AM_4
100
AcDbLine
 10
-2.406499999999999
 20
0.2815000000000001
 30
0.0
 11
-2.5625
 21
0.2815000000000001
 31
0.0
  0
ARC
  5
1CC
330
128
100
AcDbEntity
  8
AM_4
100
AcDbCircle
 10
-2.4065
 20
0.0000000000000002
 30
0.0
 40
0.2815000000000001
100
AcDbArc
 50
270.0
 51
90.0
  0
LINE
  5
1CD
330
128
100
AcDbEntity
  8
AM_4
100
AcDbLine
 10
-2.5625
 20
-0.2815000000000001
 30
0.0
 11
-2.4065
 21
-0.2814999999999999
 31
0.0
  0
ARC
  5
1CE
330
128
100
AcDbEntity
  8
AM_4
100
AcDbCircle
 10
-2.5625
 20
0.0
 30
0.0
 40
0.2815000000000001
100
AcDbArc
 50
90.0
 51
270.0
  0
LINE
  5
1CF
330
128
100
AcDbEntity
  8
AM_4
100
AcDbLine
 10
-1.656499595
 20
0.9374999999999999
 30
0.0
 11
-3.086
 21
0.9374999999999999
 31
0.0
  0
LINE
  5
1D0
330
128
100
AcDbEntity
  8
AM_4
100
AcDbLine
 10
-3.2144449
 20
-0.8090551000000001
 30
0.0
 11
-3.2144449
 21
0.8090550999999998
 31
0.0
  0
LINE
  5
1D1
330
128
100
AcDbEntity
  8
AM_4
100
AcDbLine
 10
2.5625
 20
0.2815000000000002
 30
0.0
 11
2.406499999999999
 21
0.2815000000000001
 31
0.0
  0
ARC
  5
1D2
330
128
100
AcDbEntity
  8
AM_4
100
AcDbCircle
 10
2.5625
 20
0.0000000000000003
 30
0.0
 40
0.2815000000000002
100
AcDbArc
 50
270.0
 51
90.0
  0
LINE
  5
1D3
330
128
100
AcDbEntity
  8
AM_4
100
AcDbLine
 10
2.406499999999999
 20
-0.2815000000000001
 30
0.0
 11
2.5625
 21
-0.2814999999999999
 31
0.0
  0
ARC
  5
1D4
330
128
100
AcDbEntity
  8
AM_4
100
AcDbCircle
 10
2.4065
 20
0.0000000000000001
 30
0.0
 40
0.2815
100
AcDbArc
 50
90.0
 51
270.0
  0
LINE
  5
1D5
330
128
100
AcDbEntity
  8
AM_4
100
AcDbLine
 10
3.086
 20
-0.9375000000000002
 30
0.0
 11
1.656499595000001
 21
-0.9375000000000003
 31
0.0
  0
LINE
  5
1D6
330
128
100
AcDbEntity
  8
AM_4
100
AcDbLine
 10
3.214444899999999
 20
-0.8090551000000016
 30
0.0
 11
3.214444899999999
 21
0.8090551000000014
 31
0.0
  0
LINE
  5
1D7
330
128
100
AcDbEntity
  8
AM_4
100
AcDbLine
 10
3.086
 20
0.9374999999999997
 30
0.0
 11
1.656499595
 21
0.9374999999999999
 31
0.0
  0
LWPOLYLINE
  5
1D8
330
128
100
AcDbEntity
  8
AM_4
100
AcDbPolyline
 90
       32
 70
     0
 43
0.0
 10
-2.21398
 20
-0.7248696776662689
 10
-2.151536041571118
 20
-0.7053321061048304
 10
-2.091032512817327
 20
-0.6804265313247644
 10
-2.032929882125473
 20
-0.6503424997885441
 10
-1.977670345598449
 20
-0.6153089691413953
 10
-1.925674461675845
 20
-0.5755925657053669
 10
-1.877337950430286
 20
-0.5314955552920269
 10
-1.833028681898734
 20
-0.483353542777124
 10
-1.793083876369381
 20
-0.4315329179448383
 10
-1.75780753793164
 20
-0.3764280670402925
 10
-1.727468140821458
 20
-0.3184583712520887
 10
-1.70229658617027
 20
-0.2580650149682345
 10
-1.682484444707974
 20
-0.1957076280965556
 10
-1.668182498793995
 20
-0.1318607880035653
 10
-1.659499594872489
 20
-0.0670104076941471
 10
-1.656501815085181
 20
-0.001650037720186
 10
-1.65921197434636
 20
0.0637228900371457
 10
-1.667609446707611
 20
0.1286108481243617
 10
-1.681630322333731
 20
0.192519999999998
 10
-1.701167893895169
 20
0.25496395842888
 10
-1.726073468675235
 20
0.3154674871826709
 10
-1.756157500211455
 20
0.373570117874525
 10
-1.791191030858603
 20
0.4288296544015495
 10
-1.830907434294632
 20
0.4808255383241533
 10
-1.875004444707972
 20
0.5291620495697125
 10
-1.923146457222875
 20
0.5734713181012648
 10
-1.974967082055161
 20
0.6134161236306171
 10
-2.030071932959706
 20
0.6486924620683581
 10
-2.08804162874791
 20
0.679031859178541
 10
-2.148434985031764
 20
0.7042034138297287
 10
-2.210792371903443
 20
0.7240155552920251
 10
-2.21398
 20
0.7248696776662681
  0
LINE
  5
1D9
330
128
100
AcDbEntity
  8
AM_4
100
AcDbLine
 10
-2.213980000000001
 20
-0.9375000000000002
 30
0.0
 11
-2.213980000000001
 21
-0.724869677666269
 31
0.0
  0
LINE
  5
1DA
330
128
100
AcDbEntity
  8
AM_4
100
AcDbLine
 10
-2.213980000000001
 20
0.7248696776662684
 30
0.0
 11
-2.213980000000002
 21
0.9375
 31
0.0
  0
LWPOLYLINE
  5
1DB
330
128
100
AcDbEntity
  8
AM_4
100
AcDbPolyline
 90
       13
 70
     0
 43
0.0
 10
1.685710364755646
 20
-0.2072734949874469
 10
1.706518262337625
 20
-0.2693057127859758
 10
1.732653443603744
 20
-0.3292883514989682
 10
1.763917004043714
 20
-0.3867649070273104
 10
1.800071009085133
 20
-0.4412979480781389
 10
1.840840304919249
 20
-0.4924724452811066
 10
1.885914612587593
 20
-0.5398989298124922
 10
1.934950889392197
 20
-0.583216457488118
 10
1.987575939657663
 20
-0.6220953557665337
 10
2.043389254975598
 20
-0.6562397327561201
 10
2.101966062315432
 20
-0.6853897291310481
 10
2.162860556803664
 20
-0.7093234958176552
 10
2.21398
 20
-0.7248696776662683
  0
LWPOLYLINE
  5
1DC
330
128
100
AcDbEntity
  8
AM_4
100
AcDbPolyline
 90
       18
 70
     0
 43
0.0
 10
2.21398
 20
0.7248696776662685
 10
2.151536041571118
 20
0.7053321061048303
 10
2.091032512817327
 20
0.6804265313247643
 10
2.032929882125473
 20
0.650342499788544
 10
1.977670345598449
 20
0.6153089691413952
 10
1.925674461675845
 20
0.5755925657053665
 10
1.877337950430286
 20
0.5314955552920266
 10
1.833028681898734
 20
0.4833535427771236
 10
1.793083876369381
 20
0.431532917944838
 10
1.757807537931641
 20
0.3764280670402922
 10
1.727468140821458
 20
0.3184583712520884
 10
1.70229658617027
 20
0.2580650149682342
 10
1.682484444707974
 20
0.1957076280965555
 10
1.668182498793995
 20
0.1318607880035651
 10
1.65949959487249
 20
0.0670104076941469
 10
1.656501815085182
 20
0.0016500377201858
 10
1.659211974346361
 20
-0.0637228900371459
 10
1.661197760393508
 20
-0.0838127176360901
  0
LINE
  5
1DD
330
128
100
AcDbEntity
  8
AM_4
100
AcDbLine
 10
2.21398
 20
0.7248696776662685
 30
0.0
 11
2.213980000000001
 21
0.9374999999999999
 31
0.0
  0
LINE
  5
1DE
330
128
100
AcDbEntity
  8
AM_4
100
AcDbLine
 10
2.213980000000001
 20
-0.9375000000000002
 30
0.0
 11
2.21398
 21
-0.7248696776662685
 31
0.0
  0
LINE
  5
1DF
330
128
100
AcDbEntity
  8
AM_4
100
AcDbLine
 10
-1.1484375
 20
-0.83333325
 30
0.0
 11
-1.48286441690669
 21
-0.83333325
 31
0.0
  0
LINE
  5
1E0
330
128
100
AcDbEntity
  8
AM_4
100
AcDbLine
 10
1.482864416906689
 20
-0.8333332500000001
 30
0.0
 11
1.143987627295965
 21
-0.8333332500000001
 31
0.0
  0
LWPOLYLINE
  5
1E1
330
128
100
AcDbEntity
  8
AM_4
100
AcDbPolyline
 90
       37
 70
     0
 43
0.0
 10
-1.4175
 20
0.7910734851828503
 10
-1.412105984545049
 20
0.7754246878008692
 10
-1.395964989894805
 20
0.759894987215967
 10
-1.369199858764754
 20
0.7446025738266848
 10
-1.332014289964025
 20
0.7296638321327263
 10
-1.284691288124451
 20
0.7151924549786416
 10
-1.227591009864442
 20
0.7012985782826298
 10
-1.161148022779646
 20
0.6880879428356995
 10
-1.085867998121152
 20
0.6756610895504016
 10
-1.002323862331932
 20
0.6641125942837764
 10
-0.9111514367306706
 20
0.6535303480579753
 10
-0.8130445985276091
 20
0.6439948881565111
 10
-0.7087500000000015
 20
0.6355787851869025
 10
-0.5990613860174432
 20
0.6283460907745299
 10
-0.4848135531641374
 20
0.622351850091092
 10
-0.3668759964328253
 20
0.6176416829276107
 10
-0.2461462918428761
 20
0.6142514365002774
 10
-0.123543265344808
 20
0.6122069126314906
 10
-0.0000000000000027
 20
0.611523671382409
 10
0.1235432653448026
 20
0.6122069126314905
 10
0.2461462918428708
 20
0.6142514365002772
 10
0.3668759964328201
 20
0.6176416829276106
 10
0.4848135531641323
 20
0.6223518500910916
 10
0.5990613860174383
 20
0.6283460907745296
 10
0.7087499999999969
 20
0.6355787851869021
 10
0.8130445985276046
 20
0.6439948881565106
 10
0.9111514367306665
 20
0.6535303480579747
 10
1.002323862331928
 20
0.664112594283776
 10
1.085867998121149
 20
0.675661089550401
 10
1.161148022779643
 20
0.688087942835699
 10
1.227591009864439
 20
0.7012985782826292
 10
1.284691288124449
 20
0.715192454978641
 10
1.332014289964023
 20
0.7296638321327257
 10
1.369199858764753
 20
0.7446025738266842
 10
1.395964989894804
 20
0.7598949872159665
 10
1.412105984545049
 20
0.7754246878008685
 10
1.4175
 20
0.7910734851828496
  0
LWPOLYLINE
  5
1E2
330
128
100
AcDbEntity
  8
AM_4
100
AcDbPolyline
 90
        4
 70
     0
 43
0.0
 10
1.4175
 20
0.7910734851828503
 10
1.412105984545049
 20
0.8067222825648315
 10
1.395964989894805
 20
0.8222519831497335
 10
1.377678201749281
 20
0.8333332499999998
  0
LWPOLYLINE
  5
1E3
330
128
100
AcDbEntity
  8
AM_4
100
AcDbPolyline
 90
       37
 70
     0
 43
0.0
 10
1.4175
 20
-0.79107348518285
 10
1.412105984545049
 20
-0.7754246878008688
 10
1.395964989894805
 20
-0.7598949872159667
 10
1.369199858764754
 20
-0.7446025738266844
 10
1.332014289964025
 20
-0.729663832132726
 10
1.284691288124452
 20
-0.7151924549786414
 10
1.227591009864442
 20
-0.7012985782826294
 10
1.161148022779646
 20
-0.6880879428356991
 10
1.085867998121152
 20
-0.6756610895504012
 10
1.002323862331932
 20
-0.664112594283776
 10
0.9111514367306707
 20
-0.6535303480579748
 10
0.8130445985276092
 20
-0.6439948881565107
 10
0.7087500000000017
 20
-0.6355787851869021
 10
0.5990613860174434
 20
-0.6283460907745295
 10
0.4848135531641375
 20
-0.6223518500910914
 10
0.3668759964328255
 20
-0.6176416829276103
 10
0.2461462918428763
 20
-0.614251436500277
 10
0.1235432653448082
 20
-0.6122069126314902
 10
0.0000000000000029
 20
-0.6115236713824086
 10
-0.1235432653448024
 20
-0.6122069126314901
 10
-0.2461462918428706
 20
-0.6142514365002768
 10
-0.3668759964328199
 20
-0.6176416829276101
 10
-0.4848135531641321
 20
-0.6223518500910912
 10
-0.5990613860174382
 20
-0.6283460907745292
 10
-0.7087499999999967
 20
-0.6355787851869017
 10
-0.8130445985276045
 20
-0.6439948881565102
 10
-0.9111514367306662
 20
-0.6535303480579743
 10
-1.002323862331928
 20
-0.6641125942837754
 10
-1.085867998121149
 20
-0.6756610895504006
 10
-1.161148022779643
 20
-0.6880879428356985
 10
-1.227591009864439
 20
-0.7012985782826288
 10
-1.284691288124449
 20
-0.7151924549786407
 10
-1.332014289964023
 20
-0.7296638321327253
 10
-1.369199858764753
 20
-0.7446025738266837
 10
-1.395964989894804
 20
-0.759894987215966
 10
-1.412105984545049
 20
-0.7754246878008682
 10
-1.4175
 20
-0.7910734851828494
  0
LWPOLYLINE
  5
1E4
330
128
100
AcDbEntity
  8
AM_4
100
AcDbPolyline
 90
        4
 70
     0
 43
0.0
 10
-1.4175
 20
-0.79107348518285
 10
-1.412105984545049
 20
-0.8067222825648313
 10
-1.395964989894805
 20
-0.8222519831497334
 10
-1.37767820174928
 20
-0.83333325
  0
LINE
  5
1E5
330
128
100
AcDbEntity
  8
AM_4
100
AcDbLine
 10
0.1423310000000002
 20
-0.6065367972206416
 30
0.0
 11
0.1423310000000002
 21
-0.6043225775168665
 31
0.0
  0
LINE
  5
1E6
330
128
100
AcDbEntity
  8
AM_4
100
AcDbLine
 10
-0.1270260000000004
 20
-0.6065367972206416
 30
0.0
 11
-0.1270260000000004
 21
-0.6043225775168662
 31
0.0
  0
LINE
  5
1E7
330
128
100
AcDbEntity
  8
AM_4
100
AcDbLine
 10
-0.2739480000000006
 20
-0.6065367972206417
 30
0.0
 11
-0.2739480000000006
 21
-0.6043225775168662
 31
0.0
  0
LINE
  5
1E8
330
128
100
AcDbEntity
  8
AM_4
100
AcDbLine
 10
-0.151513
 20
-0.6065367972206416
 30
0.0
 11
-0.151513
 21
-0.6043225775168662
 31
0.0
  0
LINE
  5
1E9
330
128
100
AcDbEntity
  8
AM_4
100
AcDbLine
 10
0.0198957000000009
 20
-0.6065367972206415
 30
0.0
 11
0.0198957000000009
 21
-0.6043225775168664
 31
0.0
  0
LINE
  5
1EA
330
128
100
AcDbEntity
  8
AM_4
100
AcDbLine
 10
0.1698789999999999
 20
-0.6065367972206416
 30
0.0
 11
0.1698789999999999
 21
-0.6043225775168662
 31
0.0
  0
LINE
  5
1EB
330
128
100
AcDbEntity
  8
AM_4
100
AcDbLine
 10
0.0352000999999995
 20
-0.606167779603326
 30
0.0
 11
0.0352000999999995
 21
-0.6037075090181974
 31
0.0
  0
LINE
  5
1EC
330
128
100
AcDbEntity
  8
AM_4
100
AcDbLine
 10
0.127026000000001
 20
-0.6061677796033259
 30
0.0
 11
0.127026000000001
 21
-0.603707487581804
 31
0.0
  0
LINE
  5
1ED
330
128
100
AcDbEntity
  8
AM_4
100
AcDbLine
 10
-0.1117220000000006
 20
-0.606167779603326
 30
0.0
 11
-0.1117220000000006
 21
-0.6037075143769309
 31
0.0
  0
LINE
  5
1EE
330
128
100
AcDbEntity
  8
AM_4
100
AcDbLine
 10
-0.2586439999999994
 20
-0.6061677796033258
 30
0.0
 11
-0.2586439999999995
 21
-0.6037075143769309
 31
0.0
  0
LINE
  5
1EF
330
128
100
AcDbEntity
  8
AM_4
100
AcDbLine
 10
-0.1668179999999999
 20
-0.6061677796033259
 30
0.0
 11
-0.1668179999999999
 21
-0.6037074875818039
 31
0.0
  0
LINE
  5
1F0
330
128
100
AcDbEntity
  8
AM_4
100
AcDbLine
 10
0.1851830000000008
 20
-0.6061677796033259
 30
0.0
 11
0.1851830000000008
 21
-0.6037075143769308
 31
0.0
  0
LINE
  5
1F1
330
128
100
AcDbEntity
  8
AM_4
100
AcDbLine
 10
0.0474436999999995
 20
-0.6054296683687737
 30
0.0
 11
0.0474436999999995
 21
-0.602108357813091
 31
0.0
  0
LINE
  5
1F2
330
128
100
AcDbEntity
  8
AM_4
100
AcDbLine
 10
-0.0994783999999996
 20
-0.6054296683687737
 30
0.0
 11
-0.0994783999999996
 21
-0.602108357813091
 31
0.0
  0
LINE
  5
1F3
330
128
100
AcDbEntity
  8
AM_4
100
AcDbLine
 10
0.1147830000000003
 20
-0.6054296683687737
 30
0.0
 11
0.1147830000000003
 21
-0.602108357813091
 31
0.0
  0
LINE
  5
1F4
330
128
100
AcDbEntity
  8
AM_4
100
AcDbLine
 10
-0.246401
 20
-0.6054296683687737
 30
0.0
 11
-0.246401
 21
-0.6021083578130911
 31
0.0
  0
LINE
  5
1F5
330
128
100
AcDbEntity
  8
AM_4
100
AcDbLine
 10
-0.1790610000000001
 20
-0.6054296683687737
 30
0.0
 11
-0.1790610000000001
 21
-0.6021083578130911
 31
0.0
  0
LINE
  5
1F6
330
128
100
AcDbEntity
  8
AM_4
100
AcDbLine
 10
0.1974270000000001
 20
-0.6054296683687737
 30
0.0
 11
0.1974270000000001
 21
-0.5969418426376182
 31
0.0
  0
LINE
  5
1F7
330
128
100
AcDbEntity
  8
AM_4
100
AcDbLine
 10
0.1025389999999997
 20
-0.6039535472328971
 30
0.0
 11
0.1025389999999998
 21
-0.5917753198621533
 31
0.0
  0
LINE
  5
1F8
330
128
100
AcDbEntity
  8
AM_4
100
AcDbLine
 10
-0.0872350000000002
 20
-0.6039535472328971
 30
0.0
 11
-0.0872350000000002
 21
-0.5917753198621531
 31
0.0
  0
LINE
  5
1F9
330
128
100
AcDbEntity
  8
AM_4
100
AcDbLine
 10
-0.1913049999999996
 20
-0.6039535472328973
 30
0.0
 11
-0.1913049999999996
 21
-0.5917753198621531
 31
0.0
  0
LINE
  5
1FA
330
128
100
AcDbEntity
  8
AM_4
100
AcDbLine
 10
0.0596869999999999
 20
-0.6039535472328972
 30
0.0
 11
0.0596869999999999
 21
-0.591775319862153
 31
0.0
  0
LINE
  5
1FB
330
128
100
AcDbEntity
  8
AM_4
100
AcDbLine
 10
0.2096699999999998
 20
-0.6039535472328971
 30
0.0
 11
0.2096699999999998
 21
-0.5969418426376182
 31
0.0
  0
LINE
  5
1FC
330
128
100
AcDbEntity
  8
AM_4
100
AcDbLine
 10
-0.2341570000000001
 20
-0.6039535472328972
 30
0.0
 11
-0.2341570000000001
 21
-0.5917753198621533
 31
0.0
  0
LINE
  5
1FD
330
128
100
AcDbEntity
  8
AM_4
100
AcDbLine
 10
0.0658090999999997
 20
-0.6024773880970602
 30
0.0
 11
0.0658090999999997
 21
-0.5932514789979901
 31
0.0
  0
LINE
  5
1FE
330
128
100
AcDbEntity
  8
AM_4
100
AcDbLine
 10
-0.1974270000000002
 20
-0.6024773880970601
 30
0.0
 11
-0.1974270000000002
 21
-0.5932514789979901
 31
0.0
  0
LINE
  5
1FF
330
128
100
AcDbEntity
  8
AM_4
100
AcDbLine
 10
0.0964177000000008
 20
-0.6024773880970603
 30
0.0
 11
0.0964177000000007
 21
-0.5932514789979901
 31
0.0
  0
LINE
  5
200
330
128
100
AcDbEntity
  8
AM_4
100
AcDbLine
 10
-0.0811133999999994
 20
-0.6024773880970602
 30
0.0
 11
-0.0811133999999995
 21
-0.5932514789979902
 31
0.0
  0
LINE
  5
201
330
128
100
AcDbEntity
  8
AM_4
100
AcDbLine
 10
-0.2280349999999997
 20
-0.6024773880970602
 30
0.0
 11
-0.2280349999999998
 21
-0.5932514789979901
 31
0.0
  0
LINE
  5
202
330
128
100
AcDbEntity
  8
AM_4
100
AcDbLine
 10
0.1943659999999999
 20
-0.602108357813091
 30
0.0
 11
0.1943660000000001
 21
-0.5969418426376182
 31
0.0
  0
LINE
  5
203
330
128
100
AcDbEntity
  8
AM_4
100
AcDbLine
 10
-0.2433400000000005
 20
-0.6006322113439075
 30
0.0
 11
-0.24334
 21
-0.5906682290102457
 31
0.0
  0
LINE
  5
204
330
128
100
AcDbEntity
  8
AM_4
100
AcDbLine
 10
-0.0964177000000003
 20
-0.6006322113439077
 30
0.0
 11
-0.0964176999999999
 21
-0.5906682109255496
 31
0.0
  0
LINE
  5
205
330
128
100
AcDbEntity
  8
AM_4
100
AcDbLine
 10
0.1117220000000004
 20
-0.6006322113439075
 30
0.0
 11
0.1117220000000002
 21
-0.5906682290102458
 31
0.0
  0
LINE
  5
206
330
128
100
AcDbEntity
  8
AM_4
100
AcDbLine
 10
0.0505042999999996
 20
-0.6006322113439075
 30
0.0
 11
0.0505042999999996
 21
-0.5906682018829799
 31
0.0
  0
LINE
  5
207
330
128
100
AcDbEntity
  8
AM_4
100
AcDbLine
 10
-0.182122
 20
-0.6006322113439075
 30
0.0
 11
-0.182122
 21
-0.5906682290102457
 31
0.0
  0
LINE
  5
208
330
128
100
AcDbEntity
  8
AM_4
100
AcDbLine
 10
-0.2464010000000001
 20
-0.5936205092819592
 30
0.0
 11
-0.2464010000000001
 21
-0.5902991987262766
 31
0.0
  0
LINE
  5
209
330
128
100
AcDbEntity
  8
AM_4
100
AcDbLine
 10
-0.0994783999999994
 20
-0.5936205092819593
 30
0.0
 11
-0.0994783999999994
 21
-0.5902991987262768
 31
0.0
  0
LINE
  5
20A
330
128
100
AcDbEntity
  8
AM_4
100
AcDbLine
 10
-0.1790609999999997
 20
-0.5936205092819593
 30
0.0
 11
-0.1790609999999997
 21
-0.5902991987262767
 31
0.0
  0
LINE
  5
20B
330
128
100
AcDbEntity
  8
AM_4
100
AcDbLine
 10
0.0474436999999993
 20
-0.5936205092819593
 30
0.0
 11
0.0474436999999994
 21
-0.5902991987262766
 31
0.0
  0
LINE
  5
20C
330
128
100
AcDbEntity
  8
AM_4
100
AcDbLine
 10
0.1943660000000002
 20
-0.5936205092819593
 30
0.0
 11
0.1943660000000002
 21
-0.5901146709176386
 31
0.0
  0
LINE
  5
20D
330
128
100
AcDbEntity
  8
AM_4
100
AcDbLine
 10
0.1147830000000005
 20
-0.5936205092819593
 30
0.0
 11
0.1147830000000005
 21
-0.5902991987262768
 31
0.0
  0
LINE
  5
20E
330
128
100
AcDbEntity
  8
AM_4
100
AcDbLine
 10
0.0413216999999996
 20
-0.5925134184300521
 30
0.0
 11
0.0413216999999996
 21
-0.5899301310519056
 31
0.0
  0
LINE
  5
20F
330
128
100
AcDbEntity
  8
AM_4
100
AcDbLine
 10
-0.1056
 20
-0.5925134184300519
 30
0.0
 11
-0.1056
 21
-0.5899301551660955
 31
0.0
  0
LINE
  5
210
330
128
100
AcDbEntity
  8
AM_4
100
AcDbLine
 10
-0.1729390000000001
 20
-0.592513418430052
 30
0.0
 11
-0.1729390000000001
 21
-0.589930112964786
 31
0.0
  0
LINE
  5
211
330
128
100
AcDbEntity
  8
AM_4
100
AcDbLine
 10
0.1209050000000003
 20
-0.5925134184300521
 30
0.0
 11
0.1209050000000003
 21
-0.589930112964786
 31
0.0
  0
LINE
  5
212
330
128
100
AcDbEntity
  8
AM_4
100
AcDbLine
 10
-0.2525220000000002
 20
-0.5925134184300517
 30
0.0
 11
-0.2525220000000002
 21
-0.5899301732532148
 31
0.0
  0
LINE
  5
213
330
128
100
AcDbEntity
  8
AM_4
100
AcDbLine
 10
0.1913050000000008
 20
-0.5925134184300519
 30
0.0
 11
0.1913050000000008
 21
-0.5899301431090006
 31
0.0
  0
LINE
  5
214
330
128
100
AcDbEntity
  8
AM_4
100
AcDbLine
 10
-0.0352001000000003
 20
-0.6043225775168664
 30
0.0
 11
-0.0352001000000003
 21
-0.5891920698744089
 31
0.0
  0
LINE
  5
215
330
128
100
AcDbEntity
  8
AM_4
100
AcDbLine
 10
-0.1637569999999984
 20
-0.591775319862153
 30
0.0
 11
-0.1637569999999985
 21
-0.5894872839682612
 31
0.0
  0
LINE
  5
216
330
128
100
AcDbEntity
  8
AM_4
100
AcDbLine
 10
0.1423310000000002
 20
-0.5914062895781841
 30
0.0
 11
0.1423310000000002
 21
-0.5891920698744089
 31
0.0
  0
LINE
  5
217
330
128
100
AcDbEntity
  8
AM_4
100
AcDbLine
 10
0.1300870000000015
 20
-0.5917753198621531
 30
0.0
 11
0.1300870000000014
 21
-0.5894872839682612
 31
0.0
  0
LINE
  5
218
330
128
100
AcDbEntity
  8
AM_4
100
AcDbLine
 10
0.2555830000000001
 20
-0.6043225775168662
 30
0.0
 11
0.2555829999999999
 21
-0.5891920698744089
 31
0.0
  0
LINE
  5
219
330
128
100
AcDbEntity
  8
AM_4
100
AcDbLine
 10
0.182121999999999
 20
-0.591775319862153
 30
0.0
 11
0.182121999999999
 21
-0.5894872791457623
 31
0.0
  0
LINE
  5
21A
330
128
100
AcDbEntity
  8
AM_4
100
AcDbLine
 10
0.1698789999999999
 20
-0.591406289578184
 30
0.0
 11
0.1698789999999999
 21
-0.5891920698744089
 31
0.0
  0
LINE
  5
21B
330
128
100
AcDbEntity
  8
AM_4
100
AcDbLine
 10
-0.151513
 20
-0.5914062895781841
 30
0.0
 11
-0.1515129999999999
 21
-0.5891920698744086
 31
0.0
  0
LINE
  5
21C
330
128
100
AcDbEntity
  8
AM_4
100
AcDbLine
 10
0.0321392000000005
 20
-0.591775319862153
 30
0.0
 11
0.0321392000000004
 21
-0.5894872834860241
 31
0.0
  0
LINE
  5
21D
330
128
100
AcDbEntity
  8
AM_4
100
AcDbLine
 10
0.0198956999999993
 20
-0.591406289578184
 30
0.0
 11
0.0198956999999993
 21
-0.5891920698744089
 31
0.0
  0
LINE
  5
21E
330
128
100
AcDbEntity
  8
AM_4
100
AcDbLine
 10
-0.1147830000000013
 20
-0.5917753198621529
 30
0.0
 11
-0.1147830000000012
 21
-0.5894872791457623
 31
0.0
  0
LINE
  5
21F
330
128
100
AcDbEntity
  8
AM_4
100
AcDbLine
 10
-0.1270260000000004
 20
-0.591406289578184
 30
0.0
 11
-0.1270260000000004
 21
-0.5891920698744089
 31
0.0
  0
LINE
  5
220
330
128
100
AcDbEntity
  8
AM_4
100
AcDbLine
 10
0.0198956999999999
 20
-0.6043225775168664
 30
0.0
 11
-0.0352001000000003
 21
-0.6043225775168664
 31
0.0
  0
LINE
  5
221
330
128
100
AcDbEntity
  8
AM_4
100
AcDbLine
 10
0.0321391999999994
 20
-0.6039535472328972
 30
0.0
 11
0.0198956999999999
 21
-0.6043225775168664
 31
0.0
  0
LINE
  5
222
330
128
100
AcDbEntity
  8
AM_4
100
AcDbLine
 10
0.0413217000000001
 20
-0.6032154486649984
 30
0.0
 11
0.0321391999999994
 21
-0.6039535472328972
 31
0.0
  0
LINE
  5
223
330
128
100
AcDbEntity
  8
AM_4
100
AcDbLine
 10
0.0474436999999993
 20
-0.602108357813091
 30
0.0
 11
0.0413217000000001
 21
-0.6032154486649984
 31
0.0
  0
LINE
  5
224
330
128
100
AcDbEntity
  8
AM_4
100
AcDbLine
 10
0.0505042999999996
 20
-0.6006322113439075
 30
0.0
 11
0.0474436999999993
 21
-0.602108357813091
 31
0.0
  0
LINE
  5
225
330
128
100
AcDbEntity
  8
AM_4
100
AcDbLine
 10
0.0474436999999993
 20
-0.5936205092819593
 30
0.0
 11
0.0505042999999996
 21
-0.5950966557511427
 31
0.0
  0
LINE
  5
226
330
128
100
AcDbEntity
  8
AM_4
100
AcDbLine
 10
0.0413216999999996
 20
-0.5925134184300521
 30
0.0
 11
0.0474436999999993
 21
-0.5936205092819593
 31
0.0
  0
LINE
  5
227
330
128
100
AcDbEntity
  8
AM_4
100
AcDbLine
 10
0.0321392000000005
 20
-0.591775319862153
 30
0.0
 11
0.0413216999999996
 21
-0.5925134184300521
 31
0.0
  0
LINE
  5
228
330
128
100
AcDbEntity
  8
AM_4
100
AcDbLine
 10
0.0198956999999993
 20
-0.591406289578184
 30
0.0
 11
0.0321392000000005
 21
-0.591775319862153
 31
0.0
  0
LINE
  5
229
330
128
100
AcDbEntity
  8
AM_4
100
AcDbLine
 10
-0.0352001000000003
 20
-0.5914062895781841
 30
0.0
 11
0.0198956999999993
 21
-0.591406289578184
 31
0.0
  0
LINE
  5
22A
330
128
100
AcDbEntity
  8
AM_4
100
AcDbLine
 10
-0.182122
 20
-0.5950966557511427
 30
0.0
 11
-0.1790609999999997
 21
-0.5936205092819593
 31
0.0
  0
LINE
  5
22B
330
128
100
AcDbEntity
  8
AM_4
100
AcDbLine
 10
-0.1790609999999995
 20
-0.6021083578130911
 30
0.0
 11
-0.182122
 21
-0.6006322113439075
 31
0.0
  0
LINE
  5
22C
330
128
100
AcDbEntity
  8
AM_4
100
AcDbLine
 10
-0.1729390000000004
 20
-0.6032154486649984
 30
0.0
 11
-0.1790609999999995
 21
-0.6021083578130911
 31
0.0
  0
LINE
  5
22D
330
128
100
AcDbEntity
  8
AM_4
100
AcDbLine
 10
-0.1637570000000001
 20
-0.6039535472328972
 30
0.0
 11
-0.1729390000000004
 21
-0.6032154486649984
 31
0.0
  0
LINE
  5
22E
330
128
100
AcDbEntity
  8
AM_4
100
AcDbLine
 10
-0.1515129999999984
 20
-0.6043225775168664
 30
0.0
 11
-0.1637570000000001
 21
-0.6039535472328972
 31
0.0
  0
LINE
  5
22F
330
128
100
AcDbEntity
  8
AM_4
100
AcDbLine
 10
-0.1270259999999999
 20
-0.6043225775168664
 30
0.0
 11
-0.1515129999999984
 21
-0.6043225775168664
 31
0.0
  0
LINE
  5
230
330
128
100
AcDbEntity
  8
AM_4
100
AcDbLine
 10
-0.1147830000000002
 20
-0.6039535472328972
 30
0.0
 11
-0.1270259999999999
 21
-0.6043225775168664
 31
0.0
  0
LINE
  5
231
330
128
100
AcDbEntity
  8
AM_4
100
AcDbLine
 10
-0.1056000000000006
 20
-0.6032154486649984
 30
0.0
 11
-0.1147830000000002
 21
-0.6039535472328972
 31
0.0
  0
LINE
  5
232
330
128
100
AcDbEntity
  8
AM_4
100
AcDbLine
 10
-0.0994784
 20
-0.602108357813091
 30
0.0
 11
-0.1056000000000006
 21
-0.6032154486649984
 31
0.0
  0
LINE
  5
233
330
128
100
AcDbEntity
  8
AM_4
100
AcDbLine
 10
-0.0964177000000003
 20
-0.6006322113439077
 30
0.0
 11
-0.0994784
 21
-0.602108357813091
 31
0.0
  0
LINE
  5
234
330
128
100
AcDbEntity
  8
AM_4
100
AcDbLine
 10
-0.0994783999999994
 20
-0.5936205092819593
 30
0.0
 11
-0.0964176999999999
 21
-0.5950966557511427
 31
0.0
  0
LINE
  5
235
330
128
100
AcDbEntity
  8
AM_4
100
AcDbLine
 10
-0.1056
 20
-0.5925134184300519
 30
0.0
 11
-0.0994783999999994
 21
-0.5936205092819593
 31
0.0
  0
LINE
  5
236
330
128
100
AcDbEntity
  8
AM_4
100
AcDbLine
 10
-0.1147830000000013
 20
-0.5917753198621529
 30
0.0
 11
-0.1056
 21
-0.5925134184300519
 31
0.0
  0
LINE
  5
237
330
128
100
AcDbEntity
  8
AM_4
100
AcDbLine
 10
-0.1270260000000004
 20
-0.591406289578184
 30
0.0
 11
-0.1147830000000013
 21
-0.5917753198621529
 31
0.0
  0
LINE
  5
238
330
128
100
AcDbEntity
  8
AM_4
100
AcDbLine
 10
-0.151513
 20
-0.5914062895781841
 30
0.0
 11
-0.1270260000000004
 21
-0.591406289578184
 31
0.0
  0
LINE
  5
239
330
128
100
AcDbEntity
  8
AM_4
100
AcDbLine
 10
-0.1637569999999984
 20
-0.591775319862153
 30
0.0
 11
-0.151513
 21
-0.5914062895781841
 31
0.0
  0
LINE
  5
23A
330
128
100
AcDbEntity
  8
AM_4
100
AcDbLine
 10
-0.1729390000000001
 20
-0.592513418430052
 30
0.0
 11
-0.1637569999999984
 21
-0.591775319862153
 31
0.0
  0
LINE
  5
23B
330
128
100
AcDbEntity
  8
AM_4
100
AcDbLine
 10
-0.1790609999999997
 20
-0.5936205092819593
 30
0.0
 11
-0.1729390000000001
 21
-0.592513418430052
 31
0.0
  0
LINE
  5
23C
330
128
100
AcDbEntity
  8
AM_4
100
AcDbLine
 10
-0.2617050000000004
 20
-0.591775319862153
 30
0.0
 11
-0.2617050000000004
 21
-0.5894872791457623
 31
0.0
  0
LINE
  5
23D
330
128
100
AcDbEntity
  8
AM_4
100
AcDbLine
 10
-0.3290440000000001
 20
-0.6043225775168664
 30
0.0
 11
-0.3290440000000001
 21
-0.5891920698744089
 31
0.0
  0
LINE
  5
23E
330
128
100
AcDbEntity
  8
AM_4
100
AcDbLine
 10
-0.273948
 20
-0.6043225775168664
 30
0.0
 11
-0.3290440000000001
 21
-0.6043225775168664
 31
0.0
  0
LINE
  5
23F
330
128
100
AcDbEntity
  8
AM_4
100
AcDbLine
 10
-0.2617049999999999
 20
-0.6039535472328971
 30
0.0
 11
-0.273948
 21
-0.6043225775168664
 31
0.0
  0
LINE
  5
240
330
128
100
AcDbEntity
  8
AM_4
100
AcDbLine
 10
-0.2525220000000002
 20
-0.6032154486649987
 30
0.0
 11
-0.2617049999999999
 21
-0.6039535472328971
 31
0.0
  0
LINE
  5
241
330
128
100
AcDbEntity
  8
AM_4
100
AcDbLine
 10
-0.2464010000000006
 20
-0.6021083578130911
 30
0.0
 11
-0.2525220000000002
 21
-0.6032154486649987
 31
0.0
  0
LINE
  5
242
330
128
100
AcDbEntity
  8
AM_4
100
AcDbLine
 10
-0.2433400000000005
 20
-0.6006322113439075
 30
0.0
 11
-0.2464010000000006
 21
-0.6021083578130911
 31
0.0
  0
LINE
  5
243
330
128
100
AcDbEntity
  8
AM_4
100
AcDbLine
 10
-0.2464010000000001
 20
-0.5936205092819592
 30
0.0
 11
-0.2433399999999999
 21
-0.5950966557511427
 31
0.0
  0
LINE
  5
244
330
128
100
AcDbEntity
  8
AM_4
100
AcDbLine
 10
-0.2525220000000002
 20
-0.5925134184300517
 30
0.0
 11
-0.2464010000000001
 21
-0.5936205092819592
 31
0.0
  0
LINE
  5
245
330
128
100
AcDbEntity
  8
AM_4
100
AcDbLine
 10
-0.2617050000000004
 20
-0.591775319862153
 30
0.0
 11
-0.2525220000000002
 21
-0.5925134184300517
 31
0.0
  0
LINE
  5
246
330
128
100
AcDbEntity
  8
AM_4
100
AcDbLine
 10
-0.2739480000000006
 20
-0.591406289578184
 30
0.0
 11
-0.2617050000000004
 21
-0.591775319862153
 31
0.0
  0
LINE
  5
247
330
128
100
AcDbEntity
  8
AM_4
100
AcDbLine
 10
-0.3290440000000001
 20
-0.5914062895781841
 30
0.0
 11
-0.2739480000000006
 21
-0.591406289578184
 31
0.0
  0
LINE
  5
248
330
128
100
AcDbEntity
  8
AM_4
100
AcDbLine
 10
-0.2739480000000006
 20
-0.591406289578184
 30
0.0
 11
-0.2739480000000006
 21
-0.5891920698744089
 31
0.0
  0
LINE
  5
249
330
128
100
AcDbEntity
  8
AM_4
100
AcDbLine
 10
1.513654375477182
 20
-0.0472439999999996
 30
0.0
 11
1.499734978489525
 21
-0.0472439999999996
 31
0.0
  0
LINE
  5
24A
330
128
100
AcDbEntity
  8
AM_4
100
AcDbLine
 10
1.499734978489525
 20
-0.2677160000000002
 30
0.0
 11
1.513654375477182
 21
-0.2677160000000002
 31
0.0
  0
ELLIPSE
  5
24B
330
128
100
AcDbEntity
  8
AM_4
100
AcDbEllipse
 10
1.499734978489525
 20
-0.1574799999999999
 30
0.0
 11
6.750008227540400E-18
 21
0.1102360000000003
 31
0.0
210
0.0
220
0.0
230
1.0
 40
0.7071067811865486
 41
0.0
 42
3.141592653589793
  0
ELLIPSE
  5
24C
330
128
100
AcDbEntity
  8
AM_4
100
AcDbEllipse
 10
1.513654375477182
 20
-0.15748
 30
0.0
 11
6.750008227540400E-18
 21
0.1102360000000003
 31
0.0
210
0.0
220
0.0
230
1.0
 40
0.7071067811865486
 41
0.0
 42
3.141592653589793
  0
LWPOLYLINE
  5
24D
330
128
100
AcDbEntity
  8
AM_4
100
AcDbPolyline
 90
        3
 70
     0
 43
0.0
 10
1.559410132135406
 20
-0.3149604999999999
 10
1.578621413225396
 20
-0.2761423278146274
 10
1.58514421963777
 20
-0.2619430982247052
  0
LWPOLYLINE
  5
24E
330
128
100
AcDbEntity
  8
AM_4
100
AcDbPolyline
 90
        3
 70
     0
 43
0.0
 10
1.585123905590571
 20
-0.0529716419275363
 10
1.579058867362537
 20
-0.0397503141156225
 10
1.559410132135406
 20
0.0000005000000001
  0
LINE
  5
24F
330
128
100
AcDbEntity
  8
AM_4
100
AcDbLine
 10
1.559410132135406
 20
0.0000005000000001
 30
0.0
 11
1.342623338823263
 21
0.0000005000000001
 31
0.0
  0
LINE
  5
250
330
128
100
AcDbEntity
  8
AM_4
100
AcDbLine
 10
1.342623338823263
 20
-0.3149604999999999
 30
0.0
 11
1.559410132135406
 21
-0.3149604999999999
 31
0.0
  0
ELLIPSE
  5
251
330
128
100
AcDbEntity
  8
AM_4
100
AcDbEllipse
 10
1.499734978489525
 20
-0.1574799999999998
 30
0.0
 11
9.642868896486282E-18
 21
0.1574800000000004
 31
0.0
210
0.0
220
0.0
230
1.0
 40
0.7071067811865482
 41
5.437082253614449
 42
10.27119861763529
  0
LWPOLYLINE
  5
252
330
128
100
AcDbEntity
  8
AM_4
100
AcDbPolyline
 90
        6
 70
     0
 43
0.0
 10
1.342623338823263
 20
0.0000005000000001
 10
1.323439142490802
 20
-0.0387600145796555
 10
1.306219199962206
 20
-0.0778659735404166
 10
1.305505764470461
 20
-0.0796135264595842
 10
1.290854954356697
 20
-0.118548998403334
 10
1.278332193916868
 20
-0.1574799999999999
  0
LWPOLYLINE
  5
253
330
128
100
AcDbEntity
  8
AM_4
100
AcDbPolyline
 90
        5
 70
     0
 43
0.0
 10
1.430827842322617
 20
0.0000005000000001
 10
1.418344218545387
 20
-0.0388176721853726
 10
1.4036068819955
 20
-0.0779824274874967
 10
1.386185432643353
 20
-0.1177291858843775
 10
1.366536697416223
 20
-0.1574799999999999
  0
LINE
  5
254
330
128
100
AcDbEntity
  8
AM_4
100
AcDbLine
 10
1.366536697416223
 20
-0.1574799999999999
 30
0.0
 11
1.278332193916868
 21
-0.1574799999999999
 31
0.0
  0
LWPOLYLINE
  5
255
330
128
100
AcDbEntity
  8
AM_4
100
AcDbPolyline
 90
        6
 70
     0
 43
0.0
 10
1.342623338823263
 20
-0.3149604999999999
 10
1.323439142490802
 20
-0.2761999854203444
 10
1.314545850343722
 20
-0.2566741854458703
 10
1.297887308872426
 20
-0.2158781219637231
 10
1.284352485665052
 20
-0.1769241339316991
 10
1.278332193916868
 20
-0.1574799999999999
  0
LWPOLYLINE
  5
256
330
128
100
AcDbEntity
  8
AM_4
100
AcDbPolyline
 90
        5
 70
     0
 43
0.0
 10
1.366536697416223
 20
-0.1574799999999999
 10
1.385747978506213
 20
-0.1962981721853724
 10
1.402988530753382
 20
-0.2354629274874962
 10
1.418020173735248
 20
-0.2752096858843773
 10
1.430827842322617
 20
-0.3149605
  0
ELLIPSE
  5
257
330
128
100
AcDbEntity
  8
AM_4
100
AcDbEllipse
 10
1.590736573082378
 20
-0.1574799999995982
 30
0.0
 11
6.258279876518460E-18
 21
0.1022054666027089
 31
0.0
210
0.0
220
0.0
230
1.0
 40
0.7071067811908445
 41
-4.036543778555966
 42
-3.996986556326155
  0
LINE
  5
258
330
128
100
AcDbEntity
  8
AM_4
100
AcDbLine
 10
1.534946939982892
 20
-0.0925096874360668
 30
0.0
 11
1.53376025562812
 21
-0.0945978865473553
 31
0.0
  0
LWPOLYLINE
  5
259
330
128
100
AcDbEntity
  8
AM_4
100
AcDbPolyline
 90
       14
 70
     0
 43
0.0
 10
1.640460056909376
 20
-0.0659161808737689
 10
1.633319079656204
 20
-0.0610269349736461
 10
1.624189742875233
 20
-0.0563789517438515
 10
1.614748465318419
 20
-0.0532166632873059
 10
1.605162633683335
 20
-0.0515526998190737
 10
1.595579880988808
 20
-0.0513672593316536
 10
1.586124846200812
 20
-0.0526239455830926
 10
1.576920759250666
 20
-0.0552759041166814
 10
1.568059400547291
 20
-0.059277485630125
 10
1.559626058180191
 20
-0.0645874760216155
 10
1.551712015377452
 20
-0.0711604203804468
 10
1.54441828633241
 20
-0.0789336102985257
 10
1.53785151680092
 20
-0.0878161057089278
 10
1.534946939982892
 20
-0.0925096874360668
  0
LWPOLYLINE
  5
25A
330
128
100
AcDbEntity
  8
AM_4
100
AcDbPolyline
 90
        3
 70
     0
 43
0.0
 10
1.644654718793027
 20
-0.0693841615030789
 10
1.641961891074742
 20
-0.0671032651582515
 10
1.640460056909376
 20
-0.0659161808737689
  0
LWPOLYLINE
  5
25B
330
128
100
AcDbEntity
  8
AM_4
100
AcDbPolyline
 90
       15
 70
     0
 43
0.0
 10
1.534279441553475
 20
-0.2212890667628474
 10
1.537022766803628
 20
-0.2258603452308998
 10
1.543676141455005
 20
-0.2351235003522
 10
1.551183731535324
 20
-0.2432971877455462
 10
1.559430998537341
 20
-0.25023034228226
 10
1.568270976690907
 20
-0.2557959462006092
 10
1.57753417306837
 20
-0.2599067596486365
 10
1.587046633953609
 20
-0.2625225715070117
 10
1.596647208815656
 20
-0.2636443595159324
 10
1.606196723273176
 20
-0.2632997448577495
 10
1.615573164041354
 20
-0.2615290732221768
 10
1.624662261837359
 20
-0.2583805688243361
 10
1.633377743311628
 20
-0.2538976529977169
 10
1.641633008280908
 20
-0.2481217493593041
 10
1.644653588591444
 20
-0.2455768385610138
  0
ELLIPSE
  5
25C
330
128
100
AcDbEntity
  8
AM_4
100
AcDbEllipse
 10
1.590736573081476
 20
-0.1574799999999999
 30
0.0
 11
6.258279876480449E-18
 21
0.1022054666020882
 31
0.0
210
0.0
220
0.0
230
1.0
 40
0.707106781186549
 41
0.9062277531187277
 42
2.246641528625398
  0
ELLIPSE
  5
25D
330
128
100
AcDbEntity
  8
AM_4
100
AcDbEllipse
 10
1.590736573081351
 20
-0.15748000000005
 30
0.0
 11
6.258279876484718E-18
 21
0.1022054666021579
 31
0.0
210
0.0
220
0.0
230
1.0
 40
0.7071067811853281
 41
0.8535727297397866
 42
0.9062277531181115
  0
LINE
  5
25E
330
128
100
AcDbEntity
  8
AM_4
100
AcDbLine
 10
1.676266724055735
 20
-0.0969580928548422
 30
0.0
 11
1.644218141854223
 21
-0.0690005871025449
 31
0.0
  0
LINE
  5
25F
330
128
100
AcDbEntity
  8
AM_4
100
AcDbLine
 10
1.644218141854223
 20
-0.2459594128974549
 30
0.0
 11
1.676266724055735
 21
-0.2180019071451576
 31
0.0
  0
ELLIPSE
  5
260
330
128
100
AcDbEntity
  8
AM_4
100
AcDbEllipse
 10
1.605625737368327
 20
-0.1574799999999999
 30
0.0
 11
6.365617546288473E-18
 21
0.1039584237793373
 31
0.0
210
0.0
220
0.0
230
1.0
 40
0.7071067811865507
 41
5.730473253052759
 42
9.977490014896206
  0
ELLIPSE
  5
261
330
128
100
AcDbEntity
  8
AM_4
100
AcDbEllipse
 10
1.649868651958323
 20
-0.1574799999999999
 30
0.0
 11
4.354225479598991E-18
 21
0.07110989850511303
 31
0.0
210
0.0
220
0.0
230
1.0
 40
0.7071067811865475
 41
5.730473253052759
 42
9.977490014896206
  0
ELLIPSE
  5
262
330
128
100
AcDbEntity
  8
AM_4
100
AcDbEllipse
 10
1.64986865195833
 20
-0.1574799999999894
 30
0.0
 11
4.354225479598104E-18
 21
0.07110989850509852
 31
0.0
210
0.0
220
0.0
230
1.0
 40
0.707106781186548
 41
5.562836045427083
 42
5.730473253052798
  0
ELLIPSE
  5
263
330
128
100
AcDbEntity
  8
AM_4
100
AcDbEllipse
 10
1.652848345353754
 20
-0.1574799999999999
 30
0.0
 11
-1.178200542891338E-17
 21
-0.06413825024007724
 31
0.0
210
0.0
220
0.0
230
1.0
 40
0.7071067811865501
 41
0.0
 42
6.283185307179586
  0
LWPOLYLINE
  5
264
330
128
100
AcDbEntity
  8
AM_4
100
AcDbPolyline
 90
        8
 70
     0
 43
0.0
 10
1.700507184094754
 20
-0.1574799999999999
 10
1.70035449508391
 20
-0.1519973766232998
 10
1.699256441997626
 20
-0.1418725649199267
 10
1.697112735941404
 20
-0.1320408666643784
 10
1.693954700849303
 20
-0.1226999177917742
 10
1.689828384816209
 20
-0.1140356356115567
 10
1.684796525392319
 20
-0.1062287046986621
 10
1.683301706549671
 20
-0.1043015540393054
  0
LWPOLYLINE
  5
265
330
128
100
AcDbEntity
  8
AM_4
100
AcDbPolyline
 90
        8
 70
     0
 43
0.0
 10
1.682040276465693
 20
-0.2121723897771479
 10
1.68522644448262
 20
-0.2081481337530416
 10
1.690121758062589
 20
-0.2003910598072126
 10
1.694157438782208
 20
-0.1917536843864794
 10
1.697248897016179
 20
-0.1824207313665478
 10
1.699335773184491
 20
-0.172590258534478
 10
1.700381265656092
 20
-0.1624595015594734
 10
1.700507184094754
 20
-0.1574799999999999
  0
ELLIPSE
  5
266
330
128
100
AcDbEntity
  8
AM_4
100
AcDbEllipse
 10
1.649868651958364
 20
-0.1574800000000302
 30
0.0
 11
4.354225479596633E-18
 21
0.07110989850507451
 31
0.0
210
0.0
220
0.0
230
1.0
 40
0.707106781186359
 41
3.694304707716274
 42
3.830022171602249
  0
LINE
  5
267
330
128
100
AcDbEntity
  8
AM_4
100
AcDbLine
 10
-0.7189999999999996
 20
-0.5357137499999999
 30
0.0
 11
-0.7189999999999996
 21
0.53571375
 31
0.0
  0
LINE
  5
268
330
128
100
AcDbEntity
  8
AM_4
100
AcDbLine
 10
-1.613930000000001
 20
-0.6490714324440418
 30
0.0
 11
-1.613930000000001
 21
0.649071432444042
 31
0.0
  0
LINE
  5
269
330
128
100
AcDbEntity
  8
AM_4
100
AcDbLine
 10
-2.213980000000002
 20
0.9375
 30
0.0
 11
-1.613930000000001
 21
0.649071432444042
 31
0.0
  0
LINE
  5
26A
330
128
100
AcDbEntity
  8
AM_4
100
AcDbLine
 10
-1.613930000000001
 20
0.649071432444042
 30
0.0
 11
-0.7189999999999996
 21
0.53571375
 31
0.0
  0
LINE
  5
26B
330
128
100
AcDbEntity
  8
AM_4
100
AcDbLine
 10
0.719000000000004
 20
0.53571375
 30
0.0
 11
-0.7189999999999996
 21
0.53571375
 31
0.0
  0
LINE
  5
26C
330
128
100
AcDbEntity
  8
AM_4
100
AcDbLine
 10
1.61393
 20
0.6490714324440413
 30
0.0
 11
2.213980000000001
 21
0.9374999999999999
 31
0.0
  0
LINE
  5
26D
330
128
100
AcDbEntity
  8
AM_4
100
AcDbLine
 10
1.656499595
 20
0.9374999999999999
 30
0.0
 11
1.482864416906689
 21
0.83333325
 31
0.0
  0
LINE
  5
26E
330
128
100
AcDbEntity
  8
AM_4
100
AcDbLine
 10
1.482864416906689
 20
0.83333325
 30
0.0
 11
-1.48286441690669
 21
0.8333332500000001
 31
0.0
  0
LWPOLYLINE
  5
26F
330
128
100
AcDbEntity
  8
AM_4
100
AcDbPolyline
 90
        4
 70
     0
 43
0.0
 10
-1.377678201749281
 20
0.83333325
 10
-1.401513496658442
 20
0.8179632627962661
 10
-1.414682427601047
 20
0.8023886281484023
 10
-1.4175
 20
0.7910734851828503
  0
LINE
  5
270
330
128
100
AcDbEntity
  8
AM_4
100
AcDbLine
 10
-1.48286441690669
 20
0.8333332500000001
 30
0.0
 11
-1.656499595
 21
0.9374999999999999
 31
0.0
  0
LINE
  5
271
330
128
100
AcDbEntity
  8
AM_4
100
AcDbLine
 10
1.613930000000001
 20
-0.0530745893972453
 30
0.0
 11
1.61393
 21
0.6490714324440413
 31
0.0
  0
LINE
  5
272
330
128
100
AcDbEntity
  8
AM_4
100
AcDbLine
 10
1.613930000000001
 20
-0.6490714324440413
 30
0.0
 11
1.613930000000001
 21
-0.2618393726238956
 31
0.0
  0
LINE
  5
273
330
128
100
AcDbEntity
  8
AM_4
100
AcDbLine
 10
0.719000000000004
 20
0.53571375
 30
0.0
 11
1.61393
 21
0.6490714324440413
 31
0.0
  0
LINE
  5
274
330
128
100
AcDbEntity
  8
AM_4
100
AcDbLine
 10
0.719000000000004
 20
-0.5357137499999999
 30
0.0
 11
0.719000000000004
 21
0.53571375
 31
0.0
  0
LINE
  5
275
330
128
100
AcDbEntity
  8
AM_4
100
AcDbLine
 10
-1.613930000000001
 20
-0.6490714324440418
 30
0.0
 11
-2.213980000000001
 21
-0.9375000000000002
 31
0.0
  0
LINE
  5
276
330
128
100
AcDbEntity
  8
AM_4
100
AcDbLine
 10
-1.656499595
 20
-0.9375000000000002
 30
0.0
 11
-1.48286441690669
 21
-0.83333325
 31
0.0
  0
LWPOLYLINE
  5
277
330
128
100
AcDbEntity
  8
AM_4
100
AcDbPolyline
 90
        4
 70
     0
 43
0.0
 10
1.37767820174928
 20
-0.8333332500000001
 10
1.401513496658442
 20
-0.8179632627962661
 10
1.414682427601046
 20
-0.8023886281484023
 10
1.4175
 20
-0.79107348518285
  0
LINE
  5
278
330
128
100
AcDbEntity
  8
AM_4
100
AcDbLine
 10
1.482864416906689
 20
-0.8333332500000001
 30
0.0
 11
1.656499595000001
 21
-0.9375000000000003
 31
0.0
  0
LINE
  5
279
330
128
100
AcDbEntity
  8
AM_4
100
AcDbLine
 10
2.213980000000001
 20
-0.9375000000000002
 30
0.0
 11
1.613930000000001
 21
-0.6490714324440413
 31
0.0
  0
LINE
  5
27A
330
128
100
AcDbEntity
  8
AM_4
100
AcDbLine
 10
1.613930000000001
 20
-0.6490714324440413
 30
0.0
 11
0.719000000000004
 21
-0.5357137499999999
 31
0.0
  0
LINE
  5
27B
330
128
100
AcDbEntity
  8
AM_4
100
AcDbLine
 10
0.719000000000004
 20
-0.5357137499999999
 30
0.0
 11
-0.7189999999999996
 21
-0.5357137499999999
 31
0.0
  0
LINE
  5
27C
330
128
100
AcDbEntity
  8
AM_4
100
AcDbLine
 10
-0.7189999999999996
 20
-0.5357137499999999
 30
0.0
 11
-1.613930000000001
 21
-0.6490714324440418
 31
0.0
  0
LINE
  5
27D
330
128
100
AcDbEntity
  8
AM_4
100
AcDbLine
 10
-0.3474090000000001
 20
-0.6065367972206416
 30
0.0
 11
-0.3474090000000001
 21
-0.5891920698744089
 31
0.0
  0
LINE
  5
27E
330
128
100
AcDbEntity
  8
AM_4
100
AcDbLine
 10
-0.3474090000000001
 20
-0.5891920698744089
 30
0.0
 11
-0.2739480000000001
 21
-0.5891920698744089
 31
0.0
  0
LINE
  5
27F
330
128
100
AcDbEntity
  8
AM_4
100
AcDbLine
 10
-0.2739480000000001
 20
-0.5891920698744089
 30
0.0
 11
-0.2586439999999999
 21
-0.5895610874917244
 31
0.0
  0
LINE
  5
280
330
128
100
AcDbEntity
  8
AM_4
100
AcDbLine
 10
-0.2586439999999999
 20
-0.5895610874917244
 30
0.0
 11
-0.2464009999999998
 21
-0.5902991987262766
 31
0.0
  0
LINE
  5
281
330
128
100
AcDbEntity
  8
AM_4
100
AcDbLine
 10
-0.2464009999999998
 20
-0.5902991987262766
 30
0.0
 11
-0.2341569999999992
 21
-0.5917753198621533
 31
0.0
  0
LINE
  5
282
330
128
100
AcDbEntity
  8
AM_4
100
AcDbLine
 10
-0.2341569999999992
 20
-0.5917753198621533
 30
0.0
 11
-0.2280350000000003
 21
-0.5932514789979901
 31
0.0
  0
LINE
  5
283
330
128
100
AcDbEntity
  8
AM_4
100
AcDbLine
 10
-0.2280350000000003
 20
-0.5932514789979901
 30
0.0
 11
-0.2249740000000001
 21
-0.5950966557511426
 31
0.0
  0
LINE
  5
284
330
128
100
AcDbEntity
  8
AM_4
100
AcDbLine
 10
-0.2249740000000001
 20
-0.5950966557511426
 30
0.0
 11
-0.2249740000000002
 21
-0.6006322113439075
 31
0.0
  0
LINE
  5
285
330
128
100
AcDbEntity
  8
AM_4
100
AcDbLine
 10
-0.2249740000000002
 20
-0.6006322113439075
 30
0.0
 11
-0.2280349999999997
 21
-0.6024773880970602
 31
0.0
  0
LINE
  5
286
330
128
100
AcDbEntity
  8
AM_4
100
AcDbLine
 10
-0.2280349999999997
 20
-0.6024773880970602
 30
0.0
 11
-0.2341570000000001
 21
-0.6039535472328972
 31
0.0
  0
LINE
  5
287
330
128
100
AcDbEntity
  8
AM_4
100
AcDbLine
 10
-0.2341570000000001
 20
-0.6039535472328972
 30
0.0
 11
-0.246401
 21
-0.6054296683687737
 31
0.0
  0
LINE
  5
288
330
128
100
AcDbEntity
  8
AM_4
100
AcDbLine
 10
-0.246401
 20
-0.6054296683687737
 30
0.0
 11
-0.2586439999999994
 21
-0.6061677796033258
 31
0.0
  0
LINE
  5
289
330
128
100
AcDbEntity
  8
AM_4
100
AcDbLine
 10
-0.2586439999999994
 20
-0.6061677796033258
 30
0.0
 11
-0.2739480000000006
 21
-0.6065367972206417
 31
0.0
  0
LINE
  5
28A
330
128
100
AcDbEntity
  8
AM_4
100
AcDbLine
 10
-0.2739480000000006
 20
-0.6065367972206417
 30
0.0
 11
-0.3474090000000001
 21
-0.6065367972206416
 31
0.0
  0
LINE
  5
28B
330
128
100
AcDbEntity
  8
AM_4
100
AcDbLine
 10
-0.2004869999999999
 20
-0.6006322113439075
 30
0.0
 11
-0.2004869999999999
 21
-0.5950966557511427
 31
0.0
  0
LINE
  5
28C
330
128
100
AcDbEntity
  8
AM_4
100
AcDbLine
 10
-0.2004869999999999
 20
-0.5950966557511427
 30
0.0
 11
-0.1974270000000002
 21
-0.5932514789979901
 31
0.0
  0
LINE
  5
28D
330
128
100
AcDbEntity
  8
AM_4
100
AcDbLine
 10
-0.1974270000000002
 20
-0.5932514789979901
 30
0.0
 11
-0.1913050000000005
 21
-0.5917753198621531
 31
0.0
  0
LINE
  5
28E
330
128
100
AcDbEntity
  8
AM_4
100
AcDbLine
 10
-0.1913050000000005
 20
-0.5917753198621531
 30
0.0
 11
-0.179061
 21
-0.5902991987262767
 31
0.0
  0
LINE
  5
28F
330
128
100
AcDbEntity
  8
AM_4
100
AcDbLine
 10
-0.179061
 20
-0.5902991987262767
 30
0.0
 11
-0.1668179999999999
 21
-0.5895610874917244
 31
0.0
  0
LINE
  5
290
330
128
100
AcDbEntity
  8
AM_4
100
AcDbLine
 10
-0.1668179999999999
 20
-0.5895610874917244
 30
0.0
 11
-0.1515129999999995
 21
-0.5891920698744086
 31
0.0
  0
LINE
  5
291
330
128
100
AcDbEntity
  8
AM_4
100
AcDbLine
 10
-0.1515129999999995
 20
-0.5891920698744086
 30
0.0
 11
-0.1270259999999999
 21
-0.5891920698744089
 31
0.0
  0
LINE
  5
292
330
128
100
AcDbEntity
  8
AM_4
100
AcDbLine
 10
-0.1270259999999999
 20
-0.5891920698744089
 30
0.0
 11
-0.1117219999999998
 21
-0.5895610874917244
 31
0.0
  0
LINE
  5
293
330
128
100
AcDbEntity
  8
AM_4
100
AcDbLine
 10
-0.1117219999999998
 20
-0.5895610874917244
 30
0.0
 11
-0.0994783999999993
 21
-0.5902991987262768
 31
0.0
  0
LINE
  5
294
330
128
100
AcDbEntity
  8
AM_4
100
AcDbLine
 10
-0.0994783999999993
 20
-0.5902991987262768
 30
0.0
 11
-0.0872349999999995
 21
-0.5917753198621533
 31
0.0
  0
LINE
  5
295
330
128
100
AcDbEntity
  8
AM_4
100
AcDbLine
 10
-0.0872349999999995
 20
-0.5917753198621533
 30
0.0
 11
-0.0811134
 21
-0.5932514789979902
 31
0.0
  0
LINE
  5
296
330
128
100
AcDbEntity
  8
AM_4
100
AcDbLine
 10
-0.0811134
 20
-0.5932514789979902
 30
0.0
 11
-0.0780524
 21
-0.5950966557511427
 31
0.0
  0
LINE
  5
297
330
128
100
AcDbEntity
  8
AM_4
100
AcDbLine
 10
-0.0780524
 20
-0.5950966557511427
 30
0.0
 11
-0.0780524000000001
 21
-0.6006322113439075
 31
0.0
  0
LINE
  5
298
330
128
100
AcDbEntity
  8
AM_4
100
AcDbLine
 10
-0.0780524000000001
 20
-0.6006322113439075
 30
0.0
 11
-0.0811133999999994
 21
-0.6024773880970602
 31
0.0
  0
LINE
  5
299
330
128
100
AcDbEntity
  8
AM_4
100
AcDbLine
 10
-0.0811133999999994
 20
-0.6024773880970602
 30
0.0
 11
-0.0872350000000002
 21
-0.6039535472328971
 31
0.0
  0
LINE
  5
29A
330
128
100
AcDbEntity
  8
AM_4
100
AcDbLine
 10
-0.0872350000000002
 20
-0.6039535472328971
 30
0.0
 11
-0.0994783999999996
 21
-0.6054296683687737
 31
0.0
  0
LINE
  5
29B
330
128
100
AcDbEntity
  8
AM_4
100
AcDbLine
 10
-0.0994783999999996
 20
-0.6054296683687737
 30
0.0
 11
-0.1117220000000006
 21
-0.606167779603326
 31
0.0
  0
LINE
  5
29C
330
128
100
AcDbEntity
  8
AM_4
100
AcDbLine
 10
-0.1117220000000006
 20
-0.606167779603326
 30
0.0
 11
-0.1270260000000004
 21
-0.6065367972206416
 31
0.0
  0
LINE
  5
29D
330
128
100
AcDbEntity
  8
AM_4
100
AcDbLine
 10
-0.1270260000000004
 20
-0.6065367972206416
 30
0.0
 11
-0.151513
 21
-0.6065367972206416
 31
0.0
  0
LINE
  5
29E
330
128
100
AcDbEntity
  8
AM_4
100
AcDbLine
 10
-0.151513
 20
-0.6065367972206416
 30
0.0
 11
-0.1668179999999999
 21
-0.6061677796033259
 31
0.0
  0
LINE
  5
29F
330
128
100
AcDbEntity
  8
AM_4
100
AcDbLine
 10
-0.1668179999999999
 20
-0.6061677796033259
 30
0.0
 11
-0.1790610000000001
 21
-0.6054296683687737
 31
0.0
  0
LINE
  5
2A0
330
128
100
AcDbEntity
  8
AM_4
100
AcDbLine
 10
-0.1790610000000001
 20
-0.6054296683687737
 30
0.0
 11
-0.1913049999999996
 21
-0.6039535472328973
 31
0.0
  0
LINE
  5
2A1
330
128
100
AcDbEntity
  8
AM_4
100
AcDbLine
 10
-0.1913049999999996
 20
-0.6039535472328973
 30
0.0
 11
-0.1974270000000002
 21
-0.6024773880970601
 31
0.0
  0
LINE
  5
2A2
330
128
100
AcDbEntity
  8
AM_4
100
AcDbLine
 10
-0.1974270000000002
 20
-0.6024773880970601
 30
0.0
 11
-0.2004869999999999
 21
-0.6006322113439075
 31
0.0
  0
LINE
  5
2A3
330
128
100
AcDbEntity
  8
AM_4
100
AcDbLine
 10
0.0198957000000009
 20
-0.6065367972206415
 30
0.0
 11
-0.0535653000000003
 21
-0.6065367972206416
 31
0.0
  0
LINE
  5
2A4
330
128
100
AcDbEntity
  8
AM_4
100
AcDbLine
 10
-0.0535653000000003
 20
-0.6065367972206416
 30
0.0
 11
-0.0535653000000003
 21
-0.5891920698744089
 31
0.0
  0
LINE
  5
2A5
330
128
100
AcDbEntity
  8
AM_4
100
AcDbLine
 10
-0.0535653000000003
 20
-0.5891920698744089
 30
0.0
 11
0.0198956999999999
 21
-0.5891920698744089
 31
0.0
  0
LINE
  5
2A6
330
128
100
AcDbEntity
  8
AM_4
100
AcDbLine
 10
0.0198956999999999
 20
-0.5891920698744089
 30
0.0
 11
0.0352000999999989
 21
-0.5895610874917244
 31
0.0
  0
LINE
  5
2A7
330
128
100
AcDbEntity
  8
AM_4
100
AcDbLine
 10
0.0352000999999989
 20
-0.5895610874917244
 30
0.0
 11
0.0474436999999993
 21
-0.5902991987262766
 31
0.0
  0
LINE
  5
2A8
330
128
100
AcDbEntity
  8
AM_4
100
AcDbLine
 10
0.0474436999999993
 20
-0.5902991987262766
 30
0.0
 11
0.0596869999999988
 21
-0.591775319862153
 31
0.0
  0
LINE
  5
2A9
330
128
100
AcDbEntity
  8
AM_4
100
AcDbLine
 10
0.0596869999999988
 20
-0.591775319862153
 30
0.0
 11
0.0658090999999997
 21
-0.59325147899799
 31
0.0
  0
LINE
  5
2AA
330
128
100
AcDbEntity
  8
AM_4
100
AcDbLine
 10
0.0658090999999997
 20
-0.59325147899799
 30
0.0
 11
0.0688696999999998
 21
-0.5950966557511429
 31
0.0
  0
LINE
  5
2AB
330
128
100
AcDbEntity
  8
AM_4
100
AcDbLine
 10
0.0688696999999998
 20
-0.5950966557511429
 30
0.0
 11
0.0688696999999997
 21
-0.6006322113439075
 31
0.0
  0
LINE
  5
2AC
330
128
100
AcDbEntity
  8
AM_4
100
AcDbLine
 10
0.0688696999999997
 20
-0.6006322113439075
 30
0.0
 11
0.0658090999999997
 21
-0.6024773880970602
 31
0.0
  0
LINE
  5
2AD
330
128
100
AcDbEntity
  8
AM_4
100
AcDbLine
 10
0.0658090999999997
 20
-0.6024773880970602
 30
0.0
 11
0.0596869999999999
 21
-0.6039535472328972
 31
0.0
  0
LINE
  5
2AE
330
128
100
AcDbEntity
  8
AM_4
100
AcDbLine
 10
0.0596869999999999
 20
-0.6039535472328972
 30
0.0
 11
0.0474436999999995
 21
-0.6054296683687737
 31
0.0
  0
LINE
  5
2AF
330
128
100
AcDbEntity
  8
AM_4
100
AcDbLine
 10
0.0474436999999995
 20
-0.6054296683687737
 30
0.0
 11
0.0352000999999995
 21
-0.606167779603326
 31
0.0
  0
LINE
  5
2B0
330
128
100
AcDbEntity
  8
AM_4
100
AcDbLine
 10
0.0352000999999995
 20
-0.606167779603326
 30
0.0
 11
0.0198957000000009
 21
-0.6065367972206415
 31
0.0
  0
LINE
  5
2B1
330
128
100
AcDbEntity
  8
AM_4
100
AcDbLine
 10
0.0933567000000005
 20
-0.6006322113439075
 30
0.0
 11
0.0933567000000001
 21
-0.5950966557511427
 31
0.0
  0
LINE
  5
2B2
330
128
100
AcDbEntity
  8
AM_4
100
AcDbLine
 10
0.0933567000000001
 20
-0.5950966557511427
 30
0.0
 11
0.0964177000000009
 21
-0.5932514789979901
 31
0.0
  0
LINE
  5
2B3
330
128
100
AcDbEntity
  8
AM_4
100
AcDbLine
 10
0.0964177000000009
 20
-0.5932514789979901
 30
0.0
 11
0.1025390000000009
 21
-0.5917753198621533
 31
0.0
  0
LINE
  5
2B4
330
128
100
AcDbEntity
  8
AM_4
100
AcDbLine
 10
0.1025390000000009
 20
-0.5917753198621533
 30
0.0
 11
0.1147829999999997
 21
-0.5902991987262768
 31
0.0
  0
LINE
  5
2B5
330
128
100
AcDbEntity
  8
AM_4
100
AcDbLine
 10
0.1147829999999997
 20
-0.5902991987262768
 30
0.0
 11
0.1270259999999999
 21
-0.5895610874917244
 31
0.0
  0
LINE
  5
2B6
330
128
100
AcDbEntity
  8
AM_4
100
AcDbLine
 10
0.1270259999999999
 20
-0.5895610874917244
 30
0.0
 11
0.1423310000000009
 21
-0.5891920698744089
 31
0.0
  0
LINE
  5
2B7
330
128
100
AcDbEntity
  8
AM_4
100
AcDbLine
 10
0.1423310000000009
 20
-0.5891920698744089
 30
0.0
 11
0.1698790000000002
 21
-0.5891920698744089
 31
0.0
  0
LINE
  5
2B8
330
128
100
AcDbEntity
  8
AM_4
100
AcDbLine
 10
0.1698790000000002
 20
-0.5891920698744089
 30
0.0
 11
0.1851829999999994
 21
-0.5895610874917244
 31
0.0
  0
LINE
  5
2B9
330
128
100
AcDbEntity
  8
AM_4
100
AcDbLine
 10
0.1851829999999994
 20
-0.5895610874917244
 30
0.0
 11
0.197427
 21
-0.5902991987262767
 31
0.0
  0
LINE
  5
2BA
330
128
100
AcDbEntity
  8
AM_4
100
AcDbLine
 10
0.197427
 20
-0.5902991987262767
 30
0.0
 11
0.2096699999999994
 21
-0.5917753198621531
 31
0.0
  0
LINE
  5
2BB
330
128
100
AcDbEntity
  8
AM_4
100
AcDbLine
 10
0.2096699999999994
 20
-0.5917753198621531
 30
0.0
 11
0.2127310000000004
 21
-0.5936205092819592
 31
0.0
  0
LINE
  5
2BC
330
128
100
AcDbEntity
  8
AM_4
100
AcDbLine
 10
0.2127310000000004
 20
-0.5936205092819592
 30
0.0
 11
0.1943660000000002
 21
-0.5936205092819593
 31
0.0
  0
LINE
  5
2BD
330
128
100
AcDbEntity
  8
AM_4
100
AcDbLine
 10
0.1943660000000002
 20
-0.5936205092819593
 30
0.0
 11
0.1913050000000008
 21
-0.5925134184300519
 31
0.0
  0
LINE
  5
2BE
330
128
100
AcDbEntity
  8
AM_4
100
AcDbLine
 10
0.1913050000000008
 20
-0.5925134184300519
 30
0.0
 11
0.182121999999999
 21
-0.591775319862153
 31
0.0
  0
LINE
  5
2BF
330
128
100
AcDbEntity
  8
AM_4
100
AcDbLine
 10
0.182121999999999
 20
-0.591775319862153
 30
0.0
 11
0.1698789999999999
 21
-0.591406289578184
 31
0.0
  0
LINE
  5
2C0
330
128
100
AcDbEntity
  8
AM_4
100
AcDbLine
 10
0.1698789999999999
 20
-0.591406289578184
 30
0.0
 11
0.1423310000000002
 21
-0.5914062895781841
 31
0.0
  0
LINE
  5
2C1
330
128
100
AcDbEntity
  8
AM_4
100
AcDbLine
 10
0.1423310000000002
 20
-0.5914062895781841
 30
0.0
 11
0.1300870000000015
 21
-0.5917753198621531
 31
0.0
  0
LINE
  5
2C2
330
128
100
AcDbEntity
  8
AM_4
100
AcDbLine
 10
0.1300870000000015
 20
-0.5917753198621531
 30
0.0
 11
0.1209050000000003
 21
-0.5925134184300521
 31
0.0
  0
LINE
  5
2C3
330
128
100
AcDbEntity
  8
AM_4
100
AcDbLine
 10
0.1209050000000003
 20
-0.5925134184300521
 30
0.0
 11
0.1147830000000005
 21
-0.5936205092819593
 31
0.0
  0
LINE
  5
2C4
330
128
100
AcDbEntity
  8
AM_4
100
AcDbLine
 10
0.1147830000000005
 20
-0.5936205092819593
 30
0.0
 11
0.1117220000000002
 21
-0.5950966557511427
 31
0.0
  0
LINE
  5
2C5
330
128
100
AcDbEntity
  8
AM_4
100
AcDbLine
 10
0.1117220000000004
 20
-0.6006322113439075
 30
0.0
 11
0.1147830000000006
 21
-0.602108357813091
 31
0.0
  0
LINE
  5
2C6
330
128
100
AcDbEntity
  8
AM_4
100
AcDbLine
 10
0.1147830000000006
 20
-0.602108357813091
 30
0.0
 11
0.1209049999999998
 21
-0.6032154486649985
 31
0.0
  0
LINE
  5
2C7
330
128
100
AcDbEntity
  8
AM_4
100
AcDbLine
 10
0.1209049999999998
 20
-0.6032154486649985
 30
0.0
 11
0.1300869999999998
 21
-0.6039535472328971
 31
0.0
  0
LINE
  5
2C8
330
128
100
AcDbEntity
  8
AM_4
100
AcDbLine
 10
0.1300869999999998
 20
-0.6039535472328971
 30
0.0
 11
0.1423310000000015
 21
-0.6043225775168665
 31
0.0
  0
LINE
  5
2C9
330
128
100
AcDbEntity
  8
AM_4
100
AcDbLine
 10
0.1423310000000015
 20
-0.6043225775168665
 30
0.0
 11
0.1698790000000002
 21
-0.6043225775168664
 31
0.0
  0
LINE
  5
2CA
330
128
100
AcDbEntity
  8
AM_4
100
AcDbLine
 10
0.1698790000000002
 20
-0.6043225775168664
 30
0.0
 11
0.1821219999999995
 21
-0.6039535472328971
 31
0.0
  0
LINE
  5
2CB
330
128
100
AcDbEntity
  8
AM_4
100
AcDbLine
 10
0.1821219999999995
 20
-0.6039535472328971
 30
0.0
 11
0.191305
 21
-0.6032154486649985
 31
0.0
  0
LINE
  5
2CC
330
128
100
AcDbEntity
  8
AM_4
100
AcDbLine
 10
0.191305
 20
-0.6032154486649985
 30
0.0
 11
0.1943659999999999
 21
-0.602108357813091
 31
0.0
  0
LINE
  5
2CD
330
128
100
AcDbEntity
  8
AM_4
100
AcDbLine
 10
0.1943660000000001
 20
-0.5991560648747241
 30
0.0
 11
0.1668180000000001
 21
-0.5991560648747242
 31
0.0
  0
LINE
  5
2CE
330
128
100
AcDbEntity
  8
AM_4
100
AcDbLine
 10
0.1668180000000001
 20
-0.5991560648747242
 30
0.0
 11
0.166818
 21
-0.5969418426376182
 31
0.0
  0
LINE
  5
2CF
330
128
100
AcDbEntity
  8
AM_4
100
AcDbLine
 10
0.166818
 20
-0.5969418426376182
 30
0.0
 11
0.2127310000000001
 21
-0.5969418426376182
 31
0.0
  0
LINE
  5
2D0
330
128
100
AcDbEntity
  8
AM_4
100
AcDbLine
 10
0.2127310000000001
 20
-0.5969418426376182
 30
0.0
 11
0.2127310000000001
 21
-0.6024773880970602
 31
0.0
  0
LINE
  5
2D1
330
128
100
AcDbEntity
  8
AM_4
100
AcDbLine
 10
0.2127310000000001
 20
-0.6024773880970602
 30
0.0
 11
0.2096699999999998
 21
-0.6039535472328971
 31
0.0
  0
LINE
  5
2D2
330
128
100
AcDbEntity
  8
AM_4
100
AcDbLine
 10
0.2096699999999998
 20
-0.6039535472328971
 30
0.0
 11
0.1974270000000001
 21
-0.6054296683687737
 31
0.0
  0
LINE
  5
2D3
330
128
100
AcDbEntity
  8
AM_4
100
AcDbLine
 10
0.1974270000000001
 20
-0.6054296683687737
 30
0.0
 11
0.1851830000000008
 21
-0.6061677796033259
 31
0.0
  0
LINE
  5
2D4
330
128
100
AcDbEntity
  8
AM_4
100
AcDbLine
 10
0.1851830000000008
 20
-0.6061677796033259
 30
0.0
 11
0.1698789999999999
 21
-0.6065367972206416
 31
0.0
  0
LINE
  5
2D5
330
128
100
AcDbEntity
  8
AM_4
100
AcDbLine
 10
0.1698789999999999
 20
-0.6065367972206416
 30
0.0
 11
0.1423310000000002
 21
-0.6065367972206416
 31
0.0
  0
LINE
  5
2D6
330
128
100
AcDbEntity
  8
AM_4
100
AcDbLine
 10
0.1423310000000002
 20
-0.6065367972206416
 30
0.0
 11
0.127026000000001
 21
-0.6061677796033259
 31
0.0
  0
LINE
  5
2D7
330
128
100
AcDbEntity
  8
AM_4
100
AcDbLine
 10
0.127026000000001
 20
-0.6061677796033259
 30
0.0
 11
0.1147830000000003
 21
-0.6054296683687737
 31
0.0
  0
LINE
  5
2D8
330
128
100
AcDbEntity
  8
AM_4
100
AcDbLine
 10
0.1147830000000003
 20
-0.6054296683687737
 30
0.0
 11
0.1025389999999997
 21
-0.6039535472328971
 31
0.0
  0
LINE
  5
2D9
330
128
100
AcDbEntity
  8
AM_4
100
AcDbLine
 10
0.1025389999999997
 20
-0.6039535472328971
 30
0.0
 11
0.0964177000000008
 21
-0.6024773880970603
 31
0.0
  0
LINE
  5
2DA
330
128
100
AcDbEntity
  8
AM_4
100
AcDbLine
 10
0.0964177000000008
 20
-0.6024773880970603
 30
0.0
 11
0.0933567000000005
 21
-0.6006322113439075
 31
0.0
  0
LINE
  5
2DB
330
128
100
AcDbEntity
  8
AM_4
100
AcDbLine
 10
0.3474090000000001
 20
-0.6065367972206416
 30
0.0
 11
0.2372179999999999
 21
-0.6065367972206416
 31
0.0
  0
LINE
  5
2DC
330
128
100
AcDbEntity
  8
AM_4
100
AcDbLine
 10
0.2372179999999999
 20
-0.6065367972206416
 30
0.0
 11
0.2372179999999999
 21
-0.5891920698744089
 31
0.0
  0
LINE
  5
2DD
330
128
100
AcDbEntity
  8
AM_4
100
AcDbLine
 10
0.2372179999999999
 20
-0.5891920698744089
 30
0.0
 11
0.3474090000000002
 21
-0.5891920698744089
 31
0.0
  0
LINE
  5
2DE
330
128
100
AcDbEntity
  8
AM_4
100
AcDbLine
 10
0.3474090000000002
 20
-0.5891920698744089
 30
0.0
 11
0.3474090000000001
 21
-0.591406289578184
 31
0.0
  0
LINE
  5
2DF
330
128
100
AcDbEntity
  8
AM_4
100
AcDbLine
 10
0.3474090000000001
 20
-0.591406289578184
 30
0.0
 11
0.2555829999999999
 21
-0.5914062895781841
 31
0.0
  0
LINE
  5
2E0
330
128
100
AcDbEntity
  8
AM_4
100
AcDbLine
 10
0.2555830000000001
 20
-0.5962037719363571
 30
0.0
 11
0.335166
 21
-0.5962037719363572
 31
0.0
  0
LINE
  5
2E1
330
128
100
AcDbEntity
  8
AM_4
100
AcDbLine
 10
0.335166
 20
-0.5962037719363572
 30
0.0
 11
0.3351659999999999
 21
-0.598417986573471
 31
0.0
  0
LINE
  5
2E2
330
128
100
AcDbEntity
  8
AM_4
100
AcDbLine
 10
0.3351659999999999
 20
-0.598417986573471
 30
0.0
 11
0.2555829999999999
 21
-0.598417986573471
 31
0.0
  0
LINE
  5
2E3
330
128
100
AcDbEntity
  8
AM_4
100
AcDbLine
 10
0.2555830000000001
 20
-0.6043225775168662
 30
0.0
 11
0.347409
 21
-0.6043225775168664
 31
0.0
  0
LINE
  5
2E4
330
128
100
AcDbEntity
  8
AM_4
100
AcDbLine
 10
0.347409
 20
-0.6043225775168664
 30
0.0
 11
0.3474090000000001
 21
-0.6065367972206416
 31
0.0
  0
ENDBLK
  5
12B
330
128
100
AcDbEntity
  8
0
100
AcDbBlockEnd
  0
ENDSEC
  0
SECTION
  2
ENTITIES
  0
INSERT
  5
6F
330
1F
100
AcDbEntity
  8
0
100
AcDbBlockReference
  2
1_129252_4
 10
0.0
 20
0.0
 30
0.0
  0
POINT
  5
2E6
330
1F
100
AcDbEntity
  8
ConnectionPoints
100
AcDbPoint
 10
0.0
 20
0.0
 30
0.0
  0
POINT
  5
2E7
330
1F
100
AcDbEntity
  8
ConnectionPoints
100
AcDbPoint
 10
0.0
 20
0.5625
 30
0.0
  0
POINT
  5
2E8
330
1F
100
AcDbEntity
  8
ConnectionPoints
100
AcDbPoint
 10
0.0
 20
0.0
 30
0.0
  0
POINT
  5
2E9
330
1F
100
AcDbEntity
  8
ConnectionPoints
100
AcDbPoint
 10
0.0
 20
0.0
 30
0.0
  0
ENDSEC
  0
SECTION
  2
OBJECTS
  0
DICTIONARY
  5
C
330
0
100
AcDbDictionary
281
     1
  3
ACAD_DETAILVIEWSTYLE
350
2F1
  3
ACAD_GROUP
350
D
  3
ACAD_LAYOUT
350
1A
  3
ACAD_MATERIAL
350
43
  3
ACAD_MLEADERSTYLE
350
6B
  3
ACAD_MLINESTYLE
350
17
  3
ACAD_PLOTSETTINGS
350
19
  3
ACAD_PLOTSTYLENAME
350
E
  3
ACAD_SCALELIST
350
47
  3
ACAD_SECTIONVIEWSTYLE
350
2F2
  3
ACAD_TABLESTYLE
350
69
  3
ACAD_VISUALSTYLE
350
2A
  3
ACDB_RECOMPOSE_DATA
350
2EE
  3
AcDbVariableDictionary
350
2EA
  0
SUN
  5
6D
330
29
100
AcDbSun
 90
        1
290
     0
 63
     7
421
 16777215
 40
1.0
291
     1
 91
  2455826
 92
 54000000
292
     0
 70
     2
 71
   256
280
     1
  0
DICTIONARY
  5
2F1
102
{ACAD_REACTORS
330
C
102
}
330
C
100
AcDbDictionary
281
     1
  0
DICTIONARY
  5
D
102
{ACAD_REACTORS
330
C
102
}
330
C
100
AcDbDictionary
281
     1
  0
DICTIONARY
  5
1A
102
{ACAD_REACTORS
330
C
102
}
330
C
100
AcDbDictionary
281
     1
  3
Layout1
350
1E
  3
Layout2
350
26
  3
Model
350
22
  0
DICTIONARY
  5
43
102
{ACAD_REACTORS
330
C
102
}
330
C
100
AcDbDictionary
281
     1
  3
ByBlock
350
45
  3
ByLayer
350
44
  3
Global
350
46
  0
DICTIONARY
  5
6B
102
{ACAD_REACTORS
330
C
102
}
330
C
100
AcDbDictionary
281
     1
  3
Standard
350
6C
  0
DICTIONARY
  5
17
102
{ACAD_REACTORS
330
C
102
}
330
C
100
AcDbDictionary
281
     1
  3
Standard
350
18
  0
DICTIONARY
  5
19
102
{ACAD_REACTORS
330
C
102
}
330
C
100
AcDbDictionary
281
     1
  0
ACDBDICTIONARYWDFLT
  5
E
102
{ACAD_REACTORS
330
C
102
}
330
C
100
AcDbDictionary
281
     1
  3
Normal
350
F
100
AcDbDictionaryWithDefault
340
F
  0
DICTIONARY
  5
47
102
{ACAD_REACTORS
330
C
102
}
330
C
100
AcDbDictionary
281
     1
  3
A0
350
48
  3
A1
350
49
  3
A2
350
4A
  3
A3
350
4B
  3
A4
350
4C
  3
A5
350
4D
  3
A6
350
4E
  3
A7
350
4F
  3
A8
350
50
  3
A9
350
51
  3
B0
350
52
  3
B1
350
53
  3
B2
350
54
  3
B3
350
55
  3
B4
350
56
  3
B5
350
57
  3
B6
350
58
  3
B7
350
59
  3
B8
350
5A
  3
B9
350
5B
  3
C0
350
5C
  3
C1
350
5D
  3
C2
350
5E
  3
C3
350
5F
  3
C4
350
60
  3
C5
350
61
  3
C6
350
62
  3
C7
350
63
  3
C8
350
64
  3
C9
350
65
  3
D0
350
66
  3
D1
350
67
  3
D2
350
68
  0
DICTIONARY
  5
2F2
102
{ACAD_REACTORS
330
C
102
}
330
C
100
AcDbDictionary
281
     1
  0
DICTIONARY
  5
69
102
{ACAD_REACTORS
330
C
102
}
330
C
100
AcDbDictionary
281
     1
  3
Standard
350
6A
  0
DICTIONARY
  5
2A
102
{ACAD_REACTORS
330
C
102
}
330
C
100
AcDbDictionary
281
     1
  3
2dWireframe
350
2F
  3
Basic
350
32
  3
Brighten
350
36
  3
ColorChange
350
3A
  3
Conceptual
350
34
  3
Dim
350
35
  3
EdgeColorOff
350
3D
  3
Facepattern
350
39
  3
Flat
350
2B
  3
FlatWithEdges
350
2C
  3
Gouraud
350
2D
  3
GouraudWithEdges
350
2E
  3
Hidden
350
31
  3
JitterOff
350
3B
  3
Linepattern
350
38
  3
OverhangOff
350
3C
  3
Realistic
350
33
  3
Shaded
350
42
  3
Shaded with edges
350
41
  3
Shades of Gray
350
3E
  3
Sketchy
350
3F
  3
Thicken
350
37
  3
Wireframe
350
30
  3
X-Ray
350
40
  0
XRECORD
  5
2EE
102
{ACAD_REACTORS
330
C
102
}
330
C
100
AcDbXrecord
280
     1
 90
        1
330
6A
  0
DICTIONARY
  5
2EA
102
{ACAD_REACTORS
330
C
102
}
330
C
100
AcDbDictionary
281
     1
  3
CANNOSCALE
350
2EB
  3
CMLEADERSTYLE
350
2F0
  3
CTABLESTYLE
350
2EF
  0
LAYOUT
  5
1E
102
{ACAD_REACTORS
330
1A
102
}
330
1A
100
AcDbPlotSettings
  1

  2
none_device
  4

  6

 40
0.0
 41
0.0
 42
0.0
 43
0.0
 44
0.0
 45
0.0
 46
0.0
 47
0.0
 48
0.0
 49
0.0
140
0.0
141
0.0
142
1.0
143
1.0
 70
   688
 72
     0
 73
     0
 74
     5
  7

 75
    16
 76
     0
 77
     2
 78
   300
147
1.0
148
0.0
149
0.0
100
AcDbLayout
  1
Layout1
 70
     1
 71
     1
 10
0.0
 20
0.0
 11
12.0
 21
9.0
 12
0.0
 22
0.0
 32
0.0
 14
1.000000000000000E+20
 24
1.000000000000000E+20
 34
1.000000000000000E+20
 15
-1.000000000000000E+20
 25
-1.000000000000000E+20
 35
-1.000000000000000E+20
146
0.0
 13
0.0
 23
0.0
 33
0.0
 16
1.0
 26
0.0
 36
0.0
 17
0.0
 27
1.0
 37
0.0
 76
     0
330
1B
  0
LAYOUT
  5
26
102
{ACAD_REACTORS
330
1A
102
}
330
1A
100
AcDbPlotSettings
  1

  2
none_device
  4

  6

 40
0.0
 41
0.0
 42
0.0
 43
0.0
 44
0.0
 45
0.0
 46
0.0
 47
0.0
 48
0.0
 49
0.0
140
0.0
141
0.0
142
1.0
143
1.0
 70
   688
 72
     0
 73
     0
 74
     5
  7

 75
    16
 76
     0
 77
     2
 78
   300
147
1.0
148
0.0
149
0.0
100
AcDbLayout
  1
Layout2
 70
     1
 71
     2
 10
0.0
 20
0.0
 11
0.0
 21
0.0
 12
0.0
 22
0.0
 32
0.0
 14
0.0
 24
0.0
 34
0.0
 15
0.0
 25
0.0
 35
0.0
146
0.0
 13
0.0
 23
0.0
 33
0.0
 16
1.0
 26
0.0
 36
0.0
 17
0.0
 27
1.0
 37
0.0
 76
     0
330
23
  0
LAYOUT
  5
22
102
{ACAD_REACTORS
330
1A
102
}
330
1A
100
AcDbPlotSettings
  1

  2
none_device
  4
Letter_(8.50_x_11.00_Inches)
  6

 40
6.35
 41
6.35
 42
6.35000508
 43
6.35000508
 44
215.9
 45
279.4
 46
0.0
 47
0.0
 48
0.0
 49
0.0
140
0.0
141
0.0
142
1.0
143
1.0
 70
  1712
 72
     0
 73
     0
 74
     0
  7

 75
     0
 76
     0
 77
     2
 78
   300
147
1.0
148
0.0
149
0.0
100
AcDbLayout
  1
Model
 70
     1
 71
     0
 10
0.0
 20
0.0
 11
12.0
 21
9.0
 12
0.0
 22
0.0
 32
0.0
 14
1.000000000000000E+20
 24
1.000000000000000E+20
 34
1.000000000000000E+20
 15
-1.000000000000000E+20
 25
-1.000000000000000E+20
 35
-1.000000000000000E+20
146
0.0
 13
0.0
 23
0.0
 33
0.0
 16
1.0
 26
0.0
 36
0.0
 17
0.0
 27
1.0
 37
0.0
 76
     0
330
1F
331
29
  0
MATERIAL
  5
45
102
{ACAD_REACTORS
330
43
102
}
330
43
100
AcDbMaterial
  1
ByBlock
 72
     1
 94
      127
  0
MATERIAL
  5
44
102
{ACAD_REACTORS
330
43
102
}
330
43
100
AcDbMaterial
  1
ByLayer
 72
     1
 94
      127
  0
MATERIAL
  5
46
102
{ACAD_REACTORS
330
43
102
}
330
43
100
AcDbMaterial
  1
Global
 72
     1
 94
      127
  0
MLEADERSTYLE
  5
6C
102
{ACAD_REACTORS
330
6B
102
}
330
6B
100
AcDbMLeaderStyle
179
     2
170
     2
171
     1
172
     0
 90
        2
 40
0.0
 41
0.0
173
     1
 91
-1056964608
340
14
 92
       -2
290
     1
 42
0.09
291
     1
 43
0.36
  3
Standard
341
0
 44
0.18
300

342
11
174
     1
178
     6
175
     1
176
     0
 93
-1056964608
 45
0.18
292
     0
297
     0
 46
0.18
343
0
 94
-1056964608
 47
1.0
 49
1.0
140
1.0
293
     1
141
0.0
294
     1
177
     0
142
1.0
295
     0
296
     0
143
0.125
271
     0
272
     9
273
     9
298
     0
  0
MLINESTYLE
  5
18
102
{ACAD_REACTORS
330
17
102
}
330
17
100
AcDbMlineStyle
  2
Standard
 70
     0
  3

 62
   256
 51
90.0
 52
90.0
 71
     2
 49
0.5
 62
   256
  6
BYLAYER
 49
-0.5
 62
   256
  6
BYLAYER
  0
ACDBPLACEHOLDER
  5
F
102
{ACAD_REACTORS
330
E
102
}
330
E
  0
SCALE
  5
48
102
{ACAD_REACTORS
330
47
102
}
330
47
100
AcDbScale
 70
     0
300
1:1
140
1.0
141
1.0
290
     1
  0
SCALE
  5
49
102
{ACAD_REACTORS
330
47
102
}
330
47
100
AcDbScale
 70
     0
300
1:2
140
1.0
141
2.0
290
     0
  0
SCALE
  5
4A
102
{ACAD_REACTORS
330
47
102
}
330
47
100
AcDbScale
 70
     0
300
1:4
140
1.0
141
4.0
290
     0
  0
SCALE
  5
4B
102
{ACAD_REACTORS
330
47
102
}
330
47
100
AcDbScale
 70
     0
300
1:5
140
1.0
141
5.0
290
     0
  0
SCALE
  5
4C
102
{ACAD_REACTORS
330
47
102
}
330
47
100
AcDbScale
 70
     0
300
1:8
140
1.0
141
8.0
290
     0
  0
SCALE
  5
4D
102
{ACAD_REACTORS
330
47
102
}
330
47
100
AcDbScale
 70
     0
300
1:10
140
1.0
141
10.0
290
     0
  0
SCALE
  5
4E
102
{ACAD_REACTORS
330
47
102
}
330
47
100
AcDbScale
 70
     0
300
1:16
140
1.0
141
16.0
290
     0
  0
SCALE
  5
4F
102
{ACAD_REACTORS
330
47
102
}
330
47
100
AcDbScale
 70
     0
300
1:20
140
1.0
141
20.0
290
     0
  0
SCALE
  5
50
102
{ACAD_REACTORS
330
47
102
}
330
47
100
AcDbScale
 70
     0
300
1:30
140
1.0
141
30.0
290
     0
  0
SCALE
  5
51
102
{ACAD_REACTORS
330
47
102
}
330
47
100
AcDbScale
 70
     0
300
1:40
140
1.0
141
40.0
290
     0
  0
SCALE
  5
52
102
{ACAD_REACTORS
330
47
102
}
330
47
100
AcDbScale
 70
     0
300
1:50
140
1.0
141
50.0
290
     0
  0
SCALE
  5
53
102
{ACAD_REACTORS
330
47
102
}
330
47
100
AcDbScale
 70
     0
300
1:100
140
1.0
141
100.0
290
     0
  0
SCALE
  5
54
102
{ACAD_REACTORS
330
47
102
}
330
47
100
AcDbScale
 70
     0
300
2:1
140
2.0
141
1.0
290
     0
  0
SCALE
  5
55
102
{ACAD_REACTORS
330
47
102
}
330
47
100
AcDbScale
 70
     0
300
4:1
140
4.0
141
1.0
290
     0
  0
SCALE
  5
56
102
{ACAD_REACTORS
330
47
102
}
330
47
100
AcDbScale
 70
     0
300
8:1
140
8.0
141
1.0
290
     0
  0
SCALE
  5
57
102
{ACAD_REACTORS
330
47
102
}
330
47
100
AcDbScale
 70
     0
300
10:1
140
10.0
141
1.0
290
     0
  0
SCALE
  5
58
102
{ACAD_REACTORS
330
47
102
}
330
47
100
AcDbScale
 70
     0
300
100:1
140
100.0
141
1.0
290
     0
  0
SCALE
  5
59
102
{ACAD_REACTORS
330
47
102
}
330
47
100
AcDbScale
 70
     0
300
1/128" = 1'-0"
140
0.0078125
141
12.0
290
     0
  0
SCALE
  5
5A
102
{ACAD_REACTORS
330
47
102
}
330
47
100
AcDbScale
 70
     0
300
1/64" = 1'-0"
140
0.015625
141
12.0
290
     0
  0
SCALE
  5
5B
102
{ACAD_REACTORS
330
47
102
}
330
47
100
AcDbScale
 70
     0
300
1/32" = 1'-0"
140
0.03125
141
12.0
290
     0
  0
SCALE
  5
5C
102
{ACAD_REACTORS
330
47
102
}
330
47
100
AcDbScale
 70
     0
300
1/16" = 1'-0"
140
0.0625
141
12.0
290
     0
  0
SCALE
  5
5D
102
{ACAD_REACTORS
330
47
102
}
330
47
100
AcDbScale
 70
     0
300
3/32" = 1'-0"
140
0.09375
141
12.0
290
     0
  0
SCALE
  5
5E
102
{ACAD_REACTORS
330
47
102
}
330
47
100
AcDbScale
 70
     0
300
1/8" = 1'-0"
140
0.125
141
12.0
290
     0
  0
SCALE
  5
5F
102
{ACAD_REACTORS
330
47
102
}
330
47
100
AcDbScale
 70
     0
300
3/16" = 1'-0"
140
0.1875
141
12.0
290
     0
  0
SCALE
  5
60
102
{ACAD_REACTORS
330
47
102
}
330
47
100
AcDbScale
 70
     0
300
1/4" = 1'-0"
140
0.25
141
12.0
290
     0
  0
SCALE
  5
61
102
{ACAD_REACTORS
330
47
102
}
330
47
100
AcDbScale
 70
     0
300
3/8" = 1'-0"
140
0.375
141
12.0
290
     0
  0
SCALE
  5
62
102
{ACAD_REACTORS
330
47
102
}
330
47
100
AcDbScale
 70
     0
300
1/2" = 1'-0"
140
0.5
141
12.0
290
     0
  0
SCALE
  5
63
102
{ACAD_REACTORS
330
47
102
}
330
47
100
AcDbScale
 70
     0
300
3/4" = 1'-0"
140
0.75
141
12.0
290
     0
  0
SCALE
  5
64
102
{ACAD_REACTORS
330
47
102
}
330
47
100
AcDbScale
 70
     0
300
1" = 1'-0"
140
1.0
141
12.0
290
     0
  0
SCALE
  5
65
102
{ACAD_REACTORS
330
47
102
}
330
47
100
AcDbScale
 70
     0
300
1-1/2" = 1'-0"
140
1.5
141
12.0
290
     0
  0
SCALE
  5
66
102
{ACAD_REACTORS
330
47
102
}
330
47
100
AcDbScale
 70
     0
300
3" = 1'-0"
140
3.0
141
12.0
290
     0
  0
SCALE
  5
67
102
{ACAD_REACTORS
330
47
102
}
330
47
100
AcDbScale
 70
     0
300
6" = 1'-0"
140
6.0
141
12.0
290
     0
  0
SCALE
  5
68
102
{ACAD_REACTORS
330
47
102
}
330
47
100
AcDbScale
 70
     0
300
1'-0" = 1'-0"
140
12.0
141
12.0
290
     0
  0
TABLESTYLE
  5
6A
102
{ACAD_REACTORS
330
69
102
}
102
{ACAD_XDICTIONARY
360
2EC
102
}
330
69
100
AcDbTableStyle
  3
Standard
 70
     0
 71
     0
 40
0.06
 41
0.06
280
     0
281
     0
  7
Standard
140
0.18
170
     2
 62
     0
 63
   257
283
     0
 90
        4
 91
        0
  1

274
    -2
284
     1
 64
     0
275
    -2
285
     1
 65
     0
276
    -2
286
     1
 66
     0
277
    -2
287
     1
 67
     0
278
    -2
288
     1
 68
     0
279
    -2
289
     1
 69
     0
  7
Standard
140
0.25
170
     5
 62
     0
 63
   257
283
     0
 90
        4
 91
        0
  1

274
    -2
284
     1
 64
     0
275
    -2
285
     1
 65
     0
276
    -2
286
     1
 66
     0
277
    -2
287
     1
 67
     0
278
    -2
288
     1
 68
     0
279
    -2
289
     1
 69
     0
  7
Standard
140
0.18
170
     5
 62
     0
 63
   257
283
     0
 90
        4
 91
        0
  1

274
    -2
284
     1
 64
     0
275
    -2
285
     1
 65
     0
276
    -2
286
     1
 66
     0
277
    -2
287
     1
 67
     0
278
    -2
288
     1
 68
     0
279
    -2
289
     1
 69
     0
  0
VISUALSTYLE
  5
2F
102
{ACAD_REACTORS
330
2A
102
}
330
2A
100
AcDbVisualStyle
  2
2dWireframe
 70
     4
177
     3
291
     0
 70
    58
 90
        0
176
     1
 90
        2
176
     1
 90
        0
176
     1
 90
        0
176
     1
 40
0.6
176
     1
 40
30.0
176
     1
 62
     7
420
 16777215
176
     1
 90
        1
176
     1
 90
        4
176
     1
 62
     7
176
     1
 62
   257
176
     1
 90
        1
176
     1
 90
        1
176
     1
 40
1.0
176
     1
 90
        0
176
     1
 62
   257
176
     1
 40
1.0
176
     1
 90
        1
176
     1
 90
        6
176
     1
 90
        2
176
     1
 62
     7
176
     1
 90
        5
176
     1
 90
        0
176
     1
 90
        0
176
     1
290
     0
176
     1
 90
        1
176
     1
 40
0.0
176
     1
 90
        0
176
     1
290
     1
176
     1
290
     1
176
     1
290
     0
176
     1
290
     0
176
     1
290
     0
176
     1
290
     0
176
     1
290
     0
176
     1
290
     0
176
     1
290
     0
176
     1
 90
       50
176
     1
 40
0.0
176
     1
 40
1.0
176
     1
 90
        0
176
     1
 62
    18
420
        0
176
     1
 90
       50
176
     1
 90
        3
176
     1
 62
     5
420
      255
176
     1
290
     0
176
     1
 90
       50
176
     1
 90
       50
176
     1
 90
       50
176
     1
290
     0
176
     1
 90
       50
176
     1
 62
   256
176
     0
 40
1.0
176
     0
 90
        2
176
     1
  1
strokes_ogs.tif
176
     1
290
     0
176
     1
 40
1.0
176
     1
 40
1.0
176
     1
  0
VISUALSTYLE
  5
32
102
{ACAD_REACTORS
330
2A
102
}
330
2A
100
AcDbVisualStyle
  2
Basic
 70
     7
177
     3
291
     1
 70
    58
 90
        1
176
     1
 90
        0
176
     1
 90
        1
176
     1
 90
        0
176
     1
 40
0.6
176
     1
 40
30.0
176
     1
 62
     7
420
 16777215
176
     1
 90
        0
176
     1
 90
        4
176
     1
 62
     7
176
     1
 62
   257
176
     1
 90
        1
176
     1
 90
        1
176
     1
 40
1.0
176
     1
 90
        8
176
     1
 62
     7
176
     1
 40
1.0
176
     1
 90
        1
176
     1
 90
        6
176
     1
 90
        2
176
     1
 62
     7
176
     1
 90
        5
176
     1
 90
        0
176
     1
 90
        0
176
     1
290
     0
176
     1
 90
        1
176
     1
 40
0.0
176
     1
 90
        0
176
     1
290
     0
176
     1
290
     1
176
     1
290
     1
176
     1
290
     0
176
     1
290
     0
176
     1
290
     0
176
     1
290
     0
176
     1
290
     0
176
     1
290
     0
176
     1
 90
       50
176
     1
 40
0.0
176
     1
 40
1.0
176
     1
 90
        0
176
     1
 62
    18
420
        0
176
     1
 90
       50
176
     1
 90
        3
176
     1
 62
     5
420
      255
176
     1
290
     0
176
     1
 90
       50
176
     1
 90
       50
176
     1
 90
       50
176
     1
290
     0
176
     1
 90
       50
176
     1
 62
   256
176
     0
 40
1.0
176
     0
 90
        2
176
     1
  1
strokes_ogs.tif
176
     1
290
     0
176
     1
 40
1.0
176
     1
 40
1.0
176
     1
  0
VISUALSTYLE
  5
36
102
{ACAD_REACTORS
330
2A
102
}
330
2A
100
AcDbVisualStyle
  2
Brighten
 70
    12
177
     3
291
     1
 70
    58
 90
        2
176
     1
 90
        2
176
     1
 90
        0
176
     1
 90
        0
176
     1
 40
0.6
176
     1
 40
30.0
176
     1
 62
     7
420
 16777215
176
     1
 90
        1
176
     1
 90
        4
176
     1
 62
     7
176
     1
 62
   257
176
     1
 90
        1
176
     1
 90
        1
176
     1
 40
1.0
176
     1
 90
        8
176
     1
 62
     7
176
     1
 40
1.0
176
     1
 90
        1
176
     1
 90
        6
176
     1
 90
        2
176
     1
 62
     7
176
     1
 90
        5
176
     1
 90
        0
176
     1
 90
        0
176
     1
290
     0
176
     1
 90
        1
176
     1
 40
50.0
176
     1
 90
        0
176
     1
290
     0
176
     1
290
     1
176
     1
290
     1
176
     1
290
     0
176
     1
290
     0
176
     1
290
     0
176
     1
290
     0
176
     1
290
     0
176
     1
290
     0
176
     1
 90
       50
176
     1
 40
0.0
176
     1
 40
1.0
176
     1
 90
        0
176
     1
 62
    18
420
        0
176
     1
 90
       50
176
     1
 90
        3
176
     1
 62
     5
420
      255
176
     1
290
     0
176
     1
 90
       50
176
     1
 90
       50
176
     1
 90
       50
176
     1
290
     0
176
     1
 90
       50
176
     1
 62
   256
176
     0
 40
1.0
176
     0
 90
        2
176
     1
  1
strokes_ogs.tif
176
     1
290
     0
176
     1
 40
1.0
176
     1
 40
1.0
176
     1
  0
VISUALSTYLE
  5
3A
102
{ACAD_REACTORS
330
2A
102
}
330
2A
100
AcDbVisualStyle
  2
ColorChange
 70
    16
177
     3
291
     1
 70
    58
 90
        2
176
     1
 90
        2
176
     1
 90
        3
176
     1
 90
        0
176
     1
 40
0.6
176
     1
 40
30.0
176
     1
 62
     8
420
  8421504
176
     1
 90
        1
176
     1
 90
        4
176
     1
 62
     7
176
     1
 62
   257
176
     1
 90
        1
176
     1
 90
        1
176
     1
 40
1.0
176
     1
 90
        8
176
     1
 62
     8
420
  8421504
176
     1
 40
1.0
176
     1
 90
        1
176
     1
 90
        6
176
     1
 90
        2
176
     1
 62
     7
176
     1
 90
        5
176
     1
 90
        0
176
     1
 90
        0
176
     1
290
     0
176
     1
 90
        1
176
     1
 40
0.0
176
     1
 90
        0
176
     1
290
     0
176
     1
290
     1
176
     1
290
     1
176
     1
290
     0
176
     1
290
     0
176
     1
290
     0
176
     1
290
     0
176
     1
290
     0
176
     1
290
     0
176
     1
 90
       50
176
     1
 40
0.0
176
     1
 40
1.0
176
     1
 90
        0
176
     1
 62
    18
420
        0
176
     1
 90
       50
176
     1
 90
        3
176
     1
 62
     5
420
      255
176
     1
290
     0
176
     1
 90
       50
176
     1
 90
       50
176
     1
 90
       50
176
     1
290
     0
176
     1
 90
       50
176
     1
 62
   256
176
     0
 40
1.0
176
     0
 90
        2
176
     1
  1
strokes_ogs.tif
176
     1
290
     0
176
     1
 40
1.0
176
     1
 40
1.0
176
     1
  0
VISUALSTYLE
  5
34
102
{ACAD_REACTORS
330
2A
102
}
330
2A
100
AcDbVisualStyle
  2
Conceptual
 70
     9
177
     3
291
     0
 70
    58
 90
        3
176
     1
 90
        2
176
     1
 90
        0
176
     1
 90
        0
176
     1
 40
0.6
176
     1
 40
30.0
176
     1
 62
     7
420
 16777215
176
     1
 90
        2
176
     1
 90
        2
176
     1
 62
     7
176
     1
 62
   257
176
     1
 90
        1
176
     1
 90
        1
176
     1
 40
179.0
176
     1
 90
        8
176
     1
 62
     7
176
     1
 40
1.0
176
     1
 90
        1
176
     1
 90
        6
176
     1
 90
        2
176
     1
 62
     7
176
     1
 90
        3
176
     1
 90
        0
176
     1
 90
        0
176
     1
290
     0
176
     1
 90
        1
176
     1
 40
0.0
176
     1
 90
        0
176
     1
290
     0
176
     1
290
     1
176
     1
290
     1
176
     1
290
     0
176
     1
290
     0
176
     1
290
     0
176
     1
290
     0
176
     1
290
     0
176
     1
290
     0
176
     1
 90
       50
176
     1
 40
0.0
176
     1
 40
1.0
176
     1
 90
        0
176
     1
 62
    18
420
        0
176
     1
 90
       50
176
     1
 90
        3
176
     1
 62
     5
420
      255
176
     1
290
     0
176
     1
 90
       50
176
     1
 90
       50
176
     1
 90
       50
176
     1
290
     0
176
     1
 90
       50
176
     1
 62
   256
176
     0
 40
1.0
176
     0
 90
        2
176
     1
  1
strokes_ogs.tif
176
     1
290
     0
176
     1
 40
1.0
176
     1
 40
1.0
176
     1
  0
VISUALSTYLE
  5
35
102
{ACAD_REACTORS
330
2A
102
}
330
2A
100
AcDbVisualStyle
  2
Dim
 70
    11
177
     3
291
     1
 70
    58
 90
        2
176
     1
 90
        2
176
     1
 90
        0
176
     1
 90
        0
176
     1
 40
0.6
176
     1
 40
30.0
176
     1
 62
     7
420
 16777215
176
     1
 90
        1
176
     1
 90
        4
176
     1
 62
     7
176
     1
 62
   257
176
     1
 90
        1
176
     1
 90
        1
176
     1
 40
1.0
176
     1
 90
        8
176
     1
 62
     7
176
     1
 40
1.0
176
     1
 90
        1
176
     1
 90
        6
176
     1
 90
        2
176
     1
 62
     7
176
     1
 90
        5
176
     1
 90
        0
176
     1
 90
        0
176
     1
290
     0
176
     1
 90
        1
176
     1
 40
-50.0
176
     1
 90
        0
176
     1
290
     0
176
     1
290
     1
176
     1
290
     1
176
     1
290
     0
176
     1
290
     0
176
     1
290
     0
176
     1
290
     0
176
     1
290
     0
176
     1
290
     0
176
     1
 90
       50
176
     1
 40
0.0
176
     1
 40
1.0
176
     1
 90
        0
176
     1
 62
    18
420
        0
176
     1
 90
       50
176
     1
 90
        3
176
     1
 62
     5
420
      255
176
     1
290
     0
176
     1
 90
       50
176
     1
 90
       50
176
     1
 90
       50
176
     1
290
     0
176
     1
 90
       50
176
     1
 62
   256
176
     0
 40
1.0
176
     0
 90
        2
176
     1
  1
strokes_ogs.tif
176
     1
290
     0
176
     1
 40
1.0
176
     1
 40
1.0
176
     1
  0
VISUALSTYLE
  5
3D
102
{ACAD_REACTORS
330
2A
102
}
330
2A
100
AcDbVisualStyle
  2
EdgeColorOff
 70
    22
177
     3
291
     1
 70
    58
 90
        2
176
     0
 90
        2
176
     0
 90
        0
176
     0
 90
        0
176
     0
 40
0.6
176
     0
 40
30.0
176
     0
 62
     7
420
 16777215
176
     0
 90
        1
176
     0
 90
        4
176
     0
 62
     7
176
     0
 62
   257
176
     0
 90
        1
176
     0
 90
        1
176
     0
 40
1.0
176
     0
 90
        8
176
     2
 62
     7
176
     0
 40
1.0
176
     0
 90
        1
176
     0
 90
        6
176
     0
 90
        2
176
     0
 62
     7
176
     0
 90
        5
176
     0
 90
        0
176
     0
 90
        0
176
     0
290
     0
176
     0
 90
        1
176
     0
 40
0.0
176
     0
 90
        0
176
     0
290
     0
176
     0
290
     1
176
     0
290
     1
176
     0
290
     0
176
     0
290
     0
176
     0
290
     0
176
     0
290
     0
176
     0
290
     0
176
     0
290
     0
176
     0
 90
       50
176
     0
 40
0.0
176
     0
 40
1.0
176
     0
 90
        0
176
     0
 62
    18
420
        0
176
     0
 90
       50
176
     0
 90
        3
176
     0
 62
     5
420
      255
176
     0
290
     0
176
     0
 90
       50
176
     0
 90
       50
176
     0
 90
       50
176
     0
290
     0
176
     0
 90
       50
176
     0
 62
   256
176
     0
 40
1.0
176
     0
 90
        2
176
     0
  1
strokes_ogs.tif
176
     0
290
     0
176
     0
 40
1.0
176
     0
 40
1.0
176
     0
  0
VISUALSTYLE
  5
39
102
{ACAD_REACTORS
330
2A
102
}
330
2A
100
AcDbVisualStyle
  2
Facepattern
 70
    15
177
     3
291
     1
 70
    58
 90
        2
176
     1
 90
        2
176
     1
 90
        0
176
     1
 90
        0
176
     1
 40
0.6
176
     1
 40
30.0
176
     1
 62
     7
420
 16777215
176
     1
 90
        1
176
     1
 90
        4
176
     1
 62
     7
176
     1
 62
   257
176
     1
 90
        1
176
     1
 90
        1
176
     1
 40
1.0
176
     1
 90
        8
176
     1
 62
     7
176
     1
 40
1.0
176
     1
 90
        1
176
     1
 90
        6
176
     1
 90
        2
176
     1
 62
     7
176
     1
 90
        5
176
     1
 90
        0
176
     1
 90
        0
176
     1
290
     0
176
     1
 90
        1
176
     1
 40
0.0
176
     1
 90
        0
176
     1
290
     0
176
     1
290
     1
176
     1
290
     1
176
     1
290
     0
176
     1
290
     0
176
     1
290
     0
176
     1
290
     0
176
     1
290
     0
176
     1
290
     0
176
     1
 90
       50
176
     1
 40
0.0
176
     1
 40
1.0
176
     1
 90
        0
176
     1
 62
    18
420
        0
176
     1
 90
       50
176
     1
 90
        3
176
     1
 62
     5
420
      255
176
     1
290
     0
176
     1
 90
       50
176
     1
 90
       50
176
     1
 90
       50
176
     1
290
     0
176
     1
 90
       50
176
     1
 62
   256
176
     0
 40
1.0
176
     0
 90
        2
176
     1
  1
strokes_ogs.tif
176
     1
290
     0
176
     1
 40
1.0
176
     1
 40
1.0
176
     1
  0
VISUALSTYLE
  5
2B
102
{ACAD_REACTORS
330
2A
102
}
330
2A
100
AcDbVisualStyle
  2
Flat
 70
     0
177
     3
291
     1
 70
    58
 90
        2
176
     1
 90
        1
176
     1
 90
        1
176
     1
 90
        2
176
     1
 40
0.6
176
     1
 40
30.0
176
     1
 62
     7
420
 16777215
176
     1
 90
        0
176
     1
 90
        0
176
     1
 62
     7
176
     1
 62
   257
176
     1
 90
        1
176
     1
 90
        1
176
     1
 40
1.0
176
     1
 90
        8
176
     1
 62
     7
176
     1
 40
1.0
176
     1
 90
        1
176
     1
 90
        6
176
     1
 90
        2
176
     1
 62
     7
176
     1
 90
        5
176
     1
 90
        0
176
     1
 90
        0
176
     1
290
     0
176
     1
 90
       13
176
     1
 40
0.0
176
     1
 90
        0
176
     1
290
     0
176
     1
290
     1
176
     1
290
     1
176
     1
290
     0
176
     1
290
     0
176
     1
290
     0
176
     1
290
     0
176
     1
290
     0
176
     1
290
     0
176
     1
 90
       50
176
     1
 40
0.0
176
     1
 40
1.0
176
     1
 90
        0
176
     1
 62
    18
420
        0
176
     1
 90
       50
176
     1
 90
        3
176
     1
 62
     5
420
      255
176
     1
290
     0
176
     1
 90
       50
176
     1
 90
       50
176
     1
 90
       50
176
     1
290
     0
176
     1
 90
       50
176
     1
 62
   256
176
     0
 40
1.0
176
     0
 90
        2
176
     1
  1
strokes_ogs.tif
176
     1
290
     0
176
     1
 40
1.0
176
     1
 40
1.0
176
     1
  0
VISUALSTYLE
  5
2C
102
{ACAD_REACTORS
330
2A
102
}
330
2A
100
AcDbVisualStyle
  2
FlatWithEdges
 70
     1
177
     3
291
     1
 70
    58
 90
        2
176
     1
 90
        1
176
     1
 90
        1
176
     1
 90
        2
176
     1
 40
0.6
176
     1
 40
30.0
176
     1
 62
     7
420
 16777215
176
     1
 90
        1
176
     1
 90
        0
176
     1
 62
     7
176
     1
 62
   257
176
     1
 90
        1
176
     1
 90
        1
176
     1
 40
1.0
176
     1
 90
        0
176
     1
 62
   257
176
     1
 40
1.0
176
     1
 90
        1
176
     1
 90
        6
176
     1
 90
        2
176
     1
 62
     7
176
     1
 90
        5
176
     1
 90
        0
176
     1
 90
        0
176
     1
290
     0
176
     1
 90
       13
176
     1
 40
0.0
176
     1
 90
        0
176
     1
290
     0
176
     1
290
     1
176
     1
290
     1
176
     1
290
     0
176
     1
290
     0
176
     1
290
     0
176
     1
290
     0
176
     1
290
     0
176
     1
290
     0
176
     1
 90
       50
176
     1
 40
0.0
176
     1
 40
1.0
176
     1
 90
        0
176
     1
 62
    18
420
        0
176
     1
 90
       50
176
     1
 90
        3
176
     1
 62
     5
420
      255
176
     1
290
     0
176
     1
 90
       50
176
     1
 90
       50
176
     1
 90
       50
176
     1
290
     0
176
     1
 90
       50
176
     1
 62
   256
176
     0
 40
1.0
176
     0
 90
        2
176
     1
  1
strokes_ogs.tif
176
     1
290
     0
176
     1
 40
1.0
176
     1
 40
1.0
176
     1
  0
VISUALSTYLE
  5
2D
102
{ACAD_REACTORS
330
2A
102
}
330
2A
100
AcDbVisualStyle
  2
Gouraud
 70
     2
177
     3
291
     1
 70
    58
 90
        2
176
     1
 90
        2
176
     1
 90
        1
176
     1
 90
        2
176
     1
 40
0.6
176
     1
 40
30.0
176
     1
 62
     7
420
 16777215
176
     1
 90
        0
176
     1
 90
        0
176
     1
 62
     7
176
     1
 62
   257
176
     1
 90
        1
176
     1
 90
        1
176
     1
 40
1.0
176
     1
 90
        0
176
     1
 62
     7
176
     1
 40
1.0
176
     1
 90
        1
176
     1
 90
        6
176
     1
 90
        2
176
     1
 62
     7
176
     1
 90
        5
176
     1
 90
        0
176
     1
 90
        0
176
     1
290
     0
176
     1
 90
       13
176
     1
 40
0.0
176
     1
 90
        0
176
     1
290
     0
176
     1
290
     1
176
     1
290
     1
176
     1
290
     0
176
     1
290
     0
176
     1
290
     0
176
     1
290
     0
176
     1
290
     0
176
     1
290
     0
176
     1
 90
       50
176
     1
 40
0.0
176
     1
 40
1.0
176
     1
 90
        0
176
     1
 62
    18
420
        0
176
     1
 90
       50
176
     1
 90
        3
176
     1
 62
     5
420
      255
176
     1
290
     0
176
     1
 90
       50
176
     1
 90
       50
176
     1
 90
       50
176
     1
290
     0
176
     1
 90
       50
176
     1
 62
   256
176
     0
 40
1.0
176
     0
 90
        2
176
     1
  1
strokes_ogs.tif
176
     1
290
     0
176
     1
 40
1.0
176
     1
 40
1.0
176
     1
  0
VISUALSTYLE
  5
2E
102
{ACAD_REACTORS
330
2A
102
}
330
2A
100
AcDbVisualStyle
  2
GouraudWithEdges
 70
     3
177
     3
291
     1
 70
    58
 90
        2
176
     1
 90
        2
176
     1
 90
        1
176
     1
 90
        2
176
     1
 40
0.6
176
     1
 40
30.0
176
     1
 62
     7
420
 16777215
176
     1
 90
        1
176
     1
 90
        0
176
     1
 62
     7
176
     1
 62
   257
176
     1
 90
        1
176
     1
 90
        1
176
     1
 40
1.0
176
     1
 90
        0
176
     1
 62
   257
176
     1
 40
1.0
176
     1
 90
        1
176
     1
 90
        6
176
     1
 90
        2
176
     1
 62
     7
176
     1
 90
        5
176
     1
 90
        0
176
     1
 90
        0
176
     1
290
     0
176
     1
 90
       13
176
     1
 40
0.0
176
     1
 90
        0
176
     1
290
     0
176
     1
290
     1
176
     1
290
     1
176
     1
290
     0
176
     1
290
     0
176
     1
290
     0
176
     1
290
     0
176
     1
290
     0
176
     1
290
     0
176
     1
 90
       50
176
     1
 40
0.0
176
     1
 40
1.0
176
     1
 90
        0
176
     1
 62
    18
420
        0
176
     1
 90
       50
176
     1
 90
        3
176
     1
 62
     5
420
      255
176
     1
290
     0
176
     1
 90
       50
176
     1
 90
       50
176
     1
 90
       50
176
     1
290
     0
176
     1
 90
       50
176
     1
 62
   256
176
     0
 40
1.0
176
     0
 90
        2
176
     1
  1
strokes_ogs.tif
176
     1
290
     0
176
     1
 40
1.0
176
     1
 40
1.0
176
     1
  0
VISUALSTYLE
  5
31
102
{ACAD_REACTORS
330
2A
102
}
330
2A
100
AcDbVisualStyle
  2
Hidden
 70
     6
177
     3
291
     0
 70
    58
 90
        1
176
     1
 90
        2
176
     1
 90
        2
176
     1
 90
        0
176
     1
 40
0.6
176
     1
 40
30.0
176
     1
 62
     7
420
 16777215
176
     1
 90
        2
176
     1
 90
        2
176
     1
 62
     7
176
     1
 62
   257
176
     1
 90
        2
176
     1
 90
        1
176
     1
 40
40.0
176
     1
 90
        0
176
     1
 62
   257
176
     1
 40
1.0
176
     1
 90
        1
176
     1
 90
        6
176
     1
 90
        2
176
     1
 62
     7
176
     1
 90
        3
176
     1
 90
        0
176
     1
 90
        0
176
     1
290
     0
176
     1
 90
        1
176
     1
 40
0.0
176
     1
 90
        0
176
     1
290
     0
176
     1
290
     1
176
     1
290
     1
176
     1
290
     0
176
     1
290
     0
176
     1
290
     0
176
     1
290
     0
176
     1
290
     0
176
     1
290
     0
176
     1
 90
       50
176
     1
 40
0.0
176
     1
 40
1.0
176
     1
 90
        0
176
     1
 62
    18
420
        0
176
     1
 90
       50
176
     1
 90
        3
176
     1
 62
     5
420
      255
176
     1
290
     0
176
     1
 90
       50
176
     1
 90
       50
176
     1
 90
       50
176
     1
290
     0
176
     1
 90
       50
176
     1
 62
   256
176
     0
 40
1.0
176
     0
 90
        2
176
     1
  1
strokes_ogs.tif
176
     1
290
     0
176
     1
 40
1.0
176
     1
 40
1.0
176
     1
  0
VISUALSTYLE
  5
3B
102
{ACAD_REACTORS
330
2A
102
}
330
2A
100
AcDbVisualStyle
  2
JitterOff
 70
    20
177
     3
291
     1
 70
    58
 90
        2
176
     0
 90
        2
176
     0
 90
        0
176
     0
 90
        0
176
     0
 40
0.6
176
     0
 40
30.0
176
     0
 62
     7
420
 16777215
176
     0
 90
        1
176
     0
 90
        4
176
     0
 62
     7
176
     0
 62
   257
176
     0
 90
        1
176
     0
 90
        1
176
     0
 40
1.0
176
     0
 90
       10
176
     2
 62
     7
176
     0
 40
1.0
176
     0
 90
        1
176
     0
 90
        6
176
     0
 90
        2
176
     0
 62
     7
176
     0
 90
        5
176
     0
 90
        0
176
     0
 90
        0
176
     0
290
     0
176
     0
 90
        1
176
     0
 40
0.0
176
     0
 90
        0
176
     0
290
     0
176
     0
290
     1
176
     0
290
     1
176
     0
290
     0
176
     0
290
     0
176
     0
290
     0
176
     0
290
     0
176
     0
290
     0
176
     0
290
     0
176
     0
 90
       50
176
     0
 40
0.0
176
     0
 40
1.0
176
     0
 90
        0
176
     0
 62
    18
420
        0
176
     0
 90
       50
176
     0
 90
        3
176
     0
 62
     5
420
      255
176
     0
290
     0
176
     0
 90
       50
176
     0
 90
       50
176
     0
 90
       50
176
     0
290
     0
176
     0
 90
       50
176
     0
 62
   256
176
     0
 40
1.0
176
     0
 90
        2
176
     0
  1
strokes_ogs.tif
176
     0
290
     0
176
     0
 40
1.0
176
     0
 40
1.0
176
     0
  0
VISUALSTYLE
  5
38
102
{ACAD_REACTORS
330
2A
102
}
330
2A
100
AcDbVisualStyle
  2
Linepattern
 70
    14
177
     3
291
     1
 70
    58
 90
        2
176
     1
 90
        2
176
     1
 90
        0
176
     1
 90
        0
176
     1
 40
0.6
176
     1
 40
30.0
176
     1
 62
     7
420
 16777215
176
     1
 90
        1
176
     1
 90
        4
176
     1
 62
     7
176
     1
 62
   257
176
     1
 90
        7
176
     1
 90
        7
176
     1
 40
1.0
176
     1
 90
        8
176
     1
 62
     7
176
     1
 40
1.0
176
     1
 90
        1
176
     1
 90
        6
176
     1
 90
        2
176
     1
 62
     7
176
     1
 90
        5
176
     1
 90
        0
176
     1
 90
        0
176
     1
290
     0
176
     1
 90
        1
176
     1
 40
0.0
176
     1
 90
        0
176
     1
290
     0
176
     1
290
     1
176
     1
290
     1
176
     1
290
     0
176
     1
290
     0
176
     1
290
     0
176
     1
290
     0
176
     1
290
     0
176
     1
290
     0
176
     1
 90
       50
176
     1
 40
0.0
176
     1
 40
1.0
176
     1
 90
        0
176
     1
 62
    18
420
        0
176
     1
 90
       50
176
     1
 90
        3
176
     1
 62
     5
420
      255
176
     1
290
     0
176
     1
 90
       50
176
     1
 90
       50
176
     1
 90
       50
176
     1
290
     0
176
     1
 90
       50
176
     1
 62
   256
176
     0
 40
1.0
176
     0
 90
        2
176
     1
  1
strokes_ogs.tif
176
     1
290
     0
176
     1
 40
1.0
176
     1
 40
1.0
176
     1
  0
VISUALSTYLE
  5
3C
102
{ACAD_REACTORS
330
2A
102
}
330
2A
100
AcDbVisualStyle
  2
OverhangOff
 70
    21
177
     3
291
     1
 70
    58
 90
        2
176
     0
 90
        2
176
     0
 90
        0
176
     0
 90
        0
176
     0
 40
0.6
176
     0
 40
30.0
176
     0
 62
     7
420
 16777215
176
     0
 90
        1
176
     0
 90
        4
176
     0
 62
     7
176
     0
 62
   257
176
     0
 90
        1
176
     0
 90
        1
176
     0
 40
1.0
176
     0
 90
        9
176
     2
 62
     7
176
     0
 40
1.0
176
     0
 90
        1
176
     0
 90
        6
176
     0
 90
        2
176
     0
 62
     7
176
     0
 90
        5
176
     0
 90
        0
176
     0
 90
        0
176
     0
290
     0
176
     0
 90
        1
176
     0
 40
0.0
176
     0
 90
        0
176
     0
290
     0
176
     0
290
     1
176
     0
290
     1
176
     0
290
     0
176
     0
290
     0
176
     0
290
     0
176
     0
290
     0
176
     0
290
     0
176
     0
290
     0
176
     0
 90
       50
176
     0
 40
0.0
176
     0
 40
1.0
176
     0
 90
        0
176
     0
 62
    18
420
        0
176
     0
 90
       50
176
     0
 90
        3
176
     0
 62
     5
420
      255
176
     0
290
     0
176
     0
 90
       50
176
     0
 90
       50
176
     0
 90
       50
176
     0
290
     0
176
     0
 90
       50
176
     0
 62
   256
176
     0
 40
1.0
176
     0
 90
        2
176
     0
  1
strokes_ogs.tif
176
     0
290
     0
176
     0
 40
1.0
176
     0
 40
1.0
176
     0
  0
VISUALSTYLE
  5
33
102
{ACAD_REACTORS
330
2A
102
}
330
2A
100
AcDbVisualStyle
  2
Realistic
 70
     8
177
     3
291
     0
 70
    58
 90
        2
176
     1
 90
        3
176
     1
 90
        0
176
     1
 90
        2
176
     1
 40
0.6
176
     1
 40
30.0
176
     1
 62
     7
420
 16777215
176
     1
 90
        0
176
     1
 90
        0
176
     1
 62
     7
176
     1
 62
   257
176
     1
 90
        1
176
     1
 90
        1
176
     1
 40
1.0
176
     1
 90
        8
176
     1
 62
   257
176
     1
 40
1.0
176
     1
 90
        1
176
     1
 90
        6
176
     1
 90
        2
176
     1
 62
     7
176
     1
 90
        3
176
     1
 90
        0
176
     1
 90
        0
176
     1
290
     0
176
     1
 90
       13
176
     1
 40
0.0
176
     1
 90
        0
176
     1
290
     0
176
     1
290
     1
176
     1
290
     1
176
     1
290
     0
176
     1
290
     0
176
     1
290
     0
176
     1
290
     0
176
     1
290
     0
176
     1
290
     0
176
     1
 90
       50
176
     1
 40
0.0
176
     1
 40
1.0
176
     1
 90
        0
176
     1
 62
    18
420
        0
176
     1
 90
       50
176
     1
 90
        3
176
     1
 62
     5
420
      255
176
     1
290
     0
176
     1
 90
       50
176
     1
 90
       50
176
     1
 90
       50
176
     1
290
     0
176
     1
 90
       50
176
     1
 62
   256
176
     0
 40
1.0
176
     0
 90
        2
176
     1
  1
strokes_ogs.tif
176
     1
290
     0
176
     1
 40
1.0
176
     1
 40
1.0
176
     1
  0
VISUALSTYLE
  5
42
102
{ACAD_REACTORS
330
2A
102
}
330
2A
100
AcDbVisualStyle
  2
Shaded
 70
    27
177
     3
291
     0
 70
    58
 90
        2
176
     1
 90
        2
176
     1
 90
        1
176
     1
 90
        2
176
     1
 40
0.6
176
     1
 40
30.0
176
     1
 62
     7
420
 16777215
176
     1
 90
        0
176
     1
 90
        4
176
     1
 62
     7
176
     1
 62
   257
176
     1
 90
        1
176
     1
 90
        1
176
     1
 40
1.0
176
     1
 90
        8
176
     1
 62
   257
176
     1
 40
1.0
176
     1
 90
        1
176
     1
 90
        6
176
     1
 90
        2
176
     1
 62
     8
420
  7895160
176
     1
 90
        3
176
     1
 90
        0
176
     1
 90
        0
176
     1
290
     0
176
     1
 90
        5
176
     1
 40
0.0
176
     1
 90
        0
176
     1
290
     0
176
     1
290
     1
176
     1
290
     1
176
     1
290
     0
176
     1
290
     0
176
     1
290
     0
176
     1
290
     0
176
     1
290
     0
176
     1
290
     0
176
     1
 90
       50
176
     1
 40
0.0
176
     1
 40
1.0
176
     1
 90
        0
176
     1
 62
    18
420
        0
176
     1
 90
       50
176
     1
 90
        3
176
     1
 62
     5
420
      255
176
     1
290
     0
176
     1
 90
       50
176
     1
 90
       50
176
     1
 90
       50
176
     1
290
     0
176
     1
 90
       50
176
     1
 62
   256
176
     0
 40
1.0
176
     0
 90
        2
176
     1
  1
strokes_ogs.tif
176
     1
290
     0
176
     1
 40
1.0
176
     1
 40
1.0
176
     1
  0
VISUALSTYLE
  5
41
102
{ACAD_REACTORS
330
2A
102
}
330
2A
100
AcDbVisualStyle
  2
Shaded with edges
 70
    26
177
     3
291
     0
 70
    58
 90
        2
176
     1
 90
        2
176
     1
 90
        1
176
     1
 90
        2
176
     1
 40
0.6
176
     1
 40
30.0
176
     1
 62
     7
420
 16777215
176
     1
 90
        1
176
     1
 90
       10
176
     1
 62
     7
176
     1
 62
   257
176
     1
 90
        2
176
     1
 90
        1
176
     1
 40
1.0
176
     1
 90
        8
176
     1
 62
   257
176
     1
 40
1.0
176
     1
 90
        1
176
     1
 90
        6
176
     1
 90
        2
176
     1
 62
     7
176
     1
 90
        3
176
     1
 90
        0
176
     1
 90
        0
176
     1
290
     0
176
     1
 90
        5
176
     1
 40
0.0
176
     1
 90
        0
176
     1
290
     0
176
     1
290
     1
176
     1
290
     1
176
     1
290
     0
176
     1
290
     0
176
     1
290
     0
176
     1
290
     0
176
     1
290
     0
176
     1
290
     0
176
     1
 90
       50
176
     1
 40
0.0
176
     1
 40
1.0
176
     1
 90
        0
176
     1
 62
    18
420
        0
176
     1
 90
       50
176
     1
 90
        3
176
     1
 62
     5
420
      255
176
     1
290
     0
176
     1
 90
       50
176
     1
 90
       50
176
     1
 90
       50
176
     1
290
     0
176
     1
 90
       50
176
     1
 62
   256
176
     0
 40
1.0
176
     0
 90
        2
176
     1
  1
strokes_ogs.tif
176
     1
290
     0
176
     1
 40
1.0
176
     1
 40
1.0
176
     1
  0
VISUALSTYLE
  5
3E
102
{ACAD_REACTORS
330
2A
102
}
330
2A
100
AcDbVisualStyle
  2
Shades of Gray
 70
    23
177
     3
291
     0
 70
    58
 90
        2
176
     1
 90
        2
176
     1
 90
        3
176
     1
 90
        0
176
     1
 40
0.6
176
     1
 40
30.0
176
     1
 62
     7
420
 16777215
176
     1
 90
        2
176
     1
 90
        2
176
     1
 62
     7
176
     1
 62
     7
176
     1
 90
        1
176
     1
 90
        1
176
     1
 40
40.0
176
     1
 90
        8
176
     1
 62
     7
176
     1
 40
1.0
176
     1
 90
        1
176
     1
 90
        6
176
     1
 90
        2
176
     1
 62
     7
176
     1
 90
        3
176
     1
 90
        0
176
     1
 90
        0
176
     1
290
     0
176
     1
 90
        1
176
     1
 40
0.0
176
     1
 90
        0
176
     1
290
     0
176
     1
290
     1
176
     1
290
     1
176
     1
290
     0
176
     1
290
     0
176
     1
290
     0
176
     1
290
     0
176
     1
290
     0
176
     1
290
     0
176
     1
 90
       50
176
     1
 40
0.0
176
     1
 40
1.0
176
     1
 90
        0
176
     1
 62
    18
420
        0
176
     1
 90
       50
176
     1
 90
        3
176
     1
 62
     5
420
      255
176
     1
290
     0
176
     1
 90
       50
176
     1
 90
       50
176
     1
 90
       50
176
     1
290
     0
176
     1
 90
       50
176
     1
 62
   256
176
     0
 40
1.0
176
     0
 90
        2
176
     1
  1
strokes_ogs.tif
176
     1
290
     0
176
     1
 40
1.0
176
     1
 40
1.0
176
     1
  0
VISUALSTYLE
  5
3F
102
{ACAD_REACTORS
330
2A
102
}
330
2A
100
AcDbVisualStyle
  2
Sketchy
 70
    24
177
     3
291
     0
 70
    58
 90
        1
176
     1
 90
        2
176
     1
 90
        2
176
     1
 90
        0
176
     1
 40
0.6
176
     1
 40
30.0
176
     1
 62
     7
420
 16777215
176
     1
 90
        2
176
     1
 90
        2
176
     1
 62
     7
176
     1
 62
     7
176
     1
 90
        1
176
     1
 90
        1
176
     1
 40
40.0
176
     1
 90
       11
176
     1
 62
     7
176
     1
 40
1.0
176
     1
 90
        1
176
     1
 90
        6
176
     1
 90
        2
176
     1
 62
     7
176
     1
 90
        6
176
     1
 90
        0
176
     1
 90
        0
176
     1
290
     0
176
     1
 90
        1
176
     1
 40
0.0
176
     1
 90
        0
176
     1
290
     0
176
     1
290
     1
176
     1
290
     1
176
     1
290
     0
176
     1
290
     0
176
     1
290
     0
176
     1
290
     0
176
     1
290
     0
176
     1
290
     0
176
     1
 90
       50
176
     1
 40
0.0
176
     1
 40
1.0
176
     1
 90
        0
176
     1
 62
    18
420
        0
176
     1
 90
       50
176
     1
 90
        3
176
     1
 62
     5
420
      255
176
     1
290
     0
176
     1
 90
       50
176
     1
 90
       50
176
     1
 90
       50
176
     1
290
     0
176
     1
 90
       50
176
     1
 62
   256
176
     0
 40
1.0
176
     0
 90
        2
176
     1
  1
strokes_ogs.tif
176
     1
290
     0
176
     1
 40
1.0
176
     1
 40
1.0
176
     1
  0
VISUALSTYLE
  5
37
102
{ACAD_REACTORS
330
2A
102
}
330
2A
100
AcDbVisualStyle
  2
Thicken
 70
    13
177
     3
291
     1
 70
    58
 90
        2
176
     1
 90
        2
176
     1
 90
        0
176
     1
 90
        0
176
     1
 40
0.6
176
     1
 40
30.0
176
     1
 62
     7
420
 16777215
176
     1
 90
        1
176
     1
 90
        4
176
     1
 62
     7
176
     1
 62
   257
176
     1
 90
        1
176
     1
 90
        1
176
     1
 40
1.0
176
     1
 90
       12
176
     1
 62
     7
176
     1
 40
1.0
176
     1
 90
        1
176
     1
 90
        6
176
     1
 90
        2
176
     1
 62
     7
176
     1
 90
        5
176
     1
 90
        0
176
     1
 90
        0
176
     1
290
     0
176
     1
 90
        1
176
     1
 40
0.0
176
     1
 90
        0
176
     1
290
     0
176
     1
290
     1
176
     1
290
     1
176
     1
290
     0
176
     1
290
     0
176
     1
290
     0
176
     1
290
     0
176
     1
290
     0
176
     1
290
     0
176
     1
 90
       50
176
     1
 40
0.0
176
     1
 40
1.0
176
     1
 90
        0
176
     1
 62
    18
420
        0
176
     1
 90
       50
176
     1
 90
        3
176
     1
 62
     5
420
      255
176
     1
290
     0
176
     1
 90
       50
176
     1
 90
       50
176
     1
 90
       50
176
     1
290
     0
176
     1
 90
       50
176
     1
 62
   256
176
     0
 40
1.0
176
     0
 90
        2
176
     1
  1
strokes_ogs.tif
176
     1
290
     0
176
     1
 40
1.0
176
     1
 40
1.0
176
     1
  0
VISUALSTYLE
  5
30
102
{ACAD_REACTORS
330
2A
102
}
330
2A
100
AcDbVisualStyle
  2
Wireframe
 70
     5
177
     3
291
     0
 70
    58
 90
        0
176
     1
 90
        2
176
     1
 90
        0
176
     1
 90
        0
176
     1
 40
0.6
176
     1
 40
30.0
176
     1
 62
     7
420
 16777215
176
     1
 90
        1
176
     1
 90
        4
176
     1
 62
     7
176
     1
 62
   257
176
     1
 90
        1
176
     1
 90
        1
176
     1
 40
1.0
176
     1
 90
        0
176
     1
 62
   257
176
     1
 40
1.0
176
     1
 90
        1
176
     1
 90
        6
176
     1
 90
        2
176
     1
 62
     7
176
     1
 90
        3
176
     1
 90
        0
176
     1
 90
        0
176
     1
290
     0
176
     1
 90
        1
176
     1
 40
0.0
176
     1
 90
        0
176
     1
290
     0
176
     1
290
     1
176
     1
290
     1
176
     1
290
     0
176
     1
290
     0
176
     1
290
     0
176
     1
290
     0
176
     1
290
     0
176
     1
290
     0
176
     1
 90
       50
176
     1
 40
0.0
176
     1
 40
1.0
176
     1
 90
        0
176
     1
 62
    18
420
        0
176
     1
 90
       50
176
     1
 90
        3
176
     1
 62
     5
420
      255
176
     1
290
     0
176
     1
 90
       50
176
     1
 90
       50
176
     1
 90
       50
176
     1
290
     0
176
     1
 90
       50
176
     1
 62
   256
176
     0
 40
1.0
176
     0
 90
        2
176
     1
  1
strokes_ogs.tif
176
     1
290
     0
176
     1
 40
1.0
176
     1
 40
1.0
176
     1
  0
VISUALSTYLE
  5
40
102
{ACAD_REACTORS
330
2A
102
}
330
2A
100
AcDbVisualStyle
  2
X-Ray
 70
    25
177
     3
291
     0
 70
    58
 90
        2
176
     1
 90
        2
176
     1
 90
        1
176
     1
 90
        1
176
     1
 40
0.5
176
     1
 40
30.0
176
     1
 62
     7
420
 16777215
176
     1
 90
        1
176
     1
 90
        0
176
     1
 62
     7
176
     1
 62
   257
176
     1
 90
        1
176
     1
 90
        1
176
     1
 40
1.0
176
     1
 90
        8
176
     1
 62
     7
176
     1
 40
1.0
176
     1
 90
        1
176
     1
 90
        6
176
     1
 90
        2
176
     1
 62
     7
176
     1
 90
        3
176
     1
 90
        0
176
     1
 90
        0
176
     1
290
     0
176
     1
 90
       13
176
     1
 40
0.0
176
     1
 90
        0
176
     1
290
     0
176
     1
290
     1
176
     1
290
     1
176
     1
290
     0
176
     1
290
     0
176
     1
290
     0
176
     1
290
     0
176
     1
290
     0
176
     1
290
     0
176
     1
 90
       50
176
     1
 40
0.0
176
     1
 40
1.0
176
     1
 90
        0
176
     1
 62
    18
420
        0
176
     1
 90
       50
176
     1
 90
        3
176
     1
 62
     5
420
      255
176
     1
290
     0
176
     1
 90
       50
176
     1
 90
       50
176
     1
 90
       50
176
     1
290
     0
176
     1
 90
       50
176
     1
 62
   256
176
     0
 40
1.0
176
     0
 90
        2
176
     1
  1
strokes_ogs.tif
176
     1
290
     0
176
     1
 40
1.0
176
     1
 40
1.0
176
     1
  0
DICTIONARYVAR
  5
2EB
102
{ACAD_REACTORS
330
2EA
102
}
330
2EA
100
DictionaryVariables
280
     0
  1
1:1
  0
DICTIONARYVAR
  5
2F0
102
{ACAD_REACTORS
330
2EA
102
}
330
2EA
100
DictionaryVariables
280
     0
  1
Standard
  0
DICTIONARYVAR
  5
2EF
102
{ACAD_REACTORS
330
2EA
102
}
330
2EA
100
DictionaryVariables
280
     0
  1
Standard
  0
DICTIONARY
  5
2EC
330
6A
100
AcDbDictionary
280
     1
281
     1
  3
ACAD_ROUNDTRIP_2008_TABLESTYLE_CELLSTYLEMAP
360
2ED
  0
CELLSTYLEMAP
  5
2ED
102
{ACAD_REACTORS
330
2EC
102
}
330
2EC
100
AcDbCellStyleMap
 90
        3
300
CELLSTYLE
  1
TABLEFORMAT_BEGIN
 90
        5
170
     1
 91
        0
 92
    32768
 62
   257
 93
        1
300
CONTENTFORMAT
  1
CONTENTFORMAT_BEGIN
 90
        0
 91
        0
 92
        4
 93
        0
300

 40
0.0
140
1.0
 94
        5
 62
     0
340
11
144
0.25
309
CONTENTFORMAT_END
171
     1
301
MARGIN
  1
CELLMARGIN_BEGIN
 40
0.06
 40
0.06
 40
0.06
 40
0.06
 40
0.06
 40
0.06
309
CELLMARGIN_END
 94
        6
 95
        1
302
GRIDFORMAT
  1
GRIDFORMAT_BEGIN
 90
        0
 91
        1
 62
     0
 92
       -2
340
14
 93
        0
 40
0.045
309
GRIDFORMAT_END
 95
        2
302
GRIDFORMAT
  1
GRIDFORMAT_BEGIN
 90
        0
 91
        1
 62
     0
 92
       -2
340
14
 93
        0
 40
0.045
309
GRIDFORMAT_END
 95
        4
302
GRIDFORMAT
  1
GRIDFORMAT_BEGIN
 90
        0
 91
        1
 62
     0
 92
       -2
340
14
 93
        0
 40
0.045
309
GRIDFORMAT_END
 95
        8
302
GRIDFORMAT
  1
GRIDFORMAT_BEGIN
 90
        0
 91
        1
 62
     0
 92
       -2
340
14
 93
        0
 40
0.045
309
GRIDFORMAT_END
 95
       16
302
GRIDFORMAT
  1
GRIDFORMAT_BEGIN
 90
        0
 91
        1
 62
     0
 92
       -2
340
14
 93
        0
 40
0.045
309
GRIDFORMAT_END
 95
       32
302
GRIDFORMAT
  1
GRIDFORMAT_BEGIN
 90
        0
 91
        1
 62
     0
 92
       -2
340
14
 93
        0
 40
0.045
309
GRIDFORMAT_END
309
TABLEFORMAT_END
  1
CELLSTYLE_BEGIN
 90
        1
 91
        1
300
_TITLE
309
CELLSTYLE_END
300
CELLSTYLE
  1
TABLEFORMAT_BEGIN
 90
        5
170
     1
 91
        0
 92
        0
 62
   257
 93
        1
300
CONTENTFORMAT
  1
CONTENTFORMAT_BEGIN
 90
        0
 91
        0
 92
        4
 93
        0
300

 40
0.0
140
1.0
 94
        5
 62
     0
340
11
144
0.18
309
CONTENTFORMAT_END
171
     1
301
MARGIN
  1
CELLMARGIN_BEGIN
 40
0.06
 40
0.06
 40
0.06
 40
0.06
 40
0.06
 40
0.06
309
CELLMARGIN_END
 94
        6
 95
        1
302
GRIDFORMAT
  1
GRIDFORMAT_BEGIN
 90
        0
 91
        1
 62
     0
 92
       -2
340
14
 93
        0
 40
0.045
309
GRIDFORMAT_END
 95
        2
302
GRIDFORMAT
  1
GRIDFORMAT_BEGIN
 90
        0
 91
        1
 62
     0
 92
       -2
340
14
 93
        0
 40
0.045
309
GRIDFORMAT_END
 95
        4
302
GRIDFORMAT
  1
GRIDFORMAT_BEGIN
 90
        0
 91
        1
 62
     0
 92
       -2
340
14
 93
        0
 40
0.045
309
GRIDFORMAT_END
 95
        8
302
GRIDFORMAT
  1
GRIDFORMAT_BEGIN
 90
        0
 91
        1
 62
     0
 92
       -2
340
14
 93
        0
 40
0.045
309
GRIDFORMAT_END
 95
       16
302
GRIDFORMAT
  1
GRIDFORMAT_BEGIN
 90
        0
 91
        1
 62
     0
 92
       -2
340
14
 93
        0
 40
0.045
309
GRIDFORMAT_END
 95
       32
302
GRIDFORMAT
  1
GRIDFORMAT_BEGIN
 90
        0
 91
        1
 62
     0
 92
       -2
340
14
 93
        0
 40
0.045
309
GRIDFORMAT_END
309
TABLEFORMAT_END
  1
CELLSTYLE_BEGIN
 90
        2
 91
        1
300
_HEADER
309
CELLSTYLE_END
300
CELLSTYLE
  1
TABLEFORMAT_BEGIN
 90
        5
170
     1
 91
        0
 92
        0
 62
   257
 93
        1
300
CONTENTFORMAT
  1
CONTENTFORMAT_BEGIN
 90
        0
 91
        0
 92
        4
 93
        0
300

 40
0.0
140
1.0
 94
        2
 62
     0
340
11
144
0.18
309
CONTENTFORMAT_END
171
     1
301
MARGIN
  1
CELLMARGIN_BEGIN
 40
0.06
 40
0.06
 40
0.06
 40
0.06
 40
0.06
 40
0.06
309
CELLMARGIN_END
 94
        6
 95
        1
302
GRIDFORMAT
  1
GRIDFORMAT_BEGIN
 90
        0
 91
        1
 62
     0
 92
       -2
340
14
 93
        0
 40
0.045
309
GRIDFORMAT_END
 95
        2
302
GRIDFORMAT
  1
GRIDFORMAT_BEGIN
 90
        0
 91
        1
 62
     0
 92
       -2
340
14
 93
        0
 40
0.045
309
GRIDFORMAT_END
 95
        4
302
GRIDFORMAT
  1
GRIDFORMAT_BEGIN
 90
        0
 91
        1
 62
     0
 92
       -2
340
14
 93
        0
 40
0.045
309
GRIDFORMAT_END
 95
        8
302
GRIDFORMAT
  1
GRIDFORMAT_BEGIN
 90
        0
 91
        1
 62
     0
 92
       -2
340
14
 93
        0
 40
0.045
309
GRIDFORMAT_END
 95
       16
302
GRIDFORMAT
  1
GRIDFORMAT_BEGIN
 90
        0
 91
        1
 62
     0
 92
       -2
340
14
 93
        0
 40
0.045
309
GRIDFORMAT_END
 95
       32
302
GRIDFORMAT
  1
GRIDFORMAT_BEGIN
 90
        0
 91
        1
 62
     0
 92
       -2
340
14
 93
        0
 40
0.045
309
GRIDFORMAT_END
309
TABLEFORMAT_END
  1
CELLSTYLE_BEGIN
 90
        3
 91
        2
300
_DATA
309
CELLSTYLE_END
  0
ENDSEC
  0
EOF