0
SECTION
  2
HEADER
  9
$ACADVER
  1
AC1027
  9
$ACADMAINTVER
 70
     8
  9
$DWGCODEPAGE
  3
ANSI_1252
  9
$REQUIREDVERSIONS
160
                 0
  9
$COMMENTS
  1
File was created by Cadenas
  9
$CUSTOMPROPERTYTAG
  1
NN
  9
$CUSTOMPROPERTY
  1
Grip Tight Two-Bolt Pillow Block - Polymer Housing, Corrision Resistant Insert Inch Bore
  9
$CUSTOMPROPERTYTAG
  1
NT
  9
$CUSTOMPROPERTY
  1
GTEZ Normal Duty Polymer Housed Pillow Blocks
  9
$CUSTOMPROPERTYTAG
  1
NB
  9
$CUSTOMPROPERTY
  1
129251
  9
$CUSTOMPROPERTYTAG
  1
NBSYN
  9
$CUSTOMPROPERTY
  1
$PN.$LUBE.
  9
$CUSTOMPROPERTYTAG
  1
LINA
  9
$CUSTOMPROPERTY
  1
129251
  9
$CUSTOMPROPERTYTAG
  1
SERIES
  9
$CUSTOMPROPERTY
  1
207
  9
$CUSTOMPROPERTYTAG
  1
SS
  9
$CUSTOMPROPERTY
  1
1-1/4
  9
$CUSTOMPROPERTYTAG
  1
PN
  9
$CUSTOMPROPERTY
  1
129251
  9
$CUSTOMPROPERTYTAG
  1
DESCRIPTION
  9
$CUSTOMPROPERTY
  1
P2B-GTEZ-104-PCR
  9
$CUSTOMPROPERTYTAG
  1
A
  9
$CUSTOMPROPERTY
  1
1-5/8
  9
$CUSTOMPROPERTYTAG
  1
B
  9
$CUSTOMPROPERTY
  1
6-35/64
  9
$CUSTOMPROPERTYTAG
  1
C
  9
$CUSTOMPROPERTY
  1
1-7/8
  9
$CUSTOMPROPERTYTAG
  1
DMIN
  9
$CUSTOMPROPERTY
  1
4-13/16
  9
$CUSTOMPROPERTYTAG
  1
DMAX
  9
$CUSTOMPROPERTY
  1
5-1/8
  9
$CUSTOMPROPERTYTAG
  1
F
  9
$CUSTOMPROPERTY
  1
1/2
  9
$CUSTOMPROPERTYTAG
  1
G
  9
$CUSTOMPROPERTY
  1
23/32
  9
$CUSTOMPROPERTYTAG
  1
H
  9
$CUSTOMPROPERTY
  1
23/32
  9
$CUSTOMPROPERTYTAG
  1
J
  9
$CUSTOMPROPERTY
  1
3-57/64
  9
$CUSTOMPROPERTYTAG
  1
L
  9
$CUSTOMPROPERTY
  1
2-19/64
  9
$CUSTOMPROPERTYTAG
  1
M
  9
$CUSTOMPROPERTY
  1
1-7/8
  9
$CUSTOMPROPERTYTAG
  1
R
  9
$CUSTOMPROPERTY
  1
9/16
  9
$CUSTOMPROPERTYTAG
  1
S
  9
$CUSTOMPROPERTY
  1
1-1/16
  9
$CUSTOMPROPERTYTAG
  1
Z
  9
$CUSTOMPROPERTY
  1
1-3/64
  9
$CUSTOMPROPERTYTAG
  1
COMPANY
  9
$CUSTOMPROPERTY
  1
baldor
  9
$INSBASE
 10
0.0
 20
0.0
 30
0.0
  9
$EXTMIN
 10
1.000000000000000E+20
 20
1.000000000000000E+20
 30
1.000000000000000E+20
  9
$EXTMAX
 10
-1.000000000000000E+20
 20
-1.000000000000000E+20
 30
-1.000000000000000E+20
  9
$LIMMIN
 10
0.0
 20
0.0
  9
$LIMMAX
 10
12.0
 20
9.0
  9
$ORTHOMODE
 70
     0
  9
$REGENMODE
 70
     1
  9
$FILLMODE
 70
     1
  9
$QTEXTMODE
 70
     0
  9
$MIRRTEXT
 70
     1
  9
$LTSCALE
 40
1.0
  9
$ATTMODE
 70
     1
  9
$TEXTSIZE
 40
0.2
  9
$TRACEWID
 40
0.05
  9
$TEXTSTYLE
  7
Standard
  9
$CLAYER
  8
0
  9
$CELTYPE
  6
ByLayer
  9
$CECOLOR
 62
   256
  9
$CELTSCALE
 40
1.0
  9
$DISPSILH
 70
     0
  9
$DIMSCALE
 40
1.0
  9
$DIMASZ
 40
0.18
  9
$DIMEXO
 40
0.0625
  9
$DIMDLI
 40
0.38
  9
$DIMRND
 40
0.0
  9
$DIMDLE
 40
0.0
  9
$DIMEXE
 40
0.18
  9
$DIMTP
 40
0.0
  9
$DIMTM
 40
0.0
  9
$DIMTXT
 40
0.18
  9
$DIMCEN
 40
0.09
  9
$DIMTSZ
 40
0.0
  9
$DIMTOL
 70
     0
  9
$DIMLIM
 70
     0
  9
$DIMTIH
 70
     1
  9
$DIMTOH
 70
     1
  9
$DIMSE1
 70
     0
  9
$DIMSE2
 70
     0
  9
$DIMTAD
 70
     0
  9
$DIMZIN
 70
     0
  9
$DIMBLK
  1

  9
$DIMASO
 70
     1
  9
$DIMSHO
 70
     1
  9
$DIMPOST
  1

  9
$DIMAPOST
  1

  9
$DIMALT
 70
     0
  9
$DIMALTD
 70
     2
  9
$DIMALTF
 40
25.4
  9
$DIMLFAC
 40
1.0
  9
$DIMTOFL
 70
     0
  9
$DIMTVP
 40
0.0
  9
$DIMTIX
 70
     0
  9
$DIMSOXD
 70
     0
  9
$DIMSAH
 70
     0
  9
$DIMBLK1
  1

  9
$DIMBLK2
  1

  9
$DIMSTYLE
  2
Standard
  9
$DIMCLRD
 70
     0
  9
$DIMCLRE
 70
     0
  9
$DIMCLRT
 70
     0
  9
$DIMTFAC
 40
1.0
  9
$DIMGAP
 40
0.09
  9
$DIMJUST
 70
     0
  9
$DIMSD1
 70
     0
  9
$DIMSD2
 70
     0
  9
$DIMTOLJ
 70
     1
  9
$DIMTZIN
 70
     0
  9
$DIMALTZ
 70
     0
  9
$DIMALTTZ
 70
     0
  9
$DIMUPT
 70
     0
  9
$DIMDEC
 70
     4
  9
$DIMTDEC
 70
     4
  9
$DIMALTU
 70
     2
  9
$DIMALTTD
 70
     2
  9
$DIMTXSTY
  7
Standard
  9
$DIMAUNIT
 70
     0
  9
$DIMADEC
 70
     0
  9
$DIMALTRND
 40
0.0
  9
$DIMAZIN
 70
     0
  9
$DIMDSEP
 70
    46
  9
$DIMATFIT
 70
     3
  9
$DIMFRAC
 70
     0
  9
$DIMLDRBLK
  1

  9
$DIMLUNIT
 70
     2
  9
$DIMLWD
 70
    -2
  9
$DIMLWE
 70
    -2
  9
$DIMTMOVE
 70
     0
  9
$DIMFXL
 40
1.0
  9
$DIMFXLON
 70
     0
  9
$DIMJOGANG
 40
0.7853981633974483
  9
$DIMTFILL
 70
     0
  9
$DIMTFILLCLR
 70
     0
  9
$DIMARCSYM
 70
     0
  9
$DIMLTYPE
  6

  9
$DIMLTEX1
  6

  9
$DIMLTEX2
  6

  9
$DIMTXTDIRECTION
 70
     0
  9
$LUNITS
 70
     2
  9
$LUPREC
 70
     4
  9
$SKETCHINC
 40
0.1
  9
$FILLETRAD
 40
0.5
  9
$AUNITS
 70
     0
  9
$AUPREC
 70
     0
  9
$MENU
  1
.
  9
$ELEVATION
 40
0.0
  9
$PELEVATION
 40
0.0
  9
$THICKNESS
 40
0.0
  9
$LIMCHECK
 70
     0
  9
$CHAMFERA
 40
0.0
  9
$CHAMFERB
 40
0.0
  9
$CHAMFERC
 40
0.0
  9
$CHAMFERD
 40
0.0
  9
$SKPOLY
 70
     0
  9
$TDCREATE
 40
2458168.992674664
  9
$TDUCREATE
 40
2458168.951007998
  9
$TDUPDATE
 40
2458168.992674664
  9
$TDUUPDATE
 40
2458168.951007998
  9
$TDINDWG
 40
0.0000000116
  9
$TDUSRTIMER
 40
0.0000000116
  9
$USRTIMER
 70
     1
  9
$ANGBASE
 50
0.0
  9
$ANGDIR
 70
     0
  9
$PDMODE
 70
     0
  9
$PDSIZE
 40
0.0
  9
$PLINEWID
 40
0.0
  9
$SPLFRAME
 70
     0
  9
$SPLINETYPE
 70
     6
  9
$SPLINESEGS
 70
     8
  9
$HANDSEED
  5
1FD
  9
$SURFTAB1
 70
     6
  9
$SURFTAB2
 70
     6
  9
$SURFTYPE
 70
     6
  9
$SURFU
 70
     6
  9
$SURFV
 70
     6
  9
$UCSBASE
  2

  9
$UCSNAME
  2

  9
$UCSORG
 10
0.0
 20
0.0
 30
0.0
  9
$UCSXDIR
 10
1.0
 20
0.0
 30
0.0
  9
$UCSYDIR
 10
0.0
 20
1.0
 30
0.0
  9
$UCSORTHOREF
  2

  9
$UCSORTHOVIEW
 70
     0
  9
$UCSORGTOP
 10
0.0
 20
0.0
 30
0.0
  9
$UCSORGBOTTOM
 10
0.0
 20
0.0
 30
0.0
  9
$UCSORGLEFT
 10
0.0
 20
0.0
 30
0.0
  9
$UCSORGRIGHT
 10
0.0
 20
0.0
 30
0.0
  9
$UCSORGFRONT
 10
0.0
 20
0.0
 30
0.0
  9
$UCSORGBACK
 10
0.0
 20
0.0
 30
0.0
  9
$PUCSBASE
  2

  9
$PUCSNAME
  2

  9
$PUCSORG
 10
0.0
 20
0.0
 30
0.0
  9
$PUCSXDIR
 10
1.0
 20
0.0
 30
0.0
  9
$PUCSYDIR
 10
0.0
 20
1.0
 30
0.0
  9
$PUCSORTHOREF
  2

  9
$PUCSORTHOVIEW
 70
     0
  9
$PUCSORGTOP
 10
0.0
 20
0.0
 30
0.0
  9
$PUCSORGBOTTOM
 10
0.0
 20
0.0
 30
0.0
  9
$PUCSORGLEFT
 10
0.0
 20
0.0
 30
0.0
  9
$PUCSORGRIGHT
 10
0.0
 20
0.0
 30
0.0
  9
$PUCSORGFRONT
 10
0.0
 20
0.0
 30
0.0
  9
$PUCSORGBACK
 10
0.0
 20
0.0
 30
0.0
  9
$USERI1
 70
     0
  9
$USERI2
 70
     0
  9
$USERI3
 70
     0
  9
$USERI4
 70
     0
  9
$USERI5
 70
     0
  9
$USERR1
 40
0.0
  9
$USERR2
 40
0.0
  9
$USERR3
 40
0.0
  9
$USERR4
 40
0.0
  9
$USERR5
 40
0.0
  9
$WORLDVIEW
 70
     1
  9
$SHADEDGE
 70
     3
  9
$SHADEDIF
 70
    70
  9
$TILEMODE
 70
     1
  9
$MAXACTVP
 70
    64
  9
$PINSBASE
 10
0.0
 20
0.0
 30
0.0
  9
$PLIMCHECK
 70
     0
  9
$PEXTMIN
 10
1.000000000000000E+20
 20
1.000000000000000E+20
 30
1.000000000000000E+20
  9
$PEXTMAX
 10
-1.000000000000000E+20
 20
-1.000000000000000E+20
 30
-1.000000000000000E+20
  9
$PLIMMIN
 10
0.0
 20
0.0
  9
$PLIMMAX
 10
12.0
 20
9.0
  9
$UNITMODE
 70
     0
  9
$VISRETAIN
 70
     1
  9
$PLINEGEN
 70
     0
  9
$PSLTSCALE
 70
     1
  9
$TREEDEPTH
 70
  3020
  9
$CMLSTYLE
  2
Standard
  9
$CMLJUST
 70
     0
  9
$CMLSCALE
 40
1.0
  9
$PROXYGRAPHICS
 70
     1
  9
$MEASUREMENT
 70
     0
  9
$CELWEIGHT
370
    -1
  9
$ENDCAPS
280
     0
  9
$JOINSTYLE
280
     0
  9
$LWDISPLAY
290
     0
  9
$INSUNITS
 70
     1
  9
$HYPERLINKBASE
  1

  9
$STYLESHEET
  1

  9
$XEDIT
290
     1
  9
$CEPSNTYPE
380
     0
  9
$PSTYLEMODE
290
     1
  9
$FINGERPRINTGUID
  2
{C8D5C04F-2EBA-4EF4-BEEB-02EF06E06DF3}
  9
$VERSIONGUID
  2
{FAEB1C32-E019-11D5-929B-00C0DF256EC4}
  9
$EXTNAMES
290
     1
  9
$PSVPSCALE
 40
0.0
  9
$OLESTARTUP
290
     0
  9
$SORTENTS
280
   127
  9
$INDEXCTL
280
     0
  9
$HIDETEXT
280
     1
  9
$XCLIPFRAME
280
     2
  9
$HALOGAP
280
     0
  9
$OBSCOLOR
 70
   257
  9
$OBSLTYPE
280
     0
  9
$INTERSECTIONDISPLAY
280
     0
  9
$INTERSECTIONCOLOR
 70
   257
  9
$DIMASSOC
280
     2
  9
$PROJECTNAME
  1

  9
$CAMERADISPLAY
290
     0
  9
$LENSLENGTH
 40
50.0
  9
$CAMERAHEIGHT
 40
0.0
  9
$STEPSPERSEC
 40
2.0
  9
$STEPSIZE
 40
6.0
  9
$3DDWFPREC
 40
2.0
  9
$PSOLWIDTH
 40
0.25
  9
$PSOLHEIGHT
 40
4.0
  9
$LOFTANG1
 40
1.570796326794897
  9
$LOFTANG2
 40
1.570796326794897
  9
$LOFTMAG1
 40
0.0
  9
$LOFTMAG2
 40
0.0
  9
$LOFTPARAM
 70
     7
  9
$LOFTNORMALS
280
     1
  9
$LATITUDE
 40
37.795
  9
$LONGITUDE
 40
-122.394
  9
$NORTHDIRECTION
 40
0.0
  9
$TIMEZONE
 70
 -8000
  9
$LIGHTGLYPHDISPLAY
280
     1
  9
$TILEMODELIGHTSYNCH
280
     1
  9
$CMATERIAL
347
44
  9
$SOLIDHIST
280
     0
  9
$SHOWHIST
280
     1
  9
$DWFFRAME
280
     2
  9
$DGNFRAME
280
     2
  9
$REALWORLDSCALE
290
     1
  9
$INTERFERECOLOR
 62
   256
  9
$CSHADOW
280
     0
  9
$SHADOWPLANELOCATION
 40
0.0
  0
ENDSEC
  0
SECTION
  2
CLASSES
  0
CLASS
  1
ACDBDICTIONARYWDFLT
  2
AcDbDictionaryWithDefault
  3
ObjectDBX Classes
 90
        0
 91
        4
280
     0
281
     0
  0
CLASS
  1
VISUALSTYLE
  2
AcDbVisualStyle
  3
ObjectDBX Classes
 90
     4095
 91
        4
280
     0
281
     0
  0
CLASS
  1
MATERIAL
  2
AcDbMaterial
  3
ObjectDBX Classes
 90
     1153
 91
        4
280
     0
281
     0
  0
CLASS
  1
SCALE
  2
AcDbScale
  3
ObjectDBX Classes
 90
     1153
 91
        4
280
     0
281
     0
  0
CLASS
  1
TABLESTYLE
  2
AcDbTableStyle
  3
ObjectDBX Classes
 90
     4095
 91
        4
280
     0
281
     0
  0
CLASS
  1
MLEADERSTYLE
  2
AcDbMLeaderStyle
  3
ACDB_MLEADERSTYLE_CLASS
 90
     4095
 91
        4
280
     0
281
     0
  0
CLASS
  1
SUN
  2
AcDbSun
  3
SCENEOE
 90
     1153
 91
        4
280
     0
281
     0
  0
CLASS
  1
DICTIONARYVAR
  2
AcDbDictionaryVar
  3
ObjectDBX Classes
 90
        0
 91
        4
280
     0
281
     0
  0
CLASS
  1
CELLSTYLEMAP
  2
AcDbCellStyleMap
  3
ObjectDBX Classes
 90
     1152
 91
        4
280
     0
281
     0
  0
ENDSEC
  0
SECTION
  2
TABLES
  0
TABLE
  2
VPORT
  5
8
330
0
100
AcDbSymbolTable
 70
     1
  0
VPORT
  5
29
330
8
100
AcDbSymbolTableRecord
100
AcDbViewportTableRecord
  2
*Active
 70
     0
 10
0.0
 20
0.0
 11
1.0
 21
1.0
 12
0.0
 22
0.5272750000000004
 13
0.0
 23
0.0
 14
0.5
 24
0.5
 15
0.5
 25
0.5
 16
0.0
 26
0.0
 36
1.0
 17
0.0
 27
0.0
 37
0.0
 40
4.900641000000001
 41
1.362666638915195
 42
50.0
 43
0.0
 44
0.0
 50
0.0
 51
0.0
 71
     0
 72
   100
 73
     1
 74
     3
 75
     0
 76
     0
 77
     0
 78
     0
281
     0
 65
     1
110
0.0
120
0.0
130
0.0
111
1.0
121
0.0
131
0.0
112
0.0
122
1.0
132
0.0
 79
     0
146
0.0
348
2F
 60
     3
 61
     5
292
     1
282
     1
141
0.0
142
0.0
 63
   250
361
6D
  0
ENDTAB
  0
TABLE
  2
LTYPE
  5
5
330
0
100
AcDbSymbolTable
 70
     3
  0
LTYPE
  5
14
330
5
100
AcDbSymbolTableRecord
100
AcDbLinetypeTableRecord
  2
ByBlock
 70
     0
  3

 72
    65
 73
     0
 40
0.0
  0
LTYPE
  5
15
330
5
100
AcDbSymbolTableRecord
100
AcDbLinetypeTableRecord
  2
ByLayer
 70
     0
  3

 72
    65
 73
     0
 40
0.0
  0
LTYPE
  5
16
330
5
100
AcDbSymbolTableRecord
100
AcDbLinetypeTableRecord
  2
Continuous
 70
     0
  3
Solid line
 72
    65
 73
     0
 40
0.0
  0
LTYPE
  5
A1
330
5
100
AcDbSymbolTableRecord
100
AcDbLinetypeTableRecord
  2
Dashed
 70
     0
  3

 72
    65
 73
     2
 40
2.0
 49
1.0
 74
     0
 49
-1.0
 74
     0
  0
LTYPE
  5
A7
330
5
100
AcDbSymbolTableRecord
100
AcDbLinetypeTableRecord
  2
Center
 70
     0
  3

 72
    65
 73
     4
 40
1.5
 49
0.45
 74
     0
 49
-0.5
 74
     0
 49
0.05
 74
     0
 49
-0.5
 74
     0
  0
ENDTAB
  0
TABLE
  2
LAYER
  5
2
330
0
100
AcDbSymbolTable
 70
     7
  0
LAYER
  5
10
330
2
100
AcDbSymbolTableRecord
100
AcDbLayerTableRecord
  2
0
 70
     0
 62
     7
  6
Continuous
370
    -3
390
F
347
46
348
0
  0
LAYER
  5
72
330
2
100
AcDbSymbolTableRecord
100
AcDbLayerTableRecord
  2
AM_6
 70
     0
 62
    -2
  6
Continuous
370
    35
390
F
347
46
348
0
  0
LAYER
  5
A2
330
2
100
AcDbSymbolTableRecord
100
AcDbLayerTableRecord
  2
AM_9
 70
     0
 62
     6
  6
Dashed
370
    25
390
F
347
46
348
0
  0
LAYER
  5
A8
330
2
100
AcDbSymbolTableRecord
100
AcDbLayerTableRecord
  2
AM_7
 70
     0
 62
     7
  6
Center
370
    25
390
F
347
46
348
0
  0
LAYER
  5
AB
330
2
100
AcDbSymbolTableRecord
100
AcDbLayerTableRecord
  2
AM_4
 70
     0
 62
     7
  6
Continuous
370
    50
390
F
347
46
348
0
  0
LAYER
  5
DA
330
2
100
AcDbSymbolTableRecord
100
AcDbLayerTableRecord
  2
AM_5
 70
     0
 62
     3
  6
Continuous
370
    25
390
F
347
46
348
0
  0
LAYER
  5
1EF
330
2
100
AcDbSymbolTableRecord
100
AcDbLayerTableRecord
  2
ConnectionPoints
 70
     0
 62
     7
  6
Continuous
370
    50
390
F
347
46
348
0
  0
ENDTAB
  0
TABLE
  2
STYLE
  5
3
330
0
100
AcDbSymbolTable
 70
     1
  0
STYLE
  5
11
330
3
100
AcDbSymbolTableRecord
100
AcDbTextStyleTableRecord
  2
Standard
 70
     0
 40
0.0
 41
1.0
 50
0.0
 71
     0
 42
0.2
  3
txt
  4

  0
ENDTAB
  0
TABLE
  2
VIEW
  5
6
330
0
100
AcDbSymbolTable
 70
     0
  0
ENDTAB
  0
TABLE
  2
UCS
  5
7
330
0
100
AcDbSymbolTable
 70
     0
  0
ENDTAB
  0
TABLE
  2
APPID
  5
9
330
0
100
AcDbSymbolTable
 70
     1
  0
APPID
  5
12
330
9
100
AcDbSymbolTableRecord
100
AcDbRegAppTableRecord
  2
ACAD
 70
     0
  0
ENDTAB
  0
TABLE
  2
DIMSTYLE
  5
A
330
0
100
AcDbSymbolTable
 70
     1
100
AcDbDimStyleTable
  0
DIMSTYLE
105
27
330
A
100
AcDbSymbolTableRecord
100
AcDbDimStyleTableRecord
  2
Standard
 70
     0
178
     0
340
11
  0
ENDTAB
  0
TABLE
  2
BLOCK_RECORD
  5
1
330
0
100
AcDbSymbolTable
 70
     5
  0
BLOCK_RECORD
  5
1F
330
1
100
AcDbSymbolTableRecord
100
AcDbBlockTableRecord
  2
*Model_Space
340
22
 70
     0
280
     1
281
     0
  0
BLOCK_RECORD
  5
1B
330
1
100
AcDbSymbolTableRecord
100
AcDbBlockTableRecord
  2
*Paper_Space
340
1E
 70
     0
280
     1
281
     0
  0
BLOCK_RECORD
  5
23
330
1
100
AcDbSymbolTableRecord
100
AcDbBlockTableRecord
  2
*Paper_Space0
340
26
 70
     0
280
     1
281
     0
  0
BLOCK_RECORD
  5
6E
330
1
100
AcDbSymbolTableRecord
100
AcDbBlockTableRecord
  2
1_129251_0
340
0
102
{BLKREFS
331
6F
102
}
 70
     0
280
     1
281
     0
  0
BLOCK_RECORD
  5
8B
330
1
100
AcDbSymbolTableRecord
100
AcDbBlockTableRecord
  2
2_INS_GT_07_CRI_0_in_129251_0
340
0
102
{BLKREFS
331
8C
102
}
 70
     0
280
     1
281
     0
  0
BLOCK_RECORD
  5
B3
330
1
100
AcDbSymbolTableRecord
100
AcDbBlockTableRecord
  2
3_129972_0_in_129251_0
340
0
102
{BLKREFS
331
B4
102
}
 70
     0
280
     1
281
     0
  0
BLOCK_RECORD
  5
F4
330
1
100
AcDbSymbolTableRecord
100
AcDbBlockTableRecord
  2
4_P2B_GTEZ_07_PCRI_0_in_129251_0
340
0
102
{BLKREFS
331
F5
102
}
 70
     0
280
     1
281
     0
  0
ENDTAB
  0
ENDSEC
  0
SECTION
  2
BLOCKS
  0
BLOCK
  5
20
330
1F
100
AcDbEntity
  8
0
100
AcDbBlockBegin
  2
*Model_Space
 70
     0
 10
0.0
 20
0.0
 30
0.0
  3
*Model_Space
  1

  0
ENDBLK
  5
21
330
1F
100
AcDbEntity
  8
0
100
AcDbBlockEnd
  0
BLOCK
  5
1C
330
1B
100
AcDbEntity
 67
     1
  8
0
100
AcDbBlockBegin
  2
*Paper_Space
 70
     0
 10
0.0
 20
0.0
 30
0.0
  3
*Paper_Space
  1

  0
ENDBLK
  5
1D
330
1B
100
AcDbEntity
 67
     1
  8
0
100
AcDbBlockEnd
  0
BLOCK
  5
24
330
23
100
AcDbEntity
  8
0
100
AcDbBlockBegin
  2
*Paper_Space0
 70
     0
 10
0.0
 20
0.0
 30
0.0
  3
*Paper_Space0
  1

  0
ENDBLK
  5
25
330
23
100
AcDbEntity
  8
0
100
AcDbBlockEnd
  0
BLOCK
  5
70
330
6E
100
AcDbEntity
  8
0
100
AcDbBlockBegin
  2
1_129251_0
 70
     2
 10
0.0
 20
0.0
 30
0.0
  3
1_129251_0
  1

  0
ATTDEF
  5
73
330
6E
100
AcDbEntity
  8
AM_6
100
AcDbText
 10
8.2735
 20
2.92955
 30
0.0
 40
0.5
  1
Grip Tight Two-Bolt Pillow Block - Polymer Housing, Corrision Resistant Insert Inch Bore
100
AcDbAttributeDefinition
  3

  2
NN
 70
     8
280
     0
  0
ATTDEF
  5
74
330
6E
100
AcDbEntity
  8
AM_6
100
AcDbText
 10
8.2735
 20
2.42955
 30
0.0
 40
0.5
  1
GTEZ Normal Duty Polymer Housed Pillow Blocks
100
AcDbAttributeDefinition
  3

  2
NT
 70
     8
280
     0
  0
ATTDEF
  5
75
330
6E
100
AcDbEntity
  8
AM_6
100
AcDbText
 10
8.2735
 20
1.92955
 30
0.0
 40
0.5
  1
129251
100
AcDbAttributeDefinition
  3

  2
NB
 70
     8
280
     0
  0
ATTDEF
  5
76
330
6E
100
AcDbEntity
  8
AM_6
100
AcDbText
 10
8.2735
 20
1.42955
 30
0.0
 40
0.5
  1
$PN.$LUBE.
100
AcDbAttributeDefinition
  3

  2
NBSYN
 70
     8
280
     0
  0
ATTDEF
  5
77
330
6E
100
AcDbEntity
  8
AM_6
100
AcDbText
 10
8.2735
 20
0.9295500000000003
 30
0.0
 40
0.5
  1
129251
100
AcDbAttributeDefinition
  3

  2
LINA
 70
     8
280
     0
  0
ATTDEF
  5
78
330
6E
100
AcDbEntity
  8
AM_6
100
AcDbText
 10
8.2735
 20
0.4295500000000003
 30
0.0
 40
0.5
  1
207
100
AcDbAttributeDefinition
  3

  2
SERIES
 70
     8
280
     0
  0
ATTDEF
  5
79
330
6E
100
AcDbEntity
  8
AM_6
100
AcDbText
 10
8.2735
 20
-0.0704499999999997
 30
0.0
 40
0.5
  1
1-1/4
100
AcDbAttributeDefinition
  3

  2
SS
 70
     8
280
     0
  0
ATTDEF
  5
7A
330
6E
100
AcDbEntity
  8
AM_6
100
AcDbText
 10
8.2735
 20
-0.5704499999999997
 30
0.0
 40
0.5
  1
129251
100
AcDbAttributeDefinition
  3

  2
PN
 70
     8
280
     0
  0
ATTDEF
  5
7B
330
6E
100
AcDbEntity
  8
AM_6
100
AcDbText
 10
8.2735
 20
-1.07045
 30
0.0
 40
0.5
  1
P2B-GTEZ-104-PCR
100
AcDbAttributeDefinition
  3

  2
DESCRIPTION
 70
     8
280
     0
  0
ATTDEF
  5
7C
330
6E
100
AcDbEntity
  8
AM_6
100
AcDbText
 10
8.2735
 20
-1.57045
 30
0.0
 40
0.5
  1
1-5/8
100
AcDbAttributeDefinition
  3

  2
A
 70
     8
280
     0
  0
ATTDEF
  5
7D
330
6E
100
AcDbEntity
  8
AM_6
100
AcDbText
 10
8.2735
 20
-2.07045
 30
0.0
 40
0.5
  1
6-35/64
100
AcDbAttributeDefinition
  3

  2
B
 70
     8
280
     0
  0
ATTDEF
  5
7E
330
6E
100
AcDbEntity
  8
AM_6
100
AcDbText
 10
8.2735
 20
-2.57045
 30
0.0
 40
0.5
  1
1-7/8
100
AcDbAttributeDefinition
  3

  2
C
 70
     8
280
     0
  0
ATTDEF
  5
7F
330
6E
100
AcDbEntity
  8
AM_6
100
AcDbText
 10
8.2735
 20
-3.07045
 30
0.0
 40
0.5
  1
4-13/16
100
AcDbAttributeDefinition
  3

  2
DMIN
 70
     8
280
     0
  0
ATTDEF
  5
80
330
6E
100
AcDbEntity
  8
AM_6
100
AcDbText
 10
8.2735
 20
-3.57045
 30
0.0
 40
0.5
  1
5-1/8
100
AcDbAttributeDefinition
  3

  2
DMAX
 70
     8
280
     0
  0
ATTDEF
  5
81
330
6E
100
AcDbEntity
  8
AM_6
100
AcDbText
 10
8.2735
 20
-4.070449999999999
 30
0.0
 40
0.5
  1
1/2
100
AcDbAttributeDefinition
  3

  2
F
 70
     8
280
     0
  0
ATTDEF
  5
82
330
6E
100
AcDbEntity
  8
AM_6
100
AcDbText
 10
8.2735
 20
-4.570449999999999
 30
0.0
 40
0.5
  1
23/32
100
AcDbAttributeDefinition
  3

  2
G
 70
     8
280
     0
  0
ATTDEF
  5
83
330
6E
100
AcDbEntity
  8
AM_6
100
AcDbText
 10
8.2735
 20
-5.070449999999999
 30
0.0
 40
0.5
  1
23/32
100
AcDbAttributeDefinition
  3

  2
H
 70
     8
280
     0
  0
ATTDEF
  5
84
330
6E
100
AcDbEntity
  8
AM_6
100
AcDbText
 10
8.2735
 20
-5.570449999999999
 30
0.0
 40
0.5
  1
3-57/64
100
AcDbAttributeDefinition
  3

  2
J
 70
     8
280
     0
  0
ATTDEF
  5
85
330
6E
100
AcDbEntity
  8
AM_6
100
AcDbText
 10
8.2735
 20
-6.070449999999999
 30
0.0
 40
0.5
  1
2-19/64
100
AcDbAttributeDefinition
  3

  2
L
 70
     8
280
     0
  0
ATTDEF
  5
86
330
6E
100
AcDbEntity
  8
AM_6
100
AcDbText
 10
8.2735
 20
-6.570449999999999
 30
0.0
 40
0.5
  1
1-7/8
100
AcDbAttributeDefinition
  3

  2
M
 70
     8
280
     0
  0
ATTDEF
  5
87
330
6E
100
AcDbEntity
  8
AM_6
100
AcDbText
 10
8.2735
 20
-7.070449999999999
 30
0.0
 40
0.5
  1
9/16
100
AcDbAttributeDefinition
  3

  2
R
 70
     8
280
     0
  0
ATTDEF
  5
88
330
6E
100
AcDbEntity
  8
AM_6
100
AcDbText
 10
8.2735
 20
-7.570449999999999
 30
0.0
 40
0.5
  1
1-1/16
100
AcDbAttributeDefinition
  3

  2
S
 70
     8
280
     0
  0
ATTDEF
  5
89
330
6E
100
AcDbEntity
  8
AM_6
100
AcDbText
 10
8.2735
 20
-8.07045
 30
0.0
 40
0.5
  1
1-3/64
100
AcDbAttributeDefinition
  3

  2
Z
 70
     8
280
     0
  0
ATTDEF
  5
8A
330
6E
100
AcDbEntity
  8
AM_6
100
AcDbText
 10
8.2735
 20
-8.57045
 30
0.0
 40
0.5
  1
baldor
100
AcDbAttributeDefinition
  3

  2
COMPANY
 70
     8
280
     0
  0
INSERT
  5
8C
330
6E
100
AcDbEntity
  8
0
100
AcDbBlockReference
  2
2_INS_GT_07_CRI_0_in_129251_0
 10
0.0
 20
0.0
 30
0.0
  0
INSERT
  5
B4
330
6E
100
AcDbEntity
  8
0
100
AcDbBlockReference
  2
3_129972_0_in_129251_0
 10
0.0
 20
0.0
 30
0.0
  0
INSERT
  5
F5
330
6E
100
AcDbEntity
  8
0
100
AcDbBlockReference
  2
4_P2B_GTEZ_07_PCRI_0_in_129251_0
 10
0.0
 20
0.0
 30
0.0
  0
ENDBLK
  5
71
330
6E
100
AcDbEntity
  8
0
100
AcDbBlockEnd
  0
BLOCK
  5
8D
330
8B
100
AcDbEntity
  8
0
100
AcDbBlockBegin
  2
2_INS_GT_07_CRI_0_in_129251_0
 70
     2
 10
0.0
 20
0.0
 30
0.0
  3
2_INS_GT_07_CRI_0_in_129251_0
  1

  0
ATTDEF
  5
8F
330
8B
100
AcDbEntity
  8
AM_6
100
AcDbText
 10
6.488165
 20
1.488165
 30
0.0
 40
0.5
  1
INS-GT-CR-I
100
AcDbAttributeDefinition
  3

  2
NN
 70
     8
280
     0
  0
ATTDEF
  5
90
330
8B
100
AcDbEntity
  8
AM_6
100
AcDbText
 10
6.488165
 20
0.9881650000000004
 30
0.0
 40
0.5
  1
GT Normal Duty Corrosion Resistant Bearing Inserts
100
AcDbAttributeDefinition
  3

  2
NT
 70
     8
280
     0
  0
ATTDEF
  5
91
330
8B
100
AcDbEntity
  8
AM_6
100
AcDbText
 10
6.488165
 20
0.4881650000000004
 30
0.0
 40
0.5
  1
INS-GT-07-CRI
100
AcDbAttributeDefinition
  3

  2
NB
 70
     8
280
     0
  0
ATTDEF
  5
92
330
8B
100
AcDbEntity
  8
AM_6
100
AcDbText
 10
6.488165
 20
-0.0118349999999996
 30
0.0
 40
0.5
  1
$PN.I
100
AcDbAttributeDefinition
  3

  2
NBSYN
 70
     8
280
     0
  0
ATTDEF
  5
93
330
8B
100
AcDbEntity
  8
AM_6
100
AcDbText
 10
6.488165
 20
-0.5118349999999996
 30
0.0
 40
0.5
  1
INS-GT-07-CR
100
AcDbAttributeDefinition
  3

  2
LINA
 70
     8
280
     0
  0
ATTDEF
  5
94
330
8B
100
AcDbEntity
  8
AM_6
100
AcDbText
 10
6.488165
 20
-1.011835
 30
0.0
 40
0.5
  1
207
100
AcDbAttributeDefinition
  3

  2
SERIES
 70
     8
280
     0
  0
ATTDEF
  5
95
330
8B
100
AcDbEntity
  8
AM_6
100
AcDbText
 10
6.488165
 20
-1.511835
 30
0.0
 40
0.5
  1
INS-GT-07-CR
100
AcDbAttributeDefinition
  3

  2
PN
 70
     8
280
     0
  0
ATTDEF
  5
96
330
8B
100
AcDbEntity
  8
AM_6
100
AcDbText
 10
6.488165
 20
-2.011835
 30
0.0
 40
0.5
  1
INS-GT-07-CR
100
AcDbAttributeDefinition
  3

  2
DESCRIPTION
 70
     8
280
     0
  0
ATTDEF
  5
97
330
8B
100
AcDbEntity
  8
AM_6
100
AcDbText
 10
6.488165
 20
-2.511835
 30
0.0
 40
0.5
  1
1-5/8
100
AcDbAttributeDefinition
  3

  2
A
 70
     8
280
     0
  0
ATTDEF
  5
98
330
8B
100
AcDbEntity
  8
AM_6
100
AcDbText
 10
6.488165
 20
-3.011835
 30
0.0
 40
0.5
  1
0.7480
100
AcDbAttributeDefinition
  3

  2
C
 70
     8
280
     0
  0
ATTDEF
  5
99
330
8B
100
AcDbEntity
  8
AM_6
100
AcDbText
 10
6.488165
 20
-3.511835
 30
0.0
 40
0.5
  1
2.8346
100
AcDbAttributeDefinition
  3

  2
D
 70
     8
280
     0
  0
ATTDEF
  5
9A
330
8B
100
AcDbEntity
  8
AM_6
100
AcDbText
 10
6.488165
 20
-4.011835
 30
0.0
 40
0.5
  1
0.202
100
AcDbAttributeDefinition
  3

  2
J
 70
     8
280
     0
  0
ATTDEF
  5
9B
330
8B
100
AcDbEntity
  8
AM_6
100
AcDbText
 10
6.488165
 20
-4.511835
 30
0.0
 40
0.5
  1
2-19/64
100
AcDbAttributeDefinition
  3

  2
L
 70
     8
280
     0
  0
ATTDEF
  5
9C
330
8B
100
AcDbEntity
  8
AM_6
100
AcDbText
 10
6.488165
 20
-5.011835
 30
0.0
 40
0.5
  1
10 - 32 x 1/4
100
AcDbAttributeDefinition
  3

  2
N
 70
     8
280
     0
  0
ATTDEF
  5
9D
330
8B
100
AcDbEntity
  8
AM_6
100
AcDbText
 10
6.488165
 20
-5.511835
 30
0.0
 40
0.5
  1
9/16
100
AcDbAttributeDefinition
  3

  2
W
 70
     8
280
     0
  0
ATTDEF
  5
9E
330
8B
100
AcDbEntity
  8
AM_6
100
AcDbText
 10
6.488165
 20
-6.011835
 30
0.0
 40
0.5
  1
1-3/64
100
AcDbAttributeDefinition
  3

  2
X
 70
     8
280
     0
  0
ATTDEF
  5
9F
330
8B
100
AcDbEntity
  8
AM_6
100
AcDbText
 10
6.488165
 20
-6.511835
 30
0.0
 40
0.5
  1
1-1/16
100
AcDbAttributeDefinition
  3

  2
Y
 70
     8
280
     0
  0
ATTDEF
  5
A0
330
8B
100
AcDbEntity
  8
AM_6
100
AcDbText
 10
6.488165
 20
-7.011835
 30
0.0
 40
0.5
  1
baldor
100
AcDbAttributeDefinition
  3

  2
COMPANY
 70
     8
280
     0
  0
CIRCLE
  5
A3
330
8B
100
AcDbEntity
  8
AM_9
100
AcDbCircle
 10
0.0
 20
0.0
 30
0.0
 40
0.8881585142599845
  0
CIRCLE
  5
A4
330
8B
100
AcDbEntity
  8
AM_9
100
AcDbCircle
 10
0.0
 20
0.0
 30
0.0
 40
1.3425
  0
CIRCLE
  5
A5
330
8B
100
AcDbEntity
  8
AM_9
100
AcDbCircle
 10
0.0
 20
0.0
 30
0.0
 40
1.376903536473977
  0
CIRCLE
  5
A6
330
8B
100
AcDbEntity
  8
AM_9
100
AcDbCircle
 10
0.0
 20
0.0
 30
0.0
 40
0.9909133333333333
  0
LINE
  5
A9
330
8B
100
AcDbEntity
  8
AM_7
100
AcDbLine
 10
-1.488165
 20
0.0
 30
0.0
 11
1.488165
 21
0.0
 31
0.0
  0
LINE
  5
AA
330
8B
100
AcDbEntity
  8
AM_7
100
AcDbLine
 10
0.0
 20
-1.488165
 30
0.0
 11
0.0
 21
1.488165
 31
0.0
  0
CIRCLE
  5
AC
330
8B
100
AcDbEntity
  8
AM_4
100
AcDbCircle
 10
0.0
 20
0.0
 30
0.0
 40
1.4173
  0
CIRCLE
  5
AD
330
8B
100
AcDbEntity
  8
AM_4
100
AcDbCircle
 10
0.0
 20
0.0
 30
0.0
 40
1.397432220977328
  0
CIRCLE
  5
AE
330
8B
100
AcDbEntity
  8
AM_4
100
AcDbCircle
 10
0.0
 20
0.0
 30
0.0
 40
1.404816191682578
  0
CIRCLE
  5
AF
330
8B
100
AcDbEntity
  8
AM_4
100
AcDbCircle
 10
0.0
 20
0.0
 30
0.0
 40
1.384128370350267
  0
CIRCLE
  5
B0
330
8B
100
AcDbEntity
  8
AM_4
100
AcDbCircle
 10
0.0
 20
0.0
 30
0.0
 40
1.350181451274502
  0
CIRCLE
  5
B1
330
8B
100
AcDbEntity
  8
AM_4
100
AcDbCircle
 10
0.0
 20
0.0
 30
0.0
 40
1.322326637389132
  0
ARC
  5
B2
330
8B
100
AcDbEntity
  8
AM_4
100
AcDbCircle
 10
0.0
 20
-0.0000000000000088
 30
0.0
 40
0.8567707677083422
100
AcDbArc
 50
86.65439405810875
 51
93.34560594189124
  0
ENDBLK
  5
8E
330
8B
100
AcDbEntity
  8
0
100
AcDbBlockEnd
  0
BLOCK
  5
B5
330
B3
100
AcDbEntity
  8
0
100
AcDbBlockBegin
  2
3_129972_0_in_129251_0
 70
     2
 10
0.0
 20
0.0
 30
0.0
  3
3_129972_0_in_129251_0
  1

  0
ATTDEF
  5
B7
330
B3
100
AcDbEntity
  8
AM_6
100
AcDbText
 10
6.143987627295965
 20
1.1484373925987
 30
0.0
 40
0.5
  1
Grip Tight Adapter and Nut - Corrosion Resistant Inch Bore
100
AcDbAttributeDefinition
  3

  2
NN
 70
     8
280
     0
  0
ATTDEF
  5
B8
330
B3
100
AcDbEntity
  8
AM_6
100
AcDbText
 10
6.143987627295965
 20
0.6484373925986997
 30
0.0
 40
0.5
  1
GT and GTM Adapter & Lock Nut Assemblies
100
AcDbAttributeDefinition
  3

  2
NT
 70
     8
280
     0
  0
ATTDEF
  5
B9
330
B3
100
AcDbEntity
  8
AM_6
100
AcDbText
 10
6.143987627295965
 20
0.1484373925986997
 30
0.0
 40
0.5
  1
129972
100
AcDbAttributeDefinition
  3

  2
NB
 70
     8
280
     0
  0
ATTDEF
  5
BA
330
B3
100
AcDbEntity
  8
AM_6
100
AcDbText
 10
6.143987627295965
 20
-0.3515626074013003
 30
0.0
 40
0.5
  1
$PN.
100
AcDbAttributeDefinition
  3

  2
NBSYN
 70
     8
280
     0
  0
ATTDEF
  5
BB
330
B3
100
AcDbEntity
  8
AM_6
100
AcDbText
 10
6.143987627295965
 20
-0.8515626074013003
 30
0.0
 40
0.5
  1
129972
100
AcDbAttributeDefinition
  3

  2
LINA
 70
     8
280
     0
  0
ATTDEF
  5
BC
330
B3
100
AcDbEntity
  8
AM_6
100
AcDbText
 10
6.143987627295965
 20
-1.3515626074013
 30
0.0
 40
0.5
  1
207
100
AcDbAttributeDefinition
  3

  2
SERIES
 70
     8
280
     0
  0
ATTDEF
  5
BD
330
B3
100
AcDbEntity
  8
AM_6
100
AcDbText
 10
6.143987627295965
 20
-1.8515626074013
 30
0.0
 40
0.5
  1
1-1/4
100
AcDbAttributeDefinition
  3

  2
SS
 70
     8
280
     0
  0
ATTDEF
  5
BE
330
B3
100
AcDbEntity
  8
AM_6
100
AcDbText
 10
6.143987627295965
 20
-2.3515626074013
 30
0.0
 40
0.5
  1
129972
100
AcDbAttributeDefinition
  3

  2
PN
 70
     8
280
     0
  0
ATTDEF
  5
BF
330
B3
100
AcDbEntity
  8
AM_6
100
AcDbText
 10
6.143987627295965
 20
-2.8515626074013
 30
0.0
 40
0.5
  1
AN-GT-07-104-CR
100
AcDbAttributeDefinition
  3

  2
DESCRIPTION
 70
     8
280
     0
  0
ATTDEF
  5
C0
330
B3
100
AcDbEntity
  8
AM_6
100
AcDbText
 10
6.143987627295965
 20
-3.3515626074013
 30
0.0
 40
0.5
  1
1-5/8
100
AcDbAttributeDefinition
  3

  2
A
 70
     8
280
     0
  0
ATTDEF
  5
C1
330
B3
100
AcDbEntity
  8
AM_6
100
AcDbText
 10
6.143987627295965
 20
-3.8515626074013
 30
0.0
 40
0.5
  1
0.7480
100
AcDbAttributeDefinition
  3

  2
C
 70
     8
280
     0
  0
ATTDEF
  5
C2
330
B3
100
AcDbEntity
  8
AM_6
100
AcDbText
 10
6.143987627295965
 20
-4.3515626074013
 30
0.0
 40
0.5
  1
2.8346
100
AcDbAttributeDefinition
  3

  2
D
 70
     8
280
     0
  0
ATTDEF
  5
C3
330
B3
100
AcDbEntity
  8
AM_6
100
AcDbText
 10
6.143987627295965
 20
-4.8515626074013
 30
0.0
 40
0.5
  1
0.202
100
AcDbAttributeDefinition
  3

  2
J
 70
     8
280
     0
  0
ATTDEF
  5
C4
330
B3
100
AcDbEntity
  8
AM_6
100
AcDbText
 10
6.143987627295965
 20
-5.3515626074013
 30
0.0
 40
0.5
  1
2-19/64
100
AcDbAttributeDefinition
  3

  2
L
 70
     8
280
     0
  0
ATTDEF
  5
C5
330
B3
100
AcDbEntity
  8
AM_6
100
AcDbText
 10
6.143987627295965
 20
-5.8515626074013
 30
0.0
 40
0.5
  1
10 - 32 x 1/4
100
AcDbAttributeDefinition
  3

  2
N
 70
     8
280
     0
  0
ATTDEF
  5
C6
330
B3
100
AcDbEntity
  8
AM_6
100
AcDbText
 10
6.143987627295965
 20
-6.3515626074013
 30
0.0
 40
0.5
  1
9/16
100
AcDbAttributeDefinition
  3

  2
W
 70
     8
280
     0
  0
ATTDEF
  5
C7
330
B3
100
AcDbEntity
  8
AM_6
100
AcDbText
 10
6.143987627295965
 20
-6.8515626074013
 30
0.0
 40
0.5
  1
1-3/64
100
AcDbAttributeDefinition
  3

  2
X
 70
     8
280
     0
  0
ATTDEF
  5
C8
330
B3
100
AcDbEntity
  8
AM_6
100
AcDbText
 10
6.143987627295965
 20
-7.3515626074013
 30
0.0
 40
0.5
  1
1-1/16
100
AcDbAttributeDefinition
  3

  2
Y
 70
     8
280
     0
  0
ATTDEF
  5
C9
330
B3
100
AcDbEntity
  8
AM_6
100
AcDbText
 10
6.143987627295965
 20
-7.8515626074013
 30
0.0
 40
0.5
  1
baldor
100
AcDbAttributeDefinition
  3

  2
COMPANY
 70
     8
280
     0
  0
LINE
  5
CA
330
B3
100
AcDbEntity
  8
AM_9
100
AcDbLine
 10
-0.05
 20
0.8567788675498904
 30
0.0
 11
-0.05
 21
0.8887174864181436
 31
0.0
  0
LINE
  5
CB
330
B3
100
AcDbEntity
  8
AM_9
100
AcDbLine
 10
0.05
 20
0.8567788675498903
 30
0.0
 11
0.05
 21
0.8887174864181436
 31
0.0
  0
ARC
  5
CC
330
B3
100
AcDbEntity
  8
AM_9
100
AcDbCircle
 10
0.0
 20
0.0000000000000001
 30
0.0
 40
0.8901228963830687
100
AcDbArc
 50
93.22011451807202
 51
86.77988548192796
  0
CIRCLE
  5
CD
330
B3
100
AcDbEntity
  8
AM_9
100
AcDbCircle
 10
0.0
 20
0.0
 30
0.0
 40
0.9388020833333335
  0
CIRCLE
  5
CE
330
B3
100
AcDbEntity
  8
AM_9
100
AcDbCircle
 10
0.0
 20
0.0
 30
0.0
 40
1.020833333333333
  0
LINE
  5
CF
330
B3
100
AcDbEntity
  8
AM_9
100
AcDbLine
 10
-1.1314375
 20
-0.078
 30
0.0
 11
-0.8783281250000001
 21
-0.078
 31
0.0
  0
LINE
  5
D0
330
B3
100
AcDbEntity
  8
AM_9
100
AcDbLine
 10
-0.8783281250000001
 20
0.078
 30
0.0
 11
-1.1314375
 21
0.078
 31
0.0
  0
LINE
  5
D1
330
B3
100
AcDbEntity
  8
AM_9
100
AcDbLine
 10
-0.8783281250000001
 20
-0.078
 30
0.0
 11
-0.861328125
 21
-0.0950000000000001
 31
0.0
  0
LINE
  5
D2
330
B3
100
AcDbEntity
  8
AM_9
100
AcDbLine
 10
-0.861328125
 20
0.0950000000000001
 30
0.0
 11
-0.8783281250000001
 21
0.078
 31
0.0
  0
LINE
  5
D3
330
B3
100
AcDbEntity
  8
AM_9
100
AcDbLine
 10
-0.861328125
 20
0.0950000000000001
 30
0.0
 11
-0.861328125
 21
-0.0950000000000001
 31
0.0
  0
LINE
  5
D4
330
B3
100
AcDbEntity
  8
AM_9
100
AcDbLine
 10
-0.8783281250000001
 20
0.078
 30
0.0
 11
-0.8783281250000001
 21
-0.078
 31
0.0
  0
LINE
  5
D5
330
B3
100
AcDbEntity
  8
AM_9
100
AcDbLine
 10
-1.1314375
 20
0.078
 30
0.0
 11
-1.144659941386515
 21
0.0912224413865149
 31
0.0
  0
LINE
  5
D6
330
B3
100
AcDbEntity
  8
AM_9
100
AcDbLine
 10
-1.144787373060091
 20
-0.091349873060091
 30
0.0
 11
-1.1314375
 21
-0.078
 31
0.0
  0
LINE
  5
D7
330
B3
100
AcDbEntity
  8
AM_9
100
AcDbLine
 10
-1.1314375
 20
0.078
 30
0.0
 11
-1.1314375
 21
-0.078
 31
0.0
  0
LWPOLYLINE
  5
D8
330
B3
100
AcDbEntity
  8
AM_9
100
AcDbPolyline
 90
        8
 70
     0
 43
0.0
 10
-1.147354576684376
 20
0.0498614757870806
 10
-1.147186795356318
 20
0.0535830940348799
 10
-1.146603620382192
 20
0.0648754894601966
 10
-1.146021440895132
 20
0.074455009333788
 10
-1.145492017330086
 20
0.0821993287034678
 10
-1.145084430539929
 20
0.0876945741839123
 10
-1.144843903647286
 20
0.0907806570140069
 10
-1.144797793579461
 20
0.0913602934641121
  0
LWPOLYLINE
  5
D9
330
B3
100
AcDbEntity
  8
AM_9
100
AcDbPolyline
 90
        7
 70
     0
 43
0.0
 10
-1.144797793571385
 20
-0.0913602935653019
 10
-1.144900613636864
 20
-0.0900626243243186
 10
-1.145216408107165
 20
-0.0859538830325481
 10
-1.145692562332478
 20
-0.079355176405143
 10
-1.146299986377777
 20
-0.0700359381786167
 10
-1.146920177120514
 20
-0.0590152414220181
 10
-1.147347982216298
 20
-0.0500129894171429
  0
LINE
  5
DB
330
B3
100
AcDbEntity
  8
AM_5
100
AcDbLine
 10
-1.144501503453032
 20
-0.0950000000000001
 30
0.0
 11
-0.861328125
 21
-0.0950000000000001
 31
0.0
  0
LINE
  5
DC
330
B3
100
AcDbEntity
  8
AM_5
100
AcDbLine
 10
-1.144501503453032
 20
0.0950000000000002
 30
0.0
 11
-0.861328125
 21
0.0950000000000002
 31
0.0
  0
LWPOLYLINE
  5
DD
330
B3
100
AcDbEntity
  8
AM_4
100
AcDbPolyline
 90
        9
 70
     0
 43
0.0
 10
-1.147347982216298
 20
-0.0500129894171429
 10
-1.14752579006907
 20
-0.0457520768119632
 10
-1.147992831261277
 20
-0.0319554499102687
 10
-1.148315742261515
 20
-0.016722663682404
 10
-1.148435752785103
 20
-0.0020032801014442
 10
-1.148361459032061
 20
0.0132155520507687
 10
-1.148111361355729
 20
0.0273677425474788
 10
-1.147700235991567
 20
0.0411443764219549
 10
-1.147354576684376
 20
0.0498614757870806
  0
LINE
  5
DE
330
B3
100
AcDbEntity
  8
AM_4
100
AcDbLine
 10
-0.05
 20
0.6229967897188556
 30
0.0
 11
-0.05
 21
0.8567708333333334
 31
0.0
  0
LINE
  5
DF
330
B3
100
AcDbEntity
  8
AM_4
100
AcDbLine
 10
0.05
 20
0.6229967897188556
 30
0.0
 11
0.05
 21
0.8567708333333333
 31
0.0
  0
LINE
  5
E0
330
B3
100
AcDbEntity
  8
AM_4
100
AcDbLine
 10
-0.6594623794302108
 20
0.9402223468533891
 30
0.0
 11
-0.6234059685476592
 21
0.87777081126623
 31
0.0
  0
LINE
  5
E1
330
B3
100
AcDbEntity
  8
AM_4
100
AcDbLine
 10
-0.4845252478657537
 20
-1.041222346853389
 30
0.0
 11
-0.4484688369832019
 21
-0.9787708112662304
 31
0.0
  0
LINE
  5
E2
330
B3
100
AcDbEntity
  8
AM_4
100
AcDbLine
 10
-0.4484688369832025
 20
0.9787708112662303
 30
0.0
 11
-0.4845252478657542
 21
1.041222346853389
 31
0.0
  0
LINE
  5
E3
330
B3
100
AcDbEntity
  8
AM_4
100
AcDbLine
 10
-0.05
 20
0.8567708333333334
 30
0.0
 11
0.05
 21
0.8567708333333333
 31
0.0
  0
LINE
  5
E4
330
B3
100
AcDbEntity
  8
AM_4
100
AcDbLine
 10
1.071874805530861
 20
-0.101
 30
0.0
 11
1.143987627295964
 21
-0.101
 31
0.0
  0
LINE
  5
E5
330
B3
100
AcDbEntity
  8
AM_4
100
AcDbLine
 10
-0.6234059685476586
 20
-0.8777708112662306
 30
0.0
 11
-0.6594623794302102
 21
-0.9402223468533897
 31
0.0
  0
LINE
  5
E6
330
B3
100
AcDbEntity
  8
AM_4
100
AcDbLine
 10
1.071874805530861
 20
0.101
 30
0.0
 11
1.071874805530861
 21
-0.101
 31
0.0
  0
LINE
  5
E7
330
B3
100
AcDbEntity
  8
AM_4
100
AcDbLine
 10
1.143987627295964
 20
0.101
 30
0.0
 11
1.071874805530861
 21
0.101
 31
0.0
  0
LINE
  5
E8
330
B3
100
AcDbEntity
  8
AM_4
100
AcDbLine
 10
-0.6234059685476592
 20
0.87777081126623
 30
0.0
 11
-0.4484688369832025
 21
0.9787708112662303
 31
0.0
  0
LINE
  5
E9
330
B3
100
AcDbEntity
  8
AM_4
100
AcDbLine
 10
-0.4484688369832019
 20
-0.9787708112662304
 30
0.0
 11
-0.6234059685476586
 21
-0.8777708112662306
 31
0.0
  0
ARC
  5
EA
330
B3
100
AcDbEntity
  8
AM_4
100
AcDbCircle
 10
0.0
 20
-0.0000000000000002
 30
0.0
 40
1.1484375
100
AcDbArc
 50
245.0454286839745
 51
354.9545713160255
  0
ARC
  5
EB
330
B3
100
AcDbEntity
  8
AM_4
100
AcDbCircle
 10
0.0
 20
-0.0000000000000001
 30
0.0
 40
1.1185175
100
AcDbArc
 50
245.1807565308709
 51
354.8192434691292
  0
ARC
  5
EC
330
B3
100
AcDbEntity
  8
AM_4
100
AcDbCircle
 10
0.0000000000000027
 20
-0.0000000000000013
 30
0.0
 40
1.148437500000003
100
AcDbArc
 50
125.0454286839746
 51
177.5326322353161
  0
LWPOLYLINE
  5
ED
330
B3
100
AcDbEntity
  8
AM_4
100
AcDbPolyline
 90
        6
 70
     0
 43
0.0
 10
-1.147372786500038
 20
0.0494406735935922
 10
-1.142896056280188
 20
0.0276490989623731
 10
-1.140922088836125
 20
0.0043007204488114
 10
-1.141701089946704
 20
-0.0176995504781212
 10
-1.14508296413028
 20
-0.0398391566671438
 10
-1.147372786500038
 20
-0.0494406735935925
  0
ARC
  5
EE
330
B3
100
AcDbEntity
  8
AM_4
100
AcDbCircle
 10
0.0000000000000007
 20
0.0000000000000001
 30
0.0
 40
1.148437500000001
100
AcDbArc
 50
182.4673677646839
 51
234.9545713160255
  0
ARC
  5
EF
330
B3
100
AcDbEntity
  8
AM_4
100
AcDbCircle
 10
-0.0000000000000004
 20
0.0
 30
0.0
 40
1.1185175
100
AcDbArc
 50
125.1807565308709
 51
234.8192434691291
  0
ARC
  5
F0
330
B3
100
AcDbEntity
  8
AM_4
100
AcDbCircle
 10
-0.0000000000000002
 20
-0.0000000000000003
 30
0.0
 40
1.1484375
100
AcDbArc
 50
5.045428683974622
 51
114.9545713160255
  0
ARC
  5
F1
330
B3
100
AcDbEntity
  8
AM_4
100
AcDbCircle
 10
0.0000000000000002
 20
0.0000000000000001
 30
0.0
 40
1.1185175
100
AcDbArc
 50
5.180756530870902
 51
114.8192434691291
  0
ARC
  5
F2
330
B3
100
AcDbEntity
  8
AM_4
100
AcDbCircle
 10
0.0
 20
-0.0000000000000001
 30
0.0
 40
0.8567708333333331
100
AcDbArc
 50
93.34560594189128
 51
86.65439405810874
  0
ARC
  5
F3
330
B3
100
AcDbEntity
  8
AM_4
100
AcDbCircle
 10
0.0
 20
0.0
 30
0.0
 40
0.625
100
AcDbArc
 50
94.58856573578582
 51
85.41143426421417
  0
ENDBLK
  5
B6
330
B3
100
AcDbEntity
  8
0
100
AcDbBlockEnd
  0
BLOCK
  5
F6
330
F4
100
AcDbEntity
  8
0
100
AcDbBlockBegin
  2
4_P2B_GTEZ_07_PCRI_0_in_129251_0
 70
     2
 10
0.0
 20
0.0
 30
0.0
  3
4_P2B_GTEZ_07_PCRI_0_in_129251_0
  1

  0
ATTDEF
  5
F8
330
F4
100
AcDbEntity
  8
AM_6
100
AcDbText
 10
8.2735
 20
2.92955
 30
0.0
 40
0.5
  1
P2B-GTEZ-PCR-I
100
AcDbAttributeDefinition
  3

  2
NN
 70
     8
280
     0
  0
ATTDEF
  5
F9
330
F4
100
AcDbEntity
  8
AM_6
100
AcDbText
 10
8.2735
 20
2.42955
 30
0.0
 40
0.5
  1
GTEZ Normal Duty Polymer Housed Pillow Blocks
100
AcDbAttributeDefinition
  3

  2
NT
 70
     8
280
     0
  0
ATTDEF
  5
FA
330
F4
100
AcDbEntity
  8
AM_6
100
AcDbText
 10
8.2735
 20
1.92955
 30
0.0
 40
0.5
  1
P2B-GTEZ-07-PCRI
100
AcDbAttributeDefinition
  3

  2
NB
 70
     8
280
     0
  0
ATTDEF
  5
FB
330
F4
100
AcDbEntity
  8
AM_6
100
AcDbText
 10
8.2735
 20
1.42955
 30
0.0
 40
0.5
  1
$PN.$LUBE.I
100
AcDbAttributeDefinition
  3

  2
NBSYN
 70
     8
280
     0
  0
ATTDEF
  5
FC
330
F4
100
AcDbEntity
  8
AM_6
100
AcDbText
 10
8.2735
 20
0.9295500000000003
 30
0.0
 40
0.5
  1
P2B-GTEZ-07-PCR
100
AcDbAttributeDefinition
  3

  2
LINA
 70
     8
280
     0
  0
ATTDEF
  5
FD
330
F4
100
AcDbEntity
  8
AM_6
100
AcDbText
 10
8.2735
 20
0.4295500000000003
 30
0.0
 40
0.5
  1
207
100
AcDbAttributeDefinition
  3

  2
SERIES
 70
     8
280
     0
  0
ATTDEF
  5
FE
330
F4
100
AcDbEntity
  8
AM_6
100
AcDbText
 10
8.2735
 20
-0.0704499999999997
 30
0.0
 40
0.5
  1
P2B-GTEZ-07-PCR
100
AcDbAttributeDefinition
  3

  2
PN
 70
     8
280
     0
  0
ATTDEF
  5
FF
330
F4
100
AcDbEntity
  8
AM_6
100
AcDbText
 10
8.2735
 20
-0.5704499999999997
 30
0.0
 40
0.5
  1
P2B-GTEZ-07-PCR
100
AcDbAttributeDefinition
  3

  2
DESCRIPTION
 70
     8
280
     0
  0
ATTDEF
  5
100
330
F4
100
AcDbEntity
  8
AM_6
100
AcDbText
 10
8.2735
 20
-1.07045
 30
0.0
 40
0.5
  1
With Lube
100
AcDbAttributeDefinition
  3

  2
LUBE
 70
     8
280
     0
  0
ATTDEF
  5
101
330
F4
100
AcDbEntity
  8
AM_6
100
AcDbText
 10
8.2735
 20
-1.57045
 30
0.0
 40
0.5
  1
2.835
100
AcDbAttributeDefinition
  3

  2
BOD
 70
     8
280
     0
  0
ATTDEF
  5
102
330
F4
100
AcDbEntity
  8
AM_6
100
AcDbText
 10
8.2735
 20
-2.07045
 30
0.0
 40
0.5
  1
1-5/8
100
AcDbAttributeDefinition
  3

  2
A
 70
     8
280
     0
  0
ATTDEF
  5
103
330
F4
100
AcDbEntity
  8
AM_6
100
AcDbText
 10
8.2735
 20
-2.57045
 30
0.0
 40
0.5
  1
6-35/64
100
AcDbAttributeDefinition
  3

  2
B
 70
     8
280
     0
  0
ATTDEF
  5
104
330
F4
100
AcDbEntity
  8
AM_6
100
AcDbText
 10
8.2735
 20
-3.07045
 30
0.0
 40
0.5
  1
1-7/8
100
AcDbAttributeDefinition
  3

  2
C
 70
     8
280
     0
  0
ATTDEF
  5
105
330
F4
100
AcDbEntity
  8
AM_6
100
AcDbText
 10
8.2735
 20
-3.57045
 30
0.0
 40
0.5
  1
4-13/16
100
AcDbAttributeDefinition
  3

  2
DMIN
 70
     8
280
     0
  0
ATTDEF
  5
106
330
F4
100
AcDbEntity
  8
AM_6
100
AcDbText
 10
8.2735
 20
-4.070449999999999
 30
0.0
 40
0.5
  1
5-1/8
100
AcDbAttributeDefinition
  3

  2
DMAX
 70
     8
280
     0
  0
ATTDEF
  5
107
330
F4
100
AcDbEntity
  8
AM_6
100
AcDbText
 10
8.2735
 20
-4.570449999999999
 30
0.0
 40
0.5
  1
1/2
100
AcDbAttributeDefinition
  3

  2
F
 70
     8
280
     0
  0
ATTDEF
  5
108
330
F4
100
AcDbEntity
  8
AM_6
100
AcDbText
 10
8.2735
 20
-5.070449999999999
 30
0.0
 40
0.5
  1
23/32
100
AcDbAttributeDefinition
  3

  2
G
 70
     8
280
     0
  0
ATTDEF
  5
109
330
F4
100
AcDbEntity
  8
AM_6
100
AcDbText
 10
8.2735
 20
-5.570449999999999
 30
0.0
 40
0.5
  1
23/32
100
AcDbAttributeDefinition
  3

  2
H
 70
     8
280
     0
  0
ATTDEF
  5
10A
330
F4
100
AcDbEntity
  8
AM_6
100
AcDbText
 10
8.2735
 20
-6.070449999999999
 30
0.0
 40
0.5
  1
3-57/64
100
AcDbAttributeDefinition
  3

  2
J
 70
     8
280
     0
  0
ATTDEF
  5
10B
330
F4
100
AcDbEntity
  8
AM_6
100
AcDbText
 10
8.2735
 20
-6.570449999999999
 30
0.0
 40
0.5
  1
2-19/64
100
AcDbAttributeDefinition
  3

  2
L
 70
     8
280
     0
  0
ATTDEF
  5
10C
330
F4
100
AcDbEntity
  8
AM_6
100
AcDbText
 10
8.2735
 20
-7.070449999999999
 30
0.0
 40
0.5
  1
1-7/8
100
AcDbAttributeDefinition
  3

  2
M
 70
     8
280
     0
  0
ATTDEF
  5
10D
330
F4
100
AcDbEntity
  8
AM_6
100
AcDbText
 10
8.2735
 20
-7.570449999999999
 30
0.0
 40
0.5
  1
9/16
100
AcDbAttributeDefinition
  3

  2
R
 70
     8
280
     0
  0
ATTDEF
  5
10E
330
F4
100
AcDbEntity
  8
AM_6
100
AcDbText
 10
8.2735
 20
-8.07045
 30
0.0
 40
0.5
  1
1-1/16
100
AcDbAttributeDefinition
  3

  2
S
 70
     8
280
     0
  0
ATTDEF
  5
10F
330
F4
100
AcDbEntity
  8
AM_6
100
AcDbText
 10
8.2735
 20
-8.57045
 30
0.0
 40
0.5
  1
1-3/64
100
AcDbAttributeDefinition
  3

  2
Z
 70
     8
280
     0
  0
ATTDEF
  5
110
330
F4
100
AcDbEntity
  8
AM_6
100
AcDbText
 10
8.2735
 20
-9.07045
 30
0.0
 40
0.5
  1
baldor
100
AcDbAttributeDefinition
  3

  2
COMPANY
 70
     8
280
     0
  0
LINE
  5
111
330
F4
100
AcDbEntity
  8
AM_9
100
AcDbLine
 10
-2.4065
 20
-1.156
 30
0.0
 11
-2.4065
 21
-1.875
 31
0.0
  0
LINE
  5
112
330
F4
100
AcDbEntity
  8
AM_9
100
AcDbLine
 10
-2.125
 20
-1.875
 30
0.0
 11
-2.125
 21
-1.156
 31
0.0
  0
LINE
  5
113
330
F4
100
AcDbEntity
  8
AM_9
100
AcDbLine
 10
2.5625
 20
-1.156
 30
0.0
 11
2.5625
 21
-1.875
 31
0.0
  0
LINE
  5
114
330
F4
100
AcDbEntity
  8
AM_9
100
AcDbLine
 10
2.844
 20
-1.875
 30
0.0
 11
2.844
 21
-1.156
 31
0.0
  0
LINE
  5
115
330
F4
100
AcDbEntity
  8
AM_9
100
AcDbLine
 10
2.406499999999999
 20
-1.156
 30
0.0
 11
2.406499999999999
 21
-1.875
 31
0.0
  0
LINE
  5
116
330
F4
100
AcDbEntity
  8
AM_9
100
AcDbLine
 10
2.125
 20
-1.156
 30
0.0
 11
2.125
 21
-1.875
 31
0.0
  0
LINE
  5
117
330
F4
100
AcDbEntity
  8
AM_9
100
AcDbLine
 10
-2.5625
 20
-1.156
 30
0.0
 11
-2.5625
 21
-1.875
 31
0.0
  0
LINE
  5
118
330
F4
100
AcDbEntity
  8
AM_9
100
AcDbLine
 10
-2.844
 20
-1.156
 30
0.0
 11
-2.844
 21
-1.875
 31
0.0
  0
LINE
  5
119
330
F4
100
AcDbEntity
  8
AM_9
100
AcDbLine
 10
1.6565
 20
0.9595253455545407
 30
0.0
 11
1.6565
 21
-1.156
 31
0.0
  0
LINE
  5
11A
330
F4
100
AcDbEntity
  8
AM_9
100
AcDbLine
 10
-1.6565
 20
-1.156
 30
0.0
 11
-1.6565
 21
0.959525345554538
 31
0.0
  0
LINE
  5
11B
330
F4
100
AcDbEntity
  8
AM_7
100
AcDbLine
 10
2.4065
 20
-1.35055
 30
0.0
 11
2.4065
 21
2.92955
 31
0.0
  0
LINE
  5
11C
330
F4
100
AcDbEntity
  8
AM_7
100
AcDbLine
 10
-2.4065
 20
-1.35055
 30
0.0
 11
-2.4065
 21
2.92955
 31
0.0
  0
LINE
  5
11D
330
F4
100
AcDbEntity
  8
AM_7
100
AcDbLine
 10
1.201502938040993
 20
1.201502938040992
 30
0.0
 11
1.699302943736045
 21
1.699302943736045
 31
0.0
  0
LINE
  5
11E
330
F4
100
AcDbEntity
  8
AM_4
100
AcDbLine
 10
1.698200937031952
 20
1.607495753675556
 30
0.0
 11
1.607495759138428
 21
1.69820093156908
 31
0.0
  0
ARC
  5
11F
330
F4
100
AcDbEntity
  8
AM_4
100
AcDbCircle
 10
1.601927980738356
 20
1.692633164094752
 30
0.0
 40
0.0078740200000014
100
AcDbArc
 50
45.00000000000458
 51
107.3006441304076
  0
ARC
  5
120
330
F4
100
AcDbEntity
  8
AM_4
100
AcDbCircle
 10
1.692633164094754
 20
1.601927980738357
 30
0.0
 40
0.0078740200000001
100
AcDbArc
 50
342.6993558695864
 51
45.00000000000344
  0
LINE
  5
121
330
F4
100
AcDbEntity
  8
AM_4
100
AcDbLine
 10
1.700150943400775
 20
1.59958636051587
 30
0.0
 11
1.59958636051587
 21
1.700150943400775
 31
0.0
  0
LINE
  5
122
330
F4
100
AcDbEntity
  8
AM_4
100
AcDbLine
 10
1.59958636051587
 20
1.700150943400775
 30
0.0
 11
1.532116030952493
 21
1.679135443784161
 31
0.0
  0
LINE
  5
123
330
F4
100
AcDbEntity
  8
AM_4
100
AcDbLine
 10
1.679135443784161
 20
1.532116030952493
 30
0.0
 11
1.700150943400775
 21
1.59958636051587
 31
0.0
  0
LINE
  5
124
330
F4
100
AcDbEntity
  8
AM_4
100
AcDbLine
 10
1.679135443784161
 20
1.532116030952493
 30
0.0
 11
1.532116030952493
 21
1.679135443784161
 31
0.0
  0
ARC
  5
125
330
F4
100
AcDbEntity
  8
AM_4
100
AcDbCircle
 10
1.53797006663943
 20
1.660341043256981
 30
0.0
 40
0.0196850000000001
100
AcDbArc
 50
107.3006441304193
 51
172.2171938122406
  0
ARC
  5
126
330
F4
100
AcDbEntity
  8
AM_4
100
AcDbCircle
 10
1.660341043256981
 20
1.537970066639429
 30
0.0
 40
0.0196849999999994
100
AcDbArc
 50
277.7828061877603
 51
342.6993558695823
  0
LINE
  5
127
330
F4
100
AcDbEntity
  8
AM_4
100
AcDbLine
 10
1.324349869338263
 20
1.480247115600023
 30
0.0
 11
1.289551376869122
 21
1.445448623130881
 31
0.0
  0
LINE
  5
128
330
F4
100
AcDbEntity
  8
AM_4
100
AcDbLine
 10
1.445448623130882
 20
1.289551376869121
 30
0.0
 11
1.480247115600024
 21
1.324349869338263
 31
0.0
  0
LINE
  5
129
330
F4
100
AcDbEntity
  8
AM_4
100
AcDbLine
 10
1.663006751590147
 20
1.518466394572804
 30
0.0
 11
1.518466394572804
 21
1.663006751590146
 31
0.0
  0
ARC
  5
12A
330
F4
100
AcDbEntity
  8
AM_4
100
AcDbCircle
 10
1.436633551642938
 20
1.674191439816013
 30
0.0
 40
0.0825936524963872
100
AcDbArc
 50
269.3563657692212
 51
352.2171938122407
  0
ARC
  5
12B
330
F4
100
AcDbEntity
  8
AM_4
100
AcDbCircle
 10
1.674191439816014
 20
1.436633551642937
 30
0.0
 40
0.0825936524963882
100
AcDbArc
 50
97.78280618775982
 51
180.6436342307783
  0
LINE
  5
12C
330
F4
100
AcDbEntity
  8
AM_4
100
AcDbLine
 10
1.591602998608062
 20
1.435705752346301
 30
0.0
 11
1.435705752346301
 21
1.591602998608062
 31
0.0
  0
LINE
  5
12D
330
F4
100
AcDbEntity
  8
AM_4
100
AcDbLine
 10
1.435705752346301
 20
1.591602998608062
 30
0.0
 11
1.421786355358645
 21
1.577683601620406
 31
0.0
  0
LINE
  5
12E
330
F4
100
AcDbEntity
  8
AM_4
100
AcDbLine
 10
1.577683601620406
 20
1.421786355358645
 30
0.0
 11
1.591602998608062
 21
1.435705752346301
 31
0.0
  0
LINE
  5
12F
330
F4
100
AcDbEntity
  8
AM_4
100
AcDbLine
 10
1.366536697416223
 20
1.6237012770418
 30
0.0
 11
1.278332193916868
 21
1.535496773542445
 31
0.0
  0
LINE
  5
130
330
F4
100
AcDbEntity
  8
AM_4
100
AcDbLine
 10
1.623701277041801
 20
1.366536697416223
 30
0.0
 11
1.535496773542446
 21
1.278332193916868
 31
0.0
  0
LINE
  5
131
330
F4
100
AcDbEntity
  8
AM_4
100
AcDbLine
 10
1.5136536683704
 20
1.290943316567886
 30
0.0
 11
1.290943316567887
 21
1.5136536683704
 31
0.0
  0
LWPOLYLINE
  5
132
330
F4
100
AcDbEntity
  8
AM_4
100
AcDbPolyline
 90
        6
 70
     0
 43
0.0
 10
1.535496773542446
 20
1.278332193916868
 10
1.516312577209954
 20
1.290795825213718
 10
1.507419285062861
 20
1.297845281985689
 10
1.490760743591647
 20
1.314496586862796
 10
1.477225920384246
 20
1.332767561697096
 10
1.471205628636052
 20
1.342623338823262
  0
LWPOLYLINE
  5
133
330
F4
100
AcDbEntity
  8
AM_4
100
AcDbPolyline
 90
        6
 70
     0
 43
0.0
 10
1.342623338823263
 20
1.471205628636051
 10
1.323439142490802
 20
1.483669259932878
 10
1.314545850343722
 20
1.490718716704835
 10
1.297887308872426
 20
1.507370021582023
 10
1.284352485665052
 20
1.525640996416296
 10
1.278332193916868
 20
1.535496773542445
  0
LINE
  5
134
330
F4
100
AcDbEntity
  8
AM_4
100
AcDbLine
 10
1.5136536683704
 20
1.290943316567886
 30
0.0
 11
1.535496773542446
 21
1.278332193916868
 31
0.0
  0
LINE
  5
135
330
F4
100
AcDbEntity
  8
AM_4
100
AcDbLine
 10
1.278332193916868
 20
1.535496773542445
 30
0.0
 11
1.290943316567887
 21
1.5136536683704
 31
0.0
  0
LWPOLYLINE
  5
136
330
F4
100
AcDbEntity
  8
AM_4
100
AcDbPolyline
 90
        5
 70
     0
 43
0.0
 10
1.559410132135406
 20
1.430827842322617
 10
1.57864849355337
 20
1.418300465284786
 10
1.595861965472565
 20
1.4036068819955
 10
1.610909857730036
 20
1.386128002525751
 10
1.623701277041801
 20
1.366536697416223
  0
LWPOLYLINE
  5
137
330
F4
100
AcDbEntity
  8
AM_4
100
AcDbPolyline
 90
        5
 70
     0
 43
0.0
 10
1.366536697416223
 20
1.6237012770418
 10
1.385775058834187
 20
1.61117390000397
 10
1.402988530753382
 20
1.596480316714683
 10
1.418036423010852
 20
1.579001437244932
 10
1.430827842322617
 20
1.559410132135405
  0
LINE
  5
138
330
F4
100
AcDbEntity
  8
AM_4
100
AcDbLine
 10
1.611090154390783
 20
1.388379802588267
 30
0.0
 11
1.388379802588267
 21
1.611090154390783
 31
0.0
  0
LINE
  5
139
330
F4
100
AcDbEntity
  8
AM_4
100
AcDbLine
 10
1.388379802588267
 20
1.611090154390783
 30
0.0
 11
1.366536697416223
 21
1.6237012770418
 31
0.0
  0
LINE
  5
13A
330
F4
100
AcDbEntity
  8
AM_4
100
AcDbLine
 10
1.623701277041801
 20
1.366536697416223
 30
0.0
 11
1.611090154390783
 21
1.388379802588267
 31
0.0
  0
LINE
  5
13B
330
F4
100
AcDbEntity
  8
AM_4
100
AcDbLine
 10
1.430827842322617
 20
1.559410132135405
 30
0.0
 11
1.342623338823263
 21
1.471205628636051
 31
0.0
  0
LWPOLYLINE
  5
13C
330
F4
100
AcDbEntity
  8
AM_4
100
AcDbPolyline
 90
        9
 70
     0
 43
0.0
 10
1.471205628636052
 20
1.342623338823262
 10
1.453503471339525
 20
1.356507716114956
 10
1.43619751848892
 20
1.370910883934756
 10
1.41933285188231
 20
1.385931715166244
 10
1.402298587203489
 20
1.402298587203489
 10
1.386019387236847
 20
1.419237943217599
 10
1.371039614110999
 20
1.436047844532198
 10
1.356581665008624
 20
1.453411817072721
 10
1.342623338823263
 20
1.471205628636051
  0
LINE
  5
13D
330
F4
100
AcDbEntity
  8
AM_4
100
AcDbLine
 10
1.559410132135406
 20
1.430827842322617
 30
0.0
 11
1.471205628636052
 21
1.342623338823262
 31
0.0
  0
LWPOLYLINE
  5
13E
330
F4
100
AcDbEntity
  8
AM_4
100
AcDbPolyline
 90
        5
 70
     0
 43
0.0
 10
1.430827842322617
 20
1.559410132135405
 10
1.466215652933353
 20
1.530795868139096
 10
1.49973488375518
 20
1.499734883755179
 10
1.530662096507787
 20
1.466370951601392
 10
1.559410132135406
 20
1.430827842322617
  0
LINE
  5
13F
330
F4
100
AcDbEntity
  8
AM_4
100
AcDbLine
 10
-0.273948
 20
1.4743508
 30
0.0
 11
-0.3290440000000001
 21
1.4743508
 31
0.0
  0
LINE
  5
140
330
F4
100
AcDbEntity
  8
AM_4
100
AcDbLine
 10
-0.2617049999999999
 20
1.4772642
 30
0.0
 11
-0.273948
 21
1.4743508
 31
0.0
  0
LINE
  5
141
330
F4
100
AcDbEntity
  8
AM_4
100
AcDbLine
 10
-0.3290440000000001
 20
1.4743508
 30
0.0
 11
-0.3290440000000001
 21
1.5763216
 31
0.0
  0
LINE
  5
142
330
F4
100
AcDbEntity
  8
AM_4
100
AcDbLine
 10
-0.2525220000000002
 20
1.483091299999999
 30
0.0
 11
-0.2617049999999999
 21
1.4772642
 31
0.0
  0
LINE
  5
143
330
F4
100
AcDbEntity
  8
AM_4
100
AcDbLine
 10
-0.2464010000000006
 20
1.4918315
 30
0.0
 11
-0.2525220000000002
 21
1.483091299999999
 31
0.0
  0
LINE
  5
144
330
F4
100
AcDbEntity
  8
AM_4
100
AcDbLine
 10
-0.2433400000000005
 20
1.5034853
 30
0.0
 11
-0.2464010000000006
 21
1.4918315
 31
0.0
  0
LINE
  5
145
330
F4
100
AcDbEntity
  8
AM_4
100
AcDbLine
 10
-0.2433399999999999
 20
1.5471871
 30
0.0
 11
-0.2433400000000005
 21
1.5034853
 31
0.0
  0
LINE
  5
146
330
F4
100
AcDbEntity
  8
AM_4
100
AcDbLine
 10
-0.2464010000000001
 20
1.5588409
 30
0.0
 11
-0.2433399999999999
 21
1.5471871
 31
0.0
  0
LINE
  5
147
330
F4
100
AcDbEntity
  8
AM_4
100
AcDbLine
 10
-0.2525220000000002
 20
1.5675811
 30
0.0
 11
-0.2464010000000001
 21
1.5588409
 31
0.0
  0
LINE
  5
148
330
F4
100
AcDbEntity
  8
AM_4
100
AcDbLine
 10
-0.2617050000000004
 20
1.573408199999999
 30
0.0
 11
-0.2525220000000002
 21
1.5675811
 31
0.0
  0
LINE
  5
149
330
F4
100
AcDbEntity
  8
AM_4
100
AcDbLine
 10
-0.2739480000000006
 20
1.5763216
 30
0.0
 11
-0.2617050000000004
 21
1.573408199999999
 31
0.0
  0
LINE
  5
14A
330
F4
100
AcDbEntity
  8
AM_4
100
AcDbLine
 10
-0.3290440000000001
 20
1.5763216
 30
0.0
 11
-0.2739480000000006
 21
1.5763216
 31
0.0
  0
LINE
  5
14B
330
F4
100
AcDbEntity
  8
AM_4
100
AcDbLine
 10
-0.1515129999999984
 20
1.4743508
 30
0.0
 11
-0.1637570000000001
 21
1.4772642
 31
0.0
  0
LINE
  5
14C
330
F4
100
AcDbEntity
  8
AM_4
100
AcDbLine
 10
-0.1147830000000002
 20
1.477264199999999
 30
0.0
 11
-0.1270259999999999
 21
1.4743508
 31
0.0
  0
LINE
  5
14D
330
F4
100
AcDbEntity
  8
AM_4
100
AcDbLine
 10
-0.182122
 20
1.5471871
 30
0.0
 11
-0.1790609999999997
 21
1.5588409
 31
0.0
  0
LINE
  5
14E
330
F4
100
AcDbEntity
  8
AM_4
100
AcDbLine
 10
-0.182122
 20
1.5034853
 30
0.0
 11
-0.182122
 21
1.5471871
 31
0.0
  0
LINE
  5
14F
330
F4
100
AcDbEntity
  8
AM_4
100
AcDbLine
 10
-0.1790609999999995
 20
1.491831499999999
 30
0.0
 11
-0.182122
 21
1.5034853
 31
0.0
  0
LINE
  5
150
330
F4
100
AcDbEntity
  8
AM_4
100
AcDbLine
 10
-0.1729390000000004
 20
1.483091299999999
 30
0.0
 11
-0.1790609999999995
 21
1.491831499999999
 31
0.0
  0
LINE
  5
151
330
F4
100
AcDbEntity
  8
AM_4
100
AcDbLine
 10
-0.1637570000000001
 20
1.4772642
 30
0.0
 11
-0.1729390000000004
 21
1.483091299999999
 31
0.0
  0
LINE
  5
152
330
F4
100
AcDbEntity
  8
AM_4
100
AcDbLine
 10
-0.1270259999999999
 20
1.4743508
 30
0.0
 11
-0.1515129999999984
 21
1.4743508
 31
0.0
  0
LINE
  5
153
330
F4
100
AcDbEntity
  8
AM_4
100
AcDbLine
 10
-0.1056000000000006
 20
1.483091299999999
 30
0.0
 11
-0.1147830000000002
 21
1.477264199999999
 31
0.0
  0
LINE
  5
154
330
F4
100
AcDbEntity
  8
AM_4
100
AcDbLine
 10
-0.0994784
 20
1.4918315
 30
0.0
 11
-0.1056000000000006
 21
1.483091299999999
 31
0.0
  0
LINE
  5
155
330
F4
100
AcDbEntity
  8
AM_4
100
AcDbLine
 10
-0.0964177000000003
 20
1.5034853
 30
0.0
 11
-0.0994784
 21
1.4918315
 31
0.0
  0
LINE
  5
156
330
F4
100
AcDbEntity
  8
AM_4
100
AcDbLine
 10
-0.0964176999999999
 20
1.5471871
 30
0.0
 11
-0.0964177000000003
 21
1.5034853
 31
0.0
  0
LINE
  5
157
330
F4
100
AcDbEntity
  8
AM_4
100
AcDbLine
 10
-0.0994783999999994
 20
1.5588409
 30
0.0
 11
-0.0964176999999999
 21
1.5471871
 31
0.0
  0
LINE
  5
158
330
F4
100
AcDbEntity
  8
AM_4
100
AcDbLine
 10
-0.1056
 20
1.5675811
 30
0.0
 11
-0.0994783999999994
 21
1.5588409
 31
0.0
  0
LINE
  5
159
330
F4
100
AcDbEntity
  8
AM_4
100
AcDbLine
 10
-0.1147830000000013
 20
1.5734082
 30
0.0
 11
-0.1056
 21
1.5675811
 31
0.0
  0
LINE
  5
15A
330
F4
100
AcDbEntity
  8
AM_4
100
AcDbLine
 10
-0.1270260000000004
 20
1.5763216
 30
0.0
 11
-0.1147830000000013
 21
1.5734082
 31
0.0
  0
LINE
  5
15B
330
F4
100
AcDbEntity
  8
AM_4
100
AcDbLine
 10
-0.151513
 20
1.5763216
 30
0.0
 11
-0.1270260000000004
 21
1.5763216
 31
0.0
  0
LINE
  5
15C
330
F4
100
AcDbEntity
  8
AM_4
100
AcDbLine
 10
-0.1637569999999984
 20
1.5734082
 30
0.0
 11
-0.151513
 21
1.5763216
 31
0.0
  0
LINE
  5
15D
330
F4
100
AcDbEntity
  8
AM_4
100
AcDbLine
 10
-0.1729390000000001
 20
1.5675811
 30
0.0
 11
-0.1637569999999984
 21
1.5734082
 31
0.0
  0
LINE
  5
15E
330
F4
100
AcDbEntity
  8
AM_4
100
AcDbLine
 10
-0.1790609999999997
 20
1.5588409
 30
0.0
 11
-0.1729390000000001
 21
1.5675811
 31
0.0
  0
LINE
  5
15F
330
F4
100
AcDbEntity
  8
AM_4
100
AcDbLine
 10
-0.0352001000000003
 20
1.4743508
 30
0.0
 11
-0.0352001000000003
 21
1.5763216
 31
0.0
  0
LINE
  5
160
330
F4
100
AcDbEntity
  8
AM_4
100
AcDbLine
 10
0.0198956999999999
 20
1.4743508
 30
0.0
 11
-0.0352001000000003
 21
1.4743508
 31
0.0
  0
LINE
  5
161
330
F4
100
AcDbEntity
  8
AM_4
100
AcDbLine
 10
0.0321391999999994
 20
1.477264199999999
 30
0.0
 11
0.0198956999999999
 21
1.4743508
 31
0.0
  0
LINE
  5
162
330
F4
100
AcDbEntity
  8
AM_4
100
AcDbLine
 10
0.0413217000000001
 20
1.483091299999999
 30
0.0
 11
0.0321391999999994
 21
1.477264199999999
 31
0.0
  0
LINE
  5
163
330
F4
100
AcDbEntity
  8
AM_4
100
AcDbLine
 10
0.0474436999999993
 20
1.4918315
 30
0.0
 11
0.0413217000000001
 21
1.483091299999999
 31
0.0
  0
LINE
  5
164
330
F4
100
AcDbEntity
  8
AM_4
100
AcDbLine
 10
0.0505042999999996
 20
1.5034853
 30
0.0
 11
0.0474436999999993
 21
1.4918315
 31
0.0
  0
LINE
  5
165
330
F4
100
AcDbEntity
  8
AM_4
100
AcDbLine
 10
0.0505042999999996
 20
1.5471871
 30
0.0
 11
0.0505042999999996
 21
1.5034853
 31
0.0
  0
LINE
  5
166
330
F4
100
AcDbEntity
  8
AM_4
100
AcDbLine
 10
0.0474436999999993
 20
1.558840899999999
 30
0.0
 11
0.0505042999999996
 21
1.5471871
 31
0.0
  0
LINE
  5
167
330
F4
100
AcDbEntity
  8
AM_4
100
AcDbLine
 10
0.0413216999999996
 20
1.5675811
 30
0.0
 11
0.0474436999999993
 21
1.558840899999999
 31
0.0
  0
LINE
  5
168
330
F4
100
AcDbEntity
  8
AM_4
100
AcDbLine
 10
0.0321392000000005
 20
1.5734082
 30
0.0
 11
0.0413216999999996
 21
1.5675811
 31
0.0
  0
LINE
  5
169
330
F4
100
AcDbEntity
  8
AM_4
100
AcDbLine
 10
0.0198956999999993
 20
1.5763216
 30
0.0
 11
0.0321392000000005
 21
1.5734082
 31
0.0
  0
LINE
  5
16A
330
F4
100
AcDbEntity
  8
AM_4
100
AcDbLine
 10
-0.0352001000000003
 20
1.5763216
 30
0.0
 11
0.0198956999999993
 21
1.5763216
 31
0.0
  0
ARC
  5
16B
330
F4
100
AcDbEntity
  8
AM_4
100
AcDbCircle
 10
0.0
 20
0.0000000000000003
 30
0.0
 40
1.4175
100
AcDbArc
 50
193.6131467603333
 51
346.3868532396666
  0
LWPOLYLINE
  5
16C
330
F4
100
AcDbEntity
  8
AM_4
100
AcDbPolyline
 90
       19
 70
     0
 43
0.0
 10
-3.2735
 20
-1.2150551
 10
-3.273275277515278
 20
-1.209908108896462
 10
-3.272602820334911
 20
-1.204800289503061
 10
-3.271487746264083
 20
-1.199770515409566
 10
-3.269938541689774
 20
-1.194857066233888
 10
-3.267966996994228
 20
-1.190097336291077
 10
-3.265588116823031
 20
-1.18552755
 10
-3.262820005890691
 20
-1.181182486193645
 10
-3.259683731192835
 20
-1.1770952134312
 10
-3.256203161673649
 20
-1.17329683832635
 10
-3.252404786568799
 20
-1.169816268807164
 10
-3.248317513806355
 20
-1.166679994109309
 10
-3.24397245
 20
-1.16391188317697
 10
-3.239402663708923
 20
-1.161533003005772
 10
-3.234642933766112
 20
-1.159561458310226
 10
-3.229729484590434
 20
-1.158012253735917
 10
-3.224699710496938
 20
-1.156897179665089
 10
-3.219591891103537
 20
-1.156224722484722
 10
-3.2144449
 20
-1.156
  0
LINE
  5
16D
330
F4
100
AcDbEntity
  8
AM_4
100
AcDbLine
 10
-3.2735
 20
-1.215055099999999
 30
0.0
 11
-3.2735
 21
-1.874999999999999
 31
0.0
  0
LINE
  5
16E
330
F4
100
AcDbEntity
  8
AM_4
100
AcDbLine
 10
-1.48286441690669
 20
-0.3336300682265754
 30
0.0
 11
-1.48286441690669
 21
-1.874999999999999
 31
0.0
  0
LINE
  5
16F
330
F4
100
AcDbEntity
  8
AM_4
100
AcDbLine
 10
-1.656499595
 20
-1.156
 30
0.0
 11
-1.656499594999999
 21
-1.874999999999999
 31
0.0
  0
LINE
  5
170
330
F4
100
AcDbEntity
  8
AM_4
100
AcDbLine
 10
-3.085999999999999
 20
-1.875
 30
0.0
 11
-3.086
 21
-1.155999999999999
 31
0.0
  0
LINE
  5
171
330
F4
100
AcDbEntity
  8
AM_4
100
AcDbLine
 10
-1.613930000000001
 20
1.12107
 30
0.0
 11
-2.213980000000001
 21
-1.156
 31
0.0
  0
LINE
  5
172
330
F4
100
AcDbEntity
  8
AM_4
100
AcDbLine
 10
-1.656499595
 20
-1.156
 30
0.0
 11
-3.2144449
 21
-1.156
 31
0.0
  0
LINE
  5
173
330
F4
100
AcDbEntity
  8
AM_4
100
AcDbLine
 10
-1.656499595
 20
-1.156
 30
0.0
 11
-1.48286441690669
 21
-0.3336300682265754
 31
0.0
  0
LINE
  5
174
330
F4
100
AcDbEntity
  8
AM_4
100
AcDbLine
 10
-1.48286441690669
 20
-0.3336300682265754
 30
0.0
 11
-1.377678201749281
 21
-0.3336300682265743
 31
0.0
  0
LWPOLYLINE
  5
175
330
F4
100
AcDbEntity
  8
AM_4
100
AcDbPolyline
 90
       43
 70
     0
 43
0.0
 10
1.37767820174928
 20
-0.3336300682265758
 10
1.401513496658442
 20
-0.2122879381505857
 10
1.414682427601046
 20
-0.089330168682308
 10
1.417084771061002
 20
0.0343074573086727
 10
1.408702243754005
 20
0.1576839828341253
 10
1.389598641774368
 20
0.2798604380380182
 10
1.359919355068228
 20
0.3999069863240891
 10
1.319890260928261
 20
0.5169100009737932
 10
1.2698160049311
 20
0.6299790183972948
 10
1.210077682400547
 20
0.7382535150990611
 10
1.141129938042044
 20
0.8409094567812635
 10
1.063497505821946
 20
0.9371655697423479
 10
0.9777712154251914
 20
1.02628928684165
 10
0.8846034956846494
 20
1.107602322777674
 10
0.7847034092037525
 20
1.180485836248791
 10
0.6788312559619419
 20
1.244385139709219
 10
0.5677927869727419
 20
1.298813920876168
 10
0.452433072032021
 20
1.343357943859963
 10
0.3336300682265783
 20
1.377678201749279
 10
0.2122879381505883
 20
1.401513496658442
 10
0.0893301686823106
 20
1.414682427601046
 10
-0.0343074573086701
 20
1.417084771061002
 10
-0.1576839828341227
 20
1.408702243754005
 10
-0.2798604380380156
 20
1.389598641774368
 10
-0.3999069863240866
 20
1.359919355068228
 10
-0.5169100009737908
 20
1.319890260928262
 10
-0.6299790183972923
 20
1.269816004931102
 10
-0.7382535150990588
 20
1.210077682400549
 10
-0.8409094567812613
 20
1.141129938042046
 10
-0.9371655697423459
 20
1.063497505821948
 10
-1.026289286841649
 20
0.9777712154251933
 10
-1.107602322777672
 20
0.8846034956846514
 10
-1.18048583624879
 20
0.7847034092037547
 10
-1.244385139709217
 20
0.6788312559619442
 10
-1.298813920876168
 20
0.5677927869727444
 10
-1.343357943859962
 20
0.4524330720320235
 10
-1.377678201749279
 20
0.3336300682265809
 10
-1.401513496658441
 20
0.2122879381505909
 10
-1.414682427601046
 20
0.0893301686823132
 10
-1.417084771061002
 20
-0.0343074573086675
 10
-1.408702243754005
 20
-0.1576839828341201
 10
-1.389598641774369
 20
-0.2798604380380131
 10
-1.37767820174928
 20
-0.3336300682265751
  0
LINE
  5
176
330
F4
100
AcDbEntity
  8
AM_4
100
AcDbLine
 10
1.37767820174928
 20
-0.3336300682265754
 30
0.0
 11
1.482864416906689
 21
-0.3336300682265765
 31
0.0
  0
LINE
  5
177
330
F4
100
AcDbEntity
  8
AM_4
100
AcDbLine
 10
2.213980000000001
 20
-1.156
 30
0.0
 11
1.613930000000001
 21
1.121070000000002
 31
0.0
  0
LINE
  5
178
330
F4
100
AcDbEntity
  8
AM_4
100
AcDbLine
 10
1.613930000000001
 20
1.121070000000002
 30
0.0
 11
0.719000000000004
 21
2.016
 31
0.0
  0
LINE
  5
179
330
F4
100
AcDbEntity
  8
AM_4
100
AcDbLine
 10
0.719000000000004
 20
2.016
 30
0.0
 11
-0.7189999999999996
 21
2.016
 31
0.0
  0
LINE
  5
17A
330
F4
100
AcDbEntity
  8
AM_4
100
AcDbLine
 10
-0.7189999999999996
 20
2.016
 30
0.0
 11
-1.613930000000001
 21
1.12107
 31
0.0
  0
LINE
  5
17B
330
F4
100
AcDbEntity
  8
AM_4
100
AcDbLine
 10
-0.3474090000000001
 20
1.4568701
 30
0.0
 11
-0.3474090000000001
 21
1.5938023
 31
0.0
  0
LINE
  5
17C
330
F4
100
AcDbEntity
  8
AM_4
100
AcDbLine
 10
-0.3474090000000001
 20
1.5938023
 30
0.0
 11
-0.2739480000000001
 21
1.5938023
 31
0.0
  0
LINE
  5
17D
330
F4
100
AcDbEntity
  8
AM_4
100
AcDbLine
 10
-0.2739480000000001
 20
1.5938023
 30
0.0
 11
-0.2586439999999999
 21
1.590889
 31
0.0
  0
LINE
  5
17E
330
F4
100
AcDbEntity
  8
AM_4
100
AcDbLine
 10
-0.2586439999999999
 20
1.590889
 30
0.0
 11
-0.2464009999999998
 21
1.5850618
 31
0.0
  0
LINE
  5
17F
330
F4
100
AcDbEntity
  8
AM_4
100
AcDbLine
 10
-0.2464009999999998
 20
1.5850618
 30
0.0
 11
-0.2341569999999992
 21
1.573408199999999
 31
0.0
  0
LINE
  5
180
330
F4
100
AcDbEntity
  8
AM_4
100
AcDbLine
 10
-0.2341569999999992
 20
1.573408199999999
 30
0.0
 11
-0.2280350000000003
 21
1.5617543
 31
0.0
  0
LINE
  5
181
330
F4
100
AcDbEntity
  8
AM_4
100
AcDbLine
 10
-0.2280350000000003
 20
1.5617543
 30
0.0
 11
-0.2249740000000001
 21
1.5471871
 31
0.0
  0
LINE
  5
182
330
F4
100
AcDbEntity
  8
AM_4
100
AcDbLine
 10
-0.2249740000000001
 20
1.5471871
 30
0.0
 11
-0.2249740000000002
 21
1.5034853
 31
0.0
  0
LINE
  5
183
330
F4
100
AcDbEntity
  8
AM_4
100
AcDbLine
 10
-0.2249740000000002
 20
1.5034853
 30
0.0
 11
-0.2280349999999997
 21
1.488918099999999
 31
0.0
  0
LINE
  5
184
330
F4
100
AcDbEntity
  8
AM_4
100
AcDbLine
 10
-0.2280349999999997
 20
1.488918099999999
 30
0.0
 11
-0.2341570000000001
 21
1.4772642
 31
0.0
  0
LINE
  5
185
330
F4
100
AcDbEntity
  8
AM_4
100
AcDbLine
 10
-0.2341570000000001
 20
1.4772642
 30
0.0
 11
-0.246401
 21
1.465610599999999
 31
0.0
  0
LINE
  5
186
330
F4
100
AcDbEntity
  8
AM_4
100
AcDbLine
 10
-0.246401
 20
1.465610599999999
 30
0.0
 11
-0.2586439999999994
 21
1.4597834
 31
0.0
  0
LINE
  5
187
330
F4
100
AcDbEntity
  8
AM_4
100
AcDbLine
 10
-0.2586439999999994
 20
1.4597834
 30
0.0
 11
-0.2739480000000006
 21
1.456870099999999
 31
0.0
  0
LINE
  5
188
330
F4
100
AcDbEntity
  8
AM_4
100
AcDbLine
 10
-0.2739480000000006
 20
1.456870099999999
 30
0.0
 11
-0.3474090000000001
 21
1.4568701
 31
0.0
  0
LINE
  5
189
330
F4
100
AcDbEntity
  8
AM_4
100
AcDbLine
 10
-0.2004869999999999
 20
1.503485299999999
 30
0.0
 11
-0.2004869999999999
 21
1.5471871
 31
0.0
  0
LINE
  5
18A
330
F4
100
AcDbEntity
  8
AM_4
100
AcDbLine
 10
-0.2004869999999999
 20
1.5471871
 30
0.0
 11
-0.1974270000000002
 21
1.5617543
 31
0.0
  0
LINE
  5
18B
330
F4
100
AcDbEntity
  8
AM_4
100
AcDbLine
 10
-0.1974270000000002
 20
1.5617543
 30
0.0
 11
-0.1913050000000005
 21
1.5734082
 31
0.0
  0
LINE
  5
18C
330
F4
100
AcDbEntity
  8
AM_4
100
AcDbLine
 10
-0.1913050000000005
 20
1.5734082
 30
0.0
 11
-0.179061
 21
1.585061800000001
 31
0.0
  0
LINE
  5
18D
330
F4
100
AcDbEntity
  8
AM_4
100
AcDbLine
 10
-0.179061
 20
1.585061800000001
 30
0.0
 11
-0.1668179999999999
 21
1.590889
 31
0.0
  0
LINE
  5
18E
330
F4
100
AcDbEntity
  8
AM_4
100
AcDbLine
 10
-0.1668179999999999
 20
1.590889
 30
0.0
 11
-0.1515129999999995
 21
1.5938023
 31
0.0
  0
LINE
  5
18F
330
F4
100
AcDbEntity
  8
AM_4
100
AcDbLine
 10
-0.1515129999999995
 20
1.5938023
 30
0.0
 11
-0.1270259999999999
 21
1.5938023
 31
0.0
  0
LINE
  5
190
330
F4
100
AcDbEntity
  8
AM_4
100
AcDbLine
 10
-0.1270259999999999
 20
1.5938023
 30
0.0
 11
-0.1117219999999998
 21
1.590889
 31
0.0
  0
LINE
  5
191
330
F4
100
AcDbEntity
  8
AM_4
100
AcDbLine
 10
-0.1117219999999998
 20
1.590889
 30
0.0
 11
-0.0994783999999993
 21
1.585061799999999
 31
0.0
  0
LINE
  5
192
330
F4
100
AcDbEntity
  8
AM_4
100
AcDbLine
 10
-0.0994783999999993
 20
1.585061799999999
 30
0.0
 11
-0.0872349999999995
 21
1.5734082
 31
0.0
  0
LINE
  5
193
330
F4
100
AcDbEntity
  8
AM_4
100
AcDbLine
 10
-0.0872349999999995
 20
1.5734082
 30
0.0
 11
-0.0811134
 21
1.561754299999999
 31
0.0
  0
LINE
  5
194
330
F4
100
AcDbEntity
  8
AM_4
100
AcDbLine
 10
-0.0811134
 20
1.561754299999999
 30
0.0
 11
-0.0780524
 21
1.547187099999999
 31
0.0
  0
LINE
  5
195
330
F4
100
AcDbEntity
  8
AM_4
100
AcDbLine
 10
-0.0780524
 20
1.547187099999999
 30
0.0
 11
-0.0780524000000001
 21
1.5034853
 31
0.0
  0
LINE
  5
196
330
F4
100
AcDbEntity
  8
AM_4
100
AcDbLine
 10
-0.0780524000000001
 20
1.5034853
 30
0.0
 11
-0.0811133999999994
 21
1.488918099999999
 31
0.0
  0
LINE
  5
197
330
F4
100
AcDbEntity
  8
AM_4
100
AcDbLine
 10
-0.0811133999999994
 20
1.488918099999999
 30
0.0
 11
-0.0872350000000002
 21
1.4772642
 31
0.0
  0
LINE
  5
198
330
F4
100
AcDbEntity
  8
AM_4
100
AcDbLine
 10
-0.0872350000000002
 20
1.4772642
 30
0.0
 11
-0.0994783999999996
 21
1.465610599999999
 31
0.0
  0
LINE
  5
199
330
F4
100
AcDbEntity
  8
AM_4
100
AcDbLine
 10
-0.0994783999999996
 20
1.465610599999999
 30
0.0
 11
-0.1117220000000006
 21
1.459783400000001
 31
0.0
  0
LINE
  5
19A
330
F4
100
AcDbEntity
  8
AM_4
100
AcDbLine
 10
-0.1117220000000006
 20
1.459783400000001
 30
0.0
 11
-0.1270260000000004
 21
1.4568701
 31
0.0
  0
LINE
  5
19B
330
F4
100
AcDbEntity
  8
AM_4
100
AcDbLine
 10
-0.1270260000000004
 20
1.4568701
 30
0.0
 11
-0.151513
 21
1.4568701
 31
0.0
  0
LINE
  5
19C
330
F4
100
AcDbEntity
  8
AM_4
100
AcDbLine
 10
-0.151513
 20
1.4568701
 30
0.0
 11
-0.1668179999999999
 21
1.4597834
 31
0.0
  0
LINE
  5
19D
330
F4
100
AcDbEntity
  8
AM_4
100
AcDbLine
 10
-0.1668179999999999
 20
1.4597834
 30
0.0
 11
-0.1790610000000001
 21
1.465610599999999
 31
0.0
  0
LINE
  5
19E
330
F4
100
AcDbEntity
  8
AM_4
100
AcDbLine
 10
-0.1790610000000001
 20
1.465610599999999
 30
0.0
 11
-0.1913049999999996
 21
1.477264199999999
 31
0.0
  0
LINE
  5
19F
330
F4
100
AcDbEntity
  8
AM_4
100
AcDbLine
 10
-0.1913049999999996
 20
1.477264199999999
 30
0.0
 11
-0.1974270000000002
 21
1.4889181
 31
0.0
  0
LINE
  5
1A0
330
F4
100
AcDbEntity
  8
AM_4
100
AcDbLine
 10
-0.1974270000000002
 20
1.4889181
 30
0.0
 11
-0.2004869999999999
 21
1.503485299999999
 31
0.0
  0
LINE
  5
1A1
330
F4
100
AcDbEntity
  8
AM_4
100
AcDbLine
 10
0.0198957000000009
 20
1.4568701
 30
0.0
 11
-0.0535653000000003
 21
1.4568701
 31
0.0
  0
LINE
  5
1A2
330
F4
100
AcDbEntity
  8
AM_4
100
AcDbLine
 10
-0.0535653000000003
 20
1.4568701
 30
0.0
 11
-0.0535653000000003
 21
1.5938023
 31
0.0
  0
LINE
  5
1A3
330
F4
100
AcDbEntity
  8
AM_4
100
AcDbLine
 10
-0.0535653000000003
 20
1.5938023
 30
0.0
 11
0.0198956999999999
 21
1.5938023
 31
0.0
  0
LINE
  5
1A4
330
F4
100
AcDbEntity
  8
AM_4
100
AcDbLine
 10
0.0198956999999999
 20
1.5938023
 30
0.0
 11
0.0352000999999989
 21
1.590889
 31
0.0
  0
LINE
  5
1A5
330
F4
100
AcDbEntity
  8
AM_4
100
AcDbLine
 10
0.0352000999999989
 20
1.590889
 30
0.0
 11
0.0474436999999993
 21
1.5850618
 31
0.0
  0
LINE
  5
1A6
330
F4
100
AcDbEntity
  8
AM_4
100
AcDbLine
 10
0.0474436999999993
 20
1.5850618
 30
0.0
 11
0.0596869999999988
 21
1.5734082
 31
0.0
  0
LINE
  5
1A7
330
F4
100
AcDbEntity
  8
AM_4
100
AcDbLine
 10
0.0596869999999988
 20
1.5734082
 30
0.0
 11
0.0658090999999997
 21
1.5617543
 31
0.0
  0
LINE
  5
1A8
330
F4
100
AcDbEntity
  8
AM_4
100
AcDbLine
 10
0.0658090999999997
 20
1.5617543
 30
0.0
 11
0.0688696999999998
 21
1.547187099999999
 31
0.0
  0
LINE
  5
1A9
330
F4
100
AcDbEntity
  8
AM_4
100
AcDbLine
 10
0.0688696999999998
 20
1.547187099999999
 30
0.0
 11
0.0688696999999997
 21
1.5034853
 31
0.0
  0
LINE
  5
1AA
330
F4
100
AcDbEntity
  8
AM_4
100
AcDbLine
 10
0.0688696999999997
 20
1.5034853
 30
0.0
 11
0.0658090999999997
 21
1.4889181
 31
0.0
  0
LINE
  5
1AB
330
F4
100
AcDbEntity
  8
AM_4
100
AcDbLine
 10
0.0658090999999997
 20
1.4889181
 30
0.0
 11
0.0596869999999999
 21
1.4772642
 31
0.0
  0
LINE
  5
1AC
330
F4
100
AcDbEntity
  8
AM_4
100
AcDbLine
 10
0.0596869999999999
 20
1.4772642
 30
0.0
 11
0.0474436999999995
 21
1.465610599999999
 31
0.0
  0
LINE
  5
1AD
330
F4
100
AcDbEntity
  8
AM_4
100
AcDbLine
 10
0.0474436999999995
 20
1.465610599999999
 30
0.0
 11
0.0352000999999995
 21
1.4597834
 31
0.0
  0
LINE
  5
1AE
330
F4
100
AcDbEntity
  8
AM_4
100
AcDbLine
 10
0.0352000999999995
 20
1.4597834
 30
0.0
 11
0.0198957000000009
 21
1.4568701
 31
0.0
  0
LINE
  5
1AF
330
F4
100
AcDbEntity
  8
AM_4
100
AcDbLine
 10
0.0933567000000005
 20
1.5034853
 30
0.0
 11
0.0933567000000001
 21
1.5471871
 31
0.0
  0
LINE
  5
1B0
330
F4
100
AcDbEntity
  8
AM_4
100
AcDbLine
 10
0.0933567000000001
 20
1.5471871
 30
0.0
 11
0.0964177000000009
 21
1.561754299999999
 31
0.0
  0
LINE
  5
1B1
330
F4
100
AcDbEntity
  8
AM_4
100
AcDbLine
 10
0.0964177000000009
 20
1.561754299999999
 30
0.0
 11
0.1025390000000009
 21
1.573408199999999
 31
0.0
  0
LINE
  5
1B2
330
F4
100
AcDbEntity
  8
AM_4
100
AcDbLine
 10
0.1025390000000009
 20
1.573408199999999
 30
0.0
 11
0.1147829999999997
 21
1.5850618
 31
0.0
  0
LINE
  5
1B3
330
F4
100
AcDbEntity
  8
AM_4
100
AcDbLine
 10
0.1147829999999997
 20
1.5850618
 30
0.0
 11
0.1270259999999999
 21
1.590889
 31
0.0
  0
LINE
  5
1B4
330
F4
100
AcDbEntity
  8
AM_4
100
AcDbLine
 10
0.1270259999999999
 20
1.590889
 30
0.0
 11
0.1423310000000009
 21
1.5938023
 31
0.0
  0
LINE
  5
1B5
330
F4
100
AcDbEntity
  8
AM_4
100
AcDbLine
 10
0.1423310000000009
 20
1.5938023
 30
0.0
 11
0.1698790000000002
 21
1.5938023
 31
0.0
  0
LINE
  5
1B6
330
F4
100
AcDbEntity
  8
AM_4
100
AcDbLine
 10
0.1698790000000002
 20
1.5938023
 30
0.0
 11
0.1851829999999994
 21
1.590889
 31
0.0
  0
LINE
  5
1B7
330
F4
100
AcDbEntity
  8
AM_4
100
AcDbLine
 10
0.1851829999999994
 20
1.590889
 30
0.0
 11
0.197427
 21
1.5850618
 31
0.0
  0
LINE
  5
1B8
330
F4
100
AcDbEntity
  8
AM_4
100
AcDbLine
 10
0.197427
 20
1.5850618
 30
0.0
 11
0.2096699999999994
 21
1.5734082
 31
0.0
  0
LINE
  5
1B9
330
F4
100
AcDbEntity
  8
AM_4
100
AcDbLine
 10
0.2096699999999994
 20
1.5734082
 30
0.0
 11
0.2127310000000004
 21
1.5588409
 31
0.0
  0
LINE
  5
1BA
330
F4
100
AcDbEntity
  8
AM_4
100
AcDbLine
 10
0.2127310000000004
 20
1.5588409
 30
0.0
 11
0.1943660000000002
 21
1.5588409
 31
0.0
  0
LINE
  5
1BB
330
F4
100
AcDbEntity
  8
AM_4
100
AcDbLine
 10
0.1943660000000002
 20
1.5588409
 30
0.0
 11
0.1913050000000008
 21
1.5675811
 31
0.0
  0
LINE
  5
1BC
330
F4
100
AcDbEntity
  8
AM_4
100
AcDbLine
 10
0.1913050000000008
 20
1.5675811
 30
0.0
 11
0.182121999999999
 21
1.5734082
 31
0.0
  0
LINE
  5
1BD
330
F4
100
AcDbEntity
  8
AM_4
100
AcDbLine
 10
0.182121999999999
 20
1.5734082
 30
0.0
 11
0.1698789999999999
 21
1.5763216
 31
0.0
  0
LINE
  5
1BE
330
F4
100
AcDbEntity
  8
AM_4
100
AcDbLine
 10
0.1698789999999999
 20
1.5763216
 30
0.0
 11
0.1423310000000002
 21
1.5763216
 31
0.0
  0
LINE
  5
1BF
330
F4
100
AcDbEntity
  8
AM_4
100
AcDbLine
 10
0.1423310000000002
 20
1.5763216
 30
0.0
 11
0.1300870000000015
 21
1.5734082
 31
0.0
  0
LINE
  5
1C0
330
F4
100
AcDbEntity
  8
AM_4
100
AcDbLine
 10
0.1300870000000015
 20
1.5734082
 30
0.0
 11
0.1209050000000003
 21
1.567581099999999
 31
0.0
  0
LINE
  5
1C1
330
F4
100
AcDbEntity
  8
AM_4
100
AcDbLine
 10
0.1209050000000003
 20
1.567581099999999
 30
0.0
 11
0.1147830000000005
 21
1.5588409
 31
0.0
  0
LINE
  5
1C2
330
F4
100
AcDbEntity
  8
AM_4
100
AcDbLine
 10
0.1147830000000005
 20
1.5588409
 30
0.0
 11
0.1117220000000002
 21
1.547187100000001
 31
0.0
  0
LINE
  5
1C3
330
F4
100
AcDbEntity
  8
AM_4
100
AcDbLine
 10
0.1117220000000002
 20
1.547187100000001
 30
0.0
 11
0.1117220000000004
 21
1.5034853
 31
0.0
  0
LINE
  5
1C4
330
F4
100
AcDbEntity
  8
AM_4
100
AcDbLine
 10
0.1117220000000004
 20
1.5034853
 30
0.0
 11
0.1147830000000006
 21
1.4918315
 31
0.0
  0
LINE
  5
1C5
330
F4
100
AcDbEntity
  8
AM_4
100
AcDbLine
 10
0.1147830000000006
 20
1.4918315
 30
0.0
 11
0.1209049999999998
 21
1.483091299999999
 31
0.0
  0
LINE
  5
1C6
330
F4
100
AcDbEntity
  8
AM_4
100
AcDbLine
 10
0.1209049999999998
 20
1.483091299999999
 30
0.0
 11
0.1300869999999998
 21
1.4772642
 31
0.0
  0
LINE
  5
1C7
330
F4
100
AcDbEntity
  8
AM_4
100
AcDbLine
 10
0.1300869999999998
 20
1.4772642
 30
0.0
 11
0.1423310000000015
 21
1.474350799999999
 31
0.0
  0
LINE
  5
1C8
330
F4
100
AcDbEntity
  8
AM_4
100
AcDbLine
 10
0.1423310000000015
 20
1.474350799999999
 30
0.0
 11
0.1698790000000002
 21
1.4743508
 31
0.0
  0
LINE
  5
1C9
330
F4
100
AcDbEntity
  8
AM_4
100
AcDbLine
 10
0.1698790000000002
 20
1.4743508
 30
0.0
 11
0.1821219999999995
 21
1.477264199999999
 31
0.0
  0
LINE
  5
1CA
330
F4
100
AcDbEntity
  8
AM_4
100
AcDbLine
 10
0.1821219999999995
 20
1.477264199999999
 30
0.0
 11
0.191305
 21
1.483091299999999
 31
0.0
  0
LINE
  5
1CB
330
F4
100
AcDbEntity
  8
AM_4
100
AcDbLine
 10
0.191305
 20
1.483091299999999
 30
0.0
 11
0.1943659999999999
 21
1.4918315
 31
0.0
  0
LINE
  5
1CC
330
F4
100
AcDbEntity
  8
AM_4
100
AcDbLine
 10
0.1943659999999999
 20
1.4918315
 30
0.0
 11
0.1943660000000001
 21
1.5151391
 31
0.0
  0
LINE
  5
1CD
330
F4
100
AcDbEntity
  8
AM_4
100
AcDbLine
 10
0.1943660000000001
 20
1.5151391
 30
0.0
 11
0.1668180000000001
 21
1.515139099999999
 31
0.0
  0
LINE
  5
1CE
330
F4
100
AcDbEntity
  8
AM_4
100
AcDbLine
 10
0.1668180000000001
 20
1.515139099999999
 30
0.0
 11
0.166818
 21
1.53261982
 31
0.0
  0
LINE
  5
1CF
330
F4
100
AcDbEntity
  8
AM_4
100
AcDbLine
 10
0.166818
 20
1.53261982
 30
0.0
 11
0.2127310000000001
 21
1.53261982
 31
0.0
  0
LINE
  5
1D0
330
F4
100
AcDbEntity
  8
AM_4
100
AcDbLine
 10
0.2127310000000001
 20
1.53261982
 30
0.0
 11
0.2127310000000001
 21
1.4889181
 31
0.0
  0
LINE
  5
1D1
330
F4
100
AcDbEntity
  8
AM_4
100
AcDbLine
 10
0.2127310000000001
 20
1.4889181
 30
0.0
 11
0.2096699999999998
 21
1.4772642
 31
0.0
  0
LINE
  5
1D2
330
F4
100
AcDbEntity
  8
AM_4
100
AcDbLine
 10
0.2096699999999998
 20
1.4772642
 30
0.0
 11
0.1974270000000001
 21
1.465610599999999
 31
0.0
  0
LINE
  5
1D3
330
F4
100
AcDbEntity
  8
AM_4
100
AcDbLine
 10
0.1974270000000001
 20
1.465610599999999
 30
0.0
 11
0.1851830000000008
 21
1.4597834
 31
0.0
  0
LINE
  5
1D4
330
F4
100
AcDbEntity
  8
AM_4
100
AcDbLine
 10
0.1851830000000008
 20
1.4597834
 30
0.0
 11
0.1698789999999999
 21
1.4568701
 31
0.0
  0
LINE
  5
1D5
330
F4
100
AcDbEntity
  8
AM_4
100
AcDbLine
 10
0.1698789999999999
 20
1.4568701
 30
0.0
 11
0.1423310000000002
 21
1.4568701
 31
0.0
  0
LINE
  5
1D6
330
F4
100
AcDbEntity
  8
AM_4
100
AcDbLine
 10
0.1423310000000002
 20
1.4568701
 30
0.0
 11
0.127026000000001
 21
1.4597834
 31
0.0
  0
LINE
  5
1D7
330
F4
100
AcDbEntity
  8
AM_4
100
AcDbLine
 10
0.127026000000001
 20
1.4597834
 30
0.0
 11
0.1147830000000003
 21
1.465610599999999
 31
0.0
  0
LINE
  5
1D8
330
F4
100
AcDbEntity
  8
AM_4
100
AcDbLine
 10
0.1147830000000003
 20
1.465610599999999
 30
0.0
 11
0.1025389999999997
 21
1.4772642
 31
0.0
  0
LINE
  5
1D9
330
F4
100
AcDbEntity
  8
AM_4
100
AcDbLine
 10
0.1025389999999997
 20
1.4772642
 30
0.0
 11
0.0964177000000008
 21
1.488918099999999
 31
0.0
  0
LINE
  5
1DA
330
F4
100
AcDbEntity
  8
AM_4
100
AcDbLine
 10
0.0964177000000008
 20
1.488918099999999
 30
0.0
 11
0.0933567000000005
 21
1.5034853
 31
0.0
  0
LINE
  5
1DB
330
F4
100
AcDbEntity
  8
AM_4
100
AcDbLine
 10
0.3474090000000001
 20
1.4568701
 30
0.0
 11
0.2372179999999999
 21
1.4568701
 31
0.0
  0
LINE
  5
1DC
330
F4
100
AcDbEntity
  8
AM_4
100
AcDbLine
 10
0.2372179999999999
 20
1.4568701
 30
0.0
 11
0.2372179999999999
 21
1.5938023
 31
0.0
  0
LINE
  5
1DD
330
F4
100
AcDbEntity
  8
AM_4
100
AcDbLine
 10
0.2372179999999999
 20
1.5938023
 30
0.0
 11
0.3474090000000002
 21
1.5938023
 31
0.0
  0
LINE
  5
1DE
330
F4
100
AcDbEntity
  8
AM_4
100
AcDbLine
 10
0.3474090000000002
 20
1.5938023
 30
0.0
 11
0.3474090000000001
 21
1.5763216
 31
0.0
  0
LINE
  5
1DF
330
F4
100
AcDbEntity
  8
AM_4
100
AcDbLine
 10
0.3474090000000001
 20
1.5763216
 30
0.0
 11
0.2555829999999999
 21
1.5763216
 31
0.0
  0
LINE
  5
1E0
330
F4
100
AcDbEntity
  8
AM_4
100
AcDbLine
 10
0.2555829999999999
 20
1.5763216
 30
0.0
 11
0.2555830000000001
 21
1.5384467
 31
0.0
  0
LINE
  5
1E1
330
F4
100
AcDbEntity
  8
AM_4
100
AcDbLine
 10
0.2555830000000001
 20
1.5384467
 30
0.0
 11
0.335166
 21
1.5384467
 31
0.0
  0
LINE
  5
1E2
330
F4
100
AcDbEntity
  8
AM_4
100
AcDbLine
 10
0.335166
 20
1.5384467
 30
0.0
 11
0.3351659999999999
 21
1.52096604
 31
0.0
  0
LINE
  5
1E3
330
F4
100
AcDbEntity
  8
AM_4
100
AcDbLine
 10
0.3351659999999999
 20
1.52096604
 30
0.0
 11
0.2555829999999999
 21
1.52096604
 31
0.0
  0
LINE
  5
1E4
330
F4
100
AcDbEntity
  8
AM_4
100
AcDbLine
 10
0.2555829999999999
 20
1.52096604
 30
0.0
 11
0.2555830000000001
 21
1.4743508
 31
0.0
  0
LINE
  5
1E5
330
F4
100
AcDbEntity
  8
AM_4
100
AcDbLine
 10
0.2555830000000001
 20
1.4743508
 30
0.0
 11
0.347409
 21
1.4743508
 31
0.0
  0
LINE
  5
1E6
330
F4
100
AcDbEntity
  8
AM_4
100
AcDbLine
 10
0.347409
 20
1.4743508
 30
0.0
 11
0.3474090000000001
 21
1.4568701
 31
0.0
  0
LINE
  5
1E7
330
F4
100
AcDbEntity
  8
AM_4
100
AcDbLine
 10
1.482864416906689
 20
-0.3336300682265765
 30
0.0
 11
1.656499595000001
 21
-1.156
 31
0.0
  0
LINE
  5
1E8
330
F4
100
AcDbEntity
  8
AM_4
100
AcDbLine
 10
1.482864416906689
 20
-0.3336300682265765
 30
0.0
 11
1.482864416906689
 21
-1.874999999999999
 31
0.0
  0
LINE
  5
1E9
330
F4
100
AcDbEntity
  8
AM_4
100
AcDbLine
 10
1.656499595
 20
-1.874999999999999
 30
0.0
 11
1.656499595000001
 21
-1.156
 31
0.0
  0
LINE
  5
1EA
330
F4
100
AcDbEntity
  8
AM_4
100
AcDbLine
 10
3.2735
 20
-1.215055100000001
 30
0.0
 11
3.2735
 21
-1.874999999999999
 31
0.0
  0
LWPOLYLINE
  5
1EB
330
F4
100
AcDbEntity
  8
AM_4
100
AcDbPolyline
 90
       19
 70
     0
 43
0.0
 10
3.214444899999999
 20
-1.156
 10
3.219591891103536
 20
-1.156224722484722
 10
3.224699710496937
 20
-1.156897179665088
 10
3.229729484590433
 20
-1.158012253735916
 10
3.234642933766111
 20
-1.159561458310226
 10
3.239402663708923
 20
-1.161533003005772
 10
3.243972449999999
 20
-1.163911883176969
 10
3.248317513806354
 20
-1.166679994109309
 10
3.252404786568799
 20
-1.169816268807164
 10
3.256203161673649
 20
-1.17329683832635
 10
3.259683731192835
 20
-1.1770952134312
 10
3.262820005890691
 20
-1.181182486193646
 10
3.26558811682303
 20
-1.18552755
 10
3.267966996994228
 20
-1.190097336291077
 10
3.269938541689774
 20
-1.194857066233889
 10
3.271487746264083
 20
-1.199770515409567
 10
3.272602820334911
 20
-1.204800289503062
 10
3.273275277515278
 20
-1.209908108896463
 10
3.2735
 20
-1.215055100000001
  0
LINE
  5
1EC
330
F4
100
AcDbEntity
  8
AM_4
100
AcDbLine
 10
1.656499595000001
 20
-1.156
 30
0.0
 11
3.214444899999999
 21
-1.156
 31
0.0
  0
LINE
  5
1ED
330
F4
100
AcDbEntity
  8
AM_4
100
AcDbLine
 10
3.086
 20
-1.156
 30
0.0
 11
3.086
 21
-1.874999999999999
 31
0.0
  0
LINE
  5
1EE
330
F4
100
AcDbEntity
  8
AM_4
100
AcDbLine
 10
3.2735
 20
-1.874999999999999
 30
0.0
 11
-3.2735
 21
-1.874999999999999
 31
0.0
  0
ENDBLK
  5
F7
330
F4
100
AcDbEntity
  8
0
100
AcDbBlockEnd
  0
ENDSEC
  0
SECTION
  2
ENTITIES
  0
INSERT
  5
6F
330
1F
100
AcDbEntity
  8
0
100
AcDbBlockReference
  2
1_129251_0
 10
0.0
 20
0.0
 30
0.0
  0
POINT
  5
1F0
330
1F
100
AcDbEntity
  8
ConnectionPoints
100
AcDbPoint
 10
0.0
 20
0.0
 30
0.0
  0
POINT
  5
1F1
330
1F
100
AcDbEntity
  8
ConnectionPoints
100
AcDbPoint
 10
0.0
 20
0.0
 30
-0.5625
  0
POINT
  5
1F2
330
1F
100
AcDbEntity
  8
ConnectionPoints
100
AcDbPoint
 10
0.0
 20
0.0
 30
0.0
  0
POINT
  5
1F3
330
1F
100
AcDbEntity
  8
ConnectionPoints
100
AcDbPoint
 10
0.0
 20
0.0
 30
0.0
  0
ENDSEC
  0
SECTION
  2
OBJECTS
  0
DICTIONARY
  5
C
330
0
100
AcDbDictionary
281
     1
  3
ACAD_DETAILVIEWSTYLE
350
1FB
  3
ACAD_GROUP
350
D
  3
ACAD_LAYOUT
350
1A
  3
ACAD_MATERIAL
350
43
  3
ACAD_MLEADERSTYLE
350
6B
  3
ACAD_MLINESTYLE
350
17
  3
ACAD_PLOTSETTINGS
350
19
  3
ACAD_PLOTSTYLENAME
350
E
  3
ACAD_SCALELIST
350
47
  3
ACAD_SECTIONVIEWSTYLE
350
1FC
  3
ACAD_TABLESTYLE
350
69
  3
ACAD_VISUALSTYLE
350
2A
  3
ACDB_RECOMPOSE_DATA
350
1F8
  3
AcDbVariableDictionary
350
1F4
  0
SUN
  5
6D
330
29
100
AcDbSun
 90
        1
290
     0
 63
     7
421
 16777215
 40
1.0
291
     1
 91
  2455826
 92
 54000000
292
     0
 70
     2
 71
   256
280
     1
  0
DICTIONARY
  5
1FB
102
{ACAD_REACTORS
330
C
102
}
330
C
100
AcDbDictionary
281
     1
  0
DICTIONARY
  5
D
102
{ACAD_REACTORS
330
C
102
}
330
C
100
AcDbDictionary
281
     1
  0
DICTIONARY
  5
1A
102
{ACAD_REACTORS
330
C
102
}
330
C
100
AcDbDictionary
281
     1
  3
Layout1
350
1E
  3
Layout2
350
26
  3
Model
350
22
  0
DICTIONARY
  5
43
102
{ACAD_REACTORS
330
C
102
}
330
C
100
AcDbDictionary
281
     1
  3
ByBlock
350
45
  3
ByLayer
350
44
  3
Global
350
46
  0
DICTIONARY
  5
6B
102
{ACAD_REACTORS
330
C
102
}
330
C
100
AcDbDictionary
281
     1
  3
Standard
350
6C
  0
DICTIONARY
  5
17
102
{ACAD_REACTORS
330
C
102
}
330
C
100
AcDbDictionary
281
     1
  3
Standard
350
18
  0
DICTIONARY
  5
19
102
{ACAD_REACTORS
330
C
102
}
330
C
100
AcDbDictionary
281
     1
  0
ACDBDICTIONARYWDFLT
  5
E
102
{ACAD_REACTORS
330
C
102
}
330
C
100
AcDbDictionary
281
     1
  3
Normal
350
F
100
AcDbDictionaryWithDefault
340
F
  0
DICTIONARY
  5
47
102
{ACAD_REACTORS
330
C
102
}
330
C
100
AcDbDictionary
281
     1
  3
A0
350
48
  3
A1
350
49
  3
A2
350
4A
  3
A3
350
4B
  3
A4
350
4C
  3
A5
350
4D
  3
A6
350
4E
  3
A7
350
4F
  3
A8
350
50
  3
A9
350
51
  3
B0
350
52
  3
B1
350
53
  3
B2
350
54
  3
B3
350
55
  3
B4
350
56
  3
B5
350
57
  3
B6
350
58
  3
B7
350
59
  3
B8
350
5A
  3
B9
350
5B
  3
C0
350
5C
  3
C1
350
5D
  3
C2
350
5E
  3
C3
350
5F
  3
C4
350
60
  3
C5
350
61
  3
C6
350
62
  3
C7
350
63
  3
C8
350
64
  3
C9
350
65
  3
D0
350
66
  3
D1
350
67
  3
D2
350
68
  0
DICTIONARY
  5
1FC
102
{ACAD_REACTORS
330
C
102
}
330
C
100
AcDbDictionary
281
     1
  0
DICTIONARY
  5
69
102
{ACAD_REACTORS
330
C
102
}
330
C
100
AcDbDictionary
281
     1
  3
Standard
350
6A
  0
DICTIONARY
  5
2A
102
{ACAD_REACTORS
330
C
102
}
330
C
100
AcDbDictionary
281
     1
  3
2dWireframe
350
2F
  3
Basic
350
32
  3
Brighten
350
36
  3
ColorChange
350
3A
  3
Conceptual
350
34
  3
Dim
350
35
  3
EdgeColorOff
350
3D
  3
Facepattern
350
39
  3
Flat
350
2B
  3
FlatWithEdges
350
2C
  3
Gouraud
350
2D
  3
GouraudWithEdges
350
2E
  3
Hidden
350
31
  3
JitterOff
350
3B
  3
Linepattern
350
38
  3
OverhangOff
350
3C
  3
Realistic
350
33
  3
Shaded
350
42
  3
Shaded with edges
350
41
  3
Shades of Gray
350
3E
  3
Sketchy
350
3F
  3
Thicken
350
37
  3
Wireframe
350
30
  3
X-Ray
350
40
  0
XRECORD
  5
1F8
102
{ACAD_REACTORS
330
C
102
}
330
C
100
AcDbXrecord
280
     1
 90
        1
330
6A
  0
DICTIONARY
  5
1F4
102
{ACAD_REACTORS
330
C
102
}
330
C
100
AcDbDictionary
281
     1
  3
CANNOSCALE
350
1F5
  3
CMLEADERSTYLE
350
1FA
  3
CTABLESTYLE
350
1F9
  0
LAYOUT
  5
1E
102
{ACAD_REACTORS
330
1A
102
}
330
1A
100
AcDbPlotSettings
  1

  2
none_device
  4

  6

 40
0.0
 41
0.0
 42
0.0
 43
0.0
 44
0.0
 45
0.0
 46
0.0
 47
0.0
 48
0.0
 49
0.0
140
0.0
141
0.0
142
1.0
143
1.0
 70
   688
 72
     0
 73
     0
 74
     5
  7

 75
    16
 76
     0
 77
     2
 78
   300
147
1.0
148
0.0
149
0.0
100
AcDbLayout
  1
Layout1
 70
     1
 71
     1
 10
0.0
 20
0.0
 11
12.0
 21
9.0
 12
0.0
 22
0.0
 32
0.0
 14
1.000000000000000E+20
 24
1.000000000000000E+20
 34
1.000000000000000E+20
 15
-1.000000000000000E+20
 25
-1.000000000000000E+20
 35
-1.000000000000000E+20
146
0.0
 13
0.0
 23
0.0
 33
0.0
 16
1.0
 26
0.0
 36
0.0
 17
0.0
 27
1.0
 37
0.0
 76
     0
330
1B
  0
LAYOUT
  5
26
102
{ACAD_REACTORS
330
1A
102
}
330
1A
100
AcDbPlotSettings
  1

  2
none_device
  4

  6

 40
0.0
 41
0.0
 42
0.0
 43
0.0
 44
0.0
 45
0.0
 46
0.0
 47
0.0
 48
0.0
 49
0.0
140
0.0
141
0.0
142
1.0
143
1.0
 70
   688
 72
     0
 73
     0
 74
     5
  7

 75
    16
 76
     0
 77
     2
 78
   300
147
1.0
148
0.0
149
0.0
100
AcDbLayout
  1
Layout2
 70
     1
 71
     2
 10
0.0
 20
0.0
 11
0.0
 21
0.0
 12
0.0
 22
0.0
 32
0.0
 14
0.0
 24
0.0
 34
0.0
 15
0.0
 25
0.0
 35
0.0
146
0.0
 13
0.0
 23
0.0
 33
0.0
 16
1.0
 26
0.0
 36
0.0
 17
0.0
 27
1.0
 37
0.0
 76
     0
330
23
  0
LAYOUT
  5
22
102
{ACAD_REACTORS
330
1A
102
}
330
1A
100
AcDbPlotSettings
  1

  2
none_device
  4
Letter_(8.50_x_11.00_Inches)
  6

 40
6.35
 41
6.35
 42
6.35000508
 43
6.35000508
 44
215.9
 45
279.4
 46
0.0
 47
0.0
 48
0.0
 49
0.0
140
0.0
141
0.0
142
1.0
143
1.0
 70
  1712
 72
     0
 73
     0
 74
     0
  7

 75
     0
 76
     0
 77
     2
 78
   300
147
1.0
148
0.0
149
0.0
100
AcDbLayout
  1
Model
 70
     1
 71
     0
 10
0.0
 20
0.0
 11
12.0
 21
9.0
 12
0.0
 22
0.0
 32
0.0
 14
1.000000000000000E+20
 24
1.000000000000000E+20
 34
1.000000000000000E+20
 15
-1.000000000000000E+20
 25
-1.000000000000000E+20
 35
-1.000000000000000E+20
146
0.0
 13
0.0
 23
0.0
 33
0.0
 16
1.0
 26
0.0
 36
0.0
 17
0.0
 27
1.0
 37
0.0
 76
     0
330
1F
331
29
  0
MATERIAL
  5
45
102
{ACAD_REACTORS
330
43
102
}
330
43
100
AcDbMaterial
  1
ByBlock
 72
     1
 94
      127
  0
MATERIAL
  5
44
102
{ACAD_REACTORS
330
43
102
}
330
43
100
AcDbMaterial
  1
ByLayer
 72
     1
 94
      127
  0
MATERIAL
  5
46
102
{ACAD_REACTORS
330
43
102
}
330
43
100
AcDbMaterial
  1
Global
 72
     1
 94
      127
  0
MLEADERSTYLE
  5
6C
102
{ACAD_REACTORS
330
6B
102
}
330
6B
100
AcDbMLeaderStyle
179
     2
170
     2
171
     1
172
     0
 90
        2
 40
0.0
 41
0.0
173
     1
 91
-1056964608
340
14
 92
       -2
290
     1
 42
0.09
291
     1
 43
0.36
  3
Standard
341
0
 44
0.18
300

342
11
174
     1
178
     6
175
     1
176
     0
 93
-1056964608
 45
0.18
292
     0
297
     0
 46
0.18
343
0
 94
-1056964608
 47
1.0
 49
1.0
140
1.0
293
     1
141
0.0
294
     1
177
     0
142
1.0
295
     0
296
     0
143
0.125
271
     0
272
     9
273
     9
298
     0
  0
MLINESTYLE
  5
18
102
{ACAD_REACTORS
330
17
102
}
330
17
100
AcDbMlineStyle
  2
Standard
 70
     0
  3

 62
   256
 51
90.0
 52
90.0
 71
     2
 49
0.5
 62
   256
  6
BYLAYER
 49
-0.5
 62
   256
  6
BYLAYER
  0
ACDBPLACEHOLDER
  5
F
102
{ACAD_REACTORS
330
E
102
}
330
E
  0
SCALE
  5
48
102
{ACAD_REACTORS
330
47
102
}
330
47
100
AcDbScale
 70
     0
300
1:1
140
1.0
141
1.0
290
     1
  0
SCALE
  5
49
102
{ACAD_REACTORS
330
47
102
}
330
47
100
AcDbScale
 70
     0
300
1:2
140
1.0
141
2.0
290
     0
  0
SCALE
  5
4A
102
{ACAD_REACTORS
330
47
102
}
330
47
100
AcDbScale
 70
     0
300
1:4
140
1.0
141
4.0
290
     0
  0
SCALE
  5
4B
102
{ACAD_REACTORS
330
47
102
}
330
47
100
AcDbScale
 70
     0
300
1:5
140
1.0
141
5.0
290
     0
  0
SCALE
  5
4C
102
{ACAD_REACTORS
330
47
102
}
330
47
100
AcDbScale
 70
     0
300
1:8
140
1.0
141
8.0
290
     0
  0
SCALE
  5
4D
102
{ACAD_REACTORS
330
47
102
}
330
47
100
AcDbScale
 70
     0
300
1:10
140
1.0
141
10.0
290
     0
  0
SCALE
  5
4E
102
{ACAD_REACTORS
330
47
102
}
330
47
100
AcDbScale
 70
     0
300
1:16
140
1.0
141
16.0
290
     0
  0
SCALE
  5
4F
102
{ACAD_REACTORS
330
47
102
}
330
47
100
AcDbScale
 70
     0
300
1:20
140
1.0
141
20.0
290
     0
  0
SCALE
  5
50
102
{ACAD_REACTORS
330
47
102
}
330
47
100
AcDbScale
 70
     0
300
1:30
140
1.0
141
30.0
290
     0
  0
SCALE
  5
51
102
{ACAD_REACTORS
330
47
102
}
330
47
100
AcDbScale
 70
     0
300
1:40
140
1.0
141
40.0
290
     0
  0
SCALE
  5
52
102
{ACAD_REACTORS
330
47
102
}
330
47
100
AcDbScale
 70
     0
300
1:50
140
1.0
141
50.0
290
     0
  0
SCALE
  5
53
102
{ACAD_REACTORS
330
47
102
}
330
47
100
AcDbScale
 70
     0
300
1:100
140
1.0
141
100.0
290
     0
  0
SCALE
  5
54
102
{ACAD_REACTORS
330
47
102
}
330
47
100
AcDbScale
 70
     0
300
2:1
140
2.0
141
1.0
290
     0
  0
SCALE
  5
55
102
{ACAD_REACTORS
330
47
102
}
330
47
100
AcDbScale
 70
     0
300
4:1
140
4.0
141
1.0
290
     0
  0
SCALE
  5
56
102
{ACAD_REACTORS
330
47
102
}
330
47
100
AcDbScale
 70
     0
300
8:1
140
8.0
141
1.0
290
     0
  0
SCALE
  5
57
102
{ACAD_REACTORS
330
47
102
}
330
47
100
AcDbScale
 70
     0
300
10:1
140
10.0
141
1.0
290
     0
  0
SCALE
  5
58
102
{ACAD_REACTORS
330
47
102
}
330
47
100
AcDbScale
 70
     0
300
100:1
140
100.0
141
1.0
290
     0
  0
SCALE
  5
59
102
{ACAD_REACTORS
330
47
102
}
330
47
100
AcDbScale
 70
     0
300
1/128" = 1'-0"
140
0.0078125
141
12.0
290
     0
  0
SCALE
  5
5A
102
{ACAD_REACTORS
330
47
102
}
330
47
100
AcDbScale
 70
     0
300
1/64" = 1'-0"
140
0.015625
141
12.0
290
     0
  0
SCALE
  5
5B
102
{ACAD_REACTORS
330
47
102
}
330
47
100
AcDbScale
 70
     0
300
1/32" = 1'-0"
140
0.03125
141
12.0
290
     0
  0
SCALE
  5
5C
102
{ACAD_REACTORS
330
47
102
}
330
47
100
AcDbScale
 70
     0
300
1/16" = 1'-0"
140
0.0625
141
12.0
290
     0
  0
SCALE
  5
5D
102
{ACAD_REACTORS
330
47
102
}
330
47
100
AcDbScale
 70
     0
300
3/32" = 1'-0"
140
0.09375
141
12.0
290
     0
  0
SCALE
  5
5E
102
{ACAD_REACTORS
330
47
102
}
330
47
100
AcDbScale
 70
     0
300
1/8" = 1'-0"
140
0.125
141
12.0
290
     0
  0
SCALE
  5
5F
102
{ACAD_REACTORS
330
47
102
}
330
47
100
AcDbScale
 70
     0
300
3/16" = 1'-0"
140
0.1875
141
12.0
290
     0
  0
SCALE
  5
60
102
{ACAD_REACTORS
330
47
102
}
330
47
100
AcDbScale
 70
     0
300
1/4" = 1'-0"
140
0.25
141
12.0
290
     0
  0
SCALE
  5
61
102
{ACAD_REACTORS
330
47
102
}
330
47
100
AcDbScale
 70
     0
300
3/8" = 1'-0"
140
0.375
141
12.0
290
     0
  0
SCALE
  5
62
102
{ACAD_REACTORS
330
47
102
}
330
47
100
AcDbScale
 70
     0
300
1/2" = 1'-0"
140
0.5
141
12.0
290
     0
  0
SCALE
  5
63
102
{ACAD_REACTORS
330
47
102
}
330
47
100
AcDbScale
 70
     0
300
3/4" = 1'-0"
140
0.75
141
12.0
290
     0
  0
SCALE
  5
64
102
{ACAD_REACTORS
330
47
102
}
330
47
100
AcDbScale
 70
     0
300
1" = 1'-0"
140
1.0
141
12.0
290
     0
  0
SCALE
  5
65
102
{ACAD_REACTORS
330
47
102
}
330
47
100
AcDbScale
 70
     0
300
1-1/2" = 1'-0"
140
1.5
141
12.0
290
     0
  0
SCALE
  5
66
102
{ACAD_REACTORS
330
47
102
}
330
47
100
AcDbScale
 70
     0
300
3" = 1'-0"
140
3.0
141
12.0
290
     0
  0
SCALE
  5
67
102
{ACAD_REACTORS
330
47
102
}
330
47
100
AcDbScale
 70
     0
300
6" = 1'-0"
140
6.0
141
12.0
290
     0
  0
SCALE
  5
68
102
{ACAD_REACTORS
330
47
102
}
330
47
100
AcDbScale
 70
     0
300
1'-0" = 1'-0"
140
12.0
141
12.0
290
     0
  0
TABLESTYLE
  5
6A
102
{ACAD_REACTORS
330
69
102
}
102
{ACAD_XDICTIONARY
360
1F6
102
}
330
69
100
AcDbTableStyle
  3
Standard
 70
     0
 71
     0
 40
0.06
 41
0.06
280
     0
281
     0
  7
Standard
140
0.18
170
     2
 62
     0
 63
   257
283
     0
 90
        4
 91
        0
  1

274
    -2
284
     1
 64
     0
275
    -2
285
     1
 65
     0
276
    -2
286
     1
 66
     0
277
    -2
287
     1
 67
     0
278
    -2
288
     1
 68
     0
279
    -2
289
     1
 69
     0
  7
Standard
140
0.25
170
     5
 62
     0
 63
   257
283
     0
 90
        4
 91
        0
  1

274
    -2
284
     1
 64
     0
275
    -2
285
     1
 65
     0
276
    -2
286
     1
 66
     0
277
    -2
287
     1
 67
     0
278
    -2
288
     1
 68
     0
279
    -2
289
     1
 69
     0
  7
Standard
140
0.18
170
     5
 62
     0
 63
   257
283
     0
 90
        4
 91
        0
  1

274
    -2
284
     1
 64
     0
275
    -2
285
     1
 65
     0
276
    -2
286
     1
 66
     0
277
    -2
287
     1
 67
     0
278
    -2
288
     1
 68
     0
279
    -2
289
     1
 69
     0
  0
VISUALSTYLE
  5
2F
102
{ACAD_REACTORS
330
2A
102
}
330
2A
100
AcDbVisualStyle
  2
2dWireframe
 70
     4
177
     3
291
     0
 70
    58
 90
        0
176
     1
 90
        2
176
     1
 90
        0
176
     1
 90
        0
176
     1
 40
0.6
176
     1
 40
30.0
176
     1
 62
     7
420
 16777215
176
     1
 90
        1
176
     1
 90
        4
176
     1
 62
     7
176
     1
 62
   257
176
     1
 90
        1
176
     1
 90
        1
176
     1
 40
1.0
176
     1
 90
        0
176
     1
 62
   257
176
     1
 40
1.0
176
     1
 90
        1
176
     1
 90
        6
176
     1
 90
        2
176
     1
 62
     7
176
     1
 90
        5
176
     1
 90
        0
176
     1
 90
        0
176
     1
290
     0
176
     1
 90
        1
176
     1
 40
0.0
176
     1
 90
        0
176
     1
290
     1
176
     1
290
     1
176
     1
290
     0
176
     1
290
     0
176
     1
290
     0
176
     1
290
     0
176
     1
290
     0
176
     1
290
     0
176
     1
290
     0
176
     1
 90
       50
176
     1
 40
0.0
176
     1
 40
1.0
176
     1
 90
        0
176
     1
 62
    18
420
        0
176
     1
 90
       50
176
     1
 90
        3
176
     1
 62
     5
420
      255
176
     1
290
     0
176
     1
 90
       50
176
     1
 90
       50
176
     1
 90
       50
176
     1
290
     0
176
     1
 90
       50
176
     1
 62
   256
176
     0
 40
1.0
176
     0
 90
        2
176
     1
  1
strokes_ogs.tif
176
     1
290
     0
176
     1
 40
1.0
176
     1
 40
1.0
176
     1
  0
VISUALSTYLE
  5
32
102
{ACAD_REACTORS
330
2A
102
}
330
2A
100
AcDbVisualStyle
  2
Basic
 70
     7
177
     3
291
     1
 70
    58
 90
        1
176
     1
 90
        0
176
     1
 90
        1
176
     1
 90
        0
176
     1
 40
0.6
176
     1
 40
30.0
176
     1
 62
     7
420
 16777215
176
     1
 90
        0
176
     1
 90
        4
176
     1
 62
     7
176
     1
 62
   257
176
     1
 90
        1
176
     1
 90
        1
176
     1
 40
1.0
176
     1
 90
        8
176
     1
 62
     7
176
     1
 40
1.0
176
     1
 90
        1
176
     1
 90
        6
176
     1
 90
        2
176
     1
 62
     7
176
     1
 90
        5
176
     1
 90
        0
176
     1
 90
        0
176
     1
290
     0
176
     1
 90
        1
176
     1
 40
0.0
176
     1
 90
        0
176
     1
290
     0
176
     1
290
     1
176
     1
290
     1
176
     1
290
     0
176
     1
290
     0
176
     1
290
     0
176
     1
290
     0
176
     1
290
     0
176
     1
290
     0
176
     1
 90
       50
176
     1
 40
0.0
176
     1
 40
1.0
176
     1
 90
        0
176
     1
 62
    18
420
        0
176
     1
 90
       50
176
     1
 90
        3
176
     1
 62
     5
420
      255
176
     1
290
     0
176
     1
 90
       50
176
     1
 90
       50
176
     1
 90
       50
176
     1
290
     0
176
     1
 90
       50
176
     1
 62
   256
176
     0
 40
1.0
176
     0
 90
        2
176
     1
  1
strokes_ogs.tif
176
     1
290
     0
176
     1
 40
1.0
176
     1
 40
1.0
176
     1
  0
VISUALSTYLE
  5
36
102
{ACAD_REACTORS
330
2A
102
}
330
2A
100
AcDbVisualStyle
  2
Brighten
 70
    12
177
     3
291
     1
 70
    58
 90
        2
176
     1
 90
        2
176
     1
 90
        0
176
     1
 90
        0
176
     1
 40
0.6
176
     1
 40
30.0
176
     1
 62
     7
420
 16777215
176
     1
 90
        1
176
     1
 90
        4
176
     1
 62
     7
176
     1
 62
   257
176
     1
 90
        1
176
     1
 90
        1
176
     1
 40
1.0
176
     1
 90
        8
176
     1
 62
     7
176
     1
 40
1.0
176
     1
 90
        1
176
     1
 90
        6
176
     1
 90
        2
176
     1
 62
     7
176
     1
 90
        5
176
     1
 90
        0
176
     1
 90
        0
176
     1
290
     0
176
     1
 90
        1
176
     1
 40
50.0
176
     1
 90
        0
176
     1
290
     0
176
     1
290
     1
176
     1
290
     1
176
     1
290
     0
176
     1
290
     0
176
     1
290
     0
176
     1
290
     0
176
     1
290
     0
176
     1
290
     0
176
     1
 90
       50
176
     1
 40
0.0
176
     1
 40
1.0
176
     1
 90
        0
176
     1
 62
    18
420
        0
176
     1
 90
       50
176
     1
 90
        3
176
     1
 62
     5
420
      255
176
     1
290
     0
176
     1
 90
       50
176
     1
 90
       50
176
     1
 90
       50
176
     1
290
     0
176
     1
 90
       50
176
     1
 62
   256
176
     0
 40
1.0
176
     0
 90
        2
176
     1
  1
strokes_ogs.tif
176
     1
290
     0
176
     1
 40
1.0
176
     1
 40
1.0
176
     1
  0
VISUALSTYLE
  5
3A
102
{ACAD_REACTORS
330
2A
102
}
330
2A
100
AcDbVisualStyle
  2
ColorChange
 70
    16
177
     3
291
     1
 70
    58
 90
        2
176
     1
 90
        2
176
     1
 90
        3
176
     1
 90
        0
176
     1
 40
0.6
176
     1
 40
30.0
176
     1
 62
     8
420
  8421504
176
     1
 90
        1
176
     1
 90
        4
176
     1
 62
     7
176
     1
 62
   257
176
     1
 90
        1
176
     1
 90
        1
176
     1
 40
1.0
176
     1
 90
        8
176
     1
 62
     8
420
  8421504
176
     1
 40
1.0
176
     1
 90
        1
176
     1
 90
        6
176
     1
 90
        2
176
     1
 62
     7
176
     1
 90
        5
176
     1
 90
        0
176
     1
 90
        0
176
     1
290
     0
176
     1
 90
        1
176
     1
 40
0.0
176
     1
 90
        0
176
     1
290
     0
176
     1
290
     1
176
     1
290
     1
176
     1
290
     0
176
     1
290
     0
176
     1
290
     0
176
     1
290
     0
176
     1
290
     0
176
     1
290
     0
176
     1
 90
       50
176
     1
 40
0.0
176
     1
 40
1.0
176
     1
 90
        0
176
     1
 62
    18
420
        0
176
     1
 90
       50
176
     1
 90
        3
176
     1
 62
     5
420
      255
176
     1
290
     0
176
     1
 90
       50
176
     1
 90
       50
176
     1
 90
       50
176
     1
290
     0
176
     1
 90
       50
176
     1
 62
   256
176
     0
 40
1.0
176
     0
 90
        2
176
     1
  1
strokes_ogs.tif
176
     1
290
     0
176
     1
 40
1.0
176
     1
 40
1.0
176
     1
  0
VISUALSTYLE
  5
34
102
{ACAD_REACTORS
330
2A
102
}
330
2A
100
AcDbVisualStyle
  2
Conceptual
 70
     9
177
     3
291
     0
 70
    58
 90
        3
176
     1
 90
        2
176
     1
 90
        0
176
     1
 90
        0
176
     1
 40
0.6
176
     1
 40
30.0
176
     1
 62
     7
420
 16777215
176
     1
 90
        2
176
     1
 90
        2
176
     1
 62
     7
176
     1
 62
   257
176
     1
 90
        1
176
     1
 90
        1
176
     1
 40
179.0
176
     1
 90
        8
176
     1
 62
     7
176
     1
 40
1.0
176
     1
 90
        1
176
     1
 90
        6
176
     1
 90
        2
176
     1
 62
     7
176
     1
 90
        3
176
     1
 90
        0
176
     1
 90
        0
176
     1
290
     0
176
     1
 90
        1
176
     1
 40
0.0
176
     1
 90
        0
176
     1
290
     0
176
     1
290
     1
176
     1
290
     1
176
     1
290
     0
176
     1
290
     0
176
     1
290
     0
176
     1
290
     0
176
     1
290
     0
176
     1
290
     0
176
     1
 90
       50
176
     1
 40
0.0
176
     1
 40
1.0
176
     1
 90
        0
176
     1
 62
    18
420
        0
176
     1
 90
       50
176
     1
 90
        3
176
     1
 62
     5
420
      255
176
     1
290
     0
176
     1
 90
       50
176
     1
 90
       50
176
     1
 90
       50
176
     1
290
     0
176
     1
 90
       50
176
     1
 62
   256
176
     0
 40
1.0
176
     0
 90
        2
176
     1
  1
strokes_ogs.tif
176
     1
290
     0
176
     1
 40
1.0
176
     1
 40
1.0
176
     1
  0
VISUALSTYLE
  5
35
102
{ACAD_REACTORS
330
2A
102
}
330
2A
100
AcDbVisualStyle
  2
Dim
 70
    11
177
     3
291
     1
 70
    58
 90
        2
176
     1
 90
        2
176
     1
 90
        0
176
     1
 90
        0
176
     1
 40
0.6
176
     1
 40
30.0
176
     1
 62
     7
420
 16777215
176
     1
 90
        1
176
     1
 90
        4
176
     1
 62
     7
176
     1
 62
   257
176
     1
 90
        1
176
     1
 90
        1
176
     1
 40
1.0
176
     1
 90
        8
176
     1
 62
     7
176
     1
 40
1.0
176
     1
 90
        1
176
     1
 90
        6
176
     1
 90
        2
176
     1
 62
     7
176
     1
 90
        5
176
     1
 90
        0
176
     1
 90
        0
176
     1
290
     0
176
     1
 90
        1
176
     1
 40
-50.0
176
     1
 90
        0
176
     1
290
     0
176
     1
290
     1
176
     1
290
     1
176
     1
290
     0
176
     1
290
     0
176
     1
290
     0
176
     1
290
     0
176
     1
290
     0
176
     1
290
     0
176
     1
 90
       50
176
     1
 40
0.0
176
     1
 40
1.0
176
     1
 90
        0
176
     1
 62
    18
420
        0
176
     1
 90
       50
176
     1
 90
        3
176
     1
 62
     5
420
      255
176
     1
290
     0
176
     1
 90
       50
176
     1
 90
       50
176
     1
 90
       50
176
     1
290
     0
176
     1
 90
       50
176
     1
 62
   256
176
     0
 40
1.0
176
     0
 90
        2
176
     1
  1
strokes_ogs.tif
176
     1
290
     0
176
     1
 40
1.0
176
     1
 40
1.0
176
     1
  0
VISUALSTYLE
  5
3D
102
{ACAD_REACTORS
330
2A
102
}
330
2A
100
AcDbVisualStyle
  2
EdgeColorOff
 70
    22
177
     3
291
     1
 70
    58
 90
        2
176
     0
 90
        2
176
     0
 90
        0
176
     0
 90
        0
176
     0
 40
0.6
176
     0
 40
30.0
176
     0
 62
     7
420
 16777215
176
     0
 90
        1
176
     0
 90
        4
176
     0
 62
     7
176
     0
 62
   257
176
     0
 90
        1
176
     0
 90
        1
176
     0
 40
1.0
176
     0
 90
        8
176
     2
 62
     7
176
     0
 40
1.0
176
     0
 90
        1
176
     0
 90
        6
176
     0
 90
        2
176
     0
 62
     7
176
     0
 90
        5
176
     0
 90
        0
176
     0
 90
        0
176
     0
290
     0
176
     0
 90
        1
176
     0
 40
0.0
176
     0
 90
        0
176
     0
290
     0
176
     0
290
     1
176
     0
290
     1
176
     0
290
     0
176
     0
290
     0
176
     0
290
     0
176
     0
290
     0
176
     0
290
     0
176
     0
290
     0
176
     0
 90
       50
176
     0
 40
0.0
176
     0
 40
1.0
176
     0
 90
        0
176
     0
 62
    18
420
        0
176
     0
 90
       50
176
     0
 90
        3
176
     0
 62
     5
420
      255
176
     0
290
     0
176
     0
 90
       50
176
     0
 90
       50
176
     0
 90
       50
176
     0
290
     0
176
     0
 90
       50
176
     0
 62
   256
176
     0
 40
1.0
176
     0
 90
        2
176
     0
  1
strokes_ogs.tif
176
     0
290
     0
176
     0
 40
1.0
176
     0
 40
1.0
176
     0
  0
VISUALSTYLE
  5
39
102
{ACAD_REACTORS
330
2A
102
}
330
2A
100
AcDbVisualStyle
  2
Facepattern
 70
    15
177
     3
291
     1
 70
    58
 90
        2
176
     1
 90
        2
176
     1
 90
        0
176
     1
 90
        0
176
     1
 40
0.6
176
     1
 40
30.0
176
     1
 62
     7
420
 16777215
176
     1
 90
        1
176
     1
 90
        4
176
     1
 62
     7
176
     1
 62
   257
176
     1
 90
        1
176
     1
 90
        1
176
     1
 40
1.0
176
     1
 90
        8
176
     1
 62
     7
176
     1
 40
1.0
176
     1
 90
        1
176
     1
 90
        6
176
     1
 90
        2
176
     1
 62
     7
176
     1
 90
        5
176
     1
 90
        0
176
     1
 90
        0
176
     1
290
     0
176
     1
 90
        1
176
     1
 40
0.0
176
     1
 90
        0
176
     1
290
     0
176
     1
290
     1
176
     1
290
     1
176
     1
290
     0
176
     1
290
     0
176
     1
290
     0
176
     1
290
     0
176
     1
290
     0
176
     1
290
     0
176
     1
 90
       50
176
     1
 40
0.0
176
     1
 40
1.0
176
     1
 90
        0
176
     1
 62
    18
420
        0
176
     1
 90
       50
176
     1
 90
        3
176
     1
 62
     5
420
      255
176
     1
290
     0
176
     1
 90
       50
176
     1
 90
       50
176
     1
 90
       50
176
     1
290
     0
176
     1
 90
       50
176
     1
 62
   256
176
     0
 40
1.0
176
     0
 90
        2
176
     1
  1
strokes_ogs.tif
176
     1
290
     0
176
     1
 40
1.0
176
     1
 40
1.0
176
     1
  0
VISUALSTYLE
  5
2B
102
{ACAD_REACTORS
330
2A
102
}
330
2A
100
AcDbVisualStyle
  2
Flat
 70
     0
177
     3
291
     1
 70
    58
 90
        2
176
     1
 90
        1
176
     1
 90
        1
176
     1
 90
        2
176
     1
 40
0.6
176
     1
 40
30.0
176
     1
 62
     7
420
 16777215
176
     1
 90
        0
176
     1
 90
        0
176
     1
 62
     7
176
     1
 62
   257
176
     1
 90
        1
176
     1
 90
        1
176
     1
 40
1.0
176
     1
 90
        8
176
     1
 62
     7
176
     1
 40
1.0
176
     1
 90
        1
176
     1
 90
        6
176
     1
 90
        2
176
     1
 62
     7
176
     1
 90
        5
176
     1
 90
        0
176
     1
 90
        0
176
     1
290
     0
176
     1
 90
       13
176
     1
 40
0.0
176
     1
 90
        0
176
     1
290
     0
176
     1
290
     1
176
     1
290
     1
176
     1
290
     0
176
     1
290
     0
176
     1
290
     0
176
     1
290
     0
176
     1
290
     0
176
     1
290
     0
176
     1
 90
       50
176
     1
 40
0.0
176
     1
 40
1.0
176
     1
 90
        0
176
     1
 62
    18
420
        0
176
     1
 90
       50
176
     1
 90
        3
176
     1
 62
     5
420
      255
176
     1
290
     0
176
     1
 90
       50
176
     1
 90
       50
176
     1
 90
       50
176
     1
290
     0
176
     1
 90
       50
176
     1
 62
   256
176
     0
 40
1.0
176
     0
 90
        2
176
     1
  1
strokes_ogs.tif
176
     1
290
     0
176
     1
 40
1.0
176
     1
 40
1.0
176
     1
  0
VISUALSTYLE
  5
2C
102
{ACAD_REACTORS
330
2A
102
}
330
2A
100
AcDbVisualStyle
  2
FlatWithEdges
 70
     1
177
     3
291
     1
 70
    58
 90
        2
176
     1
 90
        1
176
     1
 90
        1
176
     1
 90
        2
176
     1
 40
0.6
176
     1
 40
30.0
176
     1
 62
     7
420
 16777215
176
     1
 90
        1
176
     1
 90
        0
176
     1
 62
     7
176
     1
 62
   257
176
     1
 90
        1
176
     1
 90
        1
176
     1
 40
1.0
176
     1
 90
        0
176
     1
 62
   257
176
     1
 40
1.0
176
     1
 90
        1
176
     1
 90
        6
176
     1
 90
        2
176
     1
 62
     7
176
     1
 90
        5
176
     1
 90
        0
176
     1
 90
        0
176
     1
290
     0
176
     1
 90
       13
176
     1
 40
0.0
176
     1
 90
        0
176
     1
290
     0
176
     1
290
     1
176
     1
290
     1
176
     1
290
     0
176
     1
290
     0
176
     1
290
     0
176
     1
290
     0
176
     1
290
     0
176
     1
290
     0
176
     1
 90
       50
176
     1
 40
0.0
176
     1
 40
1.0
176
     1
 90
        0
176
     1
 62
    18
420
        0
176
     1
 90
       50
176
     1
 90
        3
176
     1
 62
     5
420
      255
176
     1
290
     0
176
     1
 90
       50
176
     1
 90
       50
176
     1
 90
       50
176
     1
290
     0
176
     1
 90
       50
176
     1
 62
   256
176
     0
 40
1.0
176
     0
 90
        2
176
     1
  1
strokes_ogs.tif
176
     1
290
     0
176
     1
 40
1.0
176
     1
 40
1.0
176
     1
  0
VISUALSTYLE
  5
2D
102
{ACAD_REACTORS
330
2A
102
}
330
2A
100
AcDbVisualStyle
  2
Gouraud
 70
     2
177
     3
291
     1
 70
    58
 90
        2
176
     1
 90
        2
176
     1
 90
        1
176
     1
 90
        2
176
     1
 40
0.6
176
     1
 40
30.0
176
     1
 62
     7
420
 16777215
176
     1
 90
        0
176
     1
 90
        0
176
     1
 62
     7
176
     1
 62
   257
176
     1
 90
        1
176
     1
 90
        1
176
     1
 40
1.0
176
     1
 90
        0
176
     1
 62
     7
176
     1
 40
1.0
176
     1
 90
        1
176
     1
 90
        6
176
     1
 90
        2
176
     1
 62
     7
176
     1
 90
        5
176
     1
 90
        0
176
     1
 90
        0
176
     1
290
     0
176
     1
 90
       13
176
     1
 40
0.0
176
     1
 90
        0
176
     1
290
     0
176
     1
290
     1
176
     1
290
     1
176
     1
290
     0
176
     1
290
     0
176
     1
290
     0
176
     1
290
     0
176
     1
290
     0
176
     1
290
     0
176
     1
 90
       50
176
     1
 40
0.0
176
     1
 40
1.0
176
     1
 90
        0
176
     1
 62
    18
420
        0
176
     1
 90
       50
176
     1
 90
        3
176
     1
 62
     5
420
      255
176
     1
290
     0
176
     1
 90
       50
176
     1
 90
       50
176
     1
 90
       50
176
     1
290
     0
176
     1
 90
       50
176
     1
 62
   256
176
     0
 40
1.0
176
     0
 90
        2
176
     1
  1
strokes_ogs.tif
176
     1
290
     0
176
     1
 40
1.0
176
     1
 40
1.0
176
     1
  0
VISUALSTYLE
  5
2E
102
{ACAD_REACTORS
330
2A
102
}
330
2A
100
AcDbVisualStyle
  2
GouraudWithEdges
 70
     3
177
     3
291
     1
 70
    58
 90
        2
176
     1
 90
        2
176
     1
 90
        1
176
     1
 90
        2
176
     1
 40
0.6
176
     1
 40
30.0
176
     1
 62
     7
420
 16777215
176
     1
 90
        1
176
     1
 90
        0
176
     1
 62
     7
176
     1
 62
   257
176
     1
 90
        1
176
     1
 90
        1
176
     1
 40
1.0
176
     1
 90
        0
176
     1
 62
   257
176
     1
 40
1.0
176
     1
 90
        1
176
     1
 90
        6
176
     1
 90
        2
176
     1
 62
     7
176
     1
 90
        5
176
     1
 90
        0
176
     1
 90
        0
176
     1
290
     0
176
     1
 90
       13
176
     1
 40
0.0
176
     1
 90
        0
176
     1
290
     0
176
     1
290
     1
176
     1
290
     1
176
     1
290
     0
176
     1
290
     0
176
     1
290
     0
176
     1
290
     0
176
     1
290
     0
176
     1
290
     0
176
     1
 90
       50
176
     1
 40
0.0
176
     1
 40
1.0
176
     1
 90
        0
176
     1
 62
    18
420
        0
176
     1
 90
       50
176
     1
 90
        3
176
     1
 62
     5
420
      255
176
     1
290
     0
176
     1
 90
       50
176
     1
 90
       50
176
     1
 90
       50
176
     1
290
     0
176
     1
 90
       50
176
     1
 62
   256
176
     0
 40
1.0
176
     0
 90
        2
176
     1
  1
strokes_ogs.tif
176
     1
290
     0
176
     1
 40
1.0
176
     1
 40
1.0
176
     1
  0
VISUALSTYLE
  5
31
102
{ACAD_REACTORS
330
2A
102
}
330
2A
100
AcDbVisualStyle
  2
Hidden
 70
     6
177
     3
291
     0
 70
    58
 90
        1
176
     1
 90
        2
176
     1
 90
        2
176
     1
 90
        0
176
     1
 40
0.6
176
     1
 40
30.0
176
     1
 62
     7
420
 16777215
176
     1
 90
        2
176
     1
 90
        2
176
     1
 62
     7
176
     1
 62
   257
176
     1
 90
        2
176
     1
 90
        1
176
     1
 40
40.0
176
     1
 90
        0
176
     1
 62
   257
176
     1
 40
1.0
176
     1
 90
        1
176
     1
 90
        6
176
     1
 90
        2
176
     1
 62
     7
176
     1
 90
        3
176
     1
 90
        0
176
     1
 90
        0
176
     1
290
     0
176
     1
 90
        1
176
     1
 40
0.0
176
     1
 90
        0
176
     1
290
     0
176
     1
290
     1
176
     1
290
     1
176
     1
290
     0
176
     1
290
     0
176
     1
290
     0
176
     1
290
     0
176
     1
290
     0
176
     1
290
     0
176
     1
 90
       50
176
     1
 40
0.0
176
     1
 40
1.0
176
     1
 90
        0
176
     1
 62
    18
420
        0
176
     1
 90
       50
176
     1
 90
        3
176
     1
 62
     5
420
      255
176
     1
290
     0
176
     1
 90
       50
176
     1
 90
       50
176
     1
 90
       50
176
     1
290
     0
176
     1
 90
       50
176
     1
 62
   256
176
     0
 40
1.0
176
     0
 90
        2
176
     1
  1
strokes_ogs.tif
176
     1
290
     0
176
     1
 40
1.0
176
     1
 40
1.0
176
     1
  0
VISUALSTYLE
  5
3B
102
{ACAD_REACTORS
330
2A
102
}
330
2A
100
AcDbVisualStyle
  2
JitterOff
 70
    20
177
     3
291
     1
 70
    58
 90
        2
176
     0
 90
        2
176
     0
 90
        0
176
     0
 90
        0
176
     0
 40
0.6
176
     0
 40
30.0
176
     0
 62
     7
420
 16777215
176
     0
 90
        1
176
     0
 90
        4
176
     0
 62
     7
176
     0
 62
   257
176
     0
 90
        1
176
     0
 90
        1
176
     0
 40
1.0
176
     0
 90
       10
176
     2
 62
     7
176
     0
 40
1.0
176
     0
 90
        1
176
     0
 90
        6
176
     0
 90
        2
176
     0
 62
     7
176
     0
 90
        5
176
     0
 90
        0
176
     0
 90
        0
176
     0
290
     0
176
     0
 90
        1
176
     0
 40
0.0
176
     0
 90
        0
176
     0
290
     0
176
     0
290
     1
176
     0
290
     1
176
     0
290
     0
176
     0
290
     0
176
     0
290
     0
176
     0
290
     0
176
     0
290
     0
176
     0
290
     0
176
     0
 90
       50
176
     0
 40
0.0
176
     0
 40
1.0
176
     0
 90
        0
176
     0
 62
    18
420
        0
176
     0
 90
       50
176
     0
 90
        3
176
     0
 62
     5
420
      255
176
     0
290
     0
176
     0
 90
       50
176
     0
 90
       50
176
     0
 90
       50
176
     0
290
     0
176
     0
 90
       50
176
     0
 62
   256
176
     0
 40
1.0
176
     0
 90
        2
176
     0
  1
strokes_ogs.tif
176
     0
290
     0
176
     0
 40
1.0
176
     0
 40
1.0
176
     0
  0
VISUALSTYLE
  5
38
102
{ACAD_REACTORS
330
2A
102
}
330
2A
100
AcDbVisualStyle
  2
Linepattern
 70
    14
177
     3
291
     1
 70
    58
 90
        2
176
     1
 90
        2
176
     1
 90
        0
176
     1
 90
        0
176
     1
 40
0.6
176
     1
 40
30.0
176
     1
 62
     7
420
 16777215
176
     1
 90
        1
176
     1
 90
        4
176
     1
 62
     7
176
     1
 62
   257
176
     1
 90
        7
176
     1
 90
        7
176
     1
 40
1.0
176
     1
 90
        8
176
     1
 62
     7
176
     1
 40
1.0
176
     1
 90
        1
176
     1
 90
        6
176
     1
 90
        2
176
     1
 62
     7
176
     1
 90
        5
176
     1
 90
        0
176
     1
 90
        0
176
     1
290
     0
176
     1
 90
        1
176
     1
 40
0.0
176
     1
 90
        0
176
     1
290
     0
176
     1
290
     1
176
     1
290
     1
176
     1
290
     0
176
     1
290
     0
176
     1
290
     0
176
     1
290
     0
176
     1
290
     0
176
     1
290
     0
176
     1
 90
       50
176
     1
 40
0.0
176
     1
 40
1.0
176
     1
 90
        0
176
     1
 62
    18
420
        0
176
     1
 90
       50
176
     1
 90
        3
176
     1
 62
     5
420
      255
176
     1
290
     0
176
     1
 90
       50
176
     1
 90
       50
176
     1
 90
       50
176
     1
290
     0
176
     1
 90
       50
176
     1
 62
   256
176
     0
 40
1.0
176
     0
 90
        2
176
     1
  1
strokes_ogs.tif
176
     1
290
     0
176
     1
 40
1.0
176
     1
 40
1.0
176
     1
  0
VISUALSTYLE
  5
3C
102
{ACAD_REACTORS
330
2A
102
}
330
2A
100
AcDbVisualStyle
  2
OverhangOff
 70
    21
177
     3
291
     1
 70
    58
 90
        2
176
     0
 90
        2
176
     0
 90
        0
176
     0
 90
        0
176
     0
 40
0.6
176
     0
 40
30.0
176
     0
 62
     7
420
 16777215
176
     0
 90
        1
176
     0
 90
        4
176
     0
 62
     7
176
     0
 62
   257
176
     0
 90
        1
176
     0
 90
        1
176
     0
 40
1.0
176
     0
 90
        9
176
     2
 62
     7
176
     0
 40
1.0
176
     0
 90
        1
176
     0
 90
        6
176
     0
 90
        2
176
     0
 62
     7
176
     0
 90
        5
176
     0
 90
        0
176
     0
 90
        0
176
     0
290
     0
176
     0
 90
        1
176
     0
 40
0.0
176
     0
 90
        0
176
     0
290
     0
176
     0
290
     1
176
     0
290
     1
176
     0
290
     0
176
     0
290
     0
176
     0
290
     0
176
     0
290
     0
176
     0
290
     0
176
     0
290
     0
176
     0
 90
       50
176
     0
 40
0.0
176
     0
 40
1.0
176
     0
 90
        0
176
     0
 62
    18
420
        0
176
     0
 90
       50
176
     0
 90
        3
176
     0
 62
     5
420
      255
176
     0
290
     0
176
     0
 90
       50
176
     0
 90
       50
176
     0
 90
       50
176
     0
290
     0
176
     0
 90
       50
176
     0
 62
   256
176
     0
 40
1.0
176
     0
 90
        2
176
     0
  1
strokes_ogs.tif
176
     0
290
     0
176
     0
 40
1.0
176
     0
 40
1.0
176
     0
  0
VISUALSTYLE
  5
33
102
{ACAD_REACTORS
330
2A
102
}
330
2A
100
AcDbVisualStyle
  2
Realistic
 70
     8
177
     3
291
     0
 70
    58
 90
        2
176
     1
 90
        3
176
     1
 90
        0
176
     1
 90
        2
176
     1
 40
0.6
176
     1
 40
30.0
176
     1
 62
     7
420
 16777215
176
     1
 90
        0
176
     1
 90
        0
176
     1
 62
     7
176
     1
 62
   257
176
     1
 90
        1
176
     1
 90
        1
176
     1
 40
1.0
176
     1
 90
        8
176
     1
 62
   257
176
     1
 40
1.0
176
     1
 90
        1
176
     1
 90
        6
176
     1
 90
        2
176
     1
 62
     7
176
     1
 90
        3
176
     1
 90
        0
176
     1
 90
        0
176
     1
290
     0
176
     1
 90
       13
176
     1
 40
0.0
176
     1
 90
        0
176
     1
290
     0
176
     1
290
     1
176
     1
290
     1
176
     1
290
     0
176
     1
290
     0
176
     1
290
     0
176
     1
290
     0
176
     1
290
     0
176
     1
290
     0
176
     1
 90
       50
176
     1
 40
0.0
176
     1
 40
1.0
176
     1
 90
        0
176
     1
 62
    18
420
        0
176
     1
 90
       50
176
     1
 90
        3
176
     1
 62
     5
420
      255
176
     1
290
     0
176
     1
 90
       50
176
     1
 90
       50
176
     1
 90
       50
176
     1
290
     0
176
     1
 90
       50
176
     1
 62
   256
176
     0
 40
1.0
176
     0
 90
        2
176
     1
  1
strokes_ogs.tif
176
     1
290
     0
176
     1
 40
1.0
176
     1
 40
1.0
176
     1
  0
VISUALSTYLE
  5
42
102
{ACAD_REACTORS
330
2A
102
}
330
2A
100
AcDbVisualStyle
  2
Shaded
 70
    27
177
     3
291
     0
 70
    58
 90
        2
176
     1
 90
        2
176
     1
 90
        1
176
     1
 90
        2
176
     1
 40
0.6
176
     1
 40
30.0
176
     1
 62
     7
420
 16777215
176
     1
 90
        0
176
     1
 90
        4
176
     1
 62
     7
176
     1
 62
   257
176
     1
 90
        1
176
     1
 90
        1
176
     1
 40
1.0
176
     1
 90
        8
176
     1
 62
   257
176
     1
 40
1.0
176
     1
 90
        1
176
     1
 90
        6
176
     1
 90
        2
176
     1
 62
     8
420
  7895160
176
     1
 90
        3
176
     1
 90
        0
176
     1
 90
        0
176
     1
290
     0
176
     1
 90
        5
176
     1
 40
0.0
176
     1
 90
        0
176
     1
290
     0
176
     1
290
     1
176
     1
290
     1
176
     1
290
     0
176
     1
290
     0
176
     1
290
     0
176
     1
290
     0
176
     1
290
     0
176
     1
290
     0
176
     1
 90
       50
176
     1
 40
0.0
176
     1
 40
1.0
176
     1
 90
        0
176
     1
 62
    18
420
        0
176
     1
 90
       50
176
     1
 90
        3
176
     1
 62
     5
420
      255
176
     1
290
     0
176
     1
 90
       50
176
     1
 90
       50
176
     1
 90
       50
176
     1
290
     0
176
     1
 90
       50
176
     1
 62
   256
176
     0
 40
1.0
176
     0
 90
        2
176
     1
  1
strokes_ogs.tif
176
     1
290
     0
176
     1
 40
1.0
176
     1
 40
1.0
176
     1
  0
VISUALSTYLE
  5
41
102
{ACAD_REACTORS
330
2A
102
}
330
2A
100
AcDbVisualStyle
  2
Shaded with edges
 70
    26
177
     3
291
     0
 70
    58
 90
        2
176
     1
 90
        2
176
     1
 90
        1
176
     1
 90
        2
176
     1
 40
0.6
176
     1
 40
30.0
176
     1
 62
     7
420
 16777215
176
     1
 90
        1
176
     1
 90
       10
176
     1
 62
     7
176
     1
 62
   257
176
     1
 90
        2
176
     1
 90
        1
176
     1
 40
1.0
176
     1
 90
        8
176
     1
 62
   257
176
     1
 40
1.0
176
     1
 90
        1
176
     1
 90
        6
176
     1
 90
        2
176
     1
 62
     7
176
     1
 90
        3
176
     1
 90
        0
176
     1
 90
        0
176
     1
290
     0
176
     1
 90
        5
176
     1
 40
0.0
176
     1
 90
        0
176
     1
290
     0
176
     1
290
     1
176
     1
290
     1
176
     1
290
     0
176
     1
290
     0
176
     1
290
     0
176
     1
290
     0
176
     1
290
     0
176
     1
290
     0
176
     1
 90
       50
176
     1
 40
0.0
176
     1
 40
1.0
176
     1
 90
        0
176
     1
 62
    18
420
        0
176
     1
 90
       50
176
     1
 90
        3
176
     1
 62
     5
420
      255
176
     1
290
     0
176
     1
 90
       50
176
     1
 90
       50
176
     1
 90
       50
176
     1
290
     0
176
     1
 90
       50
176
     1
 62
   256
176
     0
 40
1.0
176
     0
 90
        2
176
     1
  1
strokes_ogs.tif
176
     1
290
     0
176
     1
 40
1.0
176
     1
 40
1.0
176
     1
  0
VISUALSTYLE
  5
3E
102
{ACAD_REACTORS
330
2A
102
}
330
2A
100
AcDbVisualStyle
  2
Shades of Gray
 70
    23
177
     3
291
     0
 70
    58
 90
        2
176
     1
 90
        2
176
     1
 90
        3
176
     1
 90
        0
176
     1
 40
0.6
176
     1
 40
30.0
176
     1
 62
     7
420
 16777215
176
     1
 90
        2
176
     1
 90
        2
176
     1
 62
     7
176
     1
 62
     7
176
     1
 90
        1
176
     1
 90
        1
176
     1
 40
40.0
176
     1
 90
        8
176
     1
 62
     7
176
     1
 40
1.0
176
     1
 90
        1
176
     1
 90
        6
176
     1
 90
        2
176
     1
 62
     7
176
     1
 90
        3
176
     1
 90
        0
176
     1
 90
        0
176
     1
290
     0
176
     1
 90
        1
176
     1
 40
0.0
176
     1
 90
        0
176
     1
290
     0
176
     1
290
     1
176
     1
290
     1
176
     1
290
     0
176
     1
290
     0
176
     1
290
     0
176
     1
290
     0
176
     1
290
     0
176
     1
290
     0
176
     1
 90
       50
176
     1
 40
0.0
176
     1
 40
1.0
176
     1
 90
        0
176
     1
 62
    18
420
        0
176
     1
 90
       50
176
     1
 90
        3
176
     1
 62
     5
420
      255
176
     1
290
     0
176
     1
 90
       50
176
     1
 90
       50
176
     1
 90
       50
176
     1
290
     0
176
     1
 90
       50
176
     1
 62
   256
176
     0
 40
1.0
176
     0
 90
        2
176
     1
  1
strokes_ogs.tif
176
     1
290
     0
176
     1
 40
1.0
176
     1
 40
1.0
176
     1
  0
VISUALSTYLE
  5
3F
102
{ACAD_REACTORS
330
2A
102
}
330
2A
100
AcDbVisualStyle
  2
Sketchy
 70
    24
177
     3
291
     0
 70
    58
 90
        1
176
     1
 90
        2
176
     1
 90
        2
176
     1
 90
        0
176
     1
 40
0.6
176
     1
 40
30.0
176
     1
 62
     7
420
 16777215
176
     1
 90
        2
176
     1
 90
        2
176
     1
 62
     7
176
     1
 62
     7
176
     1
 90
        1
176
     1
 90
        1
176
     1
 40
40.0
176
     1
 90
       11
176
     1
 62
     7
176
     1
 40
1.0
176
     1
 90
        1
176
     1
 90
        6
176
     1
 90
        2
176
     1
 62
     7
176
     1
 90
        6
176
     1
 90
        0
176
     1
 90
        0
176
     1
290
     0
176
     1
 90
        1
176
     1
 40
0.0
176
     1
 90
        0
176
     1
290
     0
176
     1
290
     1
176
     1
290
     1
176
     1
290
     0
176
     1
290
     0
176
     1
290
     0
176
     1
290
     0
176
     1
290
     0
176
     1
290
     0
176
     1
 90
       50
176
     1
 40
0.0
176
     1
 40
1.0
176
     1
 90
        0
176
     1
 62
    18
420
        0
176
     1
 90
       50
176
     1
 90
        3
176
     1
 62
     5
420
      255
176
     1
290
     0
176
     1
 90
       50
176
     1
 90
       50
176
     1
 90
       50
176
     1
290
     0
176
     1
 90
       50
176
     1
 62
   256
176
     0
 40
1.0
176
     0
 90
        2
176
     1
  1
strokes_ogs.tif
176
     1
290
     0
176
     1
 40
1.0
176
     1
 40
1.0
176
     1
  0
VISUALSTYLE
  5
37
102
{ACAD_REACTORS
330
2A
102
}
330
2A
100
AcDbVisualStyle
  2
Thicken
 70
    13
177
     3
291
     1
 70
    58
 90
        2
176
     1
 90
        2
176
     1
 90
        0
176
     1
 90
        0
176
     1
 40
0.6
176
     1
 40
30.0
176
     1
 62
     7
420
 16777215
176
     1
 90
        1
176
     1
 90
        4
176
     1
 62
     7
176
     1
 62
   257
176
     1
 90
        1
176
     1
 90
        1
176
     1
 40
1.0
176
     1
 90
       12
176
     1
 62
     7
176
     1
 40
1.0
176
     1
 90
        1
176
     1
 90
        6
176
     1
 90
        2
176
     1
 62
     7
176
     1
 90
        5
176
     1
 90
        0
176
     1
 90
        0
176
     1
290
     0
176
     1
 90
        1
176
     1
 40
0.0
176
     1
 90
        0
176
     1
290
     0
176
     1
290
     1
176
     1
290
     1
176
     1
290
     0
176
     1
290
     0
176
     1
290
     0
176
     1
290
     0
176
     1
290
     0
176
     1
290
     0
176
     1
 90
       50
176
     1
 40
0.0
176
     1
 40
1.0
176
     1
 90
        0
176
     1
 62
    18
420
        0
176
     1
 90
       50
176
     1
 90
        3
176
     1
 62
     5
420
      255
176
     1
290
     0
176
     1
 90
       50
176
     1
 90
       50
176
     1
 90
       50
176
     1
290
     0
176
     1
 90
       50
176
     1
 62
   256
176
     0
 40
1.0
176
     0
 90
        2
176
     1
  1
strokes_ogs.tif
176
     1
290
     0
176
     1
 40
1.0
176
     1
 40
1.0
176
     1
  0
VISUALSTYLE
  5
30
102
{ACAD_REACTORS
330
2A
102
}
330
2A
100
AcDbVisualStyle
  2
Wireframe
 70
     5
177
     3
291
     0
 70
    58
 90
        0
176
     1
 90
        2
176
     1
 90
        0
176
     1
 90
        0
176
     1
 40
0.6
176
     1
 40
30.0
176
     1
 62
     7
420
 16777215
176
     1
 90
        1
176
     1
 90
        4
176
     1
 62
     7
176
     1
 62
   257
176
     1
 90
        1
176
     1
 90
        1
176
     1
 40
1.0
176
     1
 90
        0
176
     1
 62
   257
176
     1
 40
1.0
176
     1
 90
        1
176
     1
 90
        6
176
     1
 90
        2
176
     1
 62
     7
176
     1
 90
        3
176
     1
 90
        0
176
     1
 90
        0
176
     1
290
     0
176
     1
 90
        1
176
     1
 40
0.0
176
     1
 90
        0
176
     1
290
     0
176
     1
290
     1
176
     1
290
     1
176
     1
290
     0
176
     1
290
     0
176
     1
290
     0
176
     1
290
     0
176
     1
290
     0
176
     1
290
     0
176
     1
 90
       50
176
     1
 40
0.0
176
     1
 40
1.0
176
     1
 90
        0
176
     1
 62
    18
420
        0
176
     1
 90
       50
176
     1
 90
        3
176
     1
 62
     5
420
      255
176
     1
290
     0
176
     1
 90
       50
176
     1
 90
       50
176
     1
 90
       50
176
     1
290
     0
176
     1
 90
       50
176
     1
 62
   256
176
     0
 40
1.0
176
     0
 90
        2
176
     1
  1
strokes_ogs.tif
176
     1
290
     0
176
     1
 40
1.0
176
     1
 40
1.0
176
     1
  0
VISUALSTYLE
  5
40
102
{ACAD_REACTORS
330
2A
102
}
330
2A
100
AcDbVisualStyle
  2
X-Ray
 70
    25
177
     3
291
     0
 70
    58
 90
        2
176
     1
 90
        2
176
     1
 90
        1
176
     1
 90
        1
176
     1
 40
0.5
176
     1
 40
30.0
176
     1
 62
     7
420
 16777215
176
     1
 90
        1
176
     1
 90
        0
176
     1
 62
     7
176
     1
 62
   257
176
     1
 90
        1
176
     1
 90
        1
176
     1
 40
1.0
176
     1
 90
        8
176
     1
 62
     7
176
     1
 40
1.0
176
     1
 90
        1
176
     1
 90
        6
176
     1
 90
        2
176
     1
 62
     7
176
     1
 90
        3
176
     1
 90
        0
176
     1
 90
        0
176
     1
290
     0
176
     1
 90
       13
176
     1
 40
0.0
176
     1
 90
        0
176
     1
290
     0
176
     1
290
     1
176
     1
290
     1
176
     1
290
     0
176
     1
290
     0
176
     1
290
     0
176
     1
290
     0
176
     1
290
     0
176
     1
290
     0
176
     1
 90
       50
176
     1
 40
0.0
176
     1
 40
1.0
176
     1
 90
        0
176
     1
 62
    18
420
        0
176
     1
 90
       50
176
     1
 90
        3
176
     1
 62
     5
420
      255
176
     1
290
     0
176
     1
 90
       50
176
     1
 90
       50
176
     1
 90
       50
176
     1
290
     0
176
     1
 90
       50
176
     1
 62
   256
176
     0
 40
1.0
176
     0
 90
        2
176
     1
  1
strokes_ogs.tif
176
     1
290
     0
176
     1
 40
1.0
176
     1
 40
1.0
176
     1
  0
DICTIONARYVAR
  5
1F5
102
{ACAD_REACTORS
330
1F4
102
}
330
1F4
100
DictionaryVariables
280
     0
  1
1:1
  0
DICTIONARYVAR
  5
1FA
102
{ACAD_REACTORS
330
1F4
102
}
330
1F4
100
DictionaryVariables
280
     0
  1
Standard
  0
DICTIONARYVAR
  5
1F9
102
{ACAD_REACTORS
330
1F4
102
}
330
1F4
100
DictionaryVariables
280
     0
  1
Standard
  0
DICTIONARY
  5
1F6
330
6A
100
AcDbDictionary
280
     1
281
     1
  3
ACAD_ROUNDTRIP_2008_TABLESTYLE_CELLSTYLEMAP
360
1F7
  0
CELLSTYLEMAP
  5
1F7
102
{ACAD_REACTORS
330
1F6
102
}
330
1F6
100
AcDbCellStyleMap
 90
        3
300
CELLSTYLE
  1
TABLEFORMAT_BEGIN
 90
        5
170
     1
 91
        0
 92
    32768
 62
   257
 93
        1
300
CONTENTFORMAT
  1
CONTENTFORMAT_BEGIN
 90
        0
 91
        0
 92
        4
 93
        0
300

 40
0.0
140
1.0
 94
        5
 62
     0
340
11
144
0.25
309
CONTENTFORMAT_END
171
     1
301
MARGIN
  1
CELLMARGIN_BEGIN
 40
0.06
 40
0.06
 40
0.06
 40
0.06
 40
0.06
 40
0.06
309
CELLMARGIN_END
 94
        6
 95
        1
302
GRIDFORMAT
  1
GRIDFORMAT_BEGIN
 90
        0
 91
        1
 62
     0
 92
       -2
340
14
 93
        0
 40
0.045
309
GRIDFORMAT_END
 95
        2
302
GRIDFORMAT
  1
GRIDFORMAT_BEGIN
 90
        0
 91
        1
 62
     0
 92
       -2
340
14
 93
        0
 40
0.045
309
GRIDFORMAT_END
 95
        4
302
GRIDFORMAT
  1
GRIDFORMAT_BEGIN
 90
        0
 91
        1
 62
     0
 92
       -2
340
14
 93
        0
 40
0.045
309
GRIDFORMAT_END
 95
        8
302
GRIDFORMAT
  1
GRIDFORMAT_BEGIN
 90
        0
 91
        1
 62
     0
 92
       -2
340
14
 93
        0
 40
0.045
309
GRIDFORMAT_END
 95
       16
302
GRIDFORMAT
  1
GRIDFORMAT_BEGIN
 90
        0
 91
        1
 62
     0
 92
       -2
340
14
 93
        0
 40
0.045
309
GRIDFORMAT_END
 95
       32
302
GRIDFORMAT
  1
GRIDFORMAT_BEGIN
 90
        0
 91
        1
 62
     0
 92
       -2
340
14
 93
        0
 40
0.045
309
GRIDFORMAT_END
309
TABLEFORMAT_END
  1
CELLSTYLE_BEGIN
 90
        1
 91
        1
300
_TITLE
309
CELLSTYLE_END
300
CELLSTYLE
  1
TABLEFORMAT_BEGIN
 90
        5
170
     1
 91
        0
 92
        0
 62
   257
 93
        1
300
CONTENTFORMAT
  1
CONTENTFORMAT_BEGIN
 90
        0
 91
        0
 92
        4
 93
        0
300

 40
0.0
140
1.0
 94
        5
 62
     0
340
11
144
0.18
309
CONTENTFORMAT_END
171
     1
301
MARGIN
  1
CELLMARGIN_BEGIN
 40
0.06
 40
0.06
 40
0.06
 40
0.06
 40
0.06
 40
0.06
309
CELLMARGIN_END
 94
        6
 95
        1
302
GRIDFORMAT
  1
GRIDFORMAT_BEGIN
 90
        0
 91
        1
 62
     0
 92
       -2
340
14
 93
        0
 40
0.045
309
GRIDFORMAT_END
 95
        2
302
GRIDFORMAT
  1
GRIDFORMAT_BEGIN
 90
        0
 91
        1
 62
     0
 92
       -2
340
14
 93
        0
 40
0.045
309
GRIDFORMAT_END
 95
        4
302
GRIDFORMAT
  1
GRIDFORMAT_BEGIN
 90
        0
 91
        1
 62
     0
 92
       -2
340
14
 93
        0
 40
0.045
309
GRIDFORMAT_END
 95
        8
302
GRIDFORMAT
  1
GRIDFORMAT_BEGIN
 90
        0
 91
        1
 62
     0
 92
       -2
340
14
 93
        0
 40
0.045
309
GRIDFORMAT_END
 95
       16
302
GRIDFORMAT
  1
GRIDFORMAT_BEGIN
 90
        0
 91
        1
 62
     0
 92
       -2
340
14
 93
        0
 40
0.045
309
GRIDFORMAT_END
 95
       32
302
GRIDFORMAT
  1
GRIDFORMAT_BEGIN
 90
        0
 91
        1
 62
     0
 92
       -2
340
14
 93
        0
 40
0.045
309
GRIDFORMAT_END
309
TABLEFORMAT_END
  1
CELLSTYLE_BEGIN
 90
        2
 91
        1
300
_HEADER
309
CELLSTYLE_END
300
CELLSTYLE
  1
TABLEFORMAT_BEGIN
 90
        5
170
     1
 91
        0
 92
        0
 62
   257
 93
        1
300
CONTENTFORMAT
  1
CONTENTFORMAT_BEGIN
 90
        0
 91
        0
 92
        4
 93
        0
300

 40
0.0
140
1.0
 94
        2
 62
     0
340
11
144
0.18
309
CONTENTFORMAT_END
171
     1
301
MARGIN
  1
CELLMARGIN_BEGIN
 40
0.06
 40
0.06
 40
0.06
 40
0.06
 40
0.06
 40
0.06
309
CELLMARGIN_END
 94
        6
 95
        1
302
GRIDFORMAT
  1
GRIDFORMAT_BEGIN
 90
        0
 91
        1
 62
     0
 92
       -2
340
14
 93
        0
 40
0.045
309
GRIDFORMAT_END
 95
        2
302
GRIDFORMAT
  1
GRIDFORMAT_BEGIN
 90
        0
 91
        1
 62
     0
 92
       -2
340
14
 93
        0
 40
0.045
309
GRIDFORMAT_END
 95
        4
302
GRIDFORMAT
  1
GRIDFORMAT_BEGIN
 90
        0
 91
        1
 62
     0
 92
       -2
340
14
 93
        0
 40
0.045
309
GRIDFORMAT_END
 95
        8
302
GRIDFORMAT
  1
GRIDFORMAT_BEGIN
 90
        0
 91
        1
 62
     0
 92
       -2
340
14
 93
        0
 40
0.045
309
GRIDFORMAT_END
 95
       16
302
GRIDFORMAT
  1
GRIDFORMAT_BEGIN
 90
        0
 91
        1
 62
     0
 92
       -2
340
14
 93
        0
 40
0.045
309
GRIDFORMAT_END
 95
       32
302
GRIDFORMAT
  1
GRIDFORMAT_BEGIN
 90
        0
 91
        1
 62
     0
 92
       -2
340
14
 93
        0
 40
0.045
309
GRIDFORMAT_END
309
TABLEFORMAT_END
  1
CELLSTYLE_BEGIN
 90
        3
 91
        2
300
_DATA
309
CELLSTYLE_END
  0
ENDSEC
  0
EOF