0
SECTION
  2
HEADER
  9
$ACADVER
  1
AC1027
  9
$ACADMAINTVER
 70
     8
  9
$DWGCODEPAGE
  3
ANSI_1252
  9
$REQUIREDVERSIONS
160
                 0
  9
$COMMENTS
  1
File was created by Cadenas
  9
$CUSTOMPROPERTYTAG
  1
NN
  9
$CUSTOMPROPERTY
  1
Grip Tight Two-Bolt Pillow Block - Polymer Housing, Corrision Resistant Insert Inch Bore
  9
$CUSTOMPROPERTYTAG
  1
NT
  9
$CUSTOMPROPERTY
  1
GTEZ Normal Duty Polymer Housed Pillow Blocks
  9
$CUSTOMPROPERTYTAG
  1
NB
  9
$CUSTOMPROPERTY
  1
129249
  9
$CUSTOMPROPERTYTAG
  1
NBSYN
  9
$CUSTOMPROPERTY
  1
$PN.$LUBE.
  9
$CUSTOMPROPERTYTAG
  1
LINA
  9
$CUSTOMPROPERTY
  1
129249
  9
$CUSTOMPROPERTYTAG
  1
SERIES
  9
$CUSTOMPROPERTY
  1
206
  9
$CUSTOMPROPERTYTAG
  1
SS
  9
$CUSTOMPROPERTY
  1
1-1/4
  9
$CUSTOMPROPERTYTAG
  1
PN
  9
$CUSTOMPROPERTY
  1
129249
  9
$CUSTOMPROPERTYTAG
  1
DESCRIPTION
  9
$CUSTOMPROPERTY
  1
P2B-GTUEZ-104S-PCR
  9
$CUSTOMPROPERTYTAG
  1
A
  9
$CUSTOMPROPERTY
  1
1-39/64
  9
$CUSTOMPROPERTYTAG
  1
B
  9
$CUSTOMPROPERTY
  1
6-5/16
  9
$CUSTOMPROPERTYTAG
  1
C
  9
$CUSTOMPROPERTY
  1
1-25/32
  9
$CUSTOMPROPERTYTAG
  1
DMIN
  9
$CUSTOMPROPERTY
  1
4-39/64
  9
$CUSTOMPROPERTYTAG
  1
DMAX
  9
$CUSTOMPROPERTY
  1
4-57/64
  9
$CUSTOMPROPERTYTAG
  1
F
  9
$CUSTOMPROPERTY
  1
1/2
  9
$CUSTOMPROPERTYTAG
  1
G
  9
$CUSTOMPROPERTY
  1
23/32
  9
$CUSTOMPROPERTYTAG
  1
H
  9
$CUSTOMPROPERTY
  1
45/64
  9
$CUSTOMPROPERTYTAG
  1
J
  9
$CUSTOMPROPERTY
  1
3-11/32
  9
$CUSTOMPROPERTYTAG
  1
L
  9
$CUSTOMPROPERTY
  1
2
  9
$CUSTOMPROPERTYTAG
  1
M
  9
$CUSTOMPROPERTY
  1
1-11/16
  9
$CUSTOMPROPERTYTAG
  1
R
  9
$CUSTOMPROPERTY
  1
17/32
  9
$CUSTOMPROPERTYTAG
  1
S
  9
$CUSTOMPROPERTY
  1
1-5/64
  9
$CUSTOMPROPERTYTAG
  1
Z
  9
$CUSTOMPROPERTY
  1
1-1/32
  9
$CUSTOMPROPERTYTAG
  1
COMPANY
  9
$CUSTOMPROPERTY
  1
baldor
  9
$INSBASE
 10
0.0
 20
0.0
 30
0.0
  9
$EXTMIN
 10
1.000000000000000E+20
 20
1.000000000000000E+20
 30
1.000000000000000E+20
  9
$EXTMAX
 10
-1.000000000000000E+20
 20
-1.000000000000000E+20
 30
-1.000000000000000E+20
  9
$LIMMIN
 10
0.0
 20
0.0
  9
$LIMMAX
 10
12.0
 20
9.0
  9
$ORTHOMODE
 70
     0
  9
$REGENMODE
 70
     1
  9
$FILLMODE
 70
     1
  9
$QTEXTMODE
 70
     0
  9
$MIRRTEXT
 70
     1
  9
$LTSCALE
 40
1.0
  9
$ATTMODE
 70
     1
  9
$TEXTSIZE
 40
0.2
  9
$TRACEWID
 40
0.05
  9
$TEXTSTYLE
  7
Standard
  9
$CLAYER
  8
0
  9
$CELTYPE
  6
ByLayer
  9
$CECOLOR
 62
   256
  9
$CELTSCALE
 40
1.0
  9
$DISPSILH
 70
     0
  9
$DIMSCALE
 40
1.0
  9
$DIMASZ
 40
0.18
  9
$DIMEXO
 40
0.0625
  9
$DIMDLI
 40
0.38
  9
$DIMRND
 40
0.0
  9
$DIMDLE
 40
0.0
  9
$DIMEXE
 40
0.18
  9
$DIMTP
 40
0.0
  9
$DIMTM
 40
0.0
  9
$DIMTXT
 40
0.18
  9
$DIMCEN
 40
0.09
  9
$DIMTSZ
 40
0.0
  9
$DIMTOL
 70
     0
  9
$DIMLIM
 70
     0
  9
$DIMTIH
 70
     1
  9
$DIMTOH
 70
     1
  9
$DIMSE1
 70
     0
  9
$DIMSE2
 70
     0
  9
$DIMTAD
 70
     0
  9
$DIMZIN
 70
     0
  9
$DIMBLK
  1

  9
$DIMASO
 70
     1
  9
$DIMSHO
 70
     1
  9
$DIMPOST
  1

  9
$DIMAPOST
  1

  9
$DIMALT
 70
     0
  9
$DIMALTD
 70
     2
  9
$DIMALTF
 40
25.4
  9
$DIMLFAC
 40
1.0
  9
$DIMTOFL
 70
     0
  9
$DIMTVP
 40
0.0
  9
$DIMTIX
 70
     0
  9
$DIMSOXD
 70
     0
  9
$DIMSAH
 70
     0
  9
$DIMBLK1
  1

  9
$DIMBLK2
  1

  9
$DIMSTYLE
  2
Standard
  9
$DIMCLRD
 70
     0
  9
$DIMCLRE
 70
     0
  9
$DIMCLRT
 70
     0
  9
$DIMTFAC
 40
1.0
  9
$DIMGAP
 40
0.09
  9
$DIMJUST
 70
     0
  9
$DIMSD1
 70
     0
  9
$DIMSD2
 70
     0
  9
$DIMTOLJ
 70
     1
  9
$DIMTZIN
 70
     0
  9
$DIMALTZ
 70
     0
  9
$DIMALTTZ
 70
     0
  9
$DIMUPT
 70
     0
  9
$DIMDEC
 70
     4
  9
$DIMTDEC
 70
     4
  9
$DIMALTU
 70
     2
  9
$DIMALTTD
 70
     2
  9
$DIMTXSTY
  7
Standard
  9
$DIMAUNIT
 70
     0
  9
$DIMADEC
 70
     0
  9
$DIMALTRND
 40
0.0
  9
$DIMAZIN
 70
     0
  9
$DIMDSEP
 70
    46
  9
$DIMATFIT
 70
     3
  9
$DIMFRAC
 70
     0
  9
$DIMLDRBLK
  1

  9
$DIMLUNIT
 70
     2
  9
$DIMLWD
 70
    -2
  9
$DIMLWE
 70
    -2
  9
$DIMTMOVE
 70
     0
  9
$DIMFXL
 40
1.0
  9
$DIMFXLON
 70
     0
  9
$DIMJOGANG
 40
0.7853981633974483
  9
$DIMTFILL
 70
     0
  9
$DIMTFILLCLR
 70
     0
  9
$DIMARCSYM
 70
     0
  9
$DIMLTYPE
  6

  9
$DIMLTEX1
  6

  9
$DIMLTEX2
  6

  9
$DIMTXTDIRECTION
 70
     0
  9
$LUNITS
 70
     2
  9
$LUPREC
 70
     4
  9
$SKETCHINC
 40
0.1
  9
$FILLETRAD
 40
0.5
  9
$AUNITS
 70
     0
  9
$AUPREC
 70
     0
  9
$MENU
  1
.
  9
$ELEVATION
 40
0.0
  9
$PELEVATION
 40
0.0
  9
$THICKNESS
 40
0.0
  9
$LIMCHECK
 70
     0
  9
$CHAMFERA
 40
0.0
  9
$CHAMFERB
 40
0.0
  9
$CHAMFERC
 40
0.0
  9
$CHAMFERD
 40
0.0
  9
$SKPOLY
 70
     0
  9
$TDCREATE
 40
2458168.992598704
  9
$TDUCREATE
 40
2458168.950932037
  9
$TDUPDATE
 40
2458168.992598889
  9
$TDUUPDATE
 40
2458168.950932222
  9
$TDINDWG
 40
0.0000000116
  9
$TDUSRTIMER
 40
0.0000000116
  9
$USRTIMER
 70
     1
  9
$ANGBASE
 50
0.0
  9
$ANGDIR
 70
     0
  9
$PDMODE
 70
     0
  9
$PDSIZE
 40
0.0
  9
$PLINEWID
 40
0.0
  9
$SPLFRAME
 70
     0
  9
$SPLINETYPE
 70
     6
  9
$SPLINESEGS
 70
     8
  9
$HANDSEED
  5
1FF
  9
$SURFTAB1
 70
     6
  9
$SURFTAB2
 70
     6
  9
$SURFTYPE
 70
     6
  9
$SURFU
 70
     6
  9
$SURFV
 70
     6
  9
$UCSBASE
  2

  9
$UCSNAME
  2

  9
$UCSORG
 10
0.0
 20
0.0
 30
0.0
  9
$UCSXDIR
 10
1.0
 20
0.0
 30
0.0
  9
$UCSYDIR
 10
0.0
 20
1.0
 30
0.0
  9
$UCSORTHOREF
  2

  9
$UCSORTHOVIEW
 70
     0
  9
$UCSORGTOP
 10
0.0
 20
0.0
 30
0.0
  9
$UCSORGBOTTOM
 10
0.0
 20
0.0
 30
0.0
  9
$UCSORGLEFT
 10
0.0
 20
0.0
 30
0.0
  9
$UCSORGRIGHT
 10
0.0
 20
0.0
 30
0.0
  9
$UCSORGFRONT
 10
0.0
 20
0.0
 30
0.0
  9
$UCSORGBACK
 10
0.0
 20
0.0
 30
0.0
  9
$PUCSBASE
  2

  9
$PUCSNAME
  2

  9
$PUCSORG
 10
0.0
 20
0.0
 30
0.0
  9
$PUCSXDIR
 10
1.0
 20
0.0
 30
0.0
  9
$PUCSYDIR
 10
0.0
 20
1.0
 30
0.0
  9
$PUCSORTHOREF
  2

  9
$PUCSORTHOVIEW
 70
     0
  9
$PUCSORGTOP
 10
0.0
 20
0.0
 30
0.0
  9
$PUCSORGBOTTOM
 10
0.0
 20
0.0
 30
0.0
  9
$PUCSORGLEFT
 10
0.0
 20
0.0
 30
0.0
  9
$PUCSORGRIGHT
 10
0.0
 20
0.0
 30
0.0
  9
$PUCSORGFRONT
 10
0.0
 20
0.0
 30
0.0
  9
$PUCSORGBACK
 10
0.0
 20
0.0
 30
0.0
  9
$USERI1
 70
     0
  9
$USERI2
 70
     0
  9
$USERI3
 70
     0
  9
$USERI4
 70
     0
  9
$USERI5
 70
     0
  9
$USERR1
 40
0.0
  9
$USERR2
 40
0.0
  9
$USERR3
 40
0.0
  9
$USERR4
 40
0.0
  9
$USERR5
 40
0.0
  9
$WORLDVIEW
 70
     1
  9
$SHADEDGE
 70
     3
  9
$SHADEDIF
 70
    70
  9
$TILEMODE
 70
     1
  9
$MAXACTVP
 70
    64
  9
$PINSBASE
 10
0.0
 20
0.0
 30
0.0
  9
$PLIMCHECK
 70
     0
  9
$PEXTMIN
 10
1.000000000000000E+20
 20
1.000000000000000E+20
 30
1.000000000000000E+20
  9
$PEXTMAX
 10
-1.000000000000000E+20
 20
-1.000000000000000E+20
 30
-1.000000000000000E+20
  9
$PLIMMIN
 10
0.0
 20
0.0
  9
$PLIMMAX
 10
12.0
 20
9.0
  9
$UNITMODE
 70
     0
  9
$VISRETAIN
 70
     1
  9
$PLINEGEN
 70
     0
  9
$PSLTSCALE
 70
     1
  9
$TREEDEPTH
 70
  3020
  9
$CMLSTYLE
  2
Standard
  9
$CMLJUST
 70
     0
  9
$CMLSCALE
 40
1.0
  9
$PROXYGRAPHICS
 70
     1
  9
$MEASUREMENT
 70
     0
  9
$CELWEIGHT
370
    -1
  9
$ENDCAPS
280
     0
  9
$JOINSTYLE
280
     0
  9
$LWDISPLAY
290
     0
  9
$INSUNITS
 70
     1
  9
$HYPERLINKBASE
  1

  9
$STYLESHEET
  1

  9
$XEDIT
290
     1
  9
$CEPSNTYPE
380
     0
  9
$PSTYLEMODE
290
     1
  9
$FINGERPRINTGUID
  2
{2872258F-CBF1-4968-80B9-BD3E763F96D5}
  9
$VERSIONGUID
  2
{FAEB1C32-E019-11D5-929B-00C0DF256EC4}
  9
$EXTNAMES
290
     1
  9
$PSVPSCALE
 40
0.0
  9
$OLESTARTUP
290
     0
  9
$SORTENTS
280
   127
  9
$INDEXCTL
280
     0
  9
$HIDETEXT
280
     1
  9
$XCLIPFRAME
280
     2
  9
$HALOGAP
280
     0
  9
$OBSCOLOR
 70
   257
  9
$OBSLTYPE
280
     0
  9
$INTERSECTIONDISPLAY
280
     0
  9
$INTERSECTIONCOLOR
 70
   257
  9
$DIMASSOC
280
     2
  9
$PROJECTNAME
  1

  9
$CAMERADISPLAY
290
     0
  9
$LENSLENGTH
 40
50.0
  9
$CAMERAHEIGHT
 40
0.0
  9
$STEPSPERSEC
 40
2.0
  9
$STEPSIZE
 40
6.0
  9
$3DDWFPREC
 40
2.0
  9
$PSOLWIDTH
 40
0.25
  9
$PSOLHEIGHT
 40
4.0
  9
$LOFTANG1
 40
1.570796326794897
  9
$LOFTANG2
 40
1.570796326794897
  9
$LOFTMAG1
 40
0.0
  9
$LOFTMAG2
 40
0.0
  9
$LOFTPARAM
 70
     7
  9
$LOFTNORMALS
280
     1
  9
$LATITUDE
 40
37.795
  9
$LONGITUDE
 40
-122.394
  9
$NORTHDIRECTION
 40
0.0
  9
$TIMEZONE
 70
 -8000
  9
$LIGHTGLYPHDISPLAY
280
     1
  9
$TILEMODELIGHTSYNCH
280
     1
  9
$CMATERIAL
347
44
  9
$SOLIDHIST
280
     0
  9
$SHOWHIST
280
     1
  9
$DWFFRAME
280
     2
  9
$DGNFRAME
280
     2
  9
$REALWORLDSCALE
290
     1
  9
$INTERFERECOLOR
 62
   256
  9
$CSHADOW
280
     0
  9
$SHADOWPLANELOCATION
 40
0.0
  0
ENDSEC
  0
SECTION
  2
CLASSES
  0
CLASS
  1
ACDBDICTIONARYWDFLT
  2
AcDbDictionaryWithDefault
  3
ObjectDBX Classes
 90
        0
 91
        4
280
     0
281
     0
  0
CLASS
  1
VISUALSTYLE
  2
AcDbVisualStyle
  3
ObjectDBX Classes
 90
     4095
 91
        4
280
     0
281
     0
  0
CLASS
  1
MATERIAL
  2
AcDbMaterial
  3
ObjectDBX Classes
 90
     1153
 91
        4
280
     0
281
     0
  0
CLASS
  1
SCALE
  2
AcDbScale
  3
ObjectDBX Classes
 90
     1153
 91
        4
280
     0
281
     0
  0
CLASS
  1
TABLESTYLE
  2
AcDbTableStyle
  3
ObjectDBX Classes
 90
     4095
 91
        4
280
     0
281
     0
  0
CLASS
  1
MLEADERSTYLE
  2
AcDbMLeaderStyle
  3
ACDB_MLEADERSTYLE_CLASS
 90
     4095
 91
        4
280
     0
281
     0
  0
CLASS
  1
SUN
  2
AcDbSun
  3
SCENEOE
 90
     1153
 91
        4
280
     0
281
     0
  0
CLASS
  1
DICTIONARYVAR
  2
AcDbDictionaryVar
  3
ObjectDBX Classes
 90
        0
 91
        4
280
     0
281
     0
  0
CLASS
  1
CELLSTYLEMAP
  2
AcDbCellStyleMap
  3
ObjectDBX Classes
 90
     1152
 91
        4
280
     0
281
     0
  0
ENDSEC
  0
SECTION
  2
TABLES
  0
TABLE
  2
VPORT
  5
8
330
0
100
AcDbSymbolTable
 70
     1
  0
VPORT
  5
29
330
8
100
AcDbSymbolTableRecord
100
AcDbViewportTableRecord
  2
*Active
 70
     0
 10
0.0
 20
0.0
 11
1.0
 21
1.0
 12
0.0
 22
0.4191000000000003
 13
0.0
 23
0.0
 14
0.5
 24
0.5
 15
0.5
 25
0.5
 16
0.0
 26
0.0
 36
1.0
 17
0.0
 27
0.0
 37
0.0
 40
4.298484000000002
 41
1.498030468416306
 42
50.0
 43
0.0
 44
0.0
 50
0.0
 51
0.0
 71
     0
 72
   100
 73
     1
 74
     3
 75
     0
 76
     0
 77
     0
 78
     0
281
     0
 65
     1
110
0.0
120
0.0
130
0.0
111
1.0
121
0.0
131
0.0
112
0.0
122
1.0
132
0.0
 79
     0
146
0.0
348
2F
 60
     3
 61
     5
292
     1
282
     1
141
0.0
142
0.0
 63
   250
361
6D
  0
ENDTAB
  0
TABLE
  2
LTYPE
  5
5
330
0
100
AcDbSymbolTable
 70
     3
  0
LTYPE
  5
14
330
5
100
AcDbSymbolTableRecord
100
AcDbLinetypeTableRecord
  2
ByBlock
 70
     0
  3

 72
    65
 73
     0
 40
0.0
  0
LTYPE
  5
15
330
5
100
AcDbSymbolTableRecord
100
AcDbLinetypeTableRecord
  2
ByLayer
 70
     0
  3

 72
    65
 73
     0
 40
0.0
  0
LTYPE
  5
16
330
5
100
AcDbSymbolTableRecord
100
AcDbLinetypeTableRecord
  2
Continuous
 70
     0
  3
Solid line
 72
    65
 73
     0
 40
0.0
  0
LTYPE
  5
A1
330
5
100
AcDbSymbolTableRecord
100
AcDbLinetypeTableRecord
  2
Dashed
 70
     0
  3

 72
    65
 73
     2
 40
2.0
 49
1.0
 74
     0
 49
-1.0
 74
     0
  0
LTYPE
  5
A7
330
5
100
AcDbSymbolTableRecord
100
AcDbLinetypeTableRecord
  2
Center
 70
     0
  3

 72
    65
 73
     4
 40
1.5
 49
0.45
 74
     0
 49
-0.5
 74
     0
 49
0.05
 74
     0
 49
-0.5
 74
     0
  0
ENDTAB
  0
TABLE
  2
LAYER
  5
2
330
0
100
AcDbSymbolTable
 70
     7
  0
LAYER
  5
10
330
2
100
AcDbSymbolTableRecord
100
AcDbLayerTableRecord
  2
0
 70
     0
 62
     7
  6
Continuous
370
    -3
390
F
347
46
348
0
  0
LAYER
  5
72
330
2
100
AcDbSymbolTableRecord
100
AcDbLayerTableRecord
  2
AM_6
 70
     0
 62
    -2
  6
Continuous
370
    35
390
F
347
46
348
0
  0
LAYER
  5
A2
330
2
100
AcDbSymbolTableRecord
100
AcDbLayerTableRecord
  2
AM_9
 70
     0
 62
     6
  6
Dashed
370
    25
390
F
347
46
348
0
  0
LAYER
  5
A8
330
2
100
AcDbSymbolTableRecord
100
AcDbLayerTableRecord
  2
AM_7
 70
     0
 62
     7
  6
Center
370
    25
390
F
347
46
348
0
  0
LAYER
  5
AB
330
2
100
AcDbSymbolTableRecord
100
AcDbLayerTableRecord
  2
AM_4
 70
     0
 62
     7
  6
Continuous
370
    50
390
F
347
46
348
0
  0
LAYER
  5
DD
330
2
100
AcDbSymbolTableRecord
100
AcDbLayerTableRecord
  2
AM_5
 70
     0
 62
     3
  6
Continuous
370
    25
390
F
347
46
348
0
  0
LAYER
  5
1F1
330
2
100
AcDbSymbolTableRecord
100
AcDbLayerTableRecord
  2
ConnectionPoints
 70
     0
 62
     7
  6
Continuous
370
    50
390
F
347
46
348
0
  0
ENDTAB
  0
TABLE
  2
STYLE
  5
3
330
0
100
AcDbSymbolTable
 70
     1
  0
STYLE
  5
11
330
3
100
AcDbSymbolTableRecord
100
AcDbTextStyleTableRecord
  2
Standard
 70
     0
 40
0.0
 41
1.0
 50
0.0
 71
     0
 42
0.2
  3
txt
  4

  0
ENDTAB
  0
TABLE
  2
VIEW
  5
6
330
0
100
AcDbSymbolTable
 70
     0
  0
ENDTAB
  0
TABLE
  2
UCS
  5
7
330
0
100
AcDbSymbolTable
 70
     0
  0
ENDTAB
  0
TABLE
  2
APPID
  5
9
330
0
100
AcDbSymbolTable
 70
     1
  0
APPID
  5
12
330
9
100
AcDbSymbolTableRecord
100
AcDbRegAppTableRecord
  2
ACAD
 70
     0
  0
ENDTAB
  0
TABLE
  2
DIMSTYLE
  5
A
330
0
100
AcDbSymbolTable
 70
     1
100
AcDbDimStyleTable
  0
DIMSTYLE
105
27
330
A
100
AcDbSymbolTableRecord
100
AcDbDimStyleTableRecord
  2
Standard
 70
     0
178
     0
340
11
  0
ENDTAB
  0
TABLE
  2
BLOCK_RECORD
  5
1
330
0
100
AcDbSymbolTable
 70
     5
  0
BLOCK_RECORD
  5
1F
330
1
100
AcDbSymbolTableRecord
100
AcDbBlockTableRecord
  2
*Model_Space
340
22
 70
     0
280
     1
281
     0
  0
BLOCK_RECORD
  5
1B
330
1
100
AcDbSymbolTableRecord
100
AcDbBlockTableRecord
  2
*Paper_Space
340
1E
 70
     0
280
     1
281
     0
  0
BLOCK_RECORD
  5
23
330
1
100
AcDbSymbolTableRecord
100
AcDbBlockTableRecord
  2
*Paper_Space0
340
26
 70
     0
280
     1
281
     0
  0
BLOCK_RECORD
  5
6E
330
1
100
AcDbSymbolTableRecord
100
AcDbBlockTableRecord
  2
1_129249_0
340
0
102
{BLKREFS
331
6F
102
}
 70
     0
280
     1
281
     0
  0
BLOCK_RECORD
  5
8B
330
1
100
AcDbSymbolTableRecord
100
AcDbBlockTableRecord
  2
2_INS_GT_06_CRI_0_in_129249_0
340
0
102
{BLKREFS
331
8C
102
}
 70
     0
280
     1
281
     0
  0
BLOCK_RECORD
  5
B3
330
1
100
AcDbSymbolTableRecord
100
AcDbBlockTableRecord
  2
3_AN_GT_06_104S_CR_0_in_129249_0
340
0
102
{BLKREFS
331
B4
102
}
 70
     0
280
     1
281
     0
  0
BLOCK_RECORD
  5
F6
330
1
100
AcDbSymbolTableRecord
100
AcDbBlockTableRecord
  2
4_P2B_GTUEZ_06_PCRI_0_in_129249_0
340
0
102
{BLKREFS
331
F7
102
}
 70
     0
280
     1
281
     0
  0
ENDTAB
  0
ENDSEC
  0
SECTION
  2
BLOCKS
  0
BLOCK
  5
20
330
1F
100
AcDbEntity
  8
0
100
AcDbBlockBegin
  2
*Model_Space
 70
     0
 10
0.0
 20
0.0
 30
0.0
  3
*Model_Space
  1

  0
ENDBLK
  5
21
330
1F
100
AcDbEntity
  8
0
100
AcDbBlockEnd
  0
BLOCK
  5
1C
330
1B
100
AcDbEntity
 67
     1
  8
0
100
AcDbBlockBegin
  2
*Paper_Space
 70
     0
 10
0.0
 20
0.0
 30
0.0
  3
*Paper_Space
  1

  0
ENDBLK
  5
1D
330
1B
100
AcDbEntity
 67
     1
  8
0
100
AcDbBlockEnd
  0
BLOCK
  5
24
330
23
100
AcDbEntity
  8
0
100
AcDbBlockBegin
  2
*Paper_Space0
 70
     0
 10
0.0
 20
0.0
 30
0.0
  3
*Paper_Space0
  1

  0
ENDBLK
  5
25
330
23
100
AcDbEntity
  8
0
100
AcDbBlockEnd
  0
BLOCK
  5
70
330
6E
100
AcDbEntity
  8
0
100
AcDbBlockBegin
  2
1_129249_0
 70
     2
 10
0.0
 20
0.0
 30
0.0
  3
1_129249_0
  1

  0
ATTDEF
  5
73
330
6E
100
AcDbEntity
  8
AM_6
100
AcDbText
 10
8.1565
 20
2.5262
 30
0.0
 40
0.5
  1
Grip Tight Two-Bolt Pillow Block - Polymer Housing, Corrision Resistant Insert Inch Bore
100
AcDbAttributeDefinition
  3

  2
NN
 70
     8
280
     0
  0
ATTDEF
  5
74
330
6E
100
AcDbEntity
  8
AM_6
100
AcDbText
 10
8.1565
 20
2.0262
 30
0.0
 40
0.5
  1
GTEZ Normal Duty Polymer Housed Pillow Blocks
100
AcDbAttributeDefinition
  3

  2
NT
 70
     8
280
     0
  0
ATTDEF
  5
75
330
6E
100
AcDbEntity
  8
AM_6
100
AcDbText
 10
8.1565
 20
1.5262
 30
0.0
 40
0.5
  1
129249
100
AcDbAttributeDefinition
  3

  2
NB
 70
     8
280
     0
  0
ATTDEF
  5
76
330
6E
100
AcDbEntity
  8
AM_6
100
AcDbText
 10
8.1565
 20
1.0262
 30
0.0
 40
0.5
  1
$PN.$LUBE.
100
AcDbAttributeDefinition
  3

  2
NBSYN
 70
     8
280
     0
  0
ATTDEF
  5
77
330
6E
100
AcDbEntity
  8
AM_6
100
AcDbText
 10
8.1565
 20
0.5262000000000002
 30
0.0
 40
0.5
  1
129249
100
AcDbAttributeDefinition
  3

  2
LINA
 70
     8
280
     0
  0
ATTDEF
  5
78
330
6E
100
AcDbEntity
  8
AM_6
100
AcDbText
 10
8.1565
 20
0.0262000000000002
 30
0.0
 40
0.5
  1
206
100
AcDbAttributeDefinition
  3

  2
SERIES
 70
     8
280
     0
  0
ATTDEF
  5
79
330
6E
100
AcDbEntity
  8
AM_6
100
AcDbText
 10
8.1565
 20
-0.4737999999999998
 30
0.0
 40
0.5
  1
1-1/4
100
AcDbAttributeDefinition
  3

  2
SS
 70
     8
280
     0
  0
ATTDEF
  5
7A
330
6E
100
AcDbEntity
  8
AM_6
100
AcDbText
 10
8.1565
 20
-0.9737999999999998
 30
0.0
 40
0.5
  1
129249
100
AcDbAttributeDefinition
  3

  2
PN
 70
     8
280
     0
  0
ATTDEF
  5
7B
330
6E
100
AcDbEntity
  8
AM_6
100
AcDbText
 10
8.1565
 20
-1.4738
 30
0.0
 40
0.5
  1
P2B-GTUEZ-104S-PCR
100
AcDbAttributeDefinition
  3

  2
DESCRIPTION
 70
     8
280
     0
  0
ATTDEF
  5
7C
330
6E
100
AcDbEntity
  8
AM_6
100
AcDbText
 10
8.1565
 20
-1.9738
 30
0.0
 40
0.5
  1
1-39/64
100
AcDbAttributeDefinition
  3

  2
A
 70
     8
280
     0
  0
ATTDEF
  5
7D
330
6E
100
AcDbEntity
  8
AM_6
100
AcDbText
 10
8.1565
 20
-2.4738
 30
0.0
 40
0.5
  1
6-5/16
100
AcDbAttributeDefinition
  3

  2
B
 70
     8
280
     0
  0
ATTDEF
  5
7E
330
6E
100
AcDbEntity
  8
AM_6
100
AcDbText
 10
8.1565
 20
-2.9738
 30
0.0
 40
0.5
  1
1-25/32
100
AcDbAttributeDefinition
  3

  2
C
 70
     8
280
     0
  0
ATTDEF
  5
7F
330
6E
100
AcDbEntity
  8
AM_6
100
AcDbText
 10
8.1565
 20
-3.4738
 30
0.0
 40
0.5
  1
4-39/64
100
AcDbAttributeDefinition
  3

  2
DMIN
 70
     8
280
     0
  0
ATTDEF
  5
80
330
6E
100
AcDbEntity
  8
AM_6
100
AcDbText
 10
8.1565
 20
-3.9738
 30
0.0
 40
0.5
  1
4-57/64
100
AcDbAttributeDefinition
  3

  2
DMAX
 70
     8
280
     0
  0
ATTDEF
  5
81
330
6E
100
AcDbEntity
  8
AM_6
100
AcDbText
 10
8.1565
 20
-4.4738
 30
0.0
 40
0.5
  1
1/2
100
AcDbAttributeDefinition
  3

  2
F
 70
     8
280
     0
  0
ATTDEF
  5
82
330
6E
100
AcDbEntity
  8
AM_6
100
AcDbText
 10
8.1565
 20
-4.9738
 30
0.0
 40
0.5
  1
23/32
100
AcDbAttributeDefinition
  3

  2
G
 70
     8
280
     0
  0
ATTDEF
  5
83
330
6E
100
AcDbEntity
  8
AM_6
100
AcDbText
 10
8.1565
 20
-5.4738
 30
0.0
 40
0.5
  1
45/64
100
AcDbAttributeDefinition
  3

  2
H
 70
     8
280
     0
  0
ATTDEF
  5
84
330
6E
100
AcDbEntity
  8
AM_6
100
AcDbText
 10
8.1565
 20
-5.9738
 30
0.0
 40
0.5
  1
3-11/32
100
AcDbAttributeDefinition
  3

  2
J
 70
     8
280
     0
  0
ATTDEF
  5
85
330
6E
100
AcDbEntity
  8
AM_6
100
AcDbText
 10
8.1565
 20
-6.4738
 30
0.0
 40
0.5
  1
2
100
AcDbAttributeDefinition
  3

  2
L
 70
     8
280
     0
  0
ATTDEF
  5
86
330
6E
100
AcDbEntity
  8
AM_6
100
AcDbText
 10
8.1565
 20
-6.9738
 30
0.0
 40
0.5
  1
1-11/16
100
AcDbAttributeDefinition
  3

  2
M
 70
     8
280
     0
  0
ATTDEF
  5
87
330
6E
100
AcDbEntity
  8
AM_6
100
AcDbText
 10
8.1565
 20
-7.4738
 30
0.0
 40
0.5
  1
17/32
100
AcDbAttributeDefinition
  3

  2
R
 70
     8
280
     0
  0
ATTDEF
  5
88
330
6E
100
AcDbEntity
  8
AM_6
100
AcDbText
 10
8.1565
 20
-7.9738
 30
0.0
 40
0.5
  1
1-5/64
100
AcDbAttributeDefinition
  3

  2
S
 70
     8
280
     0
  0
ATTDEF
  5
89
330
6E
100
AcDbEntity
  8
AM_6
100
AcDbText
 10
8.1565
 20
-8.4738
 30
0.0
 40
0.5
  1
1-1/32
100
AcDbAttributeDefinition
  3

  2
Z
 70
     8
280
     0
  0
ATTDEF
  5
8A
330
6E
100
AcDbEntity
  8
AM_6
100
AcDbText
 10
8.1565
 20
-8.9738
 30
0.0
 40
0.5
  1
baldor
100
AcDbAttributeDefinition
  3

  2
COMPANY
 70
     8
280
     0
  0
INSERT
  5
8C
330
6E
100
AcDbEntity
  8
0
100
AcDbBlockReference
  2
2_INS_GT_06_CRI_0_in_129249_0
 10
0.0
 20
0.0
 30
0.0
  0
INSERT
  5
B4
330
6E
100
AcDbEntity
  8
0
100
AcDbBlockReference
  2
3_AN_GT_06_104S_CR_0_in_129249_0
 10
0.0
 20
0.0
 30
0.0
  0
INSERT
  5
F7
330
6E
100
AcDbEntity
  8
0
100
AcDbBlockReference
  2
4_P2B_GTUEZ_06_PCRI_0_in_129249_0
 10
0.0
 20
0.0
 30
0.0
  0
ENDBLK
  5
71
330
6E
100
AcDbEntity
  8
0
100
AcDbBlockEnd
  0
BLOCK
  5
8D
330
8B
100
AcDbEntity
  8
0
100
AcDbBlockBegin
  2
2_INS_GT_06_CRI_0_in_129249_0
 70
     2
 10
0.0
 20
0.0
 30
0.0
  3
2_INS_GT_06_CRI_0_in_129249_0
  1

  0
ATTDEF
  5
8F
330
8B
100
AcDbEntity
  8
AM_6
100
AcDbText
 10
6.2814725
 20
1.2814725
 30
0.0
 40
0.5
  1
INS-GT-CR-I
100
AcDbAttributeDefinition
  3

  2
NN
 70
     8
280
     0
  0
ATTDEF
  5
90
330
8B
100
AcDbEntity
  8
AM_6
100
AcDbText
 10
6.2814725
 20
0.7814725
 30
0.0
 40
0.5
  1
GT Normal Duty Corrosion Resistant Bearing Inserts
100
AcDbAttributeDefinition
  3

  2
NT
 70
     8
280
     0
  0
ATTDEF
  5
91
330
8B
100
AcDbEntity
  8
AM_6
100
AcDbText
 10
6.2814725
 20
0.2814725
 30
0.0
 40
0.5
  1
INS-GT-06-CRI
100
AcDbAttributeDefinition
  3

  2
NB
 70
     8
280
     0
  0
ATTDEF
  5
92
330
8B
100
AcDbEntity
  8
AM_6
100
AcDbText
 10
6.2814725
 20
-0.2185275
 30
0.0
 40
0.5
  1
$PN.I
100
AcDbAttributeDefinition
  3

  2
NBSYN
 70
     8
280
     0
  0
ATTDEF
  5
93
330
8B
100
AcDbEntity
  8
AM_6
100
AcDbText
 10
6.2814725
 20
-0.7185275
 30
0.0
 40
0.5
  1
INS-GT-06-CR
100
AcDbAttributeDefinition
  3

  2
LINA
 70
     8
280
     0
  0
ATTDEF
  5
94
330
8B
100
AcDbEntity
  8
AM_6
100
AcDbText
 10
6.2814725
 20
-1.2185275
 30
0.0
 40
0.5
  1
206
100
AcDbAttributeDefinition
  3

  2
SERIES
 70
     8
280
     0
  0
ATTDEF
  5
95
330
8B
100
AcDbEntity
  8
AM_6
100
AcDbText
 10
6.2814725
 20
-1.7185275
 30
0.0
 40
0.5
  1
INS-GT-06-CR
100
AcDbAttributeDefinition
  3

  2
PN
 70
     8
280
     0
  0
ATTDEF
  5
96
330
8B
100
AcDbEntity
  8
AM_6
100
AcDbText
 10
6.2814725
 20
-2.2185275
 30
0.0
 40
0.5
  1
INS-GT-06-CR
100
AcDbAttributeDefinition
  3

  2
DESCRIPTION
 70
     8
280
     0
  0
ATTDEF
  5
97
330
8B
100
AcDbEntity
  8
AM_6
100
AcDbText
 10
6.2814725
 20
-2.7185275
 30
0.0
 40
0.5
  1
1-39/64
100
AcDbAttributeDefinition
  3

  2
A
 70
     8
280
     0
  0
ATTDEF
  5
98
330
8B
100
AcDbEntity
  8
AM_6
100
AcDbText
 10
6.2814725
 20
-3.2185275
 30
0.0
 40
0.5
  1
0.7087
100
AcDbAttributeDefinition
  3

  2
C
 70
     8
280
     0
  0
ATTDEF
  5
99
330
8B
100
AcDbEntity
  8
AM_6
100
AcDbText
 10
6.2814725
 20
-3.7185275
 30
0.0
 40
0.5
  1
2.4409
100
AcDbAttributeDefinition
  3

  2
D
 70
     8
280
     0
  0
ATTDEF
  5
9A
330
8B
100
AcDbEntity
  8
AM_6
100
AcDbText
 10
6.2814725
 20
-4.2185275
 30
0.0
 40
0.5
  1
0.190
100
AcDbAttributeDefinition
  3

  2
J
 70
     8
280
     0
  0
ATTDEF
  5
9B
330
8B
100
AcDbEntity
  8
AM_6
100
AcDbText
 10
6.2814725
 20
-4.7185275
 30
0.0
 40
0.5
  1
2
100
AcDbAttributeDefinition
  3

  2
L
 70
     8
280
     0
  0
ATTDEF
  5
9C
330
8B
100
AcDbEntity
  8
AM_6
100
AcDbText
 10
6.2814725
 20
-5.2185275
 30
0.0
 40
0.5
  1
10 - 32 x 1/4
100
AcDbAttributeDefinition
  3

  2
N
 70
     8
280
     0
  0
ATTDEF
  5
9D
330
8B
100
AcDbEntity
  8
AM_6
100
AcDbText
 10
6.2814725
 20
-5.7185275
 30
0.0
 40
0.5
  1
17/32
100
AcDbAttributeDefinition
  3

  2
W
 70
     8
280
     0
  0
ATTDEF
  5
9E
330
8B
100
AcDbEntity
  8
AM_6
100
AcDbText
 10
6.2814725
 20
-6.2185275
 30
0.0
 40
0.5
  1
1-1/32
100
AcDbAttributeDefinition
  3

  2
X
 70
     8
280
     0
  0
ATTDEF
  5
9F
330
8B
100
AcDbEntity
  8
AM_6
100
AcDbText
 10
6.2814725
 20
-6.7185275
 30
0.0
 40
0.5
  1
1-5/64
100
AcDbAttributeDefinition
  3

  2
Y
 70
     8
280
     0
  0
ATTDEF
  5
A0
330
8B
100
AcDbEntity
  8
AM_6
100
AcDbText
 10
6.2814725
 20
-7.2185275
 30
0.0
 40
0.5
  1
baldor
100
AcDbAttributeDefinition
  3

  2
COMPANY
 70
     8
280
     0
  0
CIRCLE
  5
A3
330
8B
100
AcDbEntity
  8
AM_9
100
AcDbCircle
 10
0.0
 20
0.0
 30
0.0
 40
0.7762326752613241
  0
CIRCLE
  5
A4
330
8B
100
AcDbEntity
  8
AM_9
100
AcDbCircle
 10
0.0
 20
0.0
 30
0.0
 40
1.14958
  0
CIRCLE
  5
A5
330
8B
100
AcDbEntity
  8
AM_9
100
AcDbCircle
 10
0.0
 20
0.0
 30
0.0
 40
1.18262050129021
  0
CIRCLE
  5
A6
330
8B
100
AcDbEntity
  8
AM_9
100
AcDbCircle
 10
0.0
 20
0.0
 30
0.0
 40
0.8605408888888888
  0
LINE
  5
A9
330
8B
100
AcDbEntity
  8
AM_7
100
AcDbLine
 10
-1.2814725
 20
0.0
 30
0.0
 11
1.2814725
 21
0.0
 31
0.0
  0
LINE
  5
AA
330
8B
100
AcDbEntity
  8
AM_7
100
AcDbLine
 10
0.0
 20
-1.2814725
 30
0.0
 11
0.0
 21
1.2814725
 31
0.0
  0
CIRCLE
  5
AC
330
8B
100
AcDbEntity
  8
AM_4
100
AcDbCircle
 10
0.0
 20
0.0
 30
0.0
 40
1.22045
  0
CIRCLE
  5
AD
330
8B
100
AcDbEntity
  8
AM_4
100
AcDbCircle
 10
0.0
 20
0.0
 30
0.0
 40
1.201804896935735
  0
CIRCLE
  5
AE
330
8B
100
AcDbEntity
  8
AM_4
100
AcDbCircle
 10
0.0
 20
0.0
 30
0.0
 40
1.208802299237562
  0
CIRCLE
  5
AF
330
8B
100
AcDbEntity
  8
AM_4
100
AcDbCircle
 10
0.0
 20
0.0
 30
0.0
 40
1.189469187752788
  0
CIRCLE
  5
B0
330
8B
100
AcDbEntity
  8
AM_4
100
AcDbCircle
 10
0.0
 20
0.0
 30
0.0
 40
1.130466548018286
  0
CIRCLE
  5
B1
330
8B
100
AcDbEntity
  8
AM_4
100
AcDbCircle
 10
0.0
 20
0.0
 30
0.0
 40
1.156857867002994
  0
ARC
  5
B2
330
8B
100
AcDbEntity
  8
AM_4
100
AcDbCircle
 10
0.0
 20
0.0000000000000592
 30
0.0
 40
0.7460316888888295
100
AcDbArc
 50
86.15708307481073
 51
93.84291692518927
  0
ENDBLK
  5
8E
330
8B
100
AcDbEntity
  8
0
100
AcDbBlockEnd
  0
BLOCK
  5
B5
330
B3
100
AcDbEntity
  8
0
100
AcDbBlockBegin
  2
3_AN_GT_06_104S_CR_0_in_129249_0
 70
     2
 10
0.0
 20
0.0
 30
0.0
  3
3_AN_GT_06_104S_CR_0_in_129249_0
  1

  0
ATTDEF
  5
B7
330
B3
100
AcDbEntity
  8
AM_6
100
AcDbText
 10
5.995477272467835
 20
0.9999907698236258
 30
0.0
 40
0.5
  1
Grip Tight Adapter and Nut - Corrosion Resistant Inch Bore
100
AcDbAttributeDefinition
  3

  2
NN
 70
     8
280
     0
  0
ATTDEF
  5
B8
330
B3
100
AcDbEntity
  8
AM_6
100
AcDbText
 10
5.995477272467835
 20
0.4999907698236258
 30
0.0
 40
0.5
  1
GT and GTM Adapter & Lock Nut Assemblies
100
AcDbAttributeDefinition
  3

  2
NT
 70
     8
280
     0
  0
ATTDEF
  5
B9
330
B3
100
AcDbEntity
  8
AM_6
100
AcDbText
 10
5.995477272467835
 20
-0.0000092301763742
 30
0.0
 40
0.5
  1
AN-GT-06-104S-CR
100
AcDbAttributeDefinition
  3

  2
NB
 70
     8
280
     0
  0
ATTDEF
  5
BA
330
B3
100
AcDbEntity
  8
AM_6
100
AcDbText
 10
5.995477272467835
 20
-0.5000092301763742
 30
0.0
 40
0.5
  1
$PN.
100
AcDbAttributeDefinition
  3

  2
NBSYN
 70
     8
280
     0
  0
ATTDEF
  5
BB
330
B3
100
AcDbEntity
  8
AM_6
100
AcDbText
 10
5.995477272467835
 20
-1.000009230176374
 30
0.0
 40
0.5
  1
AN-GT-06-104S-CR
100
AcDbAttributeDefinition
  3

  2
LINA
 70
     8
280
     0
  0
ATTDEF
  5
BC
330
B3
100
AcDbEntity
  8
AM_6
100
AcDbText
 10
5.995477272467835
 20
-1.500009230176374
 30
0.0
 40
0.5
  1
206
100
AcDbAttributeDefinition
  3

  2
SERIES
 70
     8
280
     0
  0
ATTDEF
  5
BD
330
B3
100
AcDbEntity
  8
AM_6
100
AcDbText
 10
5.995477272467835
 20
-2.000009230176374
 30
0.0
 40
0.5
  1
1-1/4
100
AcDbAttributeDefinition
  3

  2
SS
 70
     8
280
     0
  0
ATTDEF
  5
BE
330
B3
100
AcDbEntity
  8
AM_6
100
AcDbText
 10
5.995477272467835
 20
-2.500009230176374
 30
0.0
 40
0.5
  1
AN-GT-06-104S-CR
100
AcDbAttributeDefinition
  3

  2
PN
 70
     8
280
     0
  0
ATTDEF
  5
BF
330
B3
100
AcDbEntity
  8
AM_6
100
AcDbText
 10
5.995477272467835
 20
-3.000009230176374
 30
0.0
 40
0.5
  1
AN-GT-06-104S-CR
100
AcDbAttributeDefinition
  3

  2
DESCRIPTION
 70
     8
280
     0
  0
ATTDEF
  5
C0
330
B3
100
AcDbEntity
  8
AM_6
100
AcDbText
 10
5.995477272467835
 20
-3.500009230176374
 30
0.0
 40
0.5
  1
1-39/64
100
AcDbAttributeDefinition
  3

  2
A
 70
     8
280
     0
  0
ATTDEF
  5
C1
330
B3
100
AcDbEntity
  8
AM_6
100
AcDbText
 10
5.995477272467835
 20
-4.000009230176374
 30
0.0
 40
0.5
  1
0.7087
100
AcDbAttributeDefinition
  3

  2
C
 70
     8
280
     0
  0
ATTDEF
  5
C2
330
B3
100
AcDbEntity
  8
AM_6
100
AcDbText
 10
5.995477272467835
 20
-4.500009230176374
 30
0.0
 40
0.5
  1
2.4409
100
AcDbAttributeDefinition
  3

  2
D
 70
     8
280
     0
  0
ATTDEF
  5
C3
330
B3
100
AcDbEntity
  8
AM_6
100
AcDbText
 10
5.995477272467835
 20
-5.000009230176374
 30
0.0
 40
0.5
  1
0.190
100
AcDbAttributeDefinition
  3

  2
J
 70
     8
280
     0
  0
ATTDEF
  5
C4
330
B3
100
AcDbEntity
  8
AM_6
100
AcDbText
 10
5.995477272467835
 20
-5.500009230176374
 30
0.0
 40
0.5
  1
2
100
AcDbAttributeDefinition
  3

  2
L
 70
     8
280
     0
  0
ATTDEF
  5
C5
330
B3
100
AcDbEntity
  8
AM_6
100
AcDbText
 10
5.995477272467835
 20
-6.000009230176374
 30
0.0
 40
0.5
  1
10 - 32 x 1/4
100
AcDbAttributeDefinition
  3

  2
N
 70
     8
280
     0
  0
ATTDEF
  5
C6
330
B3
100
AcDbEntity
  8
AM_6
100
AcDbText
 10
5.995477272467835
 20
-6.500009230176374
 30
0.0
 40
0.5
  1
17/32
100
AcDbAttributeDefinition
  3

  2
W
 70
     8
280
     0
  0
ATTDEF
  5
C7
330
B3
100
AcDbEntity
  8
AM_6
100
AcDbText
 10
5.995477272467835
 20
-7.000009230176374
 30
0.0
 40
0.5
  1
1-1/32
100
AcDbAttributeDefinition
  3

  2
X
 70
     8
280
     0
  0
ATTDEF
  5
C8
330
B3
100
AcDbEntity
  8
AM_6
100
AcDbText
 10
5.995477272467835
 20
-7.500009230176374
 30
0.0
 40
0.5
  1
1-5/64
100
AcDbAttributeDefinition
  3

  2
Y
 70
     8
280
     0
  0
ATTDEF
  5
C9
330
B3
100
AcDbEntity
  8
AM_6
100
AcDbText
 10
5.995477272467835
 20
-8.000009230176374
 30
0.0
 40
0.5
  1
baldor
100
AcDbAttributeDefinition
  3

  2
COMPANY
 70
     8
280
     0
  0
LINE
  5
CA
330
B3
100
AcDbEntity
  8
AM_9
100
AcDbLine
 10
-0.05
 20
0.7460409281219607
 30
0.0
 11
-0.05
 21
0.7764797570067602
 31
0.0
  0
LINE
  5
CB
330
B3
100
AcDbEntity
  8
AM_9
100
AcDbLine
 10
0.05
 20
0.7460409281219607
 30
0.0
 11
0.05
 21
0.7764797570067602
 31
0.0
  0
ARC
  5
CC
330
B3
100
AcDbEntity
  8
AM_9
100
AcDbCircle
 10
0.0
 20
-0.0000000000000001
 30
0.0
 40
0.7780879211511238
100
AcDbArc
 50
93.68437061446721
 51
86.3156293855328
  0
CIRCLE
  5
CD
330
B3
100
AcDbEntity
  8
AM_9
100
AcDbCircle
 10
0.0
 20
0.0
 30
0.0
 40
0.8174603174603172
  0
CIRCLE
  5
CE
330
B3
100
AcDbEntity
  8
AM_9
100
AcDbCircle
 10
0.0
 20
0.0
 30
0.0
 40
0.8888888888888888
  0
LINE
  5
CF
330
B3
100
AcDbEntity
  8
AM_9
100
AcDbLine
 10
-0.983
 20
-0.078
 30
0.0
 11
-0.767
 21
-0.078
 31
0.0
  0
LINE
  5
D0
330
B3
100
AcDbEntity
  8
AM_9
100
AcDbLine
 10
-0.767
 20
0.078
 30
0.0
 11
-0.983
 21
0.078
 31
0.0
  0
LINE
  5
D1
330
B3
100
AcDbEntity
  8
AM_9
100
AcDbLine
 10
-0.767
 20
-0.078
 30
0.0
 11
-0.7499999999999999
 21
-0.0949999999999999
 31
0.0
  0
LINE
  5
D2
330
B3
100
AcDbEntity
  8
AM_9
100
AcDbLine
 10
-0.7499999999999999
 20
0.0949999999999999
 30
0.0
 11
-0.767
 21
0.078
 31
0.0
  0
LINE
  5
D3
330
B3
100
AcDbEntity
  8
AM_9
100
AcDbLine
 10
-0.7499999999999999
 20
0.0949999999999999
 30
0.0
 11
-0.7499999999999999
 21
-0.0949999999999999
 31
0.0
  0
LINE
  5
D4
330
B3
100
AcDbEntity
  8
AM_9
100
AcDbLine
 10
-0.767
 20
0.078
 30
0.0
 11
-0.767
 21
-0.078
 31
0.0
  0
LINE
  5
D5
330
B3
100
AcDbEntity
  8
AM_9
100
AcDbLine
 10
-0.983
 20
0.078
 30
0.0
 11
-0.9957299183302447
 21
0.0907299183302447
 31
0.0
  0
LINE
  5
D6
330
B3
100
AcDbEntity
  8
AM_9
100
AcDbLine
 10
-0.9957274875080059
 20
-0.0907274875080057
 30
0.0
 11
-0.983
 21
-0.078
 31
0.0
  0
LINE
  5
D7
330
B3
100
AcDbEntity
  8
AM_9
100
AcDbLine
 10
-0.983
 20
0.078
 30
0.0
 11
-0.983
 21
-0.078
 31
0.0
  0
LINE
  5
D8
330
B3
100
AcDbEntity
  8
AM_9
100
AcDbLine
 10
-0.9960900346392464
 20
0.0883438899550209
 30
0.0
 11
-0.9958633683061173
 21
0.0908633681193612
 31
0.0
  0
LWPOLYLINE
  5
D9
330
B3
100
AcDbEntity
  8
AM_9
100
AcDbPolyline
 90
        9
 70
     0
 43
0.0
 10
-0.9998782650682273
 20
0.0156030459895414
 10
-0.999830212438795
 20
0.0184267819923659
 10
-0.9994685472898437
 20
0.0325978983728889
 10
-0.9989627533566973
 20
0.0455347933563623
 10
-0.9983417104400577
 20
0.0575658683216009
 10
-0.9976786283390863
 20
0.068098124463449
 10
-0.9970295411275498
 20
0.0770200890611481
 10
-0.9964716861551616
 20
0.0839296055697218
 10
-0.9960900346392464
 20
0.0883438899550209
  0
LINE
  5
DA
330
B3
100
AcDbEntity
  8
AM_9
100
AcDbLine
 10
-0.9997702014394092
 20
-0.0214369847180937
 30
0.0
 11
-0.9998797509629741
 21
-0.0155075341115525
 31
0.0
  0
LWPOLYLINE
  5
DB
330
B3
100
AcDbEntity
  8
AM_9
100
AcDbPolyline
 90
        8
 70
     0
 43
0.0
 10
-0.9961029955195749
 20
-0.0881976321503579
 10
-0.9965156882220763
 20
-0.0834055341526079
 10
-0.997135870118619
 20
-0.0756310552801185
 10
-0.9978296891775725
 20
-0.065847637738867
 10
-0.9985619358876295
 20
-0.0536102620432863
 10
-0.9991794609318269
 20
-0.0405019117077695
 10
-0.9996705139227675
 20
-0.0256683383449345
 10
-0.9997702014394092
 20
-0.0214369847180937
  0
LINE
  5
DC
330
B3
100
AcDbEntity
  8
AM_9
100
AcDbLine
 10
-0.9958633683008626
 20
-0.0908633681769522
 30
0.0
 11
-0.9961029955195749
 21
-0.0881976321503579
 31
0.0
  0
LINE
  5
DE
330
B3
100
AcDbEntity
  8
AM_5
100
AcDbLine
 10
-0.9954772724678349
 20
-0.0949999999999999
 30
0.0
 11
-0.7499999999999999
 21
-0.0949999999999999
 31
0.0
  0
LINE
  5
DF
330
B3
100
AcDbEntity
  8
AM_5
100
AcDbLine
 10
-0.9954772724678349
 20
0.0950000000000001
 30
0.0
 11
-0.7499999999999999
 21
0.0950000000000001
 31
0.0
  0
LINE
  5
E0
330
B3
100
AcDbEntity
  8
AM_4
100
AcDbLine
 10
-0.3843941686403093
 20
0.8557902302182141
 30
0.0
 11
-0.4154662228743962
 21
0.9096086068471881
 31
0.0
  0
LINE
  5
E1
330
B3
100
AcDbEntity
  8
AM_4
100
AcDbLine
 10
0.9954772724678349
 20
0.095
 30
0.0
 11
0.9333331639996614
 21
0.095
 31
0.0
  0
ARC
  5
E2
330
B3
100
AcDbEntity
  8
AM_4
100
AcDbCircle
 10
0.0
 20
0.0
 30
0.0
 40
1.0
100
AcDbArc
 50
5.45131981241778
 51
114.5486801875822
  0
LINE
  5
E3
330
B3
100
AcDbEntity
  8
AM_4
100
AcDbLine
 10
-0.4154662228743956
 20
-0.9096086068471885
 30
0.0
 11
-0.3843941686403087
 21
-0.8557902302182143
 31
0.0
  0
LINE
  5
E4
330
B3
100
AcDbEntity
  8
AM_4
100
AcDbLine
 10
0.9333331639996614
 20
-0.095
 30
0.0
 11
0.9954772724678349
 21
-0.095
 31
0.0
  0
ARC
  5
E5
330
B3
100
AcDbEntity
  8
AM_4
100
AcDbCircle
 10
0.0
 20
0.0
 30
0.0
 40
1.0
100
AcDbArc
 50
245.4513198124178
 51
354.5486801875822
  0
LINE
  5
E6
330
B3
100
AcDbEntity
  8
AM_4
100
AcDbLine
 10
-0.5800110495934396
 20
0.8146086068471882
 30
0.0
 11
-0.5489389953593525
 21
0.7607902302182141
 31
0.0
  0
LINE
  5
E7
330
B3
100
AcDbEntity
  8
AM_4
100
AcDbLine
 10
-0.5489389953593522
 20
-0.7607902302182145
 30
0.0
 11
-0.580011049593439
 21
-0.8146086068471885
 31
0.0
  0
ARC
  5
E8
330
B3
100
AcDbEntity
  8
AM_4
100
AcDbCircle
 10
0.0000000000000022
 20
-0.000000000000001
 30
0.0
 40
1.000000000000002
100
AcDbArc
 50
125.4513198124179
 51
179.0906600083975
  0
LWPOLYLINE
  5
E9
330
B3
100
AcDbEntity
  8
AM_4
100
AcDbPolyline
 90
        3
 70
     0
 43
0.0
 10
-0.9998740586901644
 20
0.0158703105973887
 10
-0.9992686643621445
 20
0.0001136691529531
 10
-0.9998740586901644
 20
-0.0158703105973891
  0
ARC
  5
EA
330
B3
100
AcDbEntity
  8
AM_4
100
AcDbCircle
 10
0.0000000000000012
 20
0.0000000000000005
 30
0.0
 40
1.000000000000001
100
AcDbArc
 50
180.9093399916021
 51
234.5486801875822
  0
LINE
  5
EB
330
B3
100
AcDbEntity
  8
AM_4
100
AcDbLine
 10
-0.05
 20
0.6229967897188556
 30
0.0
 11
-0.05
 21
0.7460317460317459
 31
0.0
  0
LINE
  5
EC
330
B3
100
AcDbEntity
  8
AM_4
100
AcDbLine
 10
0.05
 20
0.6229967897188556
 30
0.0
 11
0.05
 21
0.7460317460317459
 31
0.0
  0
LINE
  5
ED
330
B3
100
AcDbEntity
  8
AM_4
100
AcDbLine
 10
-0.05
 20
0.7460317460317459
 30
0.0
 11
0.05
 21
0.7460317460317459
 31
0.0
  0
LINE
  5
EE
330
B3
100
AcDbEntity
  8
AM_4
100
AcDbLine
 10
0.9333331639996614
 20
0.095
 30
0.0
 11
0.9333331639996614
 21
-0.095
 31
0.0
  0
ARC
  5
EF
330
B3
100
AcDbEntity
  8
AM_4
100
AcDbCircle
 10
-0.0000000000000002
 20
0.0
 30
0.0
 40
0.9716520000000002
100
AcDbArc
 50
5.610865412998182
 51
114.3891345870018
  0
LINE
  5
F0
330
B3
100
AcDbEntity
  8
AM_4
100
AcDbLine
 10
-0.5489389953593525
 20
0.7607902302182141
 30
0.0
 11
-0.3843941686403093
 21
0.8557902302182141
 31
0.0
  0
ARC
  5
F1
330
B3
100
AcDbEntity
  8
AM_4
100
AcDbCircle
 10
0.0000000000000002
 20
-0.0000000000000001
 30
0.0
 40
0.9716520000000003
100
AcDbArc
 50
125.6108654129982
 51
234.3891345870018
  0
LINE
  5
F2
330
B3
100
AcDbEntity
  8
AM_4
100
AcDbLine
 10
-0.3843941686403087
 20
-0.8557902302182143
 30
0.0
 11
-0.5489389953593522
 21
-0.7607902302182145
 31
0.0
  0
ARC
  5
F3
330
B3
100
AcDbEntity
  8
AM_4
100
AcDbCircle
 10
-0.0000000000000002
 20
0.0000000000000003
 30
0.0
 40
0.9716520000000002
100
AcDbArc
 50
245.6108654129982
 51
354.3891345870018
  0
ARC
  5
F4
330
B3
100
AcDbEntity
  8
AM_4
100
AcDbCircle
 10
0.0
 20
0.0000000000000001
 30
0.0
 40
0.7460317460317459
100
AcDbArc
 50
93.84291692518897
 51
86.15708307481106
  0
ARC
  5
F5
330
B3
100
AcDbEntity
  8
AM_4
100
AcDbCircle
 10
0.0
 20
0.0000000000000001
 30
0.0
 40
0.6249999999999999
100
AcDbArc
 50
94.58856573578582
 51
85.41143426421417
  0
ENDBLK
  5
B6
330
B3
100
AcDbEntity
  8
0
100
AcDbBlockEnd
  0
BLOCK
  5
F8
330
F6
100
AcDbEntity
  8
0
100
AcDbBlockBegin
  2
4_P2B_GTUEZ_06_PCRI_0_in_129249_0
 70
     2
 10
0.0
 20
0.0
 30
0.0
  3
4_P2B_GTUEZ_06_PCRI_0_in_129249_0
  1

  0
ATTDEF
  5
FA
330
F6
100
AcDbEntity
  8
AM_6
100
AcDbText
 10
8.1565
 20
2.5262
 30
0.0
 40
0.5
  1
P2B-GTEZ-PCR-I
100
AcDbAttributeDefinition
  3

  2
NN
 70
     8
280
     0
  0
ATTDEF
  5
FB
330
F6
100
AcDbEntity
  8
AM_6
100
AcDbText
 10
8.1565
 20
2.0262
 30
0.0
 40
0.5
  1
GTEZ Normal Duty Polymer Housed Pillow Blocks
100
AcDbAttributeDefinition
  3

  2
NT
 70
     8
280
     0
  0
ATTDEF
  5
FC
330
F6
100
AcDbEntity
  8
AM_6
100
AcDbText
 10
8.1565
 20
1.5262
 30
0.0
 40
0.5
  1
P2B-GTUEZ-06-PCRI
100
AcDbAttributeDefinition
  3

  2
NB
 70
     8
280
     0
  0
ATTDEF
  5
FD
330
F6
100
AcDbEntity
  8
AM_6
100
AcDbText
 10
8.1565
 20
1.0262
 30
0.0
 40
0.5
  1
$PN.$LUBE.I
100
AcDbAttributeDefinition
  3

  2
NBSYN
 70
     8
280
     0
  0
ATTDEF
  5
FE
330
F6
100
AcDbEntity
  8
AM_6
100
AcDbText
 10
8.1565
 20
0.5262000000000002
 30
0.0
 40
0.5
  1
P2B-GTUEZ-06-PCR
100
AcDbAttributeDefinition
  3

  2
LINA
 70
     8
280
     0
  0
ATTDEF
  5
FF
330
F6
100
AcDbEntity
  8
AM_6
100
AcDbText
 10
8.1565
 20
0.0262000000000002
 30
0.0
 40
0.5
  1
206
100
AcDbAttributeDefinition
  3

  2
SERIES
 70
     8
280
     0
  0
ATTDEF
  5
100
330
F6
100
AcDbEntity
  8
AM_6
100
AcDbText
 10
8.1565
 20
-0.4737999999999998
 30
0.0
 40
0.5
  1
P2B-GTUEZ-06-PCR
100
AcDbAttributeDefinition
  3

  2
PN
 70
     8
280
     0
  0
ATTDEF
  5
101
330
F6
100
AcDbEntity
  8
AM_6
100
AcDbText
 10
8.1565
 20
-0.9737999999999998
 30
0.0
 40
0.5
  1
P2B-GTUEZ-06-PCR
100
AcDbAttributeDefinition
  3

  2
DESCRIPTION
 70
     8
280
     0
  0
ATTDEF
  5
102
330
F6
100
AcDbEntity
  8
AM_6
100
AcDbText
 10
8.1565
 20
-1.4738
 30
0.0
 40
0.5
  1
With Lube
100
AcDbAttributeDefinition
  3

  2
LUBE
 70
     8
280
     0
  0
ATTDEF
  5
103
330
F6
100
AcDbEntity
  8
AM_6
100
AcDbText
 10
8.1565
 20
-1.9738
 30
0.0
 40
0.5
  1
2.441
100
AcDbAttributeDefinition
  3

  2
BOD
 70
     8
280
     0
  0
ATTDEF
  5
104
330
F6
100
AcDbEntity
  8
AM_6
100
AcDbText
 10
8.1565
 20
-2.4738
 30
0.0
 40
0.5
  1
1-39/64
100
AcDbAttributeDefinition
  3

  2
A
 70
     8
280
     0
  0
ATTDEF
  5
105
330
F6
100
AcDbEntity
  8
AM_6
100
AcDbText
 10
8.1565
 20
-2.9738
 30
0.0
 40
0.5
  1
6-5/16
100
AcDbAttributeDefinition
  3

  2
B
 70
     8
280
     0
  0
ATTDEF
  5
106
330
F6
100
AcDbEntity
  8
AM_6
100
AcDbText
 10
8.1565
 20
-3.4738
 30
0.0
 40
0.5
  1
1-25/32
100
AcDbAttributeDefinition
  3

  2
C
 70
     8
280
     0
  0
ATTDEF
  5
107
330
F6
100
AcDbEntity
  8
AM_6
100
AcDbText
 10
8.1565
 20
-3.9738
 30
0.0
 40
0.5
  1
4-39/64
100
AcDbAttributeDefinition
  3

  2
DMIN
 70
     8
280
     0
  0
ATTDEF
  5
108
330
F6
100
AcDbEntity
  8
AM_6
100
AcDbText
 10
8.1565
 20
-4.4738
 30
0.0
 40
0.5
  1
4-57/64
100
AcDbAttributeDefinition
  3

  2
DMAX
 70
     8
280
     0
  0
ATTDEF
  5
109
330
F6
100
AcDbEntity
  8
AM_6
100
AcDbText
 10
8.1565
 20
-4.9738
 30
0.0
 40
0.5
  1
1/2
100
AcDbAttributeDefinition
  3

  2
F
 70
     8
280
     0
  0
ATTDEF
  5
10A
330
F6
100
AcDbEntity
  8
AM_6
100
AcDbText
 10
8.1565
 20
-5.4738
 30
0.0
 40
0.5
  1
23/32
100
AcDbAttributeDefinition
  3

  2
G
 70
     8
280
     0
  0
ATTDEF
  5
10B
330
F6
100
AcDbEntity
  8
AM_6
100
AcDbText
 10
8.1565
 20
-5.9738
 30
0.0
 40
0.5
  1
45/64
100
AcDbAttributeDefinition
  3

  2
H
 70
     8
280
     0
  0
ATTDEF
  5
10C
330
F6
100
AcDbEntity
  8
AM_6
100
AcDbText
 10
8.1565
 20
-6.4738
 30
0.0
 40
0.5
  1
3-11/32
100
AcDbAttributeDefinition
  3

  2
J
 70
     8
280
     0
  0
ATTDEF
  5
10D
330
F6
100
AcDbEntity
  8
AM_6
100
AcDbText
 10
8.1565
 20
-6.9738
 30
0.0
 40
0.5
  1
2
100
AcDbAttributeDefinition
  3

  2
L
 70
     8
280
     0
  0
ATTDEF
  5
10E
330
F6
100
AcDbEntity
  8
AM_6
100
AcDbText
 10
8.1565
 20
-7.4738
 30
0.0
 40
0.5
  1
1-11/16
100
AcDbAttributeDefinition
  3

  2
M
 70
     8
280
     0
  0
ATTDEF
  5
10F
330
F6
100
AcDbEntity
  8
AM_6
100
AcDbText
 10
8.1565
 20
-7.9738
 30
0.0
 40
0.5
  1
17/32
100
AcDbAttributeDefinition
  3

  2
R
 70
     8
280
     0
  0
ATTDEF
  5
110
330
F6
100
AcDbEntity
  8
AM_6
100
AcDbText
 10
8.1565
 20
-8.4738
 30
0.0
 40
0.5
  1
1-5/64
100
AcDbAttributeDefinition
  3

  2
S
 70
     8
280
     0
  0
ATTDEF
  5
111
330
F6
100
AcDbEntity
  8
AM_6
100
AcDbText
 10
8.1565
 20
-8.9738
 30
0.0
 40
0.5
  1
1-1/32
100
AcDbAttributeDefinition
  3

  2
Z
 70
     8
280
     0
  0
ATTDEF
  5
112
330
F6
100
AcDbEntity
  8
AM_6
100
AcDbText
 10
8.1565
 20
-9.4738
 30
0.0
 40
0.5
  1
baldor
100
AcDbAttributeDefinition
  3

  2
COMPANY
 70
     8
280
     0
  0
LINE
  5
113
330
F6
100
AcDbEntity
  8
AM_9
100
AcDbLine
 10
2.4455
 20
-0.9849999999999999
 30
0.0
 11
2.4455
 21
-1.688
 31
0.0
  0
LINE
  5
114
330
F6
100
AcDbEntity
  8
AM_9
100
AcDbLine
 10
2.7345
 20
-1.688
 30
0.0
 11
2.7345
 21
-0.9849999999999999
 31
0.0
  0
LINE
  5
115
330
F6
100
AcDbEntity
  8
AM_9
100
AcDbLine
 10
2.3045
 20
-0.9849999999999999
 30
0.0
 11
2.3045
 21
-1.688
 31
0.0
  0
LINE
  5
116
330
F6
100
AcDbEntity
  8
AM_9
100
AcDbLine
 10
2.0155
 20
-0.9849999999999999
 30
0.0
 11
2.0155
 21
-1.688
 31
0.0
  0
LINE
  5
117
330
F6
100
AcDbEntity
  8
AM_9
100
AcDbLine
 10
-2.3045
 20
-0.985
 30
0.0
 11
-2.3045
 21
-1.688
 31
0.0
  0
LINE
  5
118
330
F6
100
AcDbEntity
  8
AM_9
100
AcDbLine
 10
-2.015499999999999
 20
-1.688
 30
0.0
 11
-2.015499999999999
 21
-0.985
 31
0.0
  0
LINE
  5
119
330
F6
100
AcDbEntity
  8
AM_9
100
AcDbLine
 10
-2.4455
 20
-0.985
 30
0.0
 11
-2.4455
 21
-1.688
 31
0.0
  0
LINE
  5
11A
330
F6
100
AcDbEntity
  8
AM_9
100
AcDbLine
 10
-2.7345
 20
-0.985
 30
0.0
 11
-2.7345
 21
-1.688
 31
0.0
  0
LINE
  5
11B
330
F6
100
AcDbEntity
  8
AM_9
100
AcDbLine
 10
1.5921
 20
0.578918096262775
 30
0.0
 11
1.5921
 21
-0.985
 31
0.0
  0
LINE
  5
11C
330
F6
100
AcDbEntity
  8
AM_9
100
AcDbLine
 10
-1.5921
 20
-0.985
 30
0.0
 11
-1.5921
 21
0.5789180962627778
 31
0.0
  0
LINE
  5
11D
330
F6
100
AcDbEntity
  8
AM_7
100
AcDbLine
 10
2.3045
 20
-1.1522
 30
0.0
 11
2.3045
 21
2.5262
 31
0.0
  0
LINE
  5
11E
330
F6
100
AcDbEntity
  8
AM_7
100
AcDbLine
 10
-2.3045
 20
-1.1522
 30
0.0
 11
-2.3045
 21
2.5262
 31
0.0
  0
LINE
  5
11F
330
F6
100
AcDbEntity
  8
AM_7
100
AcDbLine
 10
1.021502938040993
 20
1.021502938040991
 30
0.0
 11
1.519302943736044
 21
1.519302943736044
 31
0.0
  0
LINE
  5
120
330
F6
100
AcDbEntity
  8
AM_4
100
AcDbLine
 10
1.518200937031952
 20
1.427495753675554
 30
0.0
 11
1.427495759138427
 21
1.518200931569079
 31
0.0
  0
ARC
  5
121
330
F6
100
AcDbEntity
  8
AM_4
100
AcDbCircle
 10
1.421927980738357
 20
1.512633164094753
 30
0.0
 40
0.0078740199999993
100
AcDbArc
 50
44.99999999999886
 51
107.3006441304222
  0
ARC
  5
122
330
F6
100
AcDbEntity
  8
AM_4
100
AcDbCircle
 10
1.512633164094755
 20
1.421927980738357
 30
0.0
 40
0.0078740199999984
100
AcDbArc
 50
342.6993558695775
 51
45.00000000000344
  0
LINE
  5
123
330
F6
100
AcDbEntity
  8
AM_4
100
AcDbLine
 10
1.520150943400774
 20
1.419586360515869
 30
0.0
 11
1.419586360515869
 21
1.520150943400774
 31
0.0
  0
LINE
  5
124
330
F6
100
AcDbEntity
  8
AM_4
100
AcDbLine
 10
1.419586360515869
 20
1.520150943400774
 30
0.0
 11
1.352116030952492
 21
1.49913544378416
 31
0.0
  0
LINE
  5
125
330
F6
100
AcDbEntity
  8
AM_4
100
AcDbLine
 10
1.49913544378416
 20
1.352116030952492
 30
0.0
 11
1.520150943400774
 21
1.419586360515869
 31
0.0
  0
LINE
  5
126
330
F6
100
AcDbEntity
  8
AM_4
100
AcDbLine
 10
1.49913544378416
 20
1.352116030952492
 30
0.0
 11
1.352116030952491
 21
1.49913544378416
 31
0.0
  0
ARC
  5
127
330
F6
100
AcDbEntity
  8
AM_4
100
AcDbCircle
 10
1.357970066639425
 20
1.480341043256983
 30
0.0
 40
0.0196849999999965
100
AcDbArc
 50
107.3006441304124
 51
172.217193812247
  0
ARC
  5
128
330
F6
100
AcDbEntity
  8
AM_4
100
AcDbCircle
 10
1.480341043256983
 20
1.357970066639426
 30
0.0
 40
0.0196849999999966
100
AcDbArc
 50
277.782806187753
 51
342.6993558695856
  0
LINE
  5
129
330
F6
100
AcDbEntity
  8
AM_4
100
AcDbLine
 10
1.144349869338263
 20
1.300247115600022
 30
0.0
 11
1.10955137686912
 21
1.265448623130879
 31
0.0
  0
LINE
  5
12A
330
F6
100
AcDbEntity
  8
AM_4
100
AcDbLine
 10
1.26544862313088
 20
1.109551376869118
 30
0.0
 11
1.300247115600023
 21
1.144349869338262
 31
0.0
  0
LINE
  5
12B
330
F6
100
AcDbEntity
  8
AM_4
100
AcDbLine
 10
1.483006751590146
 20
1.338466394572803
 30
0.0
 11
1.338466394572803
 21
1.483006751590145
 31
0.0
  0
ARC
  5
12C
330
F6
100
AcDbEntity
  8
AM_4
100
AcDbCircle
 10
1.256633551642937
 20
1.494191439816012
 30
0.0
 40
0.0825936524963874
100
AcDbArc
 50
269.3563657692214
 51
352.2171938122402
  0
ARC
  5
12D
330
F6
100
AcDbEntity
  8
AM_4
100
AcDbCircle
 10
1.494191439816014
 20
1.256633551642936
 30
0.0
 40
0.082593652496388
100
AcDbArc
 50
97.78280618776031
 51
180.6436342307783
  0
LINE
  5
12E
330
F6
100
AcDbEntity
  8
AM_4
100
AcDbLine
 10
1.411602998608062
 20
1.2557057523463
 30
0.0
 11
1.255705752346301
 21
1.411602998608061
 31
0.0
  0
LINE
  5
12F
330
F6
100
AcDbEntity
  8
AM_4
100
AcDbLine
 10
1.255705752346301
 20
1.411602998608061
 30
0.0
 11
1.241786355358644
 21
1.397683601620404
 31
0.0
  0
LINE
  5
130
330
F6
100
AcDbEntity
  8
AM_4
100
AcDbLine
 10
1.397683601620405
 20
1.241786355358643
 30
0.0
 11
1.411602998608062
 21
1.2557057523463
 31
0.0
  0
LINE
  5
131
330
F6
100
AcDbEntity
  8
AM_4
100
AcDbLine
 10
1.186536697416222
 20
1.443701277041798
 30
0.0
 11
1.098332193916868
 21
1.355496773542444
 31
0.0
  0
LINE
  5
132
330
F6
100
AcDbEntity
  8
AM_4
100
AcDbLine
 10
1.4437012770418
 20
1.186536697416221
 30
0.0
 11
1.355496773542446
 21
1.098332193916867
 31
0.0
  0
LINE
  5
133
330
F6
100
AcDbEntity
  8
AM_4
100
AcDbLine
 10
1.3336536683704
 20
1.110943316567885
 30
0.0
 11
1.110943316567886
 21
1.333653668370398
 31
0.0
  0
LWPOLYLINE
  5
134
330
F6
100
AcDbEntity
  8
AM_4
100
AcDbPolyline
 90
        6
 70
     0
 43
0.0
 10
1.355496773542446
 20
1.098332193916867
 10
1.336312577209892
 20
1.110795825213763
 10
1.327419285062773
 20
1.117845281985763
 10
1.310760743591722
 20
1.134496586862707
 10
1.297225920384267
 20
1.152767561697062
 10
1.291205628636051
 20
1.162623338823261
  0
LWPOLYLINE
  5
135
330
F6
100
AcDbEntity
  8
AM_4
100
AcDbPolyline
 90
        6
 70
     0
 43
0.0
 10
1.162623338823262
 20
1.29120562863605
 10
1.14343914249075
 20
1.303669259932915
 10
1.134545850343649
 20
1.310718716704895
 10
1.117887308872487
 20
1.327370021581949
 10
1.104352485665069
 20
1.345640996416267
 10
1.098332193916868
 20
1.355496773542444
  0
LINE
  5
136
330
F6
100
AcDbEntity
  8
AM_4
100
AcDbLine
 10
1.3336536683704
 20
1.110943316567885
 30
0.0
 11
1.355496773542446
 21
1.098332193916867
 31
0.0
  0
LINE
  5
137
330
F6
100
AcDbEntity
  8
AM_4
100
AcDbLine
 10
1.098332193916868
 20
1.355496773542444
 30
0.0
 11
1.110943316567886
 21
1.333653668370398
 31
0.0
  0
LWPOLYLINE
  5
138
330
F6
100
AcDbEntity
  8
AM_4
100
AcDbPolyline
 90
        5
 70
     0
 43
0.0
 10
1.379410132135405
 20
1.250827842322616
 10
1.398648493553369
 20
1.238300465284785
 10
1.415861965472564
 20
1.223606881995499
 10
1.430909857730035
 20
1.206128002525749
 10
1.4437012770418
 20
1.186536697416221
  0
LWPOLYLINE
  5
139
330
F6
100
AcDbEntity
  8
AM_4
100
AcDbPolyline
 90
        5
 70
     0
 43
0.0
 10
1.186536697416222
 20
1.443701277041798
 10
1.205775058834186
 20
1.431173900003967
 10
1.22298853075338
 20
1.416480316714682
 10
1.238036423010851
 20
1.399001437244931
 10
1.250827842322616
 20
1.379410132135404
  0
LINE
  5
13A
330
F6
100
AcDbEntity
  8
AM_4
100
AcDbLine
 10
1.431090154390782
 20
1.208379802588266
 30
0.0
 11
1.208379802588267
 21
1.431090154390781
 31
0.0
  0
LINE
  5
13B
330
F6
100
AcDbEntity
  8
AM_4
100
AcDbLine
 10
1.208379802588267
 20
1.431090154390781
 30
0.0
 11
1.186536697416222
 21
1.443701277041798
 31
0.0
  0
LINE
  5
13C
330
F6
100
AcDbEntity
  8
AM_4
100
AcDbLine
 10
1.4437012770418
 20
1.186536697416221
 30
0.0
 11
1.431090154390783
 21
1.208379802588266
 31
0.0
  0
LINE
  5
13D
330
F6
100
AcDbEntity
  8
AM_4
100
AcDbLine
 10
1.250827842322616
 20
1.379410132135404
 30
0.0
 11
1.162623338823262
 21
1.29120562863605
 31
0.0
  0
LWPOLYLINE
  5
13E
330
F6
100
AcDbEntity
  8
AM_4
100
AcDbPolyline
 90
        9
 70
     0
 43
0.0
 10
1.291205628636051
 20
1.162623338823261
 10
1.27350347133947
 20
1.176507716114998
 10
1.256197518488815
 20
1.190910883934846
 10
1.239332851882156
 20
1.205931715166385
 10
1.222298587203489
 20
1.222298587203487
 10
1.206019387236988
 20
1.239237943217445
 10
1.19103961411109
 20
1.256047844532091
 10
1.176581665008667
 20
1.273411817072665
 10
1.162623338823262
 20
1.29120562863605
  0
LINE
  5
13F
330
F6
100
AcDbEntity
  8
AM_4
100
AcDbLine
 10
1.379410132135405
 20
1.250827842322616
 30
0.0
 11
1.291205628636051
 21
1.162623338823261
 31
0.0
  0
LWPOLYLINE
  5
140
330
F6
100
AcDbEntity
  8
AM_4
100
AcDbPolyline
 90
        5
 70
     0
 43
0.0
 10
1.250827842322616
 20
1.379410132135404
 10
1.286215652933352
 20
1.350795868139095
 10
1.319734883755178
 20
1.319734883755178
 10
1.350662096507786
 20
1.286370951601391
 10
1.379410132135405
 20
1.250827842322616
  0
LINE
  5
141
330
F6
100
AcDbEntity
  8
AM_4
100
AcDbLine
 10
-0.273948
 20
1.2773508
 30
0.0
 11
-0.3290440000000001
 21
1.2773508
 31
0.0
  0
LINE
  5
142
330
F6
100
AcDbEntity
  8
AM_4
100
AcDbLine
 10
-0.2617049999999988
 20
1.280264200000001
 30
0.0
 11
-0.273948
 21
1.2773508
 31
0.0
  0
LINE
  5
143
330
F6
100
AcDbEntity
  8
AM_4
100
AcDbLine
 10
-0.3290440000000001
 20
1.2773508
 30
0.0
 11
-0.3290440000000001
 21
1.3793216
 31
0.0
  0
LINE
  5
144
330
F6
100
AcDbEntity
  8
AM_4
100
AcDbLine
 10
-0.2525219999999997
 20
1.286091300000001
 30
0.0
 11
-0.2617049999999988
 21
1.280264200000001
 31
0.0
  0
LINE
  5
145
330
F6
100
AcDbEntity
  8
AM_4
100
AcDbLine
 10
-0.2464010000000001
 20
1.2948315
 30
0.0
 11
-0.2525219999999997
 21
1.286091300000001
 31
0.0
  0
LINE
  5
146
330
F6
100
AcDbEntity
  8
AM_4
100
AcDbLine
 10
-0.2433399999999999
 20
1.3064853
 30
0.0
 11
-0.2464010000000001
 21
1.2948315
 31
0.0
  0
LINE
  5
147
330
F6
100
AcDbEntity
  8
AM_4
100
AcDbLine
 10
-0.2433399999999999
 20
1.3501871
 30
0.0
 11
-0.2433399999999999
 21
1.3064853
 31
0.0
  0
LINE
  5
148
330
F6
100
AcDbEntity
  8
AM_4
100
AcDbLine
 10
-0.2464009999999999
 20
1.3618409
 30
0.0
 11
-0.2433399999999999
 21
1.3501871
 31
0.0
  0
LINE
  5
149
330
F6
100
AcDbEntity
  8
AM_4
100
AcDbLine
 10
-0.2525220000000002
 20
1.3705811
 30
0.0
 11
-0.2464009999999999
 21
1.3618409
 31
0.0
  0
LINE
  5
14A
330
F6
100
AcDbEntity
  8
AM_4
100
AcDbLine
 10
-0.2617049999999993
 20
1.376408199999999
 30
0.0
 11
-0.2525220000000002
 21
1.3705811
 31
0.0
  0
LINE
  5
14B
330
F6
100
AcDbEntity
  8
AM_4
100
AcDbLine
 10
-0.273947999999999
 20
1.3793216
 30
0.0
 11
-0.2617049999999993
 21
1.376408199999999
 31
0.0
  0
LINE
  5
14C
330
F6
100
AcDbEntity
  8
AM_4
100
AcDbLine
 10
-0.3290440000000001
 20
1.3793216
 30
0.0
 11
-0.273947999999999
 21
1.3793216
 31
0.0
  0
LINE
  5
14D
330
F6
100
AcDbEntity
  8
AM_4
100
AcDbLine
 10
-0.0352001000000003
 20
1.2773508
 30
0.0
 11
-0.0352001000000003
 21
1.3793216
 31
0.0
  0
LINE
  5
14E
330
F6
100
AcDbEntity
  8
AM_4
100
AcDbLine
 10
0.0198956999999999
 20
1.2773508
 30
0.0
 11
-0.0352001000000003
 21
1.2773508
 31
0.0
  0
LINE
  5
14F
330
F6
100
AcDbEntity
  8
AM_4
100
AcDbLine
 10
0.0321391999999999
 20
1.2802642
 30
0.0
 11
0.0198956999999999
 21
1.2773508
 31
0.0
  0
LINE
  5
150
330
F6
100
AcDbEntity
  8
AM_4
100
AcDbLine
 10
0.0413216999999999
 20
1.286091300000001
 30
0.0
 11
0.0321391999999999
 21
1.2802642
 31
0.0
  0
LINE
  5
151
330
F6
100
AcDbEntity
  8
AM_4
100
AcDbLine
 10
0.0474436999999995
 20
1.2948315
 30
0.0
 11
0.0413216999999999
 21
1.286091300000001
 31
0.0
  0
LINE
  5
152
330
F6
100
AcDbEntity
  8
AM_4
100
AcDbLine
 10
0.0505043000000001
 20
1.3064853
 30
0.0
 11
0.0474436999999995
 21
1.2948315
 31
0.0
  0
LINE
  5
153
330
F6
100
AcDbEntity
  8
AM_4
100
AcDbLine
 10
0.0505042999999996
 20
1.3501871
 30
0.0
 11
0.0505043000000001
 21
1.3064853
 31
0.0
  0
LINE
  5
154
330
F6
100
AcDbEntity
  8
AM_4
100
AcDbLine
 10
0.0474436999999996
 20
1.3618409
 30
0.0
 11
0.0505042999999996
 21
1.3501871
 31
0.0
  0
LINE
  5
155
330
F6
100
AcDbEntity
  8
AM_4
100
AcDbLine
 10
0.0413216999999993
 20
1.370581100000001
 30
0.0
 11
0.0474436999999996
 21
1.3618409
 31
0.0
  0
LINE
  5
156
330
F6
100
AcDbEntity
  8
AM_4
100
AcDbLine
 10
0.0321392000000005
 20
1.3764082
 30
0.0
 11
0.0413216999999993
 21
1.370581100000001
 31
0.0
  0
LINE
  5
157
330
F6
100
AcDbEntity
  8
AM_4
100
AcDbLine
 10
0.0198956999999987
 20
1.3793216
 30
0.0
 11
0.0321392000000005
 21
1.3764082
 31
0.0
  0
LINE
  5
158
330
F6
100
AcDbEntity
  8
AM_4
100
AcDbLine
 10
-0.0352001000000003
 20
1.3793216
 30
0.0
 11
0.0198956999999987
 21
1.3793216
 31
0.0
  0
LINE
  5
159
330
F6
100
AcDbEntity
  8
AM_4
100
AcDbLine
 10
-0.1515130000000011
 20
1.277350800000001
 30
0.0
 11
-0.1637569999999995
 21
1.280264200000001
 31
0.0
  0
LINE
  5
15A
330
F6
100
AcDbEntity
  8
AM_4
100
AcDbLine
 10
-0.182122
 20
1.3501871
 30
0.0
 11
-0.1790609999999998
 21
1.3618409
 31
0.0
  0
LINE
  5
15B
330
F6
100
AcDbEntity
  8
AM_4
100
AcDbLine
 10
-0.182122
 20
1.3064853
 30
0.0
 11
-0.182122
 21
1.3501871
 31
0.0
  0
LINE
  5
15C
330
F6
100
AcDbEntity
  8
AM_4
100
AcDbLine
 10
-0.1790610000000003
 20
1.294831499999999
 30
0.0
 11
-0.182122
 21
1.3064853
 31
0.0
  0
LINE
  5
15D
330
F6
100
AcDbEntity
  8
AM_4
100
AcDbLine
 10
-0.1729389999999998
 20
1.286091300000001
 30
0.0
 11
-0.1790610000000003
 21
1.294831499999999
 31
0.0
  0
LINE
  5
15E
330
F6
100
AcDbEntity
  8
AM_4
100
AcDbLine
 10
-0.1637569999999995
 20
1.280264200000001
 30
0.0
 11
-0.1729389999999998
 21
1.286091300000001
 31
0.0
  0
LINE
  5
15F
330
F6
100
AcDbEntity
  8
AM_4
100
AcDbLine
 10
-0.1270259999999999
 20
1.2773508
 30
0.0
 11
-0.1515130000000011
 21
1.277350800000001
 31
0.0
  0
LINE
  5
160
330
F6
100
AcDbEntity
  8
AM_4
100
AcDbLine
 10
-0.1147829999999996
 20
1.280264200000001
 30
0.0
 11
-0.1270259999999999
 21
1.2773508
 31
0.0
  0
LINE
  5
161
330
F6
100
AcDbEntity
  8
AM_4
100
AcDbLine
 10
-0.1056
 20
1.2860913
 30
0.0
 11
-0.1147829999999996
 21
1.280264200000001
 31
0.0
  0
LINE
  5
162
330
F6
100
AcDbEntity
  8
AM_4
100
AcDbLine
 10
-0.0994784
 20
1.2948315
 30
0.0
 11
-0.1056
 21
1.2860913
 31
0.0
  0
LINE
  5
163
330
F6
100
AcDbEntity
  8
AM_4
100
AcDbLine
 10
-0.0964177000000003
 20
1.3064853
 30
0.0
 11
-0.0994784
 21
1.2948315
 31
0.0
  0
LINE
  5
164
330
F6
100
AcDbEntity
  8
AM_4
100
AcDbLine
 10
-0.0964176999999999
 20
1.3501871
 30
0.0
 11
-0.0964177000000003
 21
1.3064853
 31
0.0
  0
LINE
  5
165
330
F6
100
AcDbEntity
  8
AM_4
100
AcDbLine
 10
-0.0994783999999998
 20
1.361840899999999
 30
0.0
 11
-0.0964176999999999
 21
1.3501871
 31
0.0
  0
LINE
  5
166
330
F6
100
AcDbEntity
  8
AM_4
100
AcDbLine
 10
-0.1056000000000003
 20
1.3705811
 30
0.0
 11
-0.0994783999999998
 21
1.361840899999999
 31
0.0
  0
LINE
  5
167
330
F6
100
AcDbEntity
  8
AM_4
100
AcDbLine
 10
-0.1147830000000007
 20
1.376408200000001
 30
0.0
 11
-0.1056000000000003
 21
1.3705811
 31
0.0
  0
LINE
  5
168
330
F6
100
AcDbEntity
  8
AM_4
100
AcDbLine
 10
-0.1270259999999993
 20
1.3793216
 30
0.0
 11
-0.1147830000000007
 21
1.376408200000001
 31
0.0
  0
LINE
  5
169
330
F6
100
AcDbEntity
  8
AM_4
100
AcDbLine
 10
-0.151513
 20
1.3793216
 30
0.0
 11
-0.1270259999999993
 21
1.3793216
 31
0.0
  0
LINE
  5
16A
330
F6
100
AcDbEntity
  8
AM_4
100
AcDbLine
 10
-0.1637570000000006
 20
1.3764082
 30
0.0
 11
-0.151513
 21
1.3793216
 31
0.0
  0
LINE
  5
16B
330
F6
100
AcDbEntity
  8
AM_4
100
AcDbLine
 10
-0.1729389999999998
 20
1.3705811
 30
0.0
 11
-0.1637570000000006
 21
1.3764082
 31
0.0
  0
LINE
  5
16C
330
F6
100
AcDbEntity
  8
AM_4
100
AcDbLine
 10
-0.1790609999999998
 20
1.3618409
 30
0.0
 11
-0.1729389999999998
 21
1.3705811
 31
0.0
  0
ARC
  5
16D
330
F6
100
AcDbEntity
  8
AM_4
100
AcDbCircle
 10
-0.0000000000000001
 20
0.0
 30
0.0
 40
1.2205
100
AcDbArc
 50
194.2435373066081
 51
345.7564626933919
  0
LWPOLYLINE
  5
16E
330
F6
100
AcDbEntity
  8
AM_4
100
AcDbPolyline
 90
       19
 70
     0
 43
0.0
 10
-3.156499999999999
 20
-1.044055100000001
 10
-3.156275277515278
 20
-1.038908108896463
 10
-3.155602820334911
 20
-1.033800289503062
 10
-3.154487746264083
 20
-1.028770515409567
 10
-3.152938541689774
 20
-1.023857066233889
 10
-3.150966996994228
 20
-1.019097336291077
 10
-3.14858811682303
 20
-1.01452755
 10
-3.14582000589069
 20
-1.010182486193646
 10
-3.142683731192835
 20
-1.006095213431201
 10
-3.139203161673649
 20
-1.00229683832635
 10
-3.135404786568799
 20
-0.9988162688071646
 10
-3.131317513806354
 20
-0.9956799941093092
 10
-3.126972449999999
 20
-0.9929118831769695
 10
-3.122402663708922
 20
-0.9905330030057719
 10
-3.117642933766111
 20
-0.988561458310226
 10
-3.112729484590433
 20
-0.9870122537359164
 10
-3.107699710496937
 20
-0.9858971796650887
 10
-3.102591891103536
 20
-0.985224722484722
 10
-3.0974449
 20
-0.9849999999999999
  0
LINE
  5
16F
330
F6
100
AcDbEntity
  8
AM_4
100
AcDbLine
 10
-3.1565
 20
-1.0440551
 30
0.0
 11
-3.1565
 21
-1.688
 31
0.0
  0
LINE
  5
170
330
F6
100
AcDbEntity
  8
AM_4
100
AcDbLine
 10
-1.284409764736276
 20
-0.3002966614711173
 30
0.0
 11
-1.284409764736276
 21
-1.688
 31
0.0
  0
LINE
  5
171
330
F6
100
AcDbEntity
  8
AM_4
100
AcDbLine
 10
-1.592099615304
 20
-0.985
 30
0.0
 11
-1.592099615304
 21
-1.688
 31
0.0
  0
LINE
  5
172
330
F6
100
AcDbEntity
  8
AM_4
100
AcDbLine
 10
-2.978399999999999
 20
-1.688
 30
0.0
 11
-2.9784
 21
-0.9849999999999998
 31
0.0
  0
LINE
  5
173
330
F6
100
AcDbEntity
  8
AM_4
100
AcDbLine
 10
-1.48812
 20
0.8868800000000002
 30
0.0
 11
-2.12014
 21
-0.9849999999999997
 31
0.0
  0
LINE
  5
174
330
F6
100
AcDbEntity
  8
AM_4
100
AcDbLine
 10
-1.592099615304
 20
-0.985
 30
0.0
 11
-3.0974449
 21
-0.9849999999999999
 31
0.0
  0
LINE
  5
175
330
F6
100
AcDbEntity
  8
AM_4
100
AcDbLine
 10
-1.592099615304
 20
-0.985
 30
0.0
 11
-1.284409764736276
 21
-0.3002966614711173
 31
0.0
  0
LINE
  5
176
330
F6
100
AcDbEntity
  8
AM_4
100
AcDbLine
 10
-1.284409764736276
 20
-0.3002966614711173
 30
0.0
 11
-1.182980204867901
 21
-0.3002966614711173
 31
0.0
  0
LWPOLYLINE
  5
177
330
F6
100
AcDbEntity
  8
AM_4
100
AcDbPolyline
 90
       43
 70
     0
 43
0.0
 10
1.182980204867901
 20
-0.3002966614711186
 10
1.204651186612047
 20
-0.1960504236011415
 10
1.217154045437802
 20
-0.0903121236290774
 10
1.220393627040068
 20
0.0161135061357552
 10
1.21434527624674
 20
0.1224165023892936
 10
1.199055024659449
 20
0.2277878351425445
 10
1.174639240325281
 20
0.3314255649283052
 10
1.141283742105672
 20
0.4325409460447339
 10
1.099242385482674
 20
0.5303644293863982
 10
1.048835130565453
 20
0.6241515191776336
 10
0.9904456070006624
 20
0.7131884390349361
 10
0.9245181943191878
 20
0.7967975642362293
 10
0.8515546399395957
 20
0.874342578854161
 10
0.7721102405673135
 20
0.9452333185045293
 10
0.6867896160514039
 20
1.008930261853595
 10
0.5962421078624349
 20
1.064948636701207
 10
0.5011568372118047
 20
1.112862109389955
 10
0.4022574604232209
 20
1.152306029461731
 10
0.3002966614711208
 20
1.1829802048679
 10
0.1960504236011438
 20
1.204651186612046
 10
0.0903121236290797
 20
1.217154045437801
 10
-0.0161135061357529
 20
1.220393627040068
 10
-0.1224165023892914
 20
1.21434527624674
 10
-0.2277878351425423
 20
1.19905502465945
 10
-0.3314255649283031
 20
1.174639240325281
 10
-0.4325409460447318
 20
1.141283742105673
 10
-0.5303644293863962
 20
1.099242385482675
 10
-0.6241515191776318
 20
1.048835130565454
 10
-0.7131884390349345
 20
0.9904456070006638
 10
-0.7967975642362276
 20
0.9245181943191894
 10
-0.8743425788541597
 20
0.8515546399395972
 10
-0.945233318504528
 20
0.7721102405673151
 10
-1.008930261853594
 20
0.6867896160514056
 10
-1.064948636701206
 20
0.5962421078624369
 10
-1.112862109389954
 20
0.5011568372118067
 10
-1.152306029461731
 20
0.4022574604232229
 10
-1.182980204867899
 20
0.3002966614711229
 10
-1.204651186612046
 20
0.196050423601146
 10
-1.217154045437801
 20
0.0903121236290819
 10
-1.220393627040068
 20
-0.0161135061357507
 10
-1.214345276246741
 20
-0.1224165023892892
 10
-1.19905502465945
 20
-0.2277878351425401
 10
-1.182980204867901
 20
-0.3002966614711159
  0
LINE
  5
178
330
F6
100
AcDbEntity
  8
AM_4
100
AcDbLine
 10
1.182980204867901
 20
-0.3002966614711182
 30
0.0
 11
1.284409764736276
 21
-0.3002966614711182
 31
0.0
  0
LINE
  5
179
330
F6
100
AcDbEntity
  8
AM_4
100
AcDbLine
 10
2.120139999999999
 20
-0.9849999999999998
 30
0.0
 11
1.48812
 21
0.8868799999999974
 31
0.0
  0
LINE
  5
17A
330
F6
100
AcDbEntity
  8
AM_4
100
AcDbLine
 10
1.48812
 20
0.8868799999999974
 30
0.0
 11
0.7189999999999985
 21
1.656000000000001
 31
0.0
  0
LINE
  5
17B
330
F6
100
AcDbEntity
  8
AM_4
100
AcDbLine
 10
0.7189999999999985
 20
1.656000000000001
 30
0.0
 11
-0.7190000000000007
 21
1.656000000000001
 31
0.0
  0
LINE
  5
17C
330
F6
100
AcDbEntity
  8
AM_4
100
AcDbLine
 10
-0.7190000000000007
 20
1.656000000000001
 30
0.0
 11
-1.48812
 21
0.8868800000000002
 31
0.0
  0
LINE
  5
17D
330
F6
100
AcDbEntity
  8
AM_4
100
AcDbLine
 10
-0.3474090000000001
 20
1.2598701
 30
0.0
 11
-0.3474090000000001
 21
1.3968023
 31
0.0
  0
LINE
  5
17E
330
F6
100
AcDbEntity
  8
AM_4
100
AcDbLine
 10
-0.3474090000000001
 20
1.3968023
 30
0.0
 11
-0.2739480000000006
 21
1.3968023
 31
0.0
  0
LINE
  5
17F
330
F6
100
AcDbEntity
  8
AM_4
100
AcDbLine
 10
-0.2739480000000006
 20
1.3968023
 30
0.0
 11
-0.2586439999999999
 21
1.393889
 31
0.0
  0
LINE
  5
180
330
F6
100
AcDbEntity
  8
AM_4
100
AcDbLine
 10
-0.2586439999999999
 20
1.393889
 30
0.0
 11
-0.2464010000000004
 21
1.3880618
 31
0.0
  0
LINE
  5
181
330
F6
100
AcDbEntity
  8
AM_4
100
AcDbLine
 10
-0.2464010000000004
 20
1.3880618
 30
0.0
 11
-0.2341570000000006
 21
1.376408200000001
 31
0.0
  0
LINE
  5
182
330
F6
100
AcDbEntity
  8
AM_4
100
AcDbLine
 10
-0.2341570000000006
 20
1.376408200000001
 30
0.0
 11
-0.2280350000000006
 21
1.3647543
 31
0.0
  0
LINE
  5
183
330
F6
100
AcDbEntity
  8
AM_4
100
AcDbLine
 10
-0.2280350000000006
 20
1.3647543
 30
0.0
 11
-0.2249740000000001
 21
1.3501871
 31
0.0
  0
LINE
  5
184
330
F6
100
AcDbEntity
  8
AM_4
100
AcDbLine
 10
-0.2249740000000001
 20
1.3501871
 30
0.0
 11
-0.2249740000000002
 21
1.3064853
 31
0.0
  0
LINE
  5
185
330
F6
100
AcDbEntity
  8
AM_4
100
AcDbLine
 10
-0.2249740000000002
 20
1.3064853
 30
0.0
 11
-0.2280349999999997
 21
1.2919181
 31
0.0
  0
LINE
  5
186
330
F6
100
AcDbEntity
  8
AM_4
100
AcDbLine
 10
-0.2280349999999997
 20
1.2919181
 30
0.0
 11
-0.2341570000000004
 21
1.280264200000001
 31
0.0
  0
LINE
  5
187
330
F6
100
AcDbEntity
  8
AM_4
100
AcDbLine
 10
-0.2341570000000004
 20
1.280264200000001
 30
0.0
 11
-0.2464009999999998
 21
1.268610599999999
 31
0.0
  0
LINE
  5
188
330
F6
100
AcDbEntity
  8
AM_4
100
AcDbLine
 10
-0.2464009999999998
 20
1.268610599999999
 30
0.0
 11
-0.2586440000000008
 21
1.262783400000001
 31
0.0
  0
LINE
  5
189
330
F6
100
AcDbEntity
  8
AM_4
100
AcDbLine
 10
-0.2586440000000008
 20
1.262783400000001
 30
0.0
 11
-0.2739480000000006
 21
1.2598701
 31
0.0
  0
LINE
  5
18A
330
F6
100
AcDbEntity
  8
AM_4
100
AcDbLine
 10
-0.2739480000000006
 20
1.2598701
 30
0.0
 11
-0.3474090000000001
 21
1.2598701
 31
0.0
  0
LINE
  5
18B
330
F6
100
AcDbEntity
  8
AM_4
100
AcDbLine
 10
-0.2004870000000003
 20
1.3064853
 30
0.0
 11
-0.2004869999999999
 21
1.3501871
 31
0.0
  0
LINE
  5
18C
330
F6
100
AcDbEntity
  8
AM_4
100
AcDbLine
 10
-0.2004869999999999
 20
1.3501871
 30
0.0
 11
-0.1974270000000005
 21
1.364754300000001
 31
0.0
  0
LINE
  5
18D
330
F6
100
AcDbEntity
  8
AM_4
100
AcDbLine
 10
-0.1974270000000005
 20
1.364754300000001
 30
0.0
 11
-0.1913050000000013
 21
1.3764082
 31
0.0
  0
LINE
  5
18E
330
F6
100
AcDbEntity
  8
AM_4
100
AcDbLine
 10
-0.1913050000000013
 20
1.3764082
 30
0.0
 11
-0.1790610000000001
 21
1.3880618
 31
0.0
  0
LINE
  5
18F
330
F6
100
AcDbEntity
  8
AM_4
100
AcDbLine
 10
-0.1790610000000001
 20
1.3880618
 30
0.0
 11
-0.1668180000000004
 21
1.393889000000001
 31
0.0
  0
LINE
  5
190
330
F6
100
AcDbEntity
  8
AM_4
100
AcDbLine
 10
-0.1668180000000004
 20
1.393889000000001
 30
0.0
 11
-0.1515129999999995
 21
1.3968023
 31
0.0
  0
LINE
  5
191
330
F6
100
AcDbEntity
  8
AM_4
100
AcDbLine
 10
-0.1515129999999995
 20
1.3968023
 30
0.0
 11
-0.1270259999999999
 21
1.3968023
 31
0.0
  0
LINE
  5
192
330
F6
100
AcDbEntity
  8
AM_4
100
AcDbLine
 10
-0.1270259999999999
 20
1.3968023
 30
0.0
 11
-0.1117220000000003
 21
1.393889
 31
0.0
  0
LINE
  5
193
330
F6
100
AcDbEntity
  8
AM_4
100
AcDbLine
 10
-0.1117220000000003
 20
1.393889
 30
0.0
 11
-0.0994784000000004
 21
1.3880618
 31
0.0
  0
LINE
  5
194
330
F6
100
AcDbEntity
  8
AM_4
100
AcDbLine
 10
-0.0994784000000004
 20
1.3880618
 30
0.0
 11
-0.0872350000000006
 21
1.376408200000001
 31
0.0
  0
LINE
  5
195
330
F6
100
AcDbEntity
  8
AM_4
100
AcDbLine
 10
-0.0872350000000006
 20
1.376408200000001
 30
0.0
 11
-0.0811134000000002
 21
1.364754300000001
 31
0.0
  0
LINE
  5
196
330
F6
100
AcDbEntity
  8
AM_4
100
AcDbLine
 10
-0.0811134000000002
 20
1.364754300000001
 30
0.0
 11
-0.0780523999999999
 21
1.3501871
 31
0.0
  0
LINE
  5
197
330
F6
100
AcDbEntity
  8
AM_4
100
AcDbLine
 10
-0.0780523999999999
 20
1.3501871
 30
0.0
 11
-0.0780524000000001
 21
1.3064853
 31
0.0
  0
LINE
  5
198
330
F6
100
AcDbEntity
  8
AM_4
100
AcDbLine
 10
-0.0780524000000001
 20
1.3064853
 30
0.0
 11
-0.0811133999999999
 21
1.2919181
 31
0.0
  0
LINE
  5
199
330
F6
100
AcDbEntity
  8
AM_4
100
AcDbLine
 10
-0.0811133999999999
 20
1.2919181
 30
0.0
 11
-0.0872349999999998
 21
1.2802642
 31
0.0
  0
LINE
  5
19A
330
F6
100
AcDbEntity
  8
AM_4
100
AcDbLine
 10
-0.0872349999999998
 20
1.2802642
 30
0.0
 11
-0.0994784
 21
1.268610599999999
 31
0.0
  0
LINE
  5
19B
330
F6
100
AcDbEntity
  8
AM_4
100
AcDbLine
 10
-0.0994784
 20
1.268610599999999
 30
0.0
 11
-0.1117220000000006
 21
1.2627834
 31
0.0
  0
LINE
  5
19C
330
F6
100
AcDbEntity
  8
AM_4
100
AcDbLine
 10
-0.1117220000000006
 20
1.2627834
 30
0.0
 11
-0.1270259999999998
 21
1.2598701
 31
0.0
  0
LINE
  5
19D
330
F6
100
AcDbEntity
  8
AM_4
100
AcDbLine
 10
-0.1270259999999998
 20
1.2598701
 30
0.0
 11
-0.151513
 21
1.2598701
 31
0.0
  0
LINE
  5
19E
330
F6
100
AcDbEntity
  8
AM_4
100
AcDbLine
 10
-0.151513
 20
1.2598701
 30
0.0
 11
-0.1668179999999994
 21
1.2627834
 31
0.0
  0
LINE
  5
19F
330
F6
100
AcDbEntity
  8
AM_4
100
AcDbLine
 10
-0.1668179999999994
 20
1.2627834
 30
0.0
 11
-0.1790610000000001
 21
1.2686106
 31
0.0
  0
LINE
  5
1A0
330
F6
100
AcDbEntity
  8
AM_4
100
AcDbLine
 10
-0.1790610000000001
 20
1.2686106
 30
0.0
 11
-0.1913050000000004
 21
1.2802642
 31
0.0
  0
LINE
  5
1A1
330
F6
100
AcDbEntity
  8
AM_4
100
AcDbLine
 10
-0.1913050000000004
 20
1.2802642
 30
0.0
 11
-0.1974270000000005
 21
1.291918100000001
 31
0.0
  0
LINE
  5
1A2
330
F6
100
AcDbEntity
  8
AM_4
100
AcDbLine
 10
-0.1974270000000005
 20
1.291918100000001
 30
0.0
 11
-0.2004870000000003
 21
1.3064853
 31
0.0
  0
LINE
  5
1A3
330
F6
100
AcDbEntity
  8
AM_4
100
AcDbLine
 10
0.0198956999999998
 20
1.2598701
 30
0.0
 11
-0.0535653000000003
 21
1.2598701
 31
0.0
  0
LINE
  5
1A4
330
F6
100
AcDbEntity
  8
AM_4
100
AcDbLine
 10
-0.0535653000000003
 20
1.2598701
 30
0.0
 11
-0.0535653000000003
 21
1.3968023
 31
0.0
  0
LINE
  5
1A5
330
F6
100
AcDbEntity
  8
AM_4
100
AcDbLine
 10
-0.0535653000000003
 20
1.3968023
 30
0.0
 11
0.0198956999999999
 21
1.3968023
 31
0.0
  0
LINE
  5
1A6
330
F6
100
AcDbEntity
  8
AM_4
100
AcDbLine
 10
0.0198956999999999
 20
1.3968023
 30
0.0
 11
0.0352000999999995
 21
1.393889
 31
0.0
  0
LINE
  5
1A7
330
F6
100
AcDbEntity
  8
AM_4
100
AcDbLine
 10
0.0352000999999995
 20
1.393889
 30
0.0
 11
0.0474436999999988
 21
1.388061800000001
 31
0.0
  0
LINE
  5
1A8
330
F6
100
AcDbEntity
  8
AM_4
100
AcDbLine
 10
0.0474436999999988
 20
1.388061800000001
 30
0.0
 11
0.0596870000000005
 21
1.3764082
 31
0.0
  0
LINE
  5
1A9
330
F6
100
AcDbEntity
  8
AM_4
100
AcDbLine
 10
0.0596870000000005
 20
1.3764082
 30
0.0
 11
0.0658090999999997
 21
1.364754300000001
 31
0.0
  0
LINE
  5
1AA
330
F6
100
AcDbEntity
  8
AM_4
100
AcDbLine
 10
0.0658090999999997
 20
1.364754300000001
 30
0.0
 11
0.0688696999999995
 21
1.3501871
 31
0.0
  0
LINE
  5
1AB
330
F6
100
AcDbEntity
  8
AM_4
100
AcDbLine
 10
0.0688696999999995
 20
1.3501871
 30
0.0
 11
0.0688696999999997
 21
1.3064853
 31
0.0
  0
LINE
  5
1AC
330
F6
100
AcDbEntity
  8
AM_4
100
AcDbLine
 10
0.0688696999999997
 20
1.3064853
 30
0.0
 11
0.0658091000000004
 21
1.2919181
 31
0.0
  0
LINE
  5
1AD
330
F6
100
AcDbEntity
  8
AM_4
100
AcDbLine
 10
0.0658091000000004
 20
1.2919181
 30
0.0
 11
0.059687
 21
1.2802642
 31
0.0
  0
LINE
  5
1AE
330
F6
100
AcDbEntity
  8
AM_4
100
AcDbLine
 10
0.059687
 20
1.2802642
 30
0.0
 11
0.0474436999999999
 21
1.268610599999999
 31
0.0
  0
LINE
  5
1AF
330
F6
100
AcDbEntity
  8
AM_4
100
AcDbLine
 10
0.0474436999999999
 20
1.268610599999999
 30
0.0
 11
0.0352000999999992
 21
1.262783400000001
 31
0.0
  0
LINE
  5
1B0
330
F6
100
AcDbEntity
  8
AM_4
100
AcDbLine
 10
0.0352000999999992
 20
1.262783400000001
 30
0.0
 11
0.0198956999999998
 21
1.2598701
 31
0.0
  0
LINE
  5
1B1
330
F6
100
AcDbEntity
  8
AM_4
100
AcDbLine
 10
0.0933567
 20
1.306485299999999
 30
0.0
 11
0.0933567000000001
 21
1.3501871
 31
0.0
  0
LINE
  5
1B2
330
F6
100
AcDbEntity
  8
AM_4
100
AcDbLine
 10
0.0933567000000001
 20
1.3501871
 30
0.0
 11
0.0964177
 21
1.3647543
 31
0.0
  0
LINE
  5
1B3
330
F6
100
AcDbEntity
  8
AM_4
100
AcDbLine
 10
0.0964177
 20
1.3647543
 30
0.0
 11
0.102539
 21
1.3764082
 31
0.0
  0
LINE
  5
1B4
330
F6
100
AcDbEntity
  8
AM_4
100
AcDbLine
 10
0.102539
 20
1.3764082
 30
0.0
 11
0.1147830000000004
 21
1.3880618
 31
0.0
  0
LINE
  5
1B5
330
F6
100
AcDbEntity
  8
AM_4
100
AcDbLine
 10
0.1147830000000004
 20
1.3880618
 30
0.0
 11
0.1270260000000007
 21
1.393889
 31
0.0
  0
LINE
  5
1B6
330
F6
100
AcDbEntity
  8
AM_4
100
AcDbLine
 10
0.1270260000000007
 20
1.393889
 30
0.0
 11
0.1423310000000004
 21
1.3968023
 31
0.0
  0
LINE
  5
1B7
330
F6
100
AcDbEntity
  8
AM_4
100
AcDbLine
 10
0.1423310000000004
 20
1.3968023
 30
0.0
 11
0.1698790000000002
 21
1.3968023
 31
0.0
  0
LINE
  5
1B8
330
F6
100
AcDbEntity
  8
AM_4
100
AcDbLine
 10
0.1698790000000002
 20
1.3968023
 30
0.0
 11
0.1851829999999994
 21
1.393889
 31
0.0
  0
LINE
  5
1B9
330
F6
100
AcDbEntity
  8
AM_4
100
AcDbLine
 10
0.1851829999999994
 20
1.393889
 30
0.0
 11
0.1974270000000005
 21
1.3880618
 31
0.0
  0
LINE
  5
1BA
330
F6
100
AcDbEntity
  8
AM_4
100
AcDbLine
 10
0.1974270000000005
 20
1.3880618
 30
0.0
 11
0.2096700000000002
 21
1.3764082
 31
0.0
  0
LINE
  5
1BB
330
F6
100
AcDbEntity
  8
AM_4
100
AcDbLine
 10
0.2096700000000002
 20
1.3764082
 30
0.0
 11
0.2127309999999995
 21
1.3618409
 31
0.0
  0
LINE
  5
1BC
330
F6
100
AcDbEntity
  8
AM_4
100
AcDbLine
 10
0.2127309999999995
 20
1.3618409
 30
0.0
 11
0.1943660000000002
 21
1.3618409
 31
0.0
  0
LINE
  5
1BD
330
F6
100
AcDbEntity
  8
AM_4
100
AcDbLine
 10
0.1943660000000002
 20
1.3618409
 30
0.0
 11
0.1913050000000004
 21
1.3705811
 31
0.0
  0
LINE
  5
1BE
330
F6
100
AcDbEntity
  8
AM_4
100
AcDbLine
 10
0.1913050000000004
 20
1.3705811
 30
0.0
 11
0.182121999999999
 21
1.3764082
 31
0.0
  0
LINE
  5
1BF
330
F6
100
AcDbEntity
  8
AM_4
100
AcDbLine
 10
0.182121999999999
 20
1.3764082
 30
0.0
 11
0.169879000000001
 21
1.3793216
 31
0.0
  0
LINE
  5
1C0
330
F6
100
AcDbEntity
  8
AM_4
100
AcDbLine
 10
0.169879000000001
 20
1.3793216
 30
0.0
 11
0.1423310000000002
 21
1.3793216
 31
0.0
  0
LINE
  5
1C1
330
F6
100
AcDbEntity
  8
AM_4
100
AcDbLine
 10
0.1423310000000002
 20
1.3793216
 30
0.0
 11
0.1300869999999998
 21
1.3764082
 31
0.0
  0
LINE
  5
1C2
330
F6
100
AcDbEntity
  8
AM_4
100
AcDbLine
 10
0.1300869999999998
 20
1.3764082
 30
0.0
 11
0.1209050000000003
 21
1.3705811
 31
0.0
  0
LINE
  5
1C3
330
F6
100
AcDbEntity
  8
AM_4
100
AcDbLine
 10
0.1209050000000003
 20
1.3705811
 30
0.0
 11
0.1147830000000003
 21
1.3618409
 31
0.0
  0
LINE
  5
1C4
330
F6
100
AcDbEntity
  8
AM_4
100
AcDbLine
 10
0.1147830000000003
 20
1.3618409
 30
0.0
 11
0.1117220000000002
 21
1.3501871
 31
0.0
  0
LINE
  5
1C5
330
F6
100
AcDbEntity
  8
AM_4
100
AcDbLine
 10
0.1117220000000002
 20
1.3501871
 30
0.0
 11
0.1117220000000004
 21
1.3064853
 31
0.0
  0
LINE
  5
1C6
330
F6
100
AcDbEntity
  8
AM_4
100
AcDbLine
 10
0.1117220000000004
 20
1.3064853
 30
0.0
 11
0.1147830000000002
 21
1.2948315
 31
0.0
  0
LINE
  5
1C7
330
F6
100
AcDbEntity
  8
AM_4
100
AcDbLine
 10
0.1147830000000002
 20
1.2948315
 30
0.0
 11
0.120905
 21
1.2860913
 31
0.0
  0
LINE
  5
1C8
330
F6
100
AcDbEntity
  8
AM_4
100
AcDbLine
 10
0.120905
 20
1.2860913
 30
0.0
 11
0.1300870000000003
 21
1.2802642
 31
0.0
  0
LINE
  5
1C9
330
F6
100
AcDbEntity
  8
AM_4
100
AcDbLine
 10
0.1300870000000003
 20
1.2802642
 30
0.0
 11
0.1423309999999998
 21
1.2773508
 31
0.0
  0
LINE
  5
1CA
330
F6
100
AcDbEntity
  8
AM_4
100
AcDbLine
 10
0.1423309999999998
 20
1.2773508
 30
0.0
 11
0.1698790000000002
 21
1.2773508
 31
0.0
  0
LINE
  5
1CB
330
F6
100
AcDbEntity
  8
AM_4
100
AcDbLine
 10
0.1698790000000002
 20
1.2773508
 30
0.0
 11
0.1821220000000006
 21
1.2802642
 31
0.0
  0
LINE
  5
1CC
330
F6
100
AcDbEntity
  8
AM_4
100
AcDbLine
 10
0.1821220000000006
 20
1.2802642
 30
0.0
 11
0.191305
 21
1.2860913
 31
0.0
  0
LINE
  5
1CD
330
F6
100
AcDbEntity
  8
AM_4
100
AcDbLine
 10
0.191305
 20
1.2860913
 30
0.0
 11
0.1943659999999994
 21
1.2948315
 31
0.0
  0
LINE
  5
1CE
330
F6
100
AcDbEntity
  8
AM_4
100
AcDbLine
 10
0.1943659999999994
 20
1.2948315
 30
0.0
 11
0.1943660000000001
 21
1.3181391
 31
0.0
  0
LINE
  5
1CF
330
F6
100
AcDbEntity
  8
AM_4
100
AcDbLine
 10
0.1943660000000001
 20
1.3181391
 30
0.0
 11
0.1668180000000001
 21
1.3181391
 31
0.0
  0
LINE
  5
1D0
330
F6
100
AcDbEntity
  8
AM_4
100
AcDbLine
 10
0.1668180000000001
 20
1.3181391
 30
0.0
 11
0.166818
 21
1.33561982
 31
0.0
  0
LINE
  5
1D1
330
F6
100
AcDbEntity
  8
AM_4
100
AcDbLine
 10
0.166818
 20
1.33561982
 30
0.0
 11
0.2127310000000001
 21
1.33561982
 31
0.0
  0
LINE
  5
1D2
330
F6
100
AcDbEntity
  8
AM_4
100
AcDbLine
 10
0.2127310000000001
 20
1.33561982
 30
0.0
 11
0.2127310000000001
 21
1.2919181
 31
0.0
  0
LINE
  5
1D3
330
F6
100
AcDbEntity
  8
AM_4
100
AcDbLine
 10
0.2127310000000001
 20
1.2919181
 30
0.0
 11
0.2096700000000004
 21
1.2802642
 31
0.0
  0
LINE
  5
1D4
330
F6
100
AcDbEntity
  8
AM_4
100
AcDbLine
 10
0.2096700000000004
 20
1.2802642
 30
0.0
 11
0.1974270000000001
 21
1.268610600000001
 31
0.0
  0
LINE
  5
1D5
330
F6
100
AcDbEntity
  8
AM_4
100
AcDbLine
 10
0.1974270000000001
 20
1.268610600000001
 30
0.0
 11
0.185183
 21
1.2627834
 31
0.0
  0
LINE
  5
1D6
330
F6
100
AcDbEntity
  8
AM_4
100
AcDbLine
 10
0.185183
 20
1.2627834
 30
0.0
 11
0.1698789999999994
 21
1.2598701
 31
0.0
  0
LINE
  5
1D7
330
F6
100
AcDbEntity
  8
AM_4
100
AcDbLine
 10
0.1698789999999994
 20
1.2598701
 30
0.0
 11
0.1423310000000002
 21
1.2598701
 31
0.0
  0
LINE
  5
1D8
330
F6
100
AcDbEntity
  8
AM_4
100
AcDbLine
 10
0.1423310000000002
 20
1.2598701
 30
0.0
 11
0.1270260000000005
 21
1.2627834
 31
0.0
  0
LINE
  5
1D9
330
F6
100
AcDbEntity
  8
AM_4
100
AcDbLine
 10
0.1270260000000005
 20
1.2627834
 30
0.0
 11
0.1147830000000008
 21
1.268610599999999
 31
0.0
  0
LINE
  5
1DA
330
F6
100
AcDbEntity
  8
AM_4
100
AcDbLine
 10
0.1147830000000008
 20
1.268610599999999
 30
0.0
 11
0.1025390000000005
 21
1.2802642
 31
0.0
  0
LINE
  5
1DB
330
F6
100
AcDbEntity
  8
AM_4
100
AcDbLine
 10
0.1025390000000005
 20
1.2802642
 30
0.0
 11
0.0964177
 21
1.2919181
 31
0.0
  0
LINE
  5
1DC
330
F6
100
AcDbEntity
  8
AM_4
100
AcDbLine
 10
0.0964177
 20
1.2919181
 30
0.0
 11
0.0933567
 21
1.306485299999999
 31
0.0
  0
LINE
  5
1DD
330
F6
100
AcDbEntity
  8
AM_4
100
AcDbLine
 10
0.3474090000000001
 20
1.2598701
 30
0.0
 11
0.2372179999999999
 21
1.2598701
 31
0.0
  0
LINE
  5
1DE
330
F6
100
AcDbEntity
  8
AM_4
100
AcDbLine
 10
0.2372179999999999
 20
1.2598701
 30
0.0
 11
0.2372179999999999
 21
1.3968023
 31
0.0
  0
LINE
  5
1DF
330
F6
100
AcDbEntity
  8
AM_4
100
AcDbLine
 10
0.2372179999999999
 20
1.3968023
 30
0.0
 11
0.3474090000000002
 21
1.3968023
 31
0.0
  0
LINE
  5
1E0
330
F6
100
AcDbEntity
  8
AM_4
100
AcDbLine
 10
0.3474090000000002
 20
1.3968023
 30
0.0
 11
0.3474090000000001
 21
1.3793216
 31
0.0
  0
LINE
  5
1E1
330
F6
100
AcDbEntity
  8
AM_4
100
AcDbLine
 10
0.3474090000000001
 20
1.3793216
 30
0.0
 11
0.2555829999999999
 21
1.3793216
 31
0.0
  0
LINE
  5
1E2
330
F6
100
AcDbEntity
  8
AM_4
100
AcDbLine
 10
0.2555829999999999
 20
1.3793216
 30
0.0
 11
0.2555830000000001
 21
1.341446699999999
 31
0.0
  0
LINE
  5
1E3
330
F6
100
AcDbEntity
  8
AM_4
100
AcDbLine
 10
0.2555830000000001
 20
1.341446699999999
 30
0.0
 11
0.335166
 21
1.3414467
 31
0.0
  0
LINE
  5
1E4
330
F6
100
AcDbEntity
  8
AM_4
100
AcDbLine
 10
0.335166
 20
1.3414467
 30
0.0
 11
0.3351659999999999
 21
1.323966039999999
 31
0.0
  0
LINE
  5
1E5
330
F6
100
AcDbEntity
  8
AM_4
100
AcDbLine
 10
0.3351659999999999
 20
1.323966039999999
 30
0.0
 11
0.2555829999999999
 21
1.32396604
 31
0.0
  0
LINE
  5
1E6
330
F6
100
AcDbEntity
  8
AM_4
100
AcDbLine
 10
0.2555829999999999
 20
1.32396604
 30
0.0
 11
0.2555830000000001
 21
1.2773508
 31
0.0
  0
LINE
  5
1E7
330
F6
100
AcDbEntity
  8
AM_4
100
AcDbLine
 10
0.2555830000000001
 20
1.2773508
 30
0.0
 11
0.347409
 21
1.2773508
 31
0.0
  0
LINE
  5
1E8
330
F6
100
AcDbEntity
  8
AM_4
100
AcDbLine
 10
0.347409
 20
1.2773508
 30
0.0
 11
0.3474090000000001
 21
1.2598701
 31
0.0
  0
LINE
  5
1E9
330
F6
100
AcDbEntity
  8
AM_4
100
AcDbLine
 10
1.284409764736276
 20
-0.3002966614711182
 30
0.0
 11
1.592099615303999
 21
-0.9849999999999999
 31
0.0
  0
LINE
  5
1EA
330
F6
100
AcDbEntity
  8
AM_4
100
AcDbLine
 10
1.284409764736276
 20
-0.3002966614711182
 30
0.0
 11
1.284409764736276
 21
-1.688
 31
0.0
  0
LINE
  5
1EB
330
F6
100
AcDbEntity
  8
AM_4
100
AcDbLine
 10
1.592099615304
 20
-1.688
 30
0.0
 11
1.592099615303999
 21
-0.9849999999999999
 31
0.0
  0
LINE
  5
1EC
330
F6
100
AcDbEntity
  8
AM_4
100
AcDbLine
 10
3.1565
 20
-1.0440551
 30
0.0
 11
3.1565
 21
-1.688
 31
0.0
  0
LWPOLYLINE
  5
1ED
330
F6
100
AcDbEntity
  8
AM_4
100
AcDbPolyline
 90
       19
 70
     0
 43
0.0
 10
3.097444899999999
 20
-0.9849999999999992
 10
3.102591891103536
 20
-0.9852247224847214
 10
3.107699710496937
 20
-0.9858971796650878
 10
3.112729484590433
 20
-0.9870122537359156
 10
3.117642933766111
 20
-0.9885614583102253
 10
3.122402663708922
 20
-0.9905330030057712
 10
3.126972449999999
 20
-0.9929118831769689
 10
3.131317513806354
 20
-0.9956799941093085
 10
3.135404786568799
 20
-0.9988162688071638
 10
3.139203161673649
 20
-1.00229683832635
 10
3.142683731192835
 20
-1.0060952134312
 10
3.14582000589069
 20
-1.010182486193645
 10
3.14858811682303
 20
-1.01452755
 10
3.150966996994228
 20
-1.019097336291076
 10
3.152938541689774
 20
-1.023857066233888
 10
3.154487746264083
 20
-1.028770515409566
 10
3.155602820334911
 20
-1.033800289503062
 10
3.156275277515278
 20
-1.038908108896463
 10
3.1565
 20
-1.0440551
  0
LINE
  5
1EE
330
F6
100
AcDbEntity
  8
AM_4
100
AcDbLine
 10
1.592099615303999
 20
-0.9849999999999999
 30
0.0
 11
3.097444899999999
 21
-0.9849999999999999
 31
0.0
  0
LINE
  5
1EF
330
F6
100
AcDbEntity
  8
AM_4
100
AcDbLine
 10
2.978400000000001
 20
-0.9849999999999999
 30
0.0
 11
2.9784
 21
-1.688
 31
0.0
  0
LINE
  5
1F0
330
F6
100
AcDbEntity
  8
AM_4
100
AcDbLine
 10
3.1565
 20
-1.688
 30
0.0
 11
-3.1565
 21
-1.688
 31
0.0
  0
ENDBLK
  5
F9
330
F6
100
AcDbEntity
  8
0
100
AcDbBlockEnd
  0
ENDSEC
  0
SECTION
  2
ENTITIES
  0
INSERT
  5
6F
330
1F
100
AcDbEntity
  8
0
100
AcDbBlockReference
  2
1_129249_0
 10
0.0
 20
0.0
 30
0.0
  0
POINT
  5
1F2
330
1F
100
AcDbEntity
  8
ConnectionPoints
100
AcDbPoint
 10
0.0
 20
0.0
 30
0.0
  0
POINT
  5
1F3
330
1F
100
AcDbEntity
  8
ConnectionPoints
100
AcDbPoint
 10
0.0
 20
0.0
 30
-0.53125
  0
POINT
  5
1F4
330
1F
100
AcDbEntity
  8
ConnectionPoints
100
AcDbPoint
 10
0.0
 20
0.0
 30
0.0
  0
POINT
  5
1F5
330
1F
100
AcDbEntity
  8
ConnectionPoints
100
AcDbPoint
 10
0.0
 20
0.0
 30
0.0
  0
ENDSEC
  0
SECTION
  2
OBJECTS
  0
DICTIONARY
  5
C
330
0
100
AcDbDictionary
281
     1
  3
ACAD_DETAILVIEWSTYLE
350
1FD
  3
ACAD_GROUP
350
D
  3
ACAD_LAYOUT
350
1A
  3
ACAD_MATERIAL
350
43
  3
ACAD_MLEADERSTYLE
350
6B
  3
ACAD_MLINESTYLE
350
17
  3
ACAD_PLOTSETTINGS
350
19
  3
ACAD_PLOTSTYLENAME
350
E
  3
ACAD_SCALELIST
350
47
  3
ACAD_SECTIONVIEWSTYLE
350
1FE
  3
ACAD_TABLESTYLE
350
69
  3
ACAD_VISUALSTYLE
350
2A
  3
ACDB_RECOMPOSE_DATA
350
1FA
  3
AcDbVariableDictionary
350
1F6
  0
SUN
  5
6D
330
29
100
AcDbSun
 90
        1
290
     0
 63
     7
421
 16777215
 40
1.0
291
     1
 91
  2455826
 92
 54000000
292
     0
 70
     2
 71
   256
280
     1
  0
DICTIONARY
  5
1FD
102
{ACAD_REACTORS
330
C
102
}
330
C
100
AcDbDictionary
281
     1
  0
DICTIONARY
  5
D
102
{ACAD_REACTORS
330
C
102
}
330
C
100
AcDbDictionary
281
     1
  0
DICTIONARY
  5
1A
102
{ACAD_REACTORS
330
C
102
}
330
C
100
AcDbDictionary
281
     1
  3
Layout1
350
1E
  3
Layout2
350
26
  3
Model
350
22
  0
DICTIONARY
  5
43
102
{ACAD_REACTORS
330
C
102
}
330
C
100
AcDbDictionary
281
     1
  3
ByBlock
350
45
  3
ByLayer
350
44
  3
Global
350
46
  0
DICTIONARY
  5
6B
102
{ACAD_REACTORS
330
C
102
}
330
C
100
AcDbDictionary
281
     1
  3
Standard
350
6C
  0
DICTIONARY
  5
17
102
{ACAD_REACTORS
330
C
102
}
330
C
100
AcDbDictionary
281
     1
  3
Standard
350
18
  0
DICTIONARY
  5
19
102
{ACAD_REACTORS
330
C
102
}
330
C
100
AcDbDictionary
281
     1
  0
ACDBDICTIONARYWDFLT
  5
E
102
{ACAD_REACTORS
330
C
102
}
330
C
100
AcDbDictionary
281
     1
  3
Normal
350
F
100
AcDbDictionaryWithDefault
340
F
  0
DICTIONARY
  5
47
102
{ACAD_REACTORS
330
C
102
}
330
C
100
AcDbDictionary
281
     1
  3
A0
350
48
  3
A1
350
49
  3
A2
350
4A
  3
A3
350
4B
  3
A4
350
4C
  3
A5
350
4D
  3
A6
350
4E
  3
A7
350
4F
  3
A8
350
50
  3
A9
350
51
  3
B0
350
52
  3
B1
350
53
  3
B2
350
54
  3
B3
350
55
  3
B4
350
56
  3
B5
350
57
  3
B6
350
58
  3
B7
350
59
  3
B8
350
5A
  3
B9
350
5B
  3
C0
350
5C
  3
C1
350
5D
  3
C2
350
5E
  3
C3
350
5F
  3
C4
350
60
  3
C5
350
61
  3
C6
350
62
  3
C7
350
63
  3
C8
350
64
  3
C9
350
65
  3
D0
350
66
  3
D1
350
67
  3
D2
350
68
  0
DICTIONARY
  5
1FE
102
{ACAD_REACTORS
330
C
102
}
330
C
100
AcDbDictionary
281
     1
  0
DICTIONARY
  5
69
102
{ACAD_REACTORS
330
C
102
}
330
C
100
AcDbDictionary
281
     1
  3
Standard
350
6A
  0
DICTIONARY
  5
2A
102
{ACAD_REACTORS
330
C
102
}
330
C
100
AcDbDictionary
281
     1
  3
2dWireframe
350
2F
  3
Basic
350
32
  3
Brighten
350
36
  3
ColorChange
350
3A
  3
Conceptual
350
34
  3
Dim
350
35
  3
EdgeColorOff
350
3D
  3
Facepattern
350
39
  3
Flat
350
2B
  3
FlatWithEdges
350
2C
  3
Gouraud
350
2D
  3
GouraudWithEdges
350
2E
  3
Hidden
350
31
  3
JitterOff
350
3B
  3
Linepattern
350
38
  3
OverhangOff
350
3C
  3
Realistic
350
33
  3
Shaded
350
42
  3
Shaded with edges
350
41
  3
Shades of Gray
350
3E
  3
Sketchy
350
3F
  3
Thicken
350
37
  3
Wireframe
350
30
  3
X-Ray
350
40
  0
XRECORD
  5
1FA
102
{ACAD_REACTORS
330
C
102
}
330
C
100
AcDbXrecord
280
     1
 90
        1
330
6A
  0
DICTIONARY
  5
1F6
102
{ACAD_REACTORS
330
C
102
}
330
C
100
AcDbDictionary
281
     1
  3
CANNOSCALE
350
1F7
  3
CMLEADERSTYLE
350
1FC
  3
CTABLESTYLE
350
1FB
  0
LAYOUT
  5
1E
102
{ACAD_REACTORS
330
1A
102
}
330
1A
100
AcDbPlotSettings
  1

  2
none_device
  4

  6

 40
0.0
 41
0.0
 42
0.0
 43
0.0
 44
0.0
 45
0.0
 46
0.0
 47
0.0
 48
0.0
 49
0.0
140
0.0
141
0.0
142
1.0
143
1.0
 70
   688
 72
     0
 73
     0
 74
     5
  7

 75
    16
 76
     0
 77
     2
 78
   300
147
1.0
148
0.0
149
0.0
100
AcDbLayout
  1
Layout1
 70
     1
 71
     1
 10
0.0
 20
0.0
 11
12.0
 21
9.0
 12
0.0
 22
0.0
 32
0.0
 14
1.000000000000000E+20
 24
1.000000000000000E+20
 34
1.000000000000000E+20
 15
-1.000000000000000E+20
 25
-1.000000000000000E+20
 35
-1.000000000000000E+20
146
0.0
 13
0.0
 23
0.0
 33
0.0
 16
1.0
 26
0.0
 36
0.0
 17
0.0
 27
1.0
 37
0.0
 76
     0
330
1B
  0
LAYOUT
  5
26
102
{ACAD_REACTORS
330
1A
102
}
330
1A
100
AcDbPlotSettings
  1

  2
none_device
  4

  6

 40
0.0
 41
0.0
 42
0.0
 43
0.0
 44
0.0
 45
0.0
 46
0.0
 47
0.0
 48
0.0
 49
0.0
140
0.0
141
0.0
142
1.0
143
1.0
 70
   688
 72
     0
 73
     0
 74
     5
  7

 75
    16
 76
     0
 77
     2
 78
   300
147
1.0
148
0.0
149
0.0
100
AcDbLayout
  1
Layout2
 70
     1
 71
     2
 10
0.0
 20
0.0
 11
0.0
 21
0.0
 12
0.0
 22
0.0
 32
0.0
 14
0.0
 24
0.0
 34
0.0
 15
0.0
 25
0.0
 35
0.0
146
0.0
 13
0.0
 23
0.0
 33
0.0
 16
1.0
 26
0.0
 36
0.0
 17
0.0
 27
1.0
 37
0.0
 76
     0
330
23
  0
LAYOUT
  5
22
102
{ACAD_REACTORS
330
1A
102
}
330
1A
100
AcDbPlotSettings
  1

  2
none_device
  4
Letter_(8.50_x_11.00_Inches)
  6

 40
6.35
 41
6.35
 42
6.35000508
 43
6.35000508
 44
215.9
 45
279.4
 46
0.0
 47
0.0
 48
0.0
 49
0.0
140
0.0
141
0.0
142
1.0
143
1.0
 70
  1712
 72
     0
 73
     0
 74
     0
  7

 75
     0
 76
     0
 77
     2
 78
   300
147
1.0
148
0.0
149
0.0
100
AcDbLayout
  1
Model
 70
     1
 71
     0
 10
0.0
 20
0.0
 11
12.0
 21
9.0
 12
0.0
 22
0.0
 32
0.0
 14
1.000000000000000E+20
 24
1.000000000000000E+20
 34
1.000000000000000E+20
 15
-1.000000000000000E+20
 25
-1.000000000000000E+20
 35
-1.000000000000000E+20
146
0.0
 13
0.0
 23
0.0
 33
0.0
 16
1.0
 26
0.0
 36
0.0
 17
0.0
 27
1.0
 37
0.0
 76
     0
330
1F
331
29
  0
MATERIAL
  5
45
102
{ACAD_REACTORS
330
43
102
}
330
43
100
AcDbMaterial
  1
ByBlock
 72
     1
 94
      127
  0
MATERIAL
  5
44
102
{ACAD_REACTORS
330
43
102
}
330
43
100
AcDbMaterial
  1
ByLayer
 72
     1
 94
      127
  0
MATERIAL
  5
46
102
{ACAD_REACTORS
330
43
102
}
330
43
100
AcDbMaterial
  1
Global
 72
     1
 94
      127
  0
MLEADERSTYLE
  5
6C
102
{ACAD_REACTORS
330
6B
102
}
330
6B
100
AcDbMLeaderStyle
179
     2
170
     2
171
     1
172
     0
 90
        2
 40
0.0
 41
0.0
173
     1
 91
-1056964608
340
14
 92
       -2
290
     1
 42
0.09
291
     1
 43
0.36
  3
Standard
341
0
 44
0.18
300

342
11
174
     1
178
     6
175
     1
176
     0
 93
-1056964608
 45
0.18
292
     0
297
     0
 46
0.18
343
0
 94
-1056964608
 47
1.0
 49
1.0
140
1.0
293
     1
141
0.0
294
     1
177
     0
142
1.0
295
     0
296
     0
143
0.125
271
     0
272
     9
273
     9
298
     0
  0
MLINESTYLE
  5
18
102
{ACAD_REACTORS
330
17
102
}
330
17
100
AcDbMlineStyle
  2
Standard
 70
     0
  3

 62
   256
 51
90.0
 52
90.0
 71
     2
 49
0.5
 62
   256
  6
BYLAYER
 49
-0.5
 62
   256
  6
BYLAYER
  0
ACDBPLACEHOLDER
  5
F
102
{ACAD_REACTORS
330
E
102
}
330
E
  0
SCALE
  5
48
102
{ACAD_REACTORS
330
47
102
}
330
47
100
AcDbScale
 70
     0
300
1:1
140
1.0
141
1.0
290
     1
  0
SCALE
  5
49
102
{ACAD_REACTORS
330
47
102
}
330
47
100
AcDbScale
 70
     0
300
1:2
140
1.0
141
2.0
290
     0
  0
SCALE
  5
4A
102
{ACAD_REACTORS
330
47
102
}
330
47
100
AcDbScale
 70
     0
300
1:4
140
1.0
141
4.0
290
     0
  0
SCALE
  5
4B
102
{ACAD_REACTORS
330
47
102
}
330
47
100
AcDbScale
 70
     0
300
1:5
140
1.0
141
5.0
290
     0
  0
SCALE
  5
4C
102
{ACAD_REACTORS
330
47
102
}
330
47
100
AcDbScale
 70
     0
300
1:8
140
1.0
141
8.0
290
     0
  0
SCALE
  5
4D
102
{ACAD_REACTORS
330
47
102
}
330
47
100
AcDbScale
 70
     0
300
1:10
140
1.0
141
10.0
290
     0
  0
SCALE
  5
4E
102
{ACAD_REACTORS
330
47
102
}
330
47
100
AcDbScale
 70
     0
300
1:16
140
1.0
141
16.0
290
     0
  0
SCALE
  5
4F
102
{ACAD_REACTORS
330
47
102
}
330
47
100
AcDbScale
 70
     0
300
1:20
140
1.0
141
20.0
290
     0
  0
SCALE
  5
50
102
{ACAD_REACTORS
330
47
102
}
330
47
100
AcDbScale
 70
     0
300
1:30
140
1.0
141
30.0
290
     0
  0
SCALE
  5
51
102
{ACAD_REACTORS
330
47
102
}
330
47
100
AcDbScale
 70
     0
300
1:40
140
1.0
141
40.0
290
     0
  0
SCALE
  5
52
102
{ACAD_REACTORS
330
47
102
}
330
47
100
AcDbScale
 70
     0
300
1:50
140
1.0
141
50.0
290
     0
  0
SCALE
  5
53
102
{ACAD_REACTORS
330
47
102
}
330
47
100
AcDbScale
 70
     0
300
1:100
140
1.0
141
100.0
290
     0
  0
SCALE
  5
54
102
{ACAD_REACTORS
330
47
102
}
330
47
100
AcDbScale
 70
     0
300
2:1
140
2.0
141
1.0
290
     0
  0
SCALE
  5
55
102
{ACAD_REACTORS
330
47
102
}
330
47
100
AcDbScale
 70
     0
300
4:1
140
4.0
141
1.0
290
     0
  0
SCALE
  5
56
102
{ACAD_REACTORS
330
47
102
}
330
47
100
AcDbScale
 70
     0
300
8:1
140
8.0
141
1.0
290
     0
  0
SCALE
  5
57
102
{ACAD_REACTORS
330
47
102
}
330
47
100
AcDbScale
 70
     0
300
10:1
140
10.0
141
1.0
290
     0
  0
SCALE
  5
58
102
{ACAD_REACTORS
330
47
102
}
330
47
100
AcDbScale
 70
     0
300
100:1
140
100.0
141
1.0
290
     0
  0
SCALE
  5
59
102
{ACAD_REACTORS
330
47
102
}
330
47
100
AcDbScale
 70
     0
300
1/128" = 1'-0"
140
0.0078125
141
12.0
290
     0
  0
SCALE
  5
5A
102
{ACAD_REACTORS
330
47
102
}
330
47
100
AcDbScale
 70
     0
300
1/64" = 1'-0"
140
0.015625
141
12.0
290
     0
  0
SCALE
  5
5B
102
{ACAD_REACTORS
330
47
102
}
330
47
100
AcDbScale
 70
     0
300
1/32" = 1'-0"
140
0.03125
141
12.0
290
     0
  0
SCALE
  5
5C
102
{ACAD_REACTORS
330
47
102
}
330
47
100
AcDbScale
 70
     0
300
1/16" = 1'-0"
140
0.0625
141
12.0
290
     0
  0
SCALE
  5
5D
102
{ACAD_REACTORS
330
47
102
}
330
47
100
AcDbScale
 70
     0
300
3/32" = 1'-0"
140
0.09375
141
12.0
290
     0
  0
SCALE
  5
5E
102
{ACAD_REACTORS
330
47
102
}
330
47
100
AcDbScale
 70
     0
300
1/8" = 1'-0"
140
0.125
141
12.0
290
     0
  0
SCALE
  5
5F
102
{ACAD_REACTORS
330
47
102
}
330
47
100
AcDbScale
 70
     0
300
3/16" = 1'-0"
140
0.1875
141
12.0
290
     0
  0
SCALE
  5
60
102
{ACAD_REACTORS
330
47
102
}
330
47
100
AcDbScale
 70
     0
300
1/4" = 1'-0"
140
0.25
141
12.0
290
     0
  0
SCALE
  5
61
102
{ACAD_REACTORS
330
47
102
}
330
47
100
AcDbScale
 70
     0
300
3/8" = 1'-0"
140
0.375
141
12.0
290
     0
  0
SCALE
  5
62
102
{ACAD_REACTORS
330
47
102
}
330
47
100
AcDbScale
 70
     0
300
1/2" = 1'-0"
140
0.5
141
12.0
290
     0
  0
SCALE
  5
63
102
{ACAD_REACTORS
330
47
102
}
330
47
100
AcDbScale
 70
     0
300
3/4" = 1'-0"
140
0.75
141
12.0
290
     0
  0
SCALE
  5
64
102
{ACAD_REACTORS
330
47
102
}
330
47
100
AcDbScale
 70
     0
300
1" = 1'-0"
140
1.0
141
12.0
290
     0
  0
SCALE
  5
65
102
{ACAD_REACTORS
330
47
102
}
330
47
100
AcDbScale
 70
     0
300
1-1/2" = 1'-0"
140
1.5
141
12.0
290
     0
  0
SCALE
  5
66
102
{ACAD_REACTORS
330
47
102
}
330
47
100
AcDbScale
 70
     0
300
3" = 1'-0"
140
3.0
141
12.0
290
     0
  0
SCALE
  5
67
102
{ACAD_REACTORS
330
47
102
}
330
47
100
AcDbScale
 70
     0
300
6" = 1'-0"
140
6.0
141
12.0
290
     0
  0
SCALE
  5
68
102
{ACAD_REACTORS
330
47
102
}
330
47
100
AcDbScale
 70
     0
300
1'-0" = 1'-0"
140
12.0
141
12.0
290
     0
  0
TABLESTYLE
  5
6A
102
{ACAD_REACTORS
330
69
102
}
102
{ACAD_XDICTIONARY
360
1F8
102
}
330
69
100
AcDbTableStyle
  3
Standard
 70
     0
 71
     0
 40
0.06
 41
0.06
280
     0
281
     0
  7
Standard
140
0.18
170
     2
 62
     0
 63
   257
283
     0
 90
        4
 91
        0
  1

274
    -2
284
     1
 64
     0
275
    -2
285
     1
 65
     0
276
    -2
286
     1
 66
     0
277
    -2
287
     1
 67
     0
278
    -2
288
     1
 68
     0
279
    -2
289
     1
 69
     0
  7
Standard
140
0.25
170
     5
 62
     0
 63
   257
283
     0
 90
        4
 91
        0
  1

274
    -2
284
     1
 64
     0
275
    -2
285
     1
 65
     0
276
    -2
286
     1
 66
     0
277
    -2
287
     1
 67
     0
278
    -2
288
     1
 68
     0
279
    -2
289
     1
 69
     0
  7
Standard
140
0.18
170
     5
 62
     0
 63
   257
283
     0
 90
        4
 91
        0
  1

274
    -2
284
     1
 64
     0
275
    -2
285
     1
 65
     0
276
    -2
286
     1
 66
     0
277
    -2
287
     1
 67
     0
278
    -2
288
     1
 68
     0
279
    -2
289
     1
 69
     0
  0
VISUALSTYLE
  5
2F
102
{ACAD_REACTORS
330
2A
102
}
330
2A
100
AcDbVisualStyle
  2
2dWireframe
 70
     4
177
     3
291
     0
 70
    58
 90
        0
176
     1
 90
        2
176
     1
 90
        0
176
     1
 90
        0
176
     1
 40
0.6
176
     1
 40
30.0
176
     1
 62
     7
420
 16777215
176
     1
 90
        1
176
     1
 90
        4
176
     1
 62
     7
176
     1
 62
   257
176
     1
 90
        1
176
     1
 90
        1
176
     1
 40
1.0
176
     1
 90
        0
176
     1
 62
   257
176
     1
 40
1.0
176
     1
 90
        1
176
     1
 90
        6
176
     1
 90
        2
176
     1
 62
     7
176
     1
 90
        5
176
     1
 90
        0
176
     1
 90
        0
176
     1
290
     0
176
     1
 90
        1
176
     1
 40
0.0
176
     1
 90
        0
176
     1
290
     1
176
     1
290
     1
176
     1
290
     0
176
     1
290
     0
176
     1
290
     0
176
     1
290
     0
176
     1
290
     0
176
     1
290
     0
176
     1
290
     0
176
     1
 90
       50
176
     1
 40
0.0
176
     1
 40
1.0
176
     1
 90
        0
176
     1
 62
    18
420
        0
176
     1
 90
       50
176
     1
 90
        3
176
     1
 62
     5
420
      255
176
     1
290
     0
176
     1
 90
       50
176
     1
 90
       50
176
     1
 90
       50
176
     1
290
     0
176
     1
 90
       50
176
     1
 62
   256
176
     0
 40
1.0
176
     0
 90
        2
176
     1
  1
strokes_ogs.tif
176
     1
290
     0
176
     1
 40
1.0
176
     1
 40
1.0
176
     1
  0
VISUALSTYLE
  5
32
102
{ACAD_REACTORS
330
2A
102
}
330
2A
100
AcDbVisualStyle
  2
Basic
 70
     7
177
     3
291
     1
 70
    58
 90
        1
176
     1
 90
        0
176
     1
 90
        1
176
     1
 90
        0
176
     1
 40
0.6
176
     1
 40
30.0
176
     1
 62
     7
420
 16777215
176
     1
 90
        0
176
     1
 90
        4
176
     1
 62
     7
176
     1
 62
   257
176
     1
 90
        1
176
     1
 90
        1
176
     1
 40
1.0
176
     1
 90
        8
176
     1
 62
     7
176
     1
 40
1.0
176
     1
 90
        1
176
     1
 90
        6
176
     1
 90
        2
176
     1
 62
     7
176
     1
 90
        5
176
     1
 90
        0
176
     1
 90
        0
176
     1
290
     0
176
     1
 90
        1
176
     1
 40
0.0
176
     1
 90
        0
176
     1
290
     0
176
     1
290
     1
176
     1
290
     1
176
     1
290
     0
176
     1
290
     0
176
     1
290
     0
176
     1
290
     0
176
     1
290
     0
176
     1
290
     0
176
     1
 90
       50
176
     1
 40
0.0
176
     1
 40
1.0
176
     1
 90
        0
176
     1
 62
    18
420
        0
176
     1
 90
       50
176
     1
 90
        3
176
     1
 62
     5
420
      255
176
     1
290
     0
176
     1
 90
       50
176
     1
 90
       50
176
     1
 90
       50
176
     1
290
     0
176
     1
 90
       50
176
     1
 62
   256
176
     0
 40
1.0
176
     0
 90
        2
176
     1
  1
strokes_ogs.tif
176
     1
290
     0
176
     1
 40
1.0
176
     1
 40
1.0
176
     1
  0
VISUALSTYLE
  5
36
102
{ACAD_REACTORS
330
2A
102
}
330
2A
100
AcDbVisualStyle
  2
Brighten
 70
    12
177
     3
291
     1
 70
    58
 90
        2
176
     1
 90
        2
176
     1
 90
        0
176
     1
 90
        0
176
     1
 40
0.6
176
     1
 40
30.0
176
     1
 62
     7
420
 16777215
176
     1
 90
        1
176
     1
 90
        4
176
     1
 62
     7
176
     1
 62
   257
176
     1
 90
        1
176
     1
 90
        1
176
     1
 40
1.0
176
     1
 90
        8
176
     1
 62
     7
176
     1
 40
1.0
176
     1
 90
        1
176
     1
 90
        6
176
     1
 90
        2
176
     1
 62
     7
176
     1
 90
        5
176
     1
 90
        0
176
     1
 90
        0
176
     1
290
     0
176
     1
 90
        1
176
     1
 40
50.0
176
     1
 90
        0
176
     1
290
     0
176
     1
290
     1
176
     1
290
     1
176
     1
290
     0
176
     1
290
     0
176
     1
290
     0
176
     1
290
     0
176
     1
290
     0
176
     1
290
     0
176
     1
 90
       50
176
     1
 40
0.0
176
     1
 40
1.0
176
     1
 90
        0
176
     1
 62
    18
420
        0
176
     1
 90
       50
176
     1
 90
        3
176
     1
 62
     5
420
      255
176
     1
290
     0
176
     1
 90
       50
176
     1
 90
       50
176
     1
 90
       50
176
     1
290
     0
176
     1
 90
       50
176
     1
 62
   256
176
     0
 40
1.0
176
     0
 90
        2
176
     1
  1
strokes_ogs.tif
176
     1
290
     0
176
     1
 40
1.0
176
     1
 40
1.0
176
     1
  0
VISUALSTYLE
  5
3A
102
{ACAD_REACTORS
330
2A
102
}
330
2A
100
AcDbVisualStyle
  2
ColorChange
 70
    16
177
     3
291
     1
 70
    58
 90
        2
176
     1
 90
        2
176
     1
 90
        3
176
     1
 90
        0
176
     1
 40
0.6
176
     1
 40
30.0
176
     1
 62
     8
420
  8421504
176
     1
 90
        1
176
     1
 90
        4
176
     1
 62
     7
176
     1
 62
   257
176
     1
 90
        1
176
     1
 90
        1
176
     1
 40
1.0
176
     1
 90
        8
176
     1
 62
     8
420
  8421504
176
     1
 40
1.0
176
     1
 90
        1
176
     1
 90
        6
176
     1
 90
        2
176
     1
 62
     7
176
     1
 90
        5
176
     1
 90
        0
176
     1
 90
        0
176
     1
290
     0
176
     1
 90
        1
176
     1
 40
0.0
176
     1
 90
        0
176
     1
290
     0
176
     1
290
     1
176
     1
290
     1
176
     1
290
     0
176
     1
290
     0
176
     1
290
     0
176
     1
290
     0
176
     1
290
     0
176
     1
290
     0
176
     1
 90
       50
176
     1
 40
0.0
176
     1
 40
1.0
176
     1
 90
        0
176
     1
 62
    18
420
        0
176
     1
 90
       50
176
     1
 90
        3
176
     1
 62
     5
420
      255
176
     1
290
     0
176
     1
 90
       50
176
     1
 90
       50
176
     1
 90
       50
176
     1
290
     0
176
     1
 90
       50
176
     1
 62
   256
176
     0
 40
1.0
176
     0
 90
        2
176
     1
  1
strokes_ogs.tif
176
     1
290
     0
176
     1
 40
1.0
176
     1
 40
1.0
176
     1
  0
VISUALSTYLE
  5
34
102
{ACAD_REACTORS
330
2A
102
}
330
2A
100
AcDbVisualStyle
  2
Conceptual
 70
     9
177
     3
291
     0
 70
    58
 90
        3
176
     1
 90
        2
176
     1
 90
        0
176
     1
 90
        0
176
     1
 40
0.6
176
     1
 40
30.0
176
     1
 62
     7
420
 16777215
176
     1
 90
        2
176
     1
 90
        2
176
     1
 62
     7
176
     1
 62
   257
176
     1
 90
        1
176
     1
 90
        1
176
     1
 40
179.0
176
     1
 90
        8
176
     1
 62
     7
176
     1
 40
1.0
176
     1
 90
        1
176
     1
 90
        6
176
     1
 90
        2
176
     1
 62
     7
176
     1
 90
        3
176
     1
 90
        0
176
     1
 90
        0
176
     1
290
     0
176
     1
 90
        1
176
     1
 40
0.0
176
     1
 90
        0
176
     1
290
     0
176
     1
290
     1
176
     1
290
     1
176
     1
290
     0
176
     1
290
     0
176
     1
290
     0
176
     1
290
     0
176
     1
290
     0
176
     1
290
     0
176
     1
 90
       50
176
     1
 40
0.0
176
     1
 40
1.0
176
     1
 90
        0
176
     1
 62
    18
420
        0
176
     1
 90
       50
176
     1
 90
        3
176
     1
 62
     5
420
      255
176
     1
290
     0
176
     1
 90
       50
176
     1
 90
       50
176
     1
 90
       50
176
     1
290
     0
176
     1
 90
       50
176
     1
 62
   256
176
     0
 40
1.0
176
     0
 90
        2
176
     1
  1
strokes_ogs.tif
176
     1
290
     0
176
     1
 40
1.0
176
     1
 40
1.0
176
     1
  0
VISUALSTYLE
  5
35
102
{ACAD_REACTORS
330
2A
102
}
330
2A
100
AcDbVisualStyle
  2
Dim
 70
    11
177
     3
291
     1
 70
    58
 90
        2
176
     1
 90
        2
176
     1
 90
        0
176
     1
 90
        0
176
     1
 40
0.6
176
     1
 40
30.0
176
     1
 62
     7
420
 16777215
176
     1
 90
        1
176
     1
 90
        4
176
     1
 62
     7
176
     1
 62
   257
176
     1
 90
        1
176
     1
 90
        1
176
     1
 40
1.0
176
     1
 90
        8
176
     1
 62
     7
176
     1
 40
1.0
176
     1
 90
        1
176
     1
 90
        6
176
     1
 90
        2
176
     1
 62
     7
176
     1
 90
        5
176
     1
 90
        0
176
     1
 90
        0
176
     1
290
     0
176
     1
 90
        1
176
     1
 40
-50.0
176
     1
 90
        0
176
     1
290
     0
176
     1
290
     1
176
     1
290
     1
176
     1
290
     0
176
     1
290
     0
176
     1
290
     0
176
     1
290
     0
176
     1
290
     0
176
     1
290
     0
176
     1
 90
       50
176
     1
 40
0.0
176
     1
 40
1.0
176
     1
 90
        0
176
     1
 62
    18
420
        0
176
     1
 90
       50
176
     1
 90
        3
176
     1
 62
     5
420
      255
176
     1
290
     0
176
     1
 90
       50
176
     1
 90
       50
176
     1
 90
       50
176
     1
290
     0
176
     1
 90
       50
176
     1
 62
   256
176
     0
 40
1.0
176
     0
 90
        2
176
     1
  1
strokes_ogs.tif
176
     1
290
     0
176
     1
 40
1.0
176
     1
 40
1.0
176
     1
  0
VISUALSTYLE
  5
3D
102
{ACAD_REACTORS
330
2A
102
}
330
2A
100
AcDbVisualStyle
  2
EdgeColorOff
 70
    22
177
     3
291
     1
 70
    58
 90
        2
176
     0
 90
        2
176
     0
 90
        0
176
     0
 90
        0
176
     0
 40
0.6
176
     0
 40
30.0
176
     0
 62
     7
420
 16777215
176
     0
 90
        1
176
     0
 90
        4
176
     0
 62
     7
176
     0
 62
   257
176
     0
 90
        1
176
     0
 90
        1
176
     0
 40
1.0
176
     0
 90
        8
176
     2
 62
     7
176
     0
 40
1.0
176
     0
 90
        1
176
     0
 90
        6
176
     0
 90
        2
176
     0
 62
     7
176
     0
 90
        5
176
     0
 90
        0
176
     0
 90
        0
176
     0
290
     0
176
     0
 90
        1
176
     0
 40
0.0
176
     0
 90
        0
176
     0
290
     0
176
     0
290
     1
176
     0
290
     1
176
     0
290
     0
176
     0
290
     0
176
     0
290
     0
176
     0
290
     0
176
     0
290
     0
176
     0
290
     0
176
     0
 90
       50
176
     0
 40
0.0
176
     0
 40
1.0
176
     0
 90
        0
176
     0
 62
    18
420
        0
176
     0
 90
       50
176
     0
 90
        3
176
     0
 62
     5
420
      255
176
     0
290
     0
176
     0
 90
       50
176
     0
 90
       50
176
     0
 90
       50
176
     0
290
     0
176
     0
 90
       50
176
     0
 62
   256
176
     0
 40
1.0
176
     0
 90
        2
176
     0
  1
strokes_ogs.tif
176
     0
290
     0
176
     0
 40
1.0
176
     0
 40
1.0
176
     0
  0
VISUALSTYLE
  5
39
102
{ACAD_REACTORS
330
2A
102
}
330
2A
100
AcDbVisualStyle
  2
Facepattern
 70
    15
177
     3
291
     1
 70
    58
 90
        2
176
     1
 90
        2
176
     1
 90
        0
176
     1
 90
        0
176
     1
 40
0.6
176
     1
 40
30.0
176
     1
 62
     7
420
 16777215
176
     1
 90
        1
176
     1
 90
        4
176
     1
 62
     7
176
     1
 62
   257
176
     1
 90
        1
176
     1
 90
        1
176
     1
 40
1.0
176
     1
 90
        8
176
     1
 62
     7
176
     1
 40
1.0
176
     1
 90
        1
176
     1
 90
        6
176
     1
 90
        2
176
     1
 62
     7
176
     1
 90
        5
176
     1
 90
        0
176
     1
 90
        0
176
     1
290
     0
176
     1
 90
        1
176
     1
 40
0.0
176
     1
 90
        0
176
     1
290
     0
176
     1
290
     1
176
     1
290
     1
176
     1
290
     0
176
     1
290
     0
176
     1
290
     0
176
     1
290
     0
176
     1
290
     0
176
     1
290
     0
176
     1
 90
       50
176
     1
 40
0.0
176
     1
 40
1.0
176
     1
 90
        0
176
     1
 62
    18
420
        0
176
     1
 90
       50
176
     1
 90
        3
176
     1
 62
     5
420
      255
176
     1
290
     0
176
     1
 90
       50
176
     1
 90
       50
176
     1
 90
       50
176
     1
290
     0
176
     1
 90
       50
176
     1
 62
   256
176
     0
 40
1.0
176
     0
 90
        2
176
     1
  1
strokes_ogs.tif
176
     1
290
     0
176
     1
 40
1.0
176
     1
 40
1.0
176
     1
  0
VISUALSTYLE
  5
2B
102
{ACAD_REACTORS
330
2A
102
}
330
2A
100
AcDbVisualStyle
  2
Flat
 70
     0
177
     3
291
     1
 70
    58
 90
        2
176
     1
 90
        1
176
     1
 90
        1
176
     1
 90
        2
176
     1
 40
0.6
176
     1
 40
30.0
176
     1
 62
     7
420
 16777215
176
     1
 90
        0
176
     1
 90
        0
176
     1
 62
     7
176
     1
 62
   257
176
     1
 90
        1
176
     1
 90
        1
176
     1
 40
1.0
176
     1
 90
        8
176
     1
 62
     7
176
     1
 40
1.0
176
     1
 90
        1
176
     1
 90
        6
176
     1
 90
        2
176
     1
 62
     7
176
     1
 90
        5
176
     1
 90
        0
176
     1
 90
        0
176
     1
290
     0
176
     1
 90
       13
176
     1
 40
0.0
176
     1
 90
        0
176
     1
290
     0
176
     1
290
     1
176
     1
290
     1
176
     1
290
     0
176
     1
290
     0
176
     1
290
     0
176
     1
290
     0
176
     1
290
     0
176
     1
290
     0
176
     1
 90
       50
176
     1
 40
0.0
176
     1
 40
1.0
176
     1
 90
        0
176
     1
 62
    18
420
        0
176
     1
 90
       50
176
     1
 90
        3
176
     1
 62
     5
420
      255
176
     1
290
     0
176
     1
 90
       50
176
     1
 90
       50
176
     1
 90
       50
176
     1
290
     0
176
     1
 90
       50
176
     1
 62
   256
176
     0
 40
1.0
176
     0
 90
        2
176
     1
  1
strokes_ogs.tif
176
     1
290
     0
176
     1
 40
1.0
176
     1
 40
1.0
176
     1
  0
VISUALSTYLE
  5
2C
102
{ACAD_REACTORS
330
2A
102
}
330
2A
100
AcDbVisualStyle
  2
FlatWithEdges
 70
     1
177
     3
291
     1
 70
    58
 90
        2
176
     1
 90
        1
176
     1
 90
        1
176
     1
 90
        2
176
     1
 40
0.6
176
     1
 40
30.0
176
     1
 62
     7
420
 16777215
176
     1
 90
        1
176
     1
 90
        0
176
     1
 62
     7
176
     1
 62
   257
176
     1
 90
        1
176
     1
 90
        1
176
     1
 40
1.0
176
     1
 90
        0
176
     1
 62
   257
176
     1
 40
1.0
176
     1
 90
        1
176
     1
 90
        6
176
     1
 90
        2
176
     1
 62
     7
176
     1
 90
        5
176
     1
 90
        0
176
     1
 90
        0
176
     1
290
     0
176
     1
 90
       13
176
     1
 40
0.0
176
     1
 90
        0
176
     1
290
     0
176
     1
290
     1
176
     1
290
     1
176
     1
290
     0
176
     1
290
     0
176
     1
290
     0
176
     1
290
     0
176
     1
290
     0
176
     1
290
     0
176
     1
 90
       50
176
     1
 40
0.0
176
     1
 40
1.0
176
     1
 90
        0
176
     1
 62
    18
420
        0
176
     1
 90
       50
176
     1
 90
        3
176
     1
 62
     5
420
      255
176
     1
290
     0
176
     1
 90
       50
176
     1
 90
       50
176
     1
 90
       50
176
     1
290
     0
176
     1
 90
       50
176
     1
 62
   256
176
     0
 40
1.0
176
     0
 90
        2
176
     1
  1
strokes_ogs.tif
176
     1
290
     0
176
     1
 40
1.0
176
     1
 40
1.0
176
     1
  0
VISUALSTYLE
  5
2D
102
{ACAD_REACTORS
330
2A
102
}
330
2A
100
AcDbVisualStyle
  2
Gouraud
 70
     2
177
     3
291
     1
 70
    58
 90
        2
176
     1
 90
        2
176
     1
 90
        1
176
     1
 90
        2
176
     1
 40
0.6
176
     1
 40
30.0
176
     1
 62
     7
420
 16777215
176
     1
 90
        0
176
     1
 90
        0
176
     1
 62
     7
176
     1
 62
   257
176
     1
 90
        1
176
     1
 90
        1
176
     1
 40
1.0
176
     1
 90
        0
176
     1
 62
     7
176
     1
 40
1.0
176
     1
 90
        1
176
     1
 90
        6
176
     1
 90
        2
176
     1
 62
     7
176
     1
 90
        5
176
     1
 90
        0
176
     1
 90
        0
176
     1
290
     0
176
     1
 90
       13
176
     1
 40
0.0
176
     1
 90
        0
176
     1
290
     0
176
     1
290
     1
176
     1
290
     1
176
     1
290
     0
176
     1
290
     0
176
     1
290
     0
176
     1
290
     0
176
     1
290
     0
176
     1
290
     0
176
     1
 90
       50
176
     1
 40
0.0
176
     1
 40
1.0
176
     1
 90
        0
176
     1
 62
    18
420
        0
176
     1
 90
       50
176
     1
 90
        3
176
     1
 62
     5
420
      255
176
     1
290
     0
176
     1
 90
       50
176
     1
 90
       50
176
     1
 90
       50
176
     1
290
     0
176
     1
 90
       50
176
     1
 62
   256
176
     0
 40
1.0
176
     0
 90
        2
176
     1
  1
strokes_ogs.tif
176
     1
290
     0
176
     1
 40
1.0
176
     1
 40
1.0
176
     1
  0
VISUALSTYLE
  5
2E
102
{ACAD_REACTORS
330
2A
102
}
330
2A
100
AcDbVisualStyle
  2
GouraudWithEdges
 70
     3
177
     3
291
     1
 70
    58
 90
        2
176
     1
 90
        2
176
     1
 90
        1
176
     1
 90
        2
176
     1
 40
0.6
176
     1
 40
30.0
176
     1
 62
     7
420
 16777215
176
     1
 90
        1
176
     1
 90
        0
176
     1
 62
     7
176
     1
 62
   257
176
     1
 90
        1
176
     1
 90
        1
176
     1
 40
1.0
176
     1
 90
        0
176
     1
 62
   257
176
     1
 40
1.0
176
     1
 90
        1
176
     1
 90
        6
176
     1
 90
        2
176
     1
 62
     7
176
     1
 90
        5
176
     1
 90
        0
176
     1
 90
        0
176
     1
290
     0
176
     1
 90
       13
176
     1
 40
0.0
176
     1
 90
        0
176
     1
290
     0
176
     1
290
     1
176
     1
290
     1
176
     1
290
     0
176
     1
290
     0
176
     1
290
     0
176
     1
290
     0
176
     1
290
     0
176
     1
290
     0
176
     1
 90
       50
176
     1
 40
0.0
176
     1
 40
1.0
176
     1
 90
        0
176
     1
 62
    18
420
        0
176
     1
 90
       50
176
     1
 90
        3
176
     1
 62
     5
420
      255
176
     1
290
     0
176
     1
 90
       50
176
     1
 90
       50
176
     1
 90
       50
176
     1
290
     0
176
     1
 90
       50
176
     1
 62
   256
176
     0
 40
1.0
176
     0
 90
        2
176
     1
  1
strokes_ogs.tif
176
     1
290
     0
176
     1
 40
1.0
176
     1
 40
1.0
176
     1
  0
VISUALSTYLE
  5
31
102
{ACAD_REACTORS
330
2A
102
}
330
2A
100
AcDbVisualStyle
  2
Hidden
 70
     6
177
     3
291
     0
 70
    58
 90
        1
176
     1
 90
        2
176
     1
 90
        2
176
     1
 90
        0
176
     1
 40
0.6
176
     1
 40
30.0
176
     1
 62
     7
420
 16777215
176
     1
 90
        2
176
     1
 90
        2
176
     1
 62
     7
176
     1
 62
   257
176
     1
 90
        2
176
     1
 90
        1
176
     1
 40
40.0
176
     1
 90
        0
176
     1
 62
   257
176
     1
 40
1.0
176
     1
 90
        1
176
     1
 90
        6
176
     1
 90
        2
176
     1
 62
     7
176
     1
 90
        3
176
     1
 90
        0
176
     1
 90
        0
176
     1
290
     0
176
     1
 90
        1
176
     1
 40
0.0
176
     1
 90
        0
176
     1
290
     0
176
     1
290
     1
176
     1
290
     1
176
     1
290
     0
176
     1
290
     0
176
     1
290
     0
176
     1
290
     0
176
     1
290
     0
176
     1
290
     0
176
     1
 90
       50
176
     1
 40
0.0
176
     1
 40
1.0
176
     1
 90
        0
176
     1
 62
    18
420
        0
176
     1
 90
       50
176
     1
 90
        3
176
     1
 62
     5
420
      255
176
     1
290
     0
176
     1
 90
       50
176
     1
 90
       50
176
     1
 90
       50
176
     1
290
     0
176
     1
 90
       50
176
     1
 62
   256
176
     0
 40
1.0
176
     0
 90
        2
176
     1
  1
strokes_ogs.tif
176
     1
290
     0
176
     1
 40
1.0
176
     1
 40
1.0
176
     1
  0
VISUALSTYLE
  5
3B
102
{ACAD_REACTORS
330
2A
102
}
330
2A
100
AcDbVisualStyle
  2
JitterOff
 70
    20
177
     3
291
     1
 70
    58
 90
        2
176
     0
 90
        2
176
     0
 90
        0
176
     0
 90
        0
176
     0
 40
0.6
176
     0
 40
30.0
176
     0
 62
     7
420
 16777215
176
     0
 90
        1
176
     0
 90
        4
176
     0
 62
     7
176
     0
 62
   257
176
     0
 90
        1
176
     0
 90
        1
176
     0
 40
1.0
176
     0
 90
       10
176
     2
 62
     7
176
     0
 40
1.0
176
     0
 90
        1
176
     0
 90
        6
176
     0
 90
        2
176
     0
 62
     7
176
     0
 90
        5
176
     0
 90
        0
176
     0
 90
        0
176
     0
290
     0
176
     0
 90
        1
176
     0
 40
0.0
176
     0
 90
        0
176
     0
290
     0
176
     0
290
     1
176
     0
290
     1
176
     0
290
     0
176
     0
290
     0
176
     0
290
     0
176
     0
290
     0
176
     0
290
     0
176
     0
290
     0
176
     0
 90
       50
176
     0
 40
0.0
176
     0
 40
1.0
176
     0
 90
        0
176
     0
 62
    18
420
        0
176
     0
 90
       50
176
     0
 90
        3
176
     0
 62
     5
420
      255
176
     0
290
     0
176
     0
 90
       50
176
     0
 90
       50
176
     0
 90
       50
176
     0
290
     0
176
     0
 90
       50
176
     0
 62
   256
176
     0
 40
1.0
176
     0
 90
        2
176
     0
  1
strokes_ogs.tif
176
     0
290
     0
176
     0
 40
1.0
176
     0
 40
1.0
176
     0
  0
VISUALSTYLE
  5
38
102
{ACAD_REACTORS
330
2A
102
}
330
2A
100
AcDbVisualStyle
  2
Linepattern
 70
    14
177
     3
291
     1
 70
    58
 90
        2
176
     1
 90
        2
176
     1
 90
        0
176
     1
 90
        0
176
     1
 40
0.6
176
     1
 40
30.0
176
     1
 62
     7
420
 16777215
176
     1
 90
        1
176
     1
 90
        4
176
     1
 62
     7
176
     1
 62
   257
176
     1
 90
        7
176
     1
 90
        7
176
     1
 40
1.0
176
     1
 90
        8
176
     1
 62
     7
176
     1
 40
1.0
176
     1
 90
        1
176
     1
 90
        6
176
     1
 90
        2
176
     1
 62
     7
176
     1
 90
        5
176
     1
 90
        0
176
     1
 90
        0
176
     1
290
     0
176
     1
 90
        1
176
     1
 40
0.0
176
     1
 90
        0
176
     1
290
     0
176
     1
290
     1
176
     1
290
     1
176
     1
290
     0
176
     1
290
     0
176
     1
290
     0
176
     1
290
     0
176
     1
290
     0
176
     1
290
     0
176
     1
 90
       50
176
     1
 40
0.0
176
     1
 40
1.0
176
     1
 90
        0
176
     1
 62
    18
420
        0
176
     1
 90
       50
176
     1
 90
        3
176
     1
 62
     5
420
      255
176
     1
290
     0
176
     1
 90
       50
176
     1
 90
       50
176
     1
 90
       50
176
     1
290
     0
176
     1
 90
       50
176
     1
 62
   256
176
     0
 40
1.0
176
     0
 90
        2
176
     1
  1
strokes_ogs.tif
176
     1
290
     0
176
     1
 40
1.0
176
     1
 40
1.0
176
     1
  0
VISUALSTYLE
  5
3C
102
{ACAD_REACTORS
330
2A
102
}
330
2A
100
AcDbVisualStyle
  2
OverhangOff
 70
    21
177
     3
291
     1
 70
    58
 90
        2
176
     0
 90
        2
176
     0
 90
        0
176
     0
 90
        0
176
     0
 40
0.6
176
     0
 40
30.0
176
     0
 62
     7
420
 16777215
176
     0
 90
        1
176
     0
 90
        4
176
     0
 62
     7
176
     0
 62
   257
176
     0
 90
        1
176
     0
 90
        1
176
     0
 40
1.0
176
     0
 90
        9
176
     2
 62
     7
176
     0
 40
1.0
176
     0
 90
        1
176
     0
 90
        6
176
     0
 90
        2
176
     0
 62
     7
176
     0
 90
        5
176
     0
 90
        0
176
     0
 90
        0
176
     0
290
     0
176
     0
 90
        1
176
     0
 40
0.0
176
     0
 90
        0
176
     0
290
     0
176
     0
290
     1
176
     0
290
     1
176
     0
290
     0
176
     0
290
     0
176
     0
290
     0
176
     0
290
     0
176
     0
290
     0
176
     0
290
     0
176
     0
 90
       50
176
     0
 40
0.0
176
     0
 40
1.0
176
     0
 90
        0
176
     0
 62
    18
420
        0
176
     0
 90
       50
176
     0
 90
        3
176
     0
 62
     5
420
      255
176
     0
290
     0
176
     0
 90
       50
176
     0
 90
       50
176
     0
 90
       50
176
     0
290
     0
176
     0
 90
       50
176
     0
 62
   256
176
     0
 40
1.0
176
     0
 90
        2
176
     0
  1
strokes_ogs.tif
176
     0
290
     0
176
     0
 40
1.0
176
     0
 40
1.0
176
     0
  0
VISUALSTYLE
  5
33
102
{ACAD_REACTORS
330
2A
102
}
330
2A
100
AcDbVisualStyle
  2
Realistic
 70
     8
177
     3
291
     0
 70
    58
 90
        2
176
     1
 90
        3
176
     1
 90
        0
176
     1
 90
        2
176
     1
 40
0.6
176
     1
 40
30.0
176
     1
 62
     7
420
 16777215
176
     1
 90
        0
176
     1
 90
        0
176
     1
 62
     7
176
     1
 62
   257
176
     1
 90
        1
176
     1
 90
        1
176
     1
 40
1.0
176
     1
 90
        8
176
     1
 62
   257
176
     1
 40
1.0
176
     1
 90
        1
176
     1
 90
        6
176
     1
 90
        2
176
     1
 62
     7
176
     1
 90
        3
176
     1
 90
        0
176
     1
 90
        0
176
     1
290
     0
176
     1
 90
       13
176
     1
 40
0.0
176
     1
 90
        0
176
     1
290
     0
176
     1
290
     1
176
     1
290
     1
176
     1
290
     0
176
     1
290
     0
176
     1
290
     0
176
     1
290
     0
176
     1
290
     0
176
     1
290
     0
176
     1
 90
       50
176
     1
 40
0.0
176
     1
 40
1.0
176
     1
 90
        0
176
     1
 62
    18
420
        0
176
     1
 90
       50
176
     1
 90
        3
176
     1
 62
     5
420
      255
176
     1
290
     0
176
     1
 90
       50
176
     1
 90
       50
176
     1
 90
       50
176
     1
290
     0
176
     1
 90
       50
176
     1
 62
   256
176
     0
 40
1.0
176
     0
 90
        2
176
     1
  1
strokes_ogs.tif
176
     1
290
     0
176
     1
 40
1.0
176
     1
 40
1.0
176
     1
  0
VISUALSTYLE
  5
42
102
{ACAD_REACTORS
330
2A
102
}
330
2A
100
AcDbVisualStyle
  2
Shaded
 70
    27
177
     3
291
     0
 70
    58
 90
        2
176
     1
 90
        2
176
     1
 90
        1
176
     1
 90
        2
176
     1
 40
0.6
176
     1
 40
30.0
176
     1
 62
     7
420
 16777215
176
     1
 90
        0
176
     1
 90
        4
176
     1
 62
     7
176
     1
 62
   257
176
     1
 90
        1
176
     1
 90
        1
176
     1
 40
1.0
176
     1
 90
        8
176
     1
 62
   257
176
     1
 40
1.0
176
     1
 90
        1
176
     1
 90
        6
176
     1
 90
        2
176
     1
 62
     8
420
  7895160
176
     1
 90
        3
176
     1
 90
        0
176
     1
 90
        0
176
     1
290
     0
176
     1
 90
        5
176
     1
 40
0.0
176
     1
 90
        0
176
     1
290
     0
176
     1
290
     1
176
     1
290
     1
176
     1
290
     0
176
     1
290
     0
176
     1
290
     0
176
     1
290
     0
176
     1
290
     0
176
     1
290
     0
176
     1
 90
       50
176
     1
 40
0.0
176
     1
 40
1.0
176
     1
 90
        0
176
     1
 62
    18
420
        0
176
     1
 90
       50
176
     1
 90
        3
176
     1
 62
     5
420
      255
176
     1
290
     0
176
     1
 90
       50
176
     1
 90
       50
176
     1
 90
       50
176
     1
290
     0
176
     1
 90
       50
176
     1
 62
   256
176
     0
 40
1.0
176
     0
 90
        2
176
     1
  1
strokes_ogs.tif
176
     1
290
     0
176
     1
 40
1.0
176
     1
 40
1.0
176
     1
  0
VISUALSTYLE
  5
41
102
{ACAD_REACTORS
330
2A
102
}
330
2A
100
AcDbVisualStyle
  2
Shaded with edges
 70
    26
177
     3
291
     0
 70
    58
 90
        2
176
     1
 90
        2
176
     1
 90
        1
176
     1
 90
        2
176
     1
 40
0.6
176
     1
 40
30.0
176
     1
 62
     7
420
 16777215
176
     1
 90
        1
176
     1
 90
       10
176
     1
 62
     7
176
     1
 62
   257
176
     1
 90
        2
176
     1
 90
        1
176
     1
 40
1.0
176
     1
 90
        8
176
     1
 62
   257
176
     1
 40
1.0
176
     1
 90
        1
176
     1
 90
        6
176
     1
 90
        2
176
     1
 62
     7
176
     1
 90
        3
176
     1
 90
        0
176
     1
 90
        0
176
     1
290
     0
176
     1
 90
        5
176
     1
 40
0.0
176
     1
 90
        0
176
     1
290
     0
176
     1
290
     1
176
     1
290
     1
176
     1
290
     0
176
     1
290
     0
176
     1
290
     0
176
     1
290
     0
176
     1
290
     0
176
     1
290
     0
176
     1
 90
       50
176
     1
 40
0.0
176
     1
 40
1.0
176
     1
 90
        0
176
     1
 62
    18
420
        0
176
     1
 90
       50
176
     1
 90
        3
176
     1
 62
     5
420
      255
176
     1
290
     0
176
     1
 90
       50
176
     1
 90
       50
176
     1
 90
       50
176
     1
290
     0
176
     1
 90
       50
176
     1
 62
   256
176
     0
 40
1.0
176
     0
 90
        2
176
     1
  1
strokes_ogs.tif
176
     1
290
     0
176
     1
 40
1.0
176
     1
 40
1.0
176
     1
  0
VISUALSTYLE
  5
3E
102
{ACAD_REACTORS
330
2A
102
}
330
2A
100
AcDbVisualStyle
  2
Shades of Gray
 70
    23
177
     3
291
     0
 70
    58
 90
        2
176
     1
 90
        2
176
     1
 90
        3
176
     1
 90
        0
176
     1
 40
0.6
176
     1
 40
30.0
176
     1
 62
     7
420
 16777215
176
     1
 90
        2
176
     1
 90
        2
176
     1
 62
     7
176
     1
 62
     7
176
     1
 90
        1
176
     1
 90
        1
176
     1
 40
40.0
176
     1
 90
        8
176
     1
 62
     7
176
     1
 40
1.0
176
     1
 90
        1
176
     1
 90
        6
176
     1
 90
        2
176
     1
 62
     7
176
     1
 90
        3
176
     1
 90
        0
176
     1
 90
        0
176
     1
290
     0
176
     1
 90
        1
176
     1
 40
0.0
176
     1
 90
        0
176
     1
290
     0
176
     1
290
     1
176
     1
290
     1
176
     1
290
     0
176
     1
290
     0
176
     1
290
     0
176
     1
290
     0
176
     1
290
     0
176
     1
290
     0
176
     1
 90
       50
176
     1
 40
0.0
176
     1
 40
1.0
176
     1
 90
        0
176
     1
 62
    18
420
        0
176
     1
 90
       50
176
     1
 90
        3
176
     1
 62
     5
420
      255
176
     1
290
     0
176
     1
 90
       50
176
     1
 90
       50
176
     1
 90
       50
176
     1
290
     0
176
     1
 90
       50
176
     1
 62
   256
176
     0
 40
1.0
176
     0
 90
        2
176
     1
  1
strokes_ogs.tif
176
     1
290
     0
176
     1
 40
1.0
176
     1
 40
1.0
176
     1
  0
VISUALSTYLE
  5
3F
102
{ACAD_REACTORS
330
2A
102
}
330
2A
100
AcDbVisualStyle
  2
Sketchy
 70
    24
177
     3
291
     0
 70
    58
 90
        1
176
     1
 90
        2
176
     1
 90
        2
176
     1
 90
        0
176
     1
 40
0.6
176
     1
 40
30.0
176
     1
 62
     7
420
 16777215
176
     1
 90
        2
176
     1
 90
        2
176
     1
 62
     7
176
     1
 62
     7
176
     1
 90
        1
176
     1
 90
        1
176
     1
 40
40.0
176
     1
 90
       11
176
     1
 62
     7
176
     1
 40
1.0
176
     1
 90
        1
176
     1
 90
        6
176
     1
 90
        2
176
     1
 62
     7
176
     1
 90
        6
176
     1
 90
        0
176
     1
 90
        0
176
     1
290
     0
176
     1
 90
        1
176
     1
 40
0.0
176
     1
 90
        0
176
     1
290
     0
176
     1
290
     1
176
     1
290
     1
176
     1
290
     0
176
     1
290
     0
176
     1
290
     0
176
     1
290
     0
176
     1
290
     0
176
     1
290
     0
176
     1
 90
       50
176
     1
 40
0.0
176
     1
 40
1.0
176
     1
 90
        0
176
     1
 62
    18
420
        0
176
     1
 90
       50
176
     1
 90
        3
176
     1
 62
     5
420
      255
176
     1
290
     0
176
     1
 90
       50
176
     1
 90
       50
176
     1
 90
       50
176
     1
290
     0
176
     1
 90
       50
176
     1
 62
   256
176
     0
 40
1.0
176
     0
 90
        2
176
     1
  1
strokes_ogs.tif
176
     1
290
     0
176
     1
 40
1.0
176
     1
 40
1.0
176
     1
  0
VISUALSTYLE
  5
37
102
{ACAD_REACTORS
330
2A
102
}
330
2A
100
AcDbVisualStyle
  2
Thicken
 70
    13
177
     3
291
     1
 70
    58
 90
        2
176
     1
 90
        2
176
     1
 90
        0
176
     1
 90
        0
176
     1
 40
0.6
176
     1
 40
30.0
176
     1
 62
     7
420
 16777215
176
     1
 90
        1
176
     1
 90
        4
176
     1
 62
     7
176
     1
 62
   257
176
     1
 90
        1
176
     1
 90
        1
176
     1
 40
1.0
176
     1
 90
       12
176
     1
 62
     7
176
     1
 40
1.0
176
     1
 90
        1
176
     1
 90
        6
176
     1
 90
        2
176
     1
 62
     7
176
     1
 90
        5
176
     1
 90
        0
176
     1
 90
        0
176
     1
290
     0
176
     1
 90
        1
176
     1
 40
0.0
176
     1
 90
        0
176
     1
290
     0
176
     1
290
     1
176
     1
290
     1
176
     1
290
     0
176
     1
290
     0
176
     1
290
     0
176
     1
290
     0
176
     1
290
     0
176
     1
290
     0
176
     1
 90
       50
176
     1
 40
0.0
176
     1
 40
1.0
176
     1
 90
        0
176
     1
 62
    18
420
        0
176
     1
 90
       50
176
     1
 90
        3
176
     1
 62
     5
420
      255
176
     1
290
     0
176
     1
 90
       50
176
     1
 90
       50
176
     1
 90
       50
176
     1
290
     0
176
     1
 90
       50
176
     1
 62
   256
176
     0
 40
1.0
176
     0
 90
        2
176
     1
  1
strokes_ogs.tif
176
     1
290
     0
176
     1
 40
1.0
176
     1
 40
1.0
176
     1
  0
VISUALSTYLE
  5
30
102
{ACAD_REACTORS
330
2A
102
}
330
2A
100
AcDbVisualStyle
  2
Wireframe
 70
     5
177
     3
291
     0
 70
    58
 90
        0
176
     1
 90
        2
176
     1
 90
        0
176
     1
 90
        0
176
     1
 40
0.6
176
     1
 40
30.0
176
     1
 62
     7
420
 16777215
176
     1
 90
        1
176
     1
 90
        4
176
     1
 62
     7
176
     1
 62
   257
176
     1
 90
        1
176
     1
 90
        1
176
     1
 40
1.0
176
     1
 90
        0
176
     1
 62
   257
176
     1
 40
1.0
176
     1
 90
        1
176
     1
 90
        6
176
     1
 90
        2
176
     1
 62
     7
176
     1
 90
        3
176
     1
 90
        0
176
     1
 90
        0
176
     1
290
     0
176
     1
 90
        1
176
     1
 40
0.0
176
     1
 90
        0
176
     1
290
     0
176
     1
290
     1
176
     1
290
     1
176
     1
290
     0
176
     1
290
     0
176
     1
290
     0
176
     1
290
     0
176
     1
290
     0
176
     1
290
     0
176
     1
 90
       50
176
     1
 40
0.0
176
     1
 40
1.0
176
     1
 90
        0
176
     1
 62
    18
420
        0
176
     1
 90
       50
176
     1
 90
        3
176
     1
 62
     5
420
      255
176
     1
290
     0
176
     1
 90
       50
176
     1
 90
       50
176
     1
 90
       50
176
     1
290
     0
176
     1
 90
       50
176
     1
 62
   256
176
     0
 40
1.0
176
     0
 90
        2
176
     1
  1
strokes_ogs.tif
176
     1
290
     0
176
     1
 40
1.0
176
     1
 40
1.0
176
     1
  0
VISUALSTYLE
  5
40
102
{ACAD_REACTORS
330
2A
102
}
330
2A
100
AcDbVisualStyle
  2
X-Ray
 70
    25
177
     3
291
     0
 70
    58
 90
        2
176
     1
 90
        2
176
     1
 90
        1
176
     1
 90
        1
176
     1
 40
0.5
176
     1
 40
30.0
176
     1
 62
     7
420
 16777215
176
     1
 90
        1
176
     1
 90
        0
176
     1
 62
     7
176
     1
 62
   257
176
     1
 90
        1
176
     1
 90
        1
176
     1
 40
1.0
176
     1
 90
        8
176
     1
 62
     7
176
     1
 40
1.0
176
     1
 90
        1
176
     1
 90
        6
176
     1
 90
        2
176
     1
 62
     7
176
     1
 90
        3
176
     1
 90
        0
176
     1
 90
        0
176
     1
290
     0
176
     1
 90
       13
176
     1
 40
0.0
176
     1
 90
        0
176
     1
290
     0
176
     1
290
     1
176
     1
290
     1
176
     1
290
     0
176
     1
290
     0
176
     1
290
     0
176
     1
290
     0
176
     1
290
     0
176
     1
290
     0
176
     1
 90
       50
176
     1
 40
0.0
176
     1
 40
1.0
176
     1
 90
        0
176
     1
 62
    18
420
        0
176
     1
 90
       50
176
     1
 90
        3
176
     1
 62
     5
420
      255
176
     1
290
     0
176
     1
 90
       50
176
     1
 90
       50
176
     1
 90
       50
176
     1
290
     0
176
     1
 90
       50
176
     1
 62
   256
176
     0
 40
1.0
176
     0
 90
        2
176
     1
  1
strokes_ogs.tif
176
     1
290
     0
176
     1
 40
1.0
176
     1
 40
1.0
176
     1
  0
DICTIONARYVAR
  5
1F7
102
{ACAD_REACTORS
330
1F6
102
}
330
1F6
100
DictionaryVariables
280
     0
  1
1:1
  0
DICTIONARYVAR
  5
1FC
102
{ACAD_REACTORS
330
1F6
102
}
330
1F6
100
DictionaryVariables
280
     0
  1
Standard
  0
DICTIONARYVAR
  5
1FB
102
{ACAD_REACTORS
330
1F6
102
}
330
1F6
100
DictionaryVariables
280
     0
  1
Standard
  0
DICTIONARY
  5
1F8
330
6A
100
AcDbDictionary
280
     1
281
     1
  3
ACAD_ROUNDTRIP_2008_TABLESTYLE_CELLSTYLEMAP
360
1F9
  0
CELLSTYLEMAP
  5
1F9
102
{ACAD_REACTORS
330
1F8
102
}
330
1F8
100
AcDbCellStyleMap
 90
        3
300
CELLSTYLE
  1
TABLEFORMAT_BEGIN
 90
        5
170
     1
 91
        0
 92
    32768
 62
   257
 93
        1
300
CONTENTFORMAT
  1
CONTENTFORMAT_BEGIN
 90
        0
 91
        0
 92
        4
 93
        0
300

 40
0.0
140
1.0
 94
        5
 62
     0
340
11
144
0.25
309
CONTENTFORMAT_END
171
     1
301
MARGIN
  1
CELLMARGIN_BEGIN
 40
0.06
 40
0.06
 40
0.06
 40
0.06
 40
0.06
 40
0.06
309
CELLMARGIN_END
 94
        6
 95
        1
302
GRIDFORMAT
  1
GRIDFORMAT_BEGIN
 90
        0
 91
        1
 62
     0
 92
       -2
340
14
 93
        0
 40
0.045
309
GRIDFORMAT_END
 95
        2
302
GRIDFORMAT
  1
GRIDFORMAT_BEGIN
 90
        0
 91
        1
 62
     0
 92
       -2
340
14
 93
        0
 40
0.045
309
GRIDFORMAT_END
 95
        4
302
GRIDFORMAT
  1
GRIDFORMAT_BEGIN
 90
        0
 91
        1
 62
     0
 92
       -2
340
14
 93
        0
 40
0.045
309
GRIDFORMAT_END
 95
        8
302
GRIDFORMAT
  1
GRIDFORMAT_BEGIN
 90
        0
 91
        1
 62
     0
 92
       -2
340
14
 93
        0
 40
0.045
309
GRIDFORMAT_END
 95
       16
302
GRIDFORMAT
  1
GRIDFORMAT_BEGIN
 90
        0
 91
        1
 62
     0
 92
       -2
340
14
 93
        0
 40
0.045
309
GRIDFORMAT_END
 95
       32
302
GRIDFORMAT
  1
GRIDFORMAT_BEGIN
 90
        0
 91
        1
 62
     0
 92
       -2
340
14
 93
        0
 40
0.045
309
GRIDFORMAT_END
309
TABLEFORMAT_END
  1
CELLSTYLE_BEGIN
 90
        1
 91
        1
300
_TITLE
309
CELLSTYLE_END
300
CELLSTYLE
  1
TABLEFORMAT_BEGIN
 90
        5
170
     1
 91
        0
 92
        0
 62
   257
 93
        1
300
CONTENTFORMAT
  1
CONTENTFORMAT_BEGIN
 90
        0
 91
        0
 92
        4
 93
        0
300

 40
0.0
140
1.0
 94
        5
 62
     0
340
11
144
0.18
309
CONTENTFORMAT_END
171
     1
301
MARGIN
  1
CELLMARGIN_BEGIN
 40
0.06
 40
0.06
 40
0.06
 40
0.06
 40
0.06
 40
0.06
309
CELLMARGIN_END
 94
        6
 95
        1
302
GRIDFORMAT
  1
GRIDFORMAT_BEGIN
 90
        0
 91
        1
 62
     0
 92
       -2
340
14
 93
        0
 40
0.045
309
GRIDFORMAT_END
 95
        2
302
GRIDFORMAT
  1
GRIDFORMAT_BEGIN
 90
        0
 91
        1
 62
     0
 92
       -2
340
14
 93
        0
 40
0.045
309
GRIDFORMAT_END
 95
        4
302
GRIDFORMAT
  1
GRIDFORMAT_BEGIN
 90
        0
 91
        1
 62
     0
 92
       -2
340
14
 93
        0
 40
0.045
309
GRIDFORMAT_END
 95
        8
302
GRIDFORMAT
  1
GRIDFORMAT_BEGIN
 90
        0
 91
        1
 62
     0
 92
       -2
340
14
 93
        0
 40
0.045
309
GRIDFORMAT_END
 95
       16
302
GRIDFORMAT
  1
GRIDFORMAT_BEGIN
 90
        0
 91
        1
 62
     0
 92
       -2
340
14
 93
        0
 40
0.045
309
GRIDFORMAT_END
 95
       32
302
GRIDFORMAT
  1
GRIDFORMAT_BEGIN
 90
        0
 91
        1
 62
     0
 92
       -2
340
14
 93
        0
 40
0.045
309
GRIDFORMAT_END
309
TABLEFORMAT_END
  1
CELLSTYLE_BEGIN
 90
        2
 91
        1
300
_HEADER
309
CELLSTYLE_END
300
CELLSTYLE
  1
TABLEFORMAT_BEGIN
 90
        5
170
     1
 91
        0
 92
        0
 62
   257
 93
        1
300
CONTENTFORMAT
  1
CONTENTFORMAT_BEGIN
 90
        0
 91
        0
 92
        4
 93
        0
300

 40
0.0
140
1.0
 94
        2
 62
     0
340
11
144
0.18
309
CONTENTFORMAT_END
171
     1
301
MARGIN
  1
CELLMARGIN_BEGIN
 40
0.06
 40
0.06
 40
0.06
 40
0.06
 40
0.06
 40
0.06
309
CELLMARGIN_END
 94
        6
 95
        1
302
GRIDFORMAT
  1
GRIDFORMAT_BEGIN
 90
        0
 91
        1
 62
     0
 92
       -2
340
14
 93
        0
 40
0.045
309
GRIDFORMAT_END
 95
        2
302
GRIDFORMAT
  1
GRIDFORMAT_BEGIN
 90
        0
 91
        1
 62
     0
 92
       -2
340
14
 93
        0
 40
0.045
309
GRIDFORMAT_END
 95
        4
302
GRIDFORMAT
  1
GRIDFORMAT_BEGIN
 90
        0
 91
        1
 62
     0
 92
       -2
340
14
 93
        0
 40
0.045
309
GRIDFORMAT_END
 95
        8
302
GRIDFORMAT
  1
GRIDFORMAT_BEGIN
 90
        0
 91
        1
 62
     0
 92
       -2
340
14
 93
        0
 40
0.045
309
GRIDFORMAT_END
 95
       16
302
GRIDFORMAT
  1
GRIDFORMAT_BEGIN
 90
        0
 91
        1
 62
     0
 92
       -2
340
14
 93
        0
 40
0.045
309
GRIDFORMAT_END
 95
       32
302
GRIDFORMAT
  1
GRIDFORMAT_BEGIN
 90
        0
 91
        1
 62
     0
 92
       -2
340
14
 93
        0
 40
0.045
309
GRIDFORMAT_END
309
TABLEFORMAT_END
  1
CELLSTYLE_BEGIN
 90
        3
 91
        2
300
_DATA
309
CELLSTYLE_END
  0
ENDSEC
  0
EOF