0
SECTION
  2
HEADER
  9
$ACADVER
  1
AC1027
  9
$ACADMAINTVER
 70
     8
  9
$DWGCODEPAGE
  3
ANSI_1252
  9
$REQUIREDVERSIONS
160
                 0
  9
$COMMENTS
  1
File was created by Cadenas
  9
$CUSTOMPROPERTYTAG
  1
NN
  9
$CUSTOMPROPERTY
  1
Grip Tight Two-Bolt Pillow Block - Polymer Housing, Corrision Resistant Insert Metric Bore
  9
$CUSTOMPROPERTYTAG
  1
NT
  9
$CUSTOMPROPERTY
  1
GTEZ Normal Duty Polymer Housed Pillow Blocks
  9
$CUSTOMPROPERTYTAG
  1
NB
  9
$CUSTOMPROPERTY
  1
129247
  9
$CUSTOMPROPERTYTAG
  1
NBSYN
  9
$CUSTOMPROPERTY
  1
$PN.$LUBE.
  9
$CUSTOMPROPERTYTAG
  1
LINA
  9
$CUSTOMPROPERTY
  1
129247
  9
$CUSTOMPROPERTYTAG
  1
SERIES
  9
$CUSTOMPROPERTY
  1
205
  9
$CUSTOMPROPERTYTAG
  1
SS
  9
$CUSTOMPROPERTY
  1
25
  9
$CUSTOMPROPERTYTAG
  1
PN
  9
$CUSTOMPROPERTY
  1
129247
  9
$CUSTOMPROPERTYTAG
  1
DESCRIPTION
  9
$CUSTOMPROPERTY
  1
P2B-GTEZ-25M-PCR
  9
$CUSTOMPROPERTYTAG
  1
A
  9
$CUSTOMPROPERTY
  1
36.9
  9
$CUSTOMPROPERTYTAG
  1
B
  9
$CUSTOMPROPERTY
  1
139.7
  9
$CUSTOMPROPERTYTAG
  1
C
  9
$CUSTOMPROPERTY
  1
37.7
  9
$CUSTOMPROPERTYTAG
  1
DMIN
  9
$CUSTOMPROPERTY
  1
100.8
  9
$CUSTOMPROPERTYTAG
  1
DMAX
  9
$CUSTOMPROPERTY
  1
106.8
  9
$CUSTOMPROPERTYTAG
  1
F
  9
$CUSTOMPROPERTY
  1
M10
  9
$CUSTOMPROPERTYTAG
  1
G
  9
$CUSTOMPROPERTY
  1
15.1
  9
$CUSTOMPROPERTYTAG
  1
H
  9
$CUSTOMPROPERTY
  1
15.5
  9
$CUSTOMPROPERTYTAG
  1
J
  9
$CUSTOMPROPERTY
  1
72.6
  9
$CUSTOMPROPERTYTAG
  1
L
  9
$CUSTOMPROPERTY
  1
45.6
  9
$CUSTOMPROPERTYTAG
  1
M
  9
$CUSTOMPROPERTY
  1
36.5
  9
$CUSTOMPROPERTYTAG
  1
R
  9
$CUSTOMPROPERTY
  1
12.8
  9
$CUSTOMPROPERTYTAG
  1
S
  9
$CUSTOMPROPERTY
  1
24.2
  9
$CUSTOMPROPERTYTAG
  1
Z
  9
$CUSTOMPROPERTY
  1
24.2
  9
$CUSTOMPROPERTYTAG
  1
COMPANY
  9
$CUSTOMPROPERTY
  1
baldor
  9
$INSBASE
 10
0.0
 20
0.0
 30
0.0
  9
$EXTMIN
 10
1.000000000000000E+20
 20
1.000000000000000E+20
 30
1.000000000000000E+20
  9
$EXTMAX
 10
-1.000000000000000E+20
 20
-1.000000000000000E+20
 30
-1.000000000000000E+20
  9
$LIMMIN
 10
0.0
 20
0.0
  9
$LIMMAX
 10
420.0
 20
297.0
  9
$ORTHOMODE
 70
     0
  9
$REGENMODE
 70
     1
  9
$FILLMODE
 70
     1
  9
$QTEXTMODE
 70
     0
  9
$MIRRTEXT
 70
     1
  9
$LTSCALE
 40
1.0
  9
$ATTMODE
 70
     1
  9
$TEXTSIZE
 40
2.5
  9
$TRACEWID
 40
1.0
  9
$TEXTSTYLE
  7
Standard
  9
$CLAYER
  8
0
  9
$CELTYPE
  6
ByLayer
  9
$CECOLOR
 62
   256
  9
$CELTSCALE
 40
1.0
  9
$DISPSILH
 70
     0
  9
$DIMSCALE
 40
1.0
  9
$DIMASZ
 40
2.5
  9
$DIMEXO
 40
0.625
  9
$DIMDLI
 40
3.75
  9
$DIMRND
 40
0.0
  9
$DIMDLE
 40
0.0
  9
$DIMEXE
 40
1.25
  9
$DIMTP
 40
0.0
  9
$DIMTM
 40
0.0
  9
$DIMTXT
 40
2.5
  9
$DIMCEN
 40
2.5
  9
$DIMTSZ
 40
0.0
  9
$DIMTOL
 70
     0
  9
$DIMLIM
 70
     0
  9
$DIMTIH
 70
     0
  9
$DIMTOH
 70
     0
  9
$DIMSE1
 70
     0
  9
$DIMSE2
 70
     0
  9
$DIMTAD
 70
     1
  9
$DIMZIN
 70
     8
  9
$DIMBLK
  1

  9
$DIMASO
 70
     1
  9
$DIMSHO
 70
     1
  9
$DIMPOST
  1

  9
$DIMAPOST
  1

  9
$DIMALT
 70
     0
  9
$DIMALTD
 70
     3
  9
$DIMALTF
 40
0.03937007874016
  9
$DIMLFAC
 40
1.0
  9
$DIMTOFL
 70
     1
  9
$DIMTVP
 40
0.0
  9
$DIMTIX
 70
     0
  9
$DIMSOXD
 70
     0
  9
$DIMSAH
 70
     0
  9
$DIMBLK1
  1

  9
$DIMBLK2
  1

  9
$DIMSTYLE
  2
ISO-25
  9
$DIMCLRD
 70
     0
  9
$DIMCLRE
 70
     0
  9
$DIMCLRT
 70
     0
  9
$DIMTFAC
 40
1.0
  9
$DIMGAP
 40
0.625
  9
$DIMJUST
 70
     0
  9
$DIMSD1
 70
     0
  9
$DIMSD2
 70
     0
  9
$DIMTOLJ
 70
     0
  9
$DIMTZIN
 70
     8
  9
$DIMALTZ
 70
     0
  9
$DIMALTTZ
 70
     0
  9
$DIMUPT
 70
     0
  9
$DIMDEC
 70
     2
  9
$DIMTDEC
 70
     2
  9
$DIMALTU
 70
     2
  9
$DIMALTTD
 70
     3
  9
$DIMTXSTY
  7
Standard
  9
$DIMAUNIT
 70
     0
  9
$DIMADEC
 70
     0
  9
$DIMALTRND
 40
0.0
  9
$DIMAZIN
 70
     0
  9
$DIMDSEP
 70
    44
  9
$DIMATFIT
 70
     3
  9
$DIMFRAC
 70
     0
  9
$DIMLDRBLK
  1

  9
$DIMLUNIT
 70
     2
  9
$DIMLWD
 70
    -2
  9
$DIMLWE
 70
    -2
  9
$DIMTMOVE
 70
     0
  9
$DIMFXL
 40
1.0
  9
$DIMFXLON
 70
     0
  9
$DIMJOGANG
 40
0.7853981633974483
  9
$DIMTFILL
 70
     0
  9
$DIMTFILLCLR
 70
     0
  9
$DIMARCSYM
 70
     0
  9
$DIMLTYPE
  6

  9
$DIMLTEX1
  6

  9
$DIMLTEX2
  6

  9
$DIMTXTDIRECTION
 70
     0
  9
$LUNITS
 70
     2
  9
$LUPREC
 70
     4
  9
$SKETCHINC
 40
1.0
  9
$FILLETRAD
 40
10.0
  9
$AUNITS
 70
     0
  9
$AUPREC
 70
     0
  9
$MENU
  1
.
  9
$ELEVATION
 40
0.0
  9
$PELEVATION
 40
0.0
  9
$THICKNESS
 40
0.0
  9
$LIMCHECK
 70
     0
  9
$CHAMFERA
 40
0.0
  9
$CHAMFERB
 40
0.0
  9
$CHAMFERC
 40
0.0
  9
$CHAMFERD
 40
0.0
  9
$SKPOLY
 70
     0
  9
$TDCREATE
 40
2458168.992623021
  9
$TDUCREATE
 40
2458168.950956354
  9
$TDUPDATE
 40
2458168.992623195
  9
$TDUUPDATE
 40
2458168.950956528
  9
$TDINDWG
 40
0.0000000116
  9
$TDUSRTIMER
 40
0.0000000116
  9
$USRTIMER
 70
     1
  9
$ANGBASE
 50
0.0
  9
$ANGDIR
 70
     0
  9
$PDMODE
 70
     0
  9
$PDSIZE
 40
0.0
  9
$PLINEWID
 40
0.0
  9
$SPLFRAME
 70
     0
  9
$SPLINETYPE
 70
     6
  9
$SPLINESEGS
 70
     8
  9
$HANDSEED
  5
208
  9
$SURFTAB1
 70
     6
  9
$SURFTAB2
 70
     6
  9
$SURFTYPE
 70
     6
  9
$SURFU
 70
     6
  9
$SURFV
 70
     6
  9
$UCSBASE
  2

  9
$UCSNAME
  2

  9
$UCSORG
 10
0.0
 20
0.0
 30
0.0
  9
$UCSXDIR
 10
1.0
 20
0.0
 30
0.0
  9
$UCSYDIR
 10
0.0
 20
1.0
 30
0.0
  9
$UCSORTHOREF
  2

  9
$UCSORTHOVIEW
 70
     0
  9
$UCSORGTOP
 10
0.0
 20
0.0
 30
0.0
  9
$UCSORGBOTTOM
 10
0.0
 20
0.0
 30
0.0
  9
$UCSORGLEFT
 10
0.0
 20
0.0
 30
0.0
  9
$UCSORGRIGHT
 10
0.0
 20
0.0
 30
0.0
  9
$UCSORGFRONT
 10
0.0
 20
0.0
 30
0.0
  9
$UCSORGBACK
 10
0.0
 20
0.0
 30
0.0
  9
$PUCSBASE
  2

  9
$PUCSNAME
  2

  9
$PUCSORG
 10
0.0
 20
0.0
 30
0.0
  9
$PUCSXDIR
 10
1.0
 20
0.0
 30
0.0
  9
$PUCSYDIR
 10
0.0
 20
1.0
 30
0.0
  9
$PUCSORTHOREF
  2

  9
$PUCSORTHOVIEW
 70
     0
  9
$PUCSORGTOP
 10
0.0
 20
0.0
 30
0.0
  9
$PUCSORGBOTTOM
 10
0.0
 20
0.0
 30
0.0
  9
$PUCSORGLEFT
 10
0.0
 20
0.0
 30
0.0
  9
$PUCSORGRIGHT
 10
0.0
 20
0.0
 30
0.0
  9
$PUCSORGFRONT
 10
0.0
 20
0.0
 30
0.0
  9
$PUCSORGBACK
 10
0.0
 20
0.0
 30
0.0
  9
$USERI1
 70
     0
  9
$USERI2
 70
     0
  9
$USERI3
 70
     0
  9
$USERI4
 70
     0
  9
$USERI5
 70
     0
  9
$USERR1
 40
0.0
  9
$USERR2
 40
0.0
  9
$USERR3
 40
0.0
  9
$USERR4
 40
0.0
  9
$USERR5
 40
0.0
  9
$WORLDVIEW
 70
     1
  9
$SHADEDGE
 70
     3
  9
$SHADEDIF
 70
    70
  9
$TILEMODE
 70
     1
  9
$MAXACTVP
 70
    64
  9
$PINSBASE
 10
0.0
 20
0.0
 30
0.0
  9
$PLIMCHECK
 70
     0
  9
$PEXTMIN
 10
1.000000000000000E+20
 20
1.000000000000000E+20
 30
1.000000000000000E+20
  9
$PEXTMAX
 10
-1.000000000000000E+20
 20
-1.000000000000000E+20
 30
-1.000000000000000E+20
  9
$PLIMMIN
 10
0.0
 20
0.0
  9
$PLIMMAX
 10
420.0
 20
297.0
  9
$UNITMODE
 70
     0
  9
$VISRETAIN
 70
     1
  9
$PLINEGEN
 70
     0
  9
$PSLTSCALE
 70
     1
  9
$TREEDEPTH
 70
  3020
  9
$CMLSTYLE
  2
Standard
  9
$CMLJUST
 70
     0
  9
$CMLSCALE
 40
20.0
  9
$PROXYGRAPHICS
 70
     1
  9
$MEASUREMENT
 70
     1
  9
$CELWEIGHT
370
    -1
  9
$ENDCAPS
280
     0
  9
$JOINSTYLE
280
     0
  9
$LWDISPLAY
290
     0
  9
$INSUNITS
 70
     4
  9
$HYPERLINKBASE
  1

  9
$STYLESHEET
  1

  9
$XEDIT
290
     1
  9
$CEPSNTYPE
380
     0
  9
$PSTYLEMODE
290
     1
  9
$FINGERPRINTGUID
  2
{49FFE3B5-5CD2-4060-ADC7-98C6A1D284EF}
  9
$VERSIONGUID
  2
{FAEB1C32-E019-11D5-929B-00C0DF256EC4}
  9
$EXTNAMES
290
     1
  9
$PSVPSCALE
 40
0.0
  9
$OLESTARTUP
290
     0
  9
$SORTENTS
280
   127
  9
$INDEXCTL
280
     0
  9
$HIDETEXT
280
     1
  9
$XCLIPFRAME
280
     2
  9
$HALOGAP
280
     0
  9
$OBSCOLOR
 70
   257
  9
$OBSLTYPE
280
     0
  9
$INTERSECTIONDISPLAY
280
     0
  9
$INTERSECTIONCOLOR
 70
   257
  9
$DIMASSOC
280
     2
  9
$PROJECTNAME
  1

  9
$CAMERADISPLAY
290
     0
  9
$LENSLENGTH
 40
50.0
  9
$CAMERAHEIGHT
 40
0.0
  9
$STEPSPERSEC
 40
2.0
  9
$STEPSIZE
 40
6.0
  9
$3DDWFPREC
 40
2.0
  9
$PSOLWIDTH
 40
5.0
  9
$PSOLHEIGHT
 40
80.0
  9
$LOFTANG1
 40
1.570796326794897
  9
$LOFTANG2
 40
1.570796326794897
  9
$LOFTMAG1
 40
0.0
  9
$LOFTMAG2
 40
0.0
  9
$LOFTPARAM
 70
     7
  9
$LOFTNORMALS
280
     1
  9
$LATITUDE
 40
37.795
  9
$LONGITUDE
 40
-122.394
  9
$NORTHDIRECTION
 40
0.0
  9
$TIMEZONE
 70
 -8000
  9
$LIGHTGLYPHDISPLAY
280
     1
  9
$TILEMODELIGHTSYNCH
280
     1
  9
$CMATERIAL
347
44
  9
$SOLIDHIST
280
     0
  9
$SHOWHIST
280
     1
  9
$DWFFRAME
280
     2
  9
$DGNFRAME
280
     2
  9
$REALWORLDSCALE
290
     1
  9
$INTERFERECOLOR
 62
   256
  9
$CSHADOW
280
     0
  9
$SHADOWPLANELOCATION
 40
0.0
  0
ENDSEC
  0
SECTION
  2
CLASSES
  0
CLASS
  1
ACDBDICTIONARYWDFLT
  2
AcDbDictionaryWithDefault
  3
ObjectDBX Classes
 90
        0
 91
        4
280
     0
281
     0
  0
CLASS
  1
VISUALSTYLE
  2
AcDbVisualStyle
  3
ObjectDBX Classes
 90
     4095
 91
        4
280
     0
281
     0
  0
CLASS
  1
MATERIAL
  2
AcDbMaterial
  3
ObjectDBX Classes
 90
     1153
 91
        4
280
     0
281
     0
  0
CLASS
  1
SCALE
  2
AcDbScale
  3
ObjectDBX Classes
 90
     1153
 91
        4
280
     0
281
     0
  0
CLASS
  1
TABLESTYLE
  2
AcDbTableStyle
  3
ObjectDBX Classes
 90
     4095
 91
        4
280
     0
281
     0
  0
CLASS
  1
MLEADERSTYLE
  2
AcDbMLeaderStyle
  3
ACDB_MLEADERSTYLE_CLASS
 90
     4095
 91
        4
280
     0
281
     0
  0
CLASS
  1
SUN
  2
AcDbSun
  3
SCENEOE
 90
     1153
 91
        4
280
     0
281
     0
  0
CLASS
  1
DICTIONARYVAR
  2
AcDbDictionaryVar
  3
ObjectDBX Classes
 90
        0
 91
        4
280
     0
281
     0
  0
CLASS
  1
CELLSTYLEMAP
  2
AcDbCellStyleMap
  3
ObjectDBX Classes
 90
     1152
 91
        4
280
     0
281
     0
  0
ENDSEC
  0
SECTION
  2
TABLES
  0
TABLE
  2
VPORT
  5
8
330
0
100
AcDbSymbolTable
 70
     1
  0
VPORT
  5
29
330
8
100
AcDbSymbolTableRecord
100
AcDbViewportTableRecord
  2
*Active
 70
     0
 10
0.0
 20
0.0
 11
1.0
 21
1.0
 12
0.0
 22
9.365000000000009
 13
0.0
 23
0.0
 14
10.0
 24
10.0
 15
10.0
 25
10.0
 16
0.0
 26
0.0
 36
1.0
 17
0.0
 27
0.0
 37
0.0
 40
93.5646
 41
1.522947781532759
 42
50.0
 43
0.0
 44
0.0
 50
0.0
 51
0.0
 71
     0
 72
   100
 73
     1
 74
     3
 75
     0
 76
     0
 77
     0
 78
     0
281
     0
 65
     1
110
0.0
120
0.0
130
0.0
111
1.0
121
0.0
131
0.0
112
0.0
122
1.0
132
0.0
 79
     0
146
0.0
348
2F
 60
     3
 61
     5
292
     1
282
     1
141
0.0
142
0.0
 63
   250
361
6D
  0
ENDTAB
  0
TABLE
  2
LTYPE
  5
5
330
0
100
AcDbSymbolTable
 70
     3
  0
LTYPE
  5
14
330
5
100
AcDbSymbolTableRecord
100
AcDbLinetypeTableRecord
  2
ByBlock
 70
     0
  3

 72
    65
 73
     0
 40
0.0
  0
LTYPE
  5
15
330
5
100
AcDbSymbolTableRecord
100
AcDbLinetypeTableRecord
  2
ByLayer
 70
     0
  3

 72
    65
 73
     0
 40
0.0
  0
LTYPE
  5
16
330
5
100
AcDbSymbolTableRecord
100
AcDbLinetypeTableRecord
  2
Continuous
 70
     0
  3
Solid line
 72
    65
 73
     0
 40
0.0
  0
LTYPE
  5
A1
330
5
100
AcDbSymbolTableRecord
100
AcDbLinetypeTableRecord
  2
Dashed
 70
     0
  3

 72
    65
 73
     2
 40
2.0
 49
1.0
 74
     0
 49
-1.0
 74
     0
  0
LTYPE
  5
AB
330
5
100
AcDbSymbolTableRecord
100
AcDbLinetypeTableRecord
  2
Center
 70
     0
  3

 72
    65
 73
     4
 40
1.5
 49
0.45
 74
     0
 49
-0.5
 74
     0
 49
0.05
 74
     0
 49
-0.5
 74
     0
  0
ENDTAB
  0
TABLE
  2
LAYER
  5
2
330
0
100
AcDbSymbolTable
 70
     7
  0
LAYER
  5
10
330
2
100
AcDbSymbolTableRecord
100
AcDbLayerTableRecord
  2
0
 70
     0
 62
     7
  6
Continuous
370
    -3
390
F
347
46
348
0
  0
LAYER
  5
72
330
2
100
AcDbSymbolTableRecord
100
AcDbLayerTableRecord
  2
AM_6
 70
     0
 62
    -2
  6
Continuous
370
    35
390
F
347
46
348
0
  0
LAYER
  5
A2
330
2
100
AcDbSymbolTableRecord
100
AcDbLayerTableRecord
  2
AM_9
 70
     0
 62
     6
  6
Dashed
370
    25
390
F
347
46
348
0
  0
LAYER
  5
AC
330
2
100
AcDbSymbolTableRecord
100
AcDbLayerTableRecord
  2
AM_7
 70
     0
 62
     7
  6
Center
370
    25
390
F
347
46
348
0
  0
LAYER
  5
AF
330
2
100
AcDbSymbolTableRecord
100
AcDbLayerTableRecord
  2
AM_4
 70
     0
 62
     3
  6
Continuous
370
    25
390
F
347
46
348
0
  0
LAYER
  5
E1
330
2
100
AcDbSymbolTableRecord
100
AcDbLayerTableRecord
  2
AM_5
 70
     0
 62
     3
  6
Continuous
370
    25
390
F
347
46
348
0
  0
LAYER
  5
1FA
330
2
100
AcDbSymbolTableRecord
100
AcDbLayerTableRecord
  2
ConnectionPoints
 70
     0
 62
     7
  6
Continuous
370
    50
390
F
347
46
348
0
  0
ENDTAB
  0
TABLE
  2
STYLE
  5
3
330
0
100
AcDbSymbolTable
 70
     1
  0
STYLE
  5
11
330
3
100
AcDbSymbolTableRecord
100
AcDbTextStyleTableRecord
  2
Standard
 70
     0
 40
0.0
 41
1.0
 50
0.0
 71
     0
 42
2.5
  3
txt
  4

  0
ENDTAB
  0
TABLE
  2
VIEW
  5
6
330
0
100
AcDbSymbolTable
 70
     0
  0
ENDTAB
  0
TABLE
  2
UCS
  5
7
330
0
100
AcDbSymbolTable
 70
     0
  0
ENDTAB
  0
TABLE
  2
APPID
  5
9
330
0
100
AcDbSymbolTable
 70
     1
  0
APPID
  5
12
330
9
100
AcDbSymbolTableRecord
100
AcDbRegAppTableRecord
  2
ACAD
 70
     0
  0
ENDTAB
  0
TABLE
  2
DIMSTYLE
  5
A
330
0
100
AcDbSymbolTable
 70
     1
100
AcDbDimStyleTable
  0
DIMSTYLE
105
27
330
A
100
AcDbSymbolTableRecord
100
AcDbDimStyleTableRecord
  2
ISO-25
 70
     0
 41
2.5
 42
0.625
 43
3.75
 44
1.25
 73
     0
 74
     0
 77
     1
 78
     8
140
2.5
141
2.5
143
0.03937007874016
147
0.625
171
     3
172
     1
178
     0
271
     2
272
     2
274
     3
278
    44
283
     0
284
     8
340
11
  0
ENDTAB
  0
TABLE
  2
BLOCK_RECORD
  5
1
330
0
100
AcDbSymbolTable
 70
     5
  0
BLOCK_RECORD
  5
1F
330
1
100
AcDbSymbolTableRecord
100
AcDbBlockTableRecord
  2
*Model_Space
340
22
 70
     0
280
     1
281
     0
  0
BLOCK_RECORD
  5
1B
330
1
100
AcDbSymbolTableRecord
100
AcDbBlockTableRecord
  2
*Paper_Space
340
1E
 70
     0
280
     1
281
     0
  0
BLOCK_RECORD
  5
23
330
1
100
AcDbSymbolTableRecord
100
AcDbBlockTableRecord
  2
*Paper_Space0
340
26
 70
     0
280
     1
281
     0
  0
BLOCK_RECORD
  5
6E
330
1
100
AcDbSymbolTableRecord
100
AcDbBlockTableRecord
  2
1_129247_0
340
0
102
{BLKREFS
331
6F
102
}
 70
     0
280
     1
281
     0
  0
BLOCK_RECORD
  5
8B
330
1
100
AcDbSymbolTableRecord
100
AcDbBlockTableRecord
  2
2_INS_GT_05_CR_0_in_129247_0
340
0
102
{BLKREFS
331
8C
102
}
 70
     0
280
     1
281
     0
  0
BLOCK_RECORD
  5
B7
330
1
100
AcDbSymbolTableRecord
100
AcDbBlockTableRecord
  2
3_129981_0_in_129247_0
340
0
102
{BLKREFS
331
B8
102
}
 70
     0
280
     1
281
     0
  0
BLOCK_RECORD
  5
F9
330
1
100
AcDbSymbolTableRecord
100
AcDbBlockTableRecord
  2
4_P2B_GTEZ_05_PCR_0_in_129247_0
340
0
102
{BLKREFS
331
FA
102
}
 70
     0
280
     1
281
     0
  0
ENDTAB
  0
ENDSEC
  0
SECTION
  2
BLOCKS
  0
BLOCK
  5
20
330
1F
100
AcDbEntity
  8
0
100
AcDbBlockBegin
  2
*Model_Space
 70
     0
 10
0.0
 20
0.0
 30
0.0
  3
*Model_Space
  1

  0
ENDBLK
  5
21
330
1F
100
AcDbEntity
  8
0
100
AcDbBlockEnd
  0
BLOCK
  5
1C
330
1B
100
AcDbEntity
 67
     1
  8
0
100
AcDbBlockBegin
  2
*Paper_Space
 70
     0
 10
0.0
 20
0.0
 30
0.0
  3
*Paper_Space
  1

  0
ENDBLK
  5
1D
330
1B
100
AcDbEntity
 67
     1
  8
0
100
AcDbBlockEnd
  0
BLOCK
  5
24
330
23
100
AcDbEntity
  8
0
100
AcDbBlockBegin
  2
*Paper_Space0
 70
     0
 10
0.0
 20
0.0
 30
0.0
  3
*Paper_Space0
  1

  0
ENDBLK
  5
25
330
23
100
AcDbEntity
  8
0
100
AcDbBlockEnd
  0
BLOCK
  5
70
330
6E
100
AcDbEntity
  8
0
100
AcDbBlockBegin
  2
1_129247_0
 70
     2
 10
0.0
 20
0.0
 30
0.0
  3
1_129247_0
  1

  0
ATTDEF
  5
73
330
6E
100
AcDbEntity
  8
AM_6
100
AcDbText
 10
74.85000000000001
 20
55.23
 30
0.0
 40
0.5
  1
Grip Tight Two-Bolt Pillow Block - Polymer Housing, Corrision Resistant Insert Metric Bore
100
AcDbAttributeDefinition
  3

  2
NN
 70
     8
280
     0
  0
ATTDEF
  5
74
330
6E
100
AcDbEntity
  8
AM_6
100
AcDbText
 10
74.85000000000001
 20
54.73
 30
0.0
 40
0.5
  1
GTEZ Normal Duty Polymer Housed Pillow Blocks
100
AcDbAttributeDefinition
  3

  2
NT
 70
     8
280
     0
  0
ATTDEF
  5
75
330
6E
100
AcDbEntity
  8
AM_6
100
AcDbText
 10
74.85000000000001
 20
54.23
 30
0.0
 40
0.5
  1
129247
100
AcDbAttributeDefinition
  3

  2
NB
 70
     8
280
     0
  0
ATTDEF
  5
76
330
6E
100
AcDbEntity
  8
AM_6
100
AcDbText
 10
74.85000000000001
 20
53.73
 30
0.0
 40
0.5
  1
$PN.$LUBE.
100
AcDbAttributeDefinition
  3

  2
NBSYN
 70
     8
280
     0
  0
ATTDEF
  5
77
330
6E
100
AcDbEntity
  8
AM_6
100
AcDbText
 10
74.85000000000001
 20
53.23
 30
0.0
 40
0.5
  1
129247
100
AcDbAttributeDefinition
  3

  2
LINA
 70
     8
280
     0
  0
ATTDEF
  5
78
330
6E
100
AcDbEntity
  8
AM_6
100
AcDbText
 10
74.85000000000001
 20
52.73
 30
0.0
 40
0.5
  1
205
100
AcDbAttributeDefinition
  3

  2
SERIES
 70
     8
280
     0
  0
ATTDEF
  5
79
330
6E
100
AcDbEntity
  8
AM_6
100
AcDbText
 10
74.85000000000001
 20
52.23
 30
0.0
 40
0.5
  1
25
100
AcDbAttributeDefinition
  3

  2
SS
 70
     8
280
     0
  0
ATTDEF
  5
7A
330
6E
100
AcDbEntity
  8
AM_6
100
AcDbText
 10
74.85000000000001
 20
51.73
 30
0.0
 40
0.5
  1
129247
100
AcDbAttributeDefinition
  3

  2
PN
 70
     8
280
     0
  0
ATTDEF
  5
7B
330
6E
100
AcDbEntity
  8
AM_6
100
AcDbText
 10
74.85000000000001
 20
51.23
 30
0.0
 40
0.5
  1
P2B-GTEZ-25M-PCR
100
AcDbAttributeDefinition
  3

  2
DESCRIPTION
 70
     8
280
     0
  0
ATTDEF
  5
7C
330
6E
100
AcDbEntity
  8
AM_6
100
AcDbText
 10
74.85000000000001
 20
50.73
 30
0.0
 40
0.5
  1
36.9
100
AcDbAttributeDefinition
  3

  2
A
 70
     8
280
     0
  0
ATTDEF
  5
7D
330
6E
100
AcDbEntity
  8
AM_6
100
AcDbText
 10
74.85000000000001
 20
50.23
 30
0.0
 40
0.5
  1
139.7
100
AcDbAttributeDefinition
  3

  2
B
 70
     8
280
     0
  0
ATTDEF
  5
7E
330
6E
100
AcDbEntity
  8
AM_6
100
AcDbText
 10
74.85000000000001
 20
49.73
 30
0.0
 40
0.5
  1
37.7
100
AcDbAttributeDefinition
  3

  2
C
 70
     8
280
     0
  0
ATTDEF
  5
7F
330
6E
100
AcDbEntity
  8
AM_6
100
AcDbText
 10
74.85000000000001
 20
49.23
 30
0.0
 40
0.5
  1
100.8
100
AcDbAttributeDefinition
  3

  2
DMIN
 70
     8
280
     0
  0
ATTDEF
  5
80
330
6E
100
AcDbEntity
  8
AM_6
100
AcDbText
 10
74.85000000000001
 20
48.73
 30
0.0
 40
0.5
  1
106.8
100
AcDbAttributeDefinition
  3

  2
DMAX
 70
     8
280
     0
  0
ATTDEF
  5
81
330
6E
100
AcDbEntity
  8
AM_6
100
AcDbText
 10
74.85000000000001
 20
48.23
 30
0.0
 40
0.5
  1
M10
100
AcDbAttributeDefinition
  3

  2
F
 70
     8
280
     0
  0
ATTDEF
  5
82
330
6E
100
AcDbEntity
  8
AM_6
100
AcDbText
 10
74.85000000000001
 20
47.73
 30
0.0
 40
0.5
  1
15.1
100
AcDbAttributeDefinition
  3

  2
G
 70
     8
280
     0
  0
ATTDEF
  5
83
330
6E
100
AcDbEntity
  8
AM_6
100
AcDbText
 10
74.85000000000001
 20
47.23
 30
0.0
 40
0.5
  1
15.5
100
AcDbAttributeDefinition
  3

  2
H
 70
     8
280
     0
  0
ATTDEF
  5
84
330
6E
100
AcDbEntity
  8
AM_6
100
AcDbText
 10
74.85000000000001
 20
46.73
 30
0.0
 40
0.5
  1
72.6
100
AcDbAttributeDefinition
  3

  2
J
 70
     8
280
     0
  0
ATTDEF
  5
85
330
6E
100
AcDbEntity
  8
AM_6
100
AcDbText
 10
74.85000000000001
 20
46.23
 30
0.0
 40
0.5
  1
45.6
100
AcDbAttributeDefinition
  3

  2
L
 70
     8
280
     0
  0
ATTDEF
  5
86
330
6E
100
AcDbEntity
  8
AM_6
100
AcDbText
 10
74.85000000000001
 20
45.73
 30
0.0
 40
0.5
  1
36.5
100
AcDbAttributeDefinition
  3

  2
M
 70
     8
280
     0
  0
ATTDEF
  5
87
330
6E
100
AcDbEntity
  8
AM_6
100
AcDbText
 10
74.85000000000001
 20
45.23
 30
0.0
 40
0.5
  1
12.8
100
AcDbAttributeDefinition
  3

  2
R
 70
     8
280
     0
  0
ATTDEF
  5
88
330
6E
100
AcDbEntity
  8
AM_6
100
AcDbText
 10
74.85000000000001
 20
44.73
 30
0.0
 40
0.5
  1
24.2
100
AcDbAttributeDefinition
  3

  2
S
 70
     8
280
     0
  0
ATTDEF
  5
89
330
6E
100
AcDbEntity
  8
AM_6
100
AcDbText
 10
74.85000000000001
 20
44.23
 30
0.0
 40
0.5
  1
24.2
100
AcDbAttributeDefinition
  3

  2
Z
 70
     8
280
     0
  0
ATTDEF
  5
8A
330
6E
100
AcDbEntity
  8
AM_6
100
AcDbText
 10
74.85000000000001
 20
43.73
 30
0.0
 40
0.5
  1
baldor
100
AcDbAttributeDefinition
  3

  2
COMPANY
 70
     8
280
     0
  0
INSERT
  5
8C
330
6E
100
AcDbEntity
  8
0
100
AcDbBlockReference
  2
2_INS_GT_05_CR_0_in_129247_0
 10
0.0
 20
0.0
 30
0.0
  0
INSERT
  5
B8
330
6E
100
AcDbEntity
  8
0
100
AcDbBlockReference
  2
3_129981_0_in_129247_0
 10
0.0
 20
0.0
 30
0.0
  0
INSERT
  5
FA
330
6E
100
AcDbEntity
  8
0
100
AcDbBlockReference
  2
4_P2B_GTEZ_05_PCR_0_in_129247_0
 10
0.0
 20
0.0
 30
0.0
  0
ENDBLK
  5
71
330
6E
100
AcDbEntity
  8
0
100
AcDbBlockEnd
  0
BLOCK
  5
8D
330
8B
100
AcDbEntity
  8
0
100
AcDbBlockBegin
  2
2_INS_GT_05_CR_0_in_129247_0
 70
     2
 10
0.0
 20
0.0
 30
0.0
  3
2_INS_GT_05_CR_0_in_129247_0
  1

  0
ATTDEF
  5
8F
330
8B
100
AcDbEntity
  8
AM_6
100
AcDbText
 10
32.05738054452931
 20
27.05738054452931
 30
0.0
 40
0.5
  1
INS-GT-CR-M
100
AcDbAttributeDefinition
  3

  2
NN
 70
     8
280
     0
  0
ATTDEF
  5
90
330
8B
100
AcDbEntity
  8
AM_6
100
AcDbText
 10
32.05738054452931
 20
26.55738054452931
 30
0.0
 40
0.5
  1
GT Normal Duty Corrosion Resistant Bearing Inserts
100
AcDbAttributeDefinition
  3

  2
NT
 70
     8
280
     0
  0
ATTDEF
  5
91
330
8B
100
AcDbEntity
  8
AM_6
100
AcDbText
 10
32.05738054452931
 20
26.05738054452931
 30
0.0
 40
0.5
  1
INS-GT-05-CR
100
AcDbAttributeDefinition
  3

  2
NB
 70
     8
280
     0
  0
ATTDEF
  5
92
330
8B
100
AcDbEntity
  8
AM_6
100
AcDbText
 10
32.05738054452931
 20
25.55738054452931
 30
0.0
 40
0.5
  1
$PN.
100
AcDbAttributeDefinition
  3

  2
NBSYN
 70
     8
280
     0
  0
ATTDEF
  5
93
330
8B
100
AcDbEntity
  8
AM_6
100
AcDbText
 10
32.05738054452931
 20
25.05738054452931
 30
0.0
 40
0.5
  1
INS-GT-05-CR
100
AcDbAttributeDefinition
  3

  2
LINA
 70
     8
280
     0
  0
ATTDEF
  5
94
330
8B
100
AcDbEntity
  8
AM_6
100
AcDbText
 10
32.05738054452931
 20
24.55738054452931
 30
0.0
 40
0.5
  1
205
100
AcDbAttributeDefinition
  3

  2
SERIES
 70
     8
280
     0
  0
ATTDEF
  5
95
330
8B
100
AcDbEntity
  8
AM_6
100
AcDbText
 10
32.05738054452931
 20
24.05738054452931
 30
0.0
 40
0.5
  1
INS-GT-05-CR
100
AcDbAttributeDefinition
  3

  2
PN
 70
     8
280
     0
  0
ATTDEF
  5
96
330
8B
100
AcDbEntity
  8
AM_6
100
AcDbText
 10
32.05738054452931
 20
23.55738054452931
 30
0.0
 40
0.5
  1
INS-GT-05-CR
100
AcDbAttributeDefinition
  3

  2
DESCRIPTION
 70
     8
280
     0
  0
ATTDEF
  5
97
330
8B
100
AcDbEntity
  8
AM_6
100
AcDbText
 10
32.05738054452931
 20
23.05738054452931
 30
0.0
 40
0.5
  1
36.9
100
AcDbAttributeDefinition
  3

  2
A
 70
     8
280
     0
  0
ATTDEF
  5
98
330
8B
100
AcDbEntity
  8
AM_6
100
AcDbText
 10
32.05738054452931
 20
22.55738054452931
 30
0.0
 40
0.5
  1
15.0
100
AcDbAttributeDefinition
  3

  2
C
 70
     8
280
     0
  0
ATTDEF
  5
99
330
8B
100
AcDbEntity
  8
AM_6
100
AcDbText
 10
32.05738054452931
 20
22.05738054452931
 30
0.0
 40
0.5
  1
52.0
100
AcDbAttributeDefinition
  3

  2
D
 70
     8
280
     0
  0
ATTDEF
  5
9A
330
8B
100
AcDbEntity
  8
AM_6
100
AcDbText
 10
32.05738054452931
 20
21.55738054452931
 30
0.0
 40
0.5
  1
3.9
100
AcDbAttributeDefinition
  3

  2
J
 70
     8
280
     0
  0
ATTDEF
  5
9B
330
8B
100
AcDbEntity
  8
AM_6
100
AcDbText
 10
32.05738054452931
 20
21.05738054452931
 30
0.0
 40
0.5
  1
45.6
100
AcDbAttributeDefinition
  3

  2
L
 70
     8
280
     0
  0
ATTDEF
  5
9C
330
8B
100
AcDbEntity
  8
AM_6
100
AcDbText
 10
32.05738054452931
 20
20.55738054452931
 30
0.0
 40
0.5
  1
10 - 32 x 1/4
100
AcDbAttributeDefinition
  3

  2
N
 70
     8
280
     0
  0
ATTDEF
  5
9D
330
8B
100
AcDbEntity
  8
AM_6
100
AcDbText
 10
32.05738054452931
 20
20.05738054452931
 30
0.0
 40
0.5
  1
12.7
100
AcDbAttributeDefinition
  3

  2
W
 70
     8
280
     0
  0
ATTDEF
  5
9E
330
8B
100
AcDbEntity
  8
AM_6
100
AcDbText
 10
32.05738054452931
 20
19.55738054452931
 30
0.0
 40
0.5
  1
24.2
100
AcDbAttributeDefinition
  3

  2
X
 70
     8
280
     0
  0
ATTDEF
  5
9F
330
8B
100
AcDbEntity
  8
AM_6
100
AcDbText
 10
32.05738054452931
 20
19.05738054452931
 30
0.0
 40
0.5
  1
24.2
100
AcDbAttributeDefinition
  3

  2
Y
 70
     8
280
     0
  0
ATTDEF
  5
A0
330
8B
100
AcDbEntity
  8
AM_6
100
AcDbText
 10
32.05738054452931
 20
18.55738054452931
 30
0.0
 40
0.5
  1
baldor
100
AcDbAttributeDefinition
  3

  2
COMPANY
 70
     8
280
     0
  0
CIRCLE
  5
A3
330
8B
100
AcDbEntity
  8
AM_9
100
AcDbCircle
 10
0.0
 20
0.0
 30
0.0
 40
17.7255741879521
  0
ARC
  5
A4
330
8B
100
AcDbEntity
  8
AM_9
100
AcDbCircle
 10
0.0
 20
0.0
 30
0.0
 40
26.00000000000001
100
AcDbArc
 50
193.7873528087458
 51
346.2126471912542
  0
CIRCLE
  5
A5
330
8B
100
AcDbEntity
  8
AM_9
100
AcDbCircle
 10
0.0
 20
0.0
 30
0.0
 40
24.5
  0
CIRCLE
  5
A6
330
8B
100
AcDbEntity
  8
AM_9
100
AcDbCircle
 10
0.0
 20
0.0
 30
0.0
 40
25.23749182788348
  0
CIRCLE
  5
A7
330
8B
100
AcDbEntity
  8
AM_9
100
AcDbCircle
 10
0.0
 20
0.0
 30
0.0
 40
18.63809523809524
  0
CIRCLE
  5
A8
330
8B
100
AcDbEntity
  8
AM_9
100
AcDbCircle
 10
0.0
 20
0.0
 30
0.0
 40
20.26666666666667
  0
ARC
  5
A9
330
8B
100
AcDbEntity
  8
AM_9
100
AcDbCircle
 10
-0.0000000000000403
 20
-0.0000000000000022
 30
0.0
 40
17.00952380952382
100
AcDbArc
 50
94.2004647359787
 51
85.8256583342067
  0
CIRCLE
  5
AA
330
8B
100
AcDbEntity
  8
AM_9
100
AcDbCircle
 10
0.0
 20
0.0
 30
0.0
 40
19.66666666666666
  0
LINE
  5
AD
330
8B
100
AcDbEntity
  8
AM_7
100
AcDbLine
 10
-27.05738054452931
 20
0.0
 30
0.0
 11
27.05738054452931
 21
0.0
 31
0.0
  0
LINE
  5
AE
330
8B
100
AcDbEntity
  8
AM_7
100
AcDbLine
 10
0.0
 20
-27.05738054452931
 30
0.0
 11
0.0
 21
27.05738054452931
 31
0.0
  0
CIRCLE
  5
B0
330
8B
100
AcDbEntity
  8
AM_4
100
AcDbCircle
 10
0.0
 20
0.0
 30
0.0
 40
25.62071128384087
  0
CIRCLE
  5
B1
330
8B
100
AcDbEntity
  8
AM_4
100
AcDbCircle
 10
0.0
 20
0.0
 30
0.0
 40
25.76893385193268
  0
CIRCLE
  5
B2
330
8B
100
AcDbEntity
  8
AM_4
100
AcDbCircle
 10
0.0
 20
0.0
 30
0.0
 40
25.38749182788348
  0
CIRCLE
  5
B3
330
8B
100
AcDbEntity
  8
AM_4
100
AcDbCircle
 10
0.0
 20
0.0
 30
0.0
 40
25.38274369757587
  0
CIRCLE
  5
B4
330
8B
100
AcDbEntity
  8
AM_4
100
AcDbCircle
 10
0.0
 20
0.0
 30
0.0
 40
24.65403979828546
  0
CIRCLE
  5
B5
330
8B
100
AcDbEntity
  8
AM_4
100
AcDbCircle
 10
0.0
 20
0.0
 30
0.0
 40
24.09545395833822
  0
ARC
  5
B6
330
8B
100
AcDbEntity
  8
AM_4
100
AcDbCircle
 10
-0.0000000000000159
 20
-0.0000000000003837
 30
0.0
 40
17.0095238095242
100
AcDbArc
 50
85.82565833420688
 51
94.2004647359787
  0
ENDBLK
  5
8E
330
8B
100
AcDbEntity
  8
0
100
AcDbBlockEnd
  0
BLOCK
  5
B9
330
B7
100
AcDbEntity
  8
0
100
AcDbBlockBegin
  2
3_129981_0_in_129247_0
 70
     2
 10
0.0
 20
0.0
 30
0.0
  3
3_129981_0_in_129247_0
  1

  0
ATTDEF
  5
BB
330
B7
100
AcDbEntity
  8
AM_6
100
AcDbText
 10
27.71645879092955
 20
22.79548772041931
 30
0.0
 40
0.5
  1
Grip Tight Adapter and Nut - Corrosion Resistant Metric Bore
100
AcDbAttributeDefinition
  3

  2
NN
 70
     8
280
     0
  0
ATTDEF
  5
BC
330
B7
100
AcDbEntity
  8
AM_6
100
AcDbText
 10
27.71645879092955
 20
22.29548772041931
 30
0.0
 40
0.5
  1
GT and GTM Adapter & Lock Nut Assemblies
100
AcDbAttributeDefinition
  3

  2
NT
 70
     8
280
     0
  0
ATTDEF
  5
BD
330
B7
100
AcDbEntity
  8
AM_6
100
AcDbText
 10
27.71645879092955
 20
21.79548772041931
 30
0.0
 40
0.5
  1
129981
100
AcDbAttributeDefinition
  3

  2
NB
 70
     8
280
     0
  0
ATTDEF
  5
BE
330
B7
100
AcDbEntity
  8
AM_6
100
AcDbText
 10
27.71645879092955
 20
21.29548772041931
 30
0.0
 40
0.5
  1
$PN.
100
AcDbAttributeDefinition
  3

  2
NBSYN
 70
     8
280
     0
  0
ATTDEF
  5
BF
330
B7
100
AcDbEntity
  8
AM_6
100
AcDbText
 10
27.71645879092955
 20
20.79548772041931
 30
0.0
 40
0.5
  1
129981
100
AcDbAttributeDefinition
  3

  2
LINA
 70
     8
280
     0
  0
ATTDEF
  5
C0
330
B7
100
AcDbEntity
  8
AM_6
100
AcDbText
 10
27.71645879092955
 20
20.29548772041931
 30
0.0
 40
0.5
  1
205
100
AcDbAttributeDefinition
  3

  2
SERIES
 70
     8
280
     0
  0
ATTDEF
  5
C1
330
B7
100
AcDbEntity
  8
AM_6
100
AcDbText
 10
27.71645879092955
 20
19.79548772041931
 30
0.0
 40
0.5
  1
25
100
AcDbAttributeDefinition
  3

  2
SS
 70
     8
280
     0
  0
ATTDEF
  5
C2
330
B7
100
AcDbEntity
  8
AM_6
100
AcDbText
 10
27.71645879092955
 20
19.29548772041931
 30
0.0
 40
0.5
  1
129981
100
AcDbAttributeDefinition
  3

  2
PN
 70
     8
280
     0
  0
ATTDEF
  5
C3
330
B7
100
AcDbEntity
  8
AM_6
100
AcDbText
 10
27.71645879092955
 20
18.79548772041931
 30
0.0
 40
0.5
  1
AN-GT-05-25M-CR
100
AcDbAttributeDefinition
  3

  2
DESCRIPTION
 70
     8
280
     0
  0
ATTDEF
  5
C4
330
B7
100
AcDbEntity
  8
AM_6
100
AcDbText
 10
27.71645879092955
 20
18.29548772041931
 30
0.0
 40
0.5
  1
36.9
100
AcDbAttributeDefinition
  3

  2
A
 70
     8
280
     0
  0
ATTDEF
  5
C5
330
B7
100
AcDbEntity
  8
AM_6
100
AcDbText
 10
27.71645879092955
 20
17.79548772041931
 30
0.0
 40
0.5
  1
15.0
100
AcDbAttributeDefinition
  3

  2
C
 70
     8
280
     0
  0
ATTDEF
  5
C6
330
B7
100
AcDbEntity
  8
AM_6
100
AcDbText
 10
27.71645879092955
 20
17.29548772041931
 30
0.0
 40
0.5
  1
52.0
100
AcDbAttributeDefinition
  3

  2
D
 70
     8
280
     0
  0
ATTDEF
  5
C7
330
B7
100
AcDbEntity
  8
AM_6
100
AcDbText
 10
27.71645879092955
 20
16.79548772041931
 30
0.0
 40
0.5
  1
3.9
100
AcDbAttributeDefinition
  3

  2
J
 70
     8
280
     0
  0
ATTDEF
  5
C8
330
B7
100
AcDbEntity
  8
AM_6
100
AcDbText
 10
27.71645879092955
 20
16.29548772041931
 30
0.0
 40
0.5
  1
45.6
100
AcDbAttributeDefinition
  3

  2
L
 70
     8
280
     0
  0
ATTDEF
  5
C9
330
B7
100
AcDbEntity
  8
AM_6
100
AcDbText
 10
27.71645879092955
 20
15.79548772041931
 30
0.0
 40
0.5
  1
10 - 32 x 1/4
100
AcDbAttributeDefinition
  3

  2
N
 70
     8
280
     0
  0
ATTDEF
  5
CA
330
B7
100
AcDbEntity
  8
AM_6
100
AcDbText
 10
27.71645879092955
 20
15.29548772041931
 30
0.0
 40
0.5
  1
12.7
100
AcDbAttributeDefinition
  3

  2
W
 70
     8
280
     0
  0
ATTDEF
  5
CB
330
B7
100
AcDbEntity
  8
AM_6
100
AcDbText
 10
27.71645879092955
 20
14.79548772041931
 30
0.0
 40
0.5
  1
24.2
100
AcDbAttributeDefinition
  3

  2
X
 70
     8
280
     0
  0
ATTDEF
  5
CC
330
B7
100
AcDbEntity
  8
AM_6
100
AcDbText
 10
27.71645879092955
 20
14.29548772041931
 30
0.0
 40
0.5
  1
24.2
100
AcDbAttributeDefinition
  3

  2
Y
 70
     8
280
     0
  0
ATTDEF
  5
CD
330
B7
100
AcDbEntity
  8
AM_6
100
AcDbText
 10
27.71645879092955
 20
13.79548772041931
 30
0.0
 40
0.5
  1
baldor
100
AcDbAttributeDefinition
  3

  2
COMPANY
 70
     8
280
     0
  0
LINE
  5
CE
330
B7
100
AcDbEntity
  8
AM_9
100
AcDbLine
 10
1.25
 20
17.00977505789123
 30
0.0
 11
1.25
 21
17.72590430734876
 31
0.0
  0
LINE
  5
CF
330
B7
100
AcDbEntity
  8
AM_9
100
AcDbLine
 10
-1.25
 20
17.00977505789123
 30
0.0
 11
-1.25
 21
17.72590430734876
 31
0.0
  0
ARC
  5
D0
330
B7
100
AcDbEntity
  8
AM_9
100
AcDbCircle
 10
0.0000000000000001
 20
-0.0000000000000006
 30
0.0
 40
17.76992356520662
100
AcDbArc
 50
94.03372141977252
 51
85.96627858022747
  0
CIRCLE
  5
D1
330
B7
100
AcDbEntity
  8
AM_9
100
AcDbCircle
 10
0.0
 20
0.0
 30
0.0
 40
18.63809523809523
  0
CIRCLE
  5
D2
330
B7
100
AcDbEntity
  8
AM_9
100
AcDbCircle
 10
0.0
 20
0.0
 30
0.0
 40
20.49466666666667
  0
ARC
  5
D3
330
B7
100
AcDbEntity
  8
AM_9
100
AcDbCircle
 10
0.0
 20
-0.0000000000000013
 30
0.0
 40
17.0095238095238
100
AcDbArc
 50
94.21436521923737
 51
85.78563478076265
  0
LINE
  5
D4
330
B7
100
AcDbEntity
  8
AM_9
100
AcDbLine
 10
-22.3682
 20
-1.981200000000003
 30
0.0
 11
-17.5318
 21
-1.981200000000003
 31
0.0
  0
LINE
  5
D5
330
B7
100
AcDbEntity
  8
AM_9
100
AcDbLine
 10
-17.5318
 20
1.981200000000003
 30
0.0
 11
-22.3682
 21
1.981200000000003
 31
0.0
  0
LINE
  5
D6
330
B7
100
AcDbEntity
  8
AM_9
100
AcDbLine
 10
-17.5318
 20
-1.981200000000003
 30
0.0
 11
-17.1
 21
-2.413000000000002
 31
0.0
  0
LINE
  5
D7
330
B7
100
AcDbEntity
  8
AM_9
100
AcDbLine
 10
-17.1
 20
2.413000000000002
 30
0.0
 11
-17.5318
 21
1.981200000000003
 31
0.0
  0
LINE
  5
D8
330
B7
100
AcDbEntity
  8
AM_9
100
AcDbLine
 10
-17.1
 20
2.413000000000002
 30
0.0
 11
-17.1
 21
-2.413000000000002
 31
0.0
  0
LINE
  5
D9
330
B7
100
AcDbEntity
  8
AM_9
100
AcDbLine
 10
-17.5318
 20
1.981200000000003
 30
0.0
 11
-17.5318
 21
-1.981200000000003
 31
0.0
  0
LINE
  5
DA
330
B7
100
AcDbEntity
  8
AM_9
100
AcDbLine
 10
-22.3682
 20
1.981200000000003
 30
0.0
 11
-22.68012820284025
 21
2.293128202840258
 31
0.0
  0
LINE
  5
DB
330
B7
100
AcDbEntity
  8
AM_9
100
AcDbLine
 10
-22.6814006730283
 20
-2.294400673028298
 30
0.0
 11
-22.3682
 21
-1.981200000000003
 31
0.0
  0
LINE
  5
DC
330
B7
100
AcDbEntity
  8
AM_9
100
AcDbLine
 10
-22.3682
 20
1.981200000000003
 30
0.0
 11
-22.3682
 21
-1.981200000000003
 31
0.0
  0
LWPOLYLINE
  5
DD
330
B7
100
AcDbEntity
  8
AM_9
100
AcDbPolyline
 90
       10
 70
     0
 43
0.0
 10
-22.79188949001808
 20
0.608090021957014
 10
-22.78638550387028
 20
0.7878043342166127
 10
-22.77269998078226
 20
1.115408259463513
 10
-22.75566320576637
 20
1.421193887451867
 10
-22.73720277170957
 20
1.691038177618365
 10
-22.7189042142356
 20
1.921299379167071
 10
-22.70283335700977
 20
2.102702443011056
 10
-22.69083308501306
 20
2.228473447918336
 10
-22.68463746362819
 20
2.290681807618941
 10
-22.68399869910178
 20
2.296998698116497
  0
LINE
  5
DE
330
B7
100
AcDbEntity
  8
AM_9
100
AcDbLine
 10
-22.79101510390193
 20
-0.6400238540196302
 30
0.0
 11
-22.79184213147647
 21
-0.6098624876592722
 31
0.0
  0
LWPOLYLINE
  5
DF
330
B7
100
AcDbEntity
  8
AM_9
100
AcDbPolyline
 90
        6
 70
     0
 43
0.0
 10
-22.68965548486205
 20
-2.240431649988344
 10
-22.70066928476935
 20
-2.125938386578868
 10
-22.71768182998211
 20
-1.935699427003276
 10
-22.73705293566594
 20
-1.693051623762492
 10
-22.757780624798
 20
-1.386874555815604
 10
-22.76712142897243
 20
-1.224002384974813
  0
LINE
  5
E0
330
B7
100
AcDbEntity
  8
AM_9
100
AcDbLine
 10
-22.68399869953785
 20
-2.296998693810143
 30
0.0
 11
-22.68965548486205
 21
-2.240431649988344
 31
0.0
  0
LINE
  5
E2
330
B7
100
AcDbEntity
  8
AM_5
100
AcDbLine
 10
-22.67195251847533
 20
-2.413000000000002
 30
0.0
 11
-17.1
 21
-2.413000000000002
 31
0.0
  0
LINE
  5
E3
330
B7
100
AcDbEntity
  8
AM_5
100
AcDbLine
 10
-22.67195251847533
 20
2.412999999999998
 30
0.0
 11
-17.1
 21
2.412999999999998
 31
0.0
  0
LINE
  5
E4
330
B7
100
AcDbEntity
  8
AM_4
100
AcDbLine
 10
21.27999493331644
 20
-1.95
 30
0.0
 11
22.71645879092954
 21
-1.95
 31
0.0
  0
LINE
  5
E5
330
B7
100
AcDbEntity
  8
AM_4
100
AcDbLine
 10
-9.669479858085111
 20
-20.64803039696732
 30
0.0
 11
-8.951247929278564
 21
-19.40401620465618
 31
0.0
  0
ARC
  5
E6
330
B7
100
AcDbEntity
  8
AM_4
100
AcDbCircle
 10
-0.0000000000000033
 20
0.0000000000000071
 30
0.0
 40
22.80000000000001
100
AcDbArc
 50
244.9062907576422
 51
355.0937092423578
  0
LINE
  5
E7
330
B7
100
AcDbEntity
  8
AM_4
100
AcDbLine
 10
22.71645879092954
 20
1.95
 30
0.0
 11
21.27999493331645
 21
1.95
 31
0.0
  0
LINE
  5
E8
330
B7
100
AcDbEntity
  8
AM_4
100
AcDbLine
 10
-8.951247929278576
 20
19.40401620465618
 30
0.0
 11
-9.669479858085127
 21
20.64803039696731
 31
0.0
  0
ARC
  5
E9
330
B7
100
AcDbEntity
  8
AM_4
100
AcDbCircle
 10
0.0000000000000036
 20
0.0000000000000036
 30
0.0
 40
22.8
100
AcDbArc
 50
4.906290757642299
 51
115.0937092423578
  0
LINE
  5
EA
330
B7
100
AcDbEntity
  8
AM_4
100
AcDbLine
 10
-12.32874700403787
 20
-17.45401620465618
 30
0.0
 11
-13.04697893284442
 21
-18.69803039696732
 31
0.0
  0
LINE
  5
EB
330
B7
100
AcDbEntity
  8
AM_4
100
AcDbLine
 10
-13.04697893284443
 20
18.69803039696732
 30
0.0
 11
-12.32874700403788
 21
17.45401620465617
 31
0.0
  0
ARC
  5
EC
330
B7
100
AcDbEntity
  8
AM_4
100
AcDbCircle
 10
0.0000000000000178
 20
-0.0000000000000036
 30
0.0
 40
22.80000000000001
100
AcDbArc
 50
124.9062907576423
 51
178.4566437385238
  0
LWPOLYLINE
  5
ED
330
B7
100
AcDbEntity
  8
AM_4
100
AcDbPolyline
 90
        3
 70
     0
 43
0.0
 10
-22.79172885369209
 20
0.6140813136545675
 10
-22.75601037937264
 20
0.0104777792177353
 10
-22.7917288536921
 20
-0.6140813136542685
  0
ARC
  5
EE
330
B7
100
AcDbEntity
  8
AM_4
100
AcDbCircle
 10
0.0000000000000746
 20
0.0000000000000515
 30
0.0
 40
22.80000000000009
100
AcDbArc
 50
181.5433562614753
 51
235.0937092423576
  0
LINE
  5
EF
330
B7
100
AcDbEntity
  8
AM_4
100
AcDbLine
 10
1.25
 20
17.00952380952381
 30
0.0
 11
1.25
 21
12.43734296383275
 31
0.0
  0
ARC
  5
F0
330
B7
100
AcDbEntity
  8
AM_4
100
AcDbCircle
 10
0.0
 20
0.000000000000001
 30
0.0
 40
12.5
100
AcDbArc
 50
95.7391704772668
 51
84.26082952273322
  0
LINE
  5
F1
330
B7
100
AcDbEntity
  8
AM_4
100
AcDbLine
 10
-1.25
 20
17.00952380952381
 30
0.0
 11
-1.25
 21
12.43734296383275
 31
0.0
  0
LINE
  5
F2
330
B7
100
AcDbEntity
  8
AM_4
100
AcDbLine
 10
1.25
 20
17.00952380952381
 30
0.0
 11
-1.25
 21
17.00952380952381
 31
0.0
  0
LINE
  5
F3
330
B7
100
AcDbEntity
  8
AM_4
100
AcDbLine
 10
21.27999493331645
 20
1.95
 30
0.0
 11
21.27999493331644
 21
-1.95
 31
0.0
  0
ARC
  5
F4
330
B7
100
AcDbEntity
  8
AM_4
100
AcDbCircle
 10
-0.0000000000000071
 20
-0.0000000000000142
 30
0.0
 40
22.20000000000001
100
AcDbArc
 50
5.039231631771594
 51
114.9607683682285
  0
LINE
  5
F5
330
B7
100
AcDbEntity
  8
AM_4
100
AcDbLine
 10
-12.32874700403788
 20
17.45401620465617
 30
0.0
 11
-8.951247929278576
 21
19.40401620465618
 31
0.0
  0
ARC
  5
F6
330
B7
100
AcDbEntity
  8
AM_4
100
AcDbCircle
 10
0.0000000000000071
 20
-0.0000000000000018
 30
0.0
 40
22.20000000000001
100
AcDbArc
 50
125.0392316317715
 51
234.9607683682285
  0
LINE
  5
F7
330
B7
100
AcDbEntity
  8
AM_4
100
AcDbLine
 10
-8.951247929278564
 20
-19.40401620465618
 30
0.0
 11
-12.32874700403787
 21
-17.45401620465618
 31
0.0
  0
ARC
  5
F8
330
B7
100
AcDbEntity
  8
AM_4
100
AcDbCircle
 10
-0.0000000000000012
 20
0.0
 30
0.0
 40
22.2
100
AcDbArc
 50
245.0392316317715
 51
354.9607683682285
  0
ENDBLK
  5
BA
330
B7
100
AcDbEntity
  8
0
100
AcDbBlockEnd
  0
BLOCK
  5
FB
330
F9
100
AcDbEntity
  8
0
100
AcDbBlockBegin
  2
4_P2B_GTEZ_05_PCR_0_in_129247_0
 70
     2
 10
0.0
 20
0.0
 30
0.0
  3
4_P2B_GTEZ_05_PCR_0_in_129247_0
  1

  0
ATTDEF
  5
FD
330
F9
100
AcDbEntity
  8
AM_6
100
AcDbText
 10
74.85000000000001
 20
55.23
 30
0.0
 40
0.5
  1
P2B-GTEZ-PCR-M-Body
100
AcDbAttributeDefinition
  3

  2
NN
 70
     8
280
     0
  0
ATTDEF
  5
FE
330
F9
100
AcDbEntity
  8
AM_6
100
AcDbText
 10
74.85000000000001
 20
54.73
 30
0.0
 40
0.5
  1
GTEZ Normal Duty Polymer Housed Pillow Blocks
100
AcDbAttributeDefinition
  3

  2
NT
 70
     8
280
     0
  0
ATTDEF
  5
FF
330
F9
100
AcDbEntity
  8
AM_6
100
AcDbText
 10
74.85000000000001
 20
54.23
 30
0.0
 40
0.5
  1
P2B-GTEZ-05-PCR
100
AcDbAttributeDefinition
  3

  2
NB
 70
     8
280
     0
  0
ATTDEF
  5
100
330
F9
100
AcDbEntity
  8
AM_6
100
AcDbText
 10
74.85000000000001
 20
53.73
 30
0.0
 40
0.5
  1
$PN.$LUBE.
100
AcDbAttributeDefinition
  3

  2
NBSYN
 70
     8
280
     0
  0
ATTDEF
  5
101
330
F9
100
AcDbEntity
  8
AM_6
100
AcDbText
 10
74.85000000000001
 20
53.23
 30
0.0
 40
0.5
  1
P2B-GTEZ-05-PCR
100
AcDbAttributeDefinition
  3

  2
LINA
 70
     8
280
     0
  0
ATTDEF
  5
102
330
F9
100
AcDbEntity
  8
AM_6
100
AcDbText
 10
74.85000000000001
 20
52.73
 30
0.0
 40
0.5
  1
205
100
AcDbAttributeDefinition
  3

  2
SERIES
 70
     8
280
     0
  0
ATTDEF
  5
103
330
F9
100
AcDbEntity
  8
AM_6
100
AcDbText
 10
74.85000000000001
 20
52.23
 30
0.0
 40
0.5
  1
P2B-GTEZ-05-PCR
100
AcDbAttributeDefinition
  3

  2
PN
 70
     8
280
     0
  0
ATTDEF
  5
104
330
F9
100
AcDbEntity
  8
AM_6
100
AcDbText
 10
74.85000000000001
 20
51.73
 30
0.0
 40
0.5
  1
P2B-GTEZ-05-PCR
100
AcDbAttributeDefinition
  3

  2
DESCRIPTION
 70
     8
280
     0
  0
ATTDEF
  5
105
330
F9
100
AcDbEntity
  8
AM_6
100
AcDbText
 10
74.85000000000001
 20
51.23
 30
0.0
 40
0.5
  1
With Lube
100
AcDbAttributeDefinition
  3

  2
LUBE
 70
     8
280
     0
  0
ATTDEF
  5
106
330
F9
100
AcDbEntity
  8
AM_6
100
AcDbText
 10
74.85000000000001
 20
50.73
 30
0.0
 40
0.5
  1
52.0
100
AcDbAttributeDefinition
  3

  2
BOD
 70
     8
280
     0
  0
ATTDEF
  5
107
330
F9
100
AcDbEntity
  8
AM_6
100
AcDbText
 10
74.85000000000001
 20
50.23
 30
0.0
 40
0.5
  1
36.9
100
AcDbAttributeDefinition
  3

  2
A
 70
     8
280
     0
  0
ATTDEF
  5
108
330
F9
100
AcDbEntity
  8
AM_6
100
AcDbText
 10
74.85000000000001
 20
49.73
 30
0.0
 40
0.5
  1
139.7
100
AcDbAttributeDefinition
  3

  2
B
 70
     8
280
     0
  0
ATTDEF
  5
109
330
F9
100
AcDbEntity
  8
AM_6
100
AcDbText
 10
74.85000000000001
 20
49.23
 30
0.0
 40
0.5
  1
37.7
100
AcDbAttributeDefinition
  3

  2
C
 70
     8
280
     0
  0
ATTDEF
  5
10A
330
F9
100
AcDbEntity
  8
AM_6
100
AcDbText
 10
74.85000000000001
 20
48.73
 30
0.0
 40
0.5
  1
100.8
100
AcDbAttributeDefinition
  3

  2
DMIN
 70
     8
280
     0
  0
ATTDEF
  5
10B
330
F9
100
AcDbEntity
  8
AM_6
100
AcDbText
 10
74.85000000000001
 20
48.23
 30
0.0
 40
0.5
  1
106.8
100
AcDbAttributeDefinition
  3

  2
DMAX
 70
     8
280
     0
  0
ATTDEF
  5
10C
330
F9
100
AcDbEntity
  8
AM_6
100
AcDbText
 10
74.85000000000001
 20
47.73
 30
0.0
 40
0.5
  1
M10
100
AcDbAttributeDefinition
  3

  2
F
 70
     8
280
     0
  0
ATTDEF
  5
10D
330
F9
100
AcDbEntity
  8
AM_6
100
AcDbText
 10
74.85000000000001
 20
47.23
 30
0.0
 40
0.5
  1
15.1
100
AcDbAttributeDefinition
  3

  2
G
 70
     8
280
     0
  0
ATTDEF
  5
10E
330
F9
100
AcDbEntity
  8
AM_6
100
AcDbText
 10
74.85000000000001
 20
46.73
 30
0.0
 40
0.5
  1
15.5
100
AcDbAttributeDefinition
  3

  2
H
 70
     8
280
     0
  0
ATTDEF
  5
10F
330
F9
100
AcDbEntity
  8
AM_6
100
AcDbText
 10
74.85000000000001
 20
46.23
 30
0.0
 40
0.5
  1
72.6
100
AcDbAttributeDefinition
  3

  2
J
 70
     8
280
     0
  0
ATTDEF
  5
110
330
F9
100
AcDbEntity
  8
AM_6
100
AcDbText
 10
74.85000000000001
 20
45.73
 30
0.0
 40
0.5
  1
45.6
100
AcDbAttributeDefinition
  3

  2
L
 70
     8
280
     0
  0
ATTDEF
  5
111
330
F9
100
AcDbEntity
  8
AM_6
100
AcDbText
 10
74.85000000000001
 20
45.23
 30
0.0
 40
0.5
  1
36.5
100
AcDbAttributeDefinition
  3

  2
M
 70
     8
280
     0
  0
ATTDEF
  5
112
330
F9
100
AcDbEntity
  8
AM_6
100
AcDbText
 10
74.85000000000001
 20
44.73
 30
0.0
 40
0.5
  1
12.8
100
AcDbAttributeDefinition
  3

  2
R
 70
     8
280
     0
  0
ATTDEF
  5
113
330
F9
100
AcDbEntity
  8
AM_6
100
AcDbText
 10
74.85000000000001
 20
44.23
 30
0.0
 40
0.5
  1
24.2
100
AcDbAttributeDefinition
  3

  2
S
 70
     8
280
     0
  0
ATTDEF
  5
114
330
F9
100
AcDbEntity
  8
AM_6
100
AcDbText
 10
74.85000000000001
 20
43.73
 30
0.0
 40
0.5
  1
24.2
100
AcDbAttributeDefinition
  3

  2
Z
 70
     8
280
     0
  0
ATTDEF
  5
115
330
F9
100
AcDbEntity
  8
AM_6
100
AcDbText
 10
74.85000000000001
 20
43.23
 30
0.0
 40
0.5
  1
baldor
100
AcDbAttributeDefinition
  3

  2
COMPANY
 70
     8
280
     0
  0
LINE
  5
116
330
F9
100
AcDbEntity
  8
AM_9
100
AcDbLine
 10
50.4
 20
-21.0
 30
0.0
 11
50.4
 21
-36.5
 31
0.0
  0
LINE
  5
117
330
F9
100
AcDbEntity
  8
AM_9
100
AcDbLine
 10
44.35
 20
-21.0
 30
0.0
 11
44.35
 21
-36.5
 31
0.0
  0
LINE
  5
118
330
F9
100
AcDbEntity
  8
AM_9
100
AcDbLine
 10
-53.4
 20
-21.0
 30
0.0
 11
-53.4
 21
-36.5
 31
0.0
  0
LINE
  5
119
330
F9
100
AcDbEntity
  8
AM_9
100
AcDbLine
 10
-59.45
 20
-21.0
 30
0.0
 11
-59.45
 21
-36.5
 31
0.0
  0
LINE
  5
11A
330
F9
100
AcDbEntity
  8
AM_9
100
AcDbLine
 10
53.40000000000001
 20
-21.0
 30
0.0
 11
53.40000000000001
 21
-36.5
 31
0.0
  0
LINE
  5
11B
330
F9
100
AcDbEntity
  8
AM_9
100
AcDbLine
 10
59.45
 20
-36.5
 30
0.0
 11
59.45
 21
-21.0
 31
0.0
  0
LINE
  5
11C
330
F9
100
AcDbEntity
  8
AM_9
100
AcDbLine
 10
-50.4
 20
-21.0
 30
0.0
 11
-50.4
 21
-36.5
 31
0.0
  0
LINE
  5
11D
330
F9
100
AcDbEntity
  8
AM_9
100
AcDbLine
 10
-44.35
 20
-36.5
 30
0.0
 11
-44.35
 21
-21.0
 31
0.0
  0
LINE
  5
11E
330
F9
100
AcDbEntity
  8
AM_9
100
AcDbLine
 10
35.32
 20
9.63564145504458
 30
0.0
 11
35.32
 21
-21.0
 31
0.0
  0
LINE
  5
11F
330
F9
100
AcDbEntity
  8
AM_9
100
AcDbLine
 10
-35.32
 20
-21.0
 30
0.0
 11
-35.32
 21
9.635641455044627
 31
0.0
  0
LINE
  5
120
330
F9
100
AcDbEntity
  8
AM_7
100
AcDbLine
 10
50.4
 20
-24.63
 30
0.0
 11
50.4
 21
55.23
 31
0.0
  0
LINE
  5
121
330
F9
100
AcDbEntity
  8
AM_7
100
AcDbLine
 10
-50.4
 20
-24.63
 30
0.0
 11
-50.4
 21
55.23
 31
0.0
  0
LINE
  5
122
330
F9
100
AcDbEntity
  8
AM_7
100
AcDbLine
 10
21.38366713009164
 20
21.38366713009171
 30
0.0
 11
34.02779195963917
 21
34.02779195963919
 31
0.0
  0
LINE
  5
123
330
F9
100
AcDbEntity
  8
AM_4
100
AcDbLine
 10
33.99980125781352
 20
31.69588775651073
 30
0.0
 11
31.69588783615825
 21
33.999801178166
 31
0.0
  0
ARC
  5
124
330
F9
100
AcDbEntity
  8
AM_4
100
AcDbCircle
 10
31.55446640027344
 20
33.85837990157634
 30
0.0
 40
0.1999999999999016
100
AcDbArc
 50
44.99999999999351
 51
107.3005271919694
  0
ARC
  5
125
330
F9
100
AcDbEntity
  8
AM_4
100
AcDbCircle
 10
33.85837990157629
 20
31.55446640027345
 30
0.0
 40
0.199999999999918
100
AcDbArc
 50
342.6994728080353
 51
45.00000000000576
  0
LINE
  5
126
330
F9
100
AcDbEntity
  8
AM_4
100
AcDbLine
 10
32.10749990034358
 20
25.57552725292184
 30
0.0
 11
31.78718433538227
 21
26.13033008588996
 31
0.0
  0
LINE
  5
127
330
F9
100
AcDbEntity
  8
AM_4
100
AcDbLine
 10
31.78718433538227
 20
26.13033008588996
 30
0.0
 11
26.13033008588991
 21
31.78718433538234
 31
0.0
  0
LINE
  5
128
330
F9
100
AcDbEntity
  8
AM_4
100
AcDbLine
 10
29.31231060122934
 20
23.65545635173704
 30
0.0
 11
29.86711343419747
 21
23.33514078677572
 31
0.0
  0
LINE
  5
129
330
F9
100
AcDbEntity
  8
AM_4
100
AcDbLine
 10
29.31231060122934
 20
23.65545635173704
 30
0.0
 11
23.65545635173699
 21
29.31231060122941
 31
0.0
  0
LINE
  5
12A
330
F9
100
AcDbEntity
  8
AM_4
100
AcDbLine
 10
23.33514078677567
 20
29.86711343419755
 30
0.0
 11
23.65545635173699
 21
29.31231060122941
 31
0.0
  0
LINE
  5
12B
330
F9
100
AcDbEntity
  8
AM_4
100
AcDbLine
 10
26.13033008588991
 20
31.78718433538234
 30
0.0
 11
25.57552725292179
 21
32.10749990034365
 31
0.0
  0
LINE
  5
12C
330
F9
100
AcDbEntity
  8
AM_4
100
AcDbLine
 10
34.04933151422544
 20
31.49498966846463
 30
0.0
 11
31.4949896684646
 21
34.04933151422546
 31
0.0
  0
LINE
  5
12D
330
F9
100
AcDbEntity
  8
AM_4
100
AcDbLine
 10
31.4949896684646
 20
34.04933151422546
 30
0.0
 11
29.78124267548011
 21
33.5155414672303
 31
0.0
  0
LINE
  5
12E
330
F9
100
AcDbEntity
  8
AM_4
100
AcDbLine
 10
33.51554146723026
 20
29.78124267548014
 30
0.0
 11
34.04933151422544
 21
31.49498966846463
 31
0.0
  0
LINE
  5
12F
330
F9
100
AcDbEntity
  8
AM_4
100
AcDbLine
 10
33.51554146723027
 20
29.78124267548014
 30
0.0
 11
29.7812426754801
 21
33.5155414672303
 31
0.0
  0
ARC
  5
130
330
F9
100
AcDbEntity
  8
AM_4
100
AcDbCircle
 10
29.929934505002
 20
33.03816243560722
 30
0.0
 40
0.4999999999999589
100
AcDbArc
 50
107.30052719194
 51
172.2172705265716
  0
ARC
  5
131
330
F9
100
AcDbEntity
  8
AM_4
100
AcDbCircle
 10
33.03816243560716
 20
29.92993450500207
 30
0.0
 40
0.500000000000003
100
AcDbArc
 50
277.782729473431
 51
342.699472808057
  0
LINE
  5
132
330
F9
100
AcDbEntity
  8
AM_4
100
AcDbLine
 10
33.10587089939564
 20
29.43454015306475
 30
0.0
 11
29.43454015306472
 21
33.10587089939568
 31
0.0
  0
ARC
  5
133
330
F9
100
AcDbEntity
  8
AM_4
100
AcDbCircle
 10
27.3559818399466
 20
33.38995970607182
 30
0.0
 40
2.097882530341277
100
AcDbArc
 50
269.3562542858246
 51
352.2172705265718
  0
ARC
  5
134
330
F9
100
AcDbEntity
  8
AM_4
100
AcDbCircle
 10
33.38995970607179
 20
27.35598183994662
 30
0.0
 40
2.097882530341283
100
AcDbArc
 50
97.78272947342815
 51
180.6437457141753
  0
LINE
  5
135
330
F9
100
AcDbEntity
  8
AM_4
100
AcDbLine
 10
24.50398448916085
 20
28.46378246380555
 30
0.0
 11
23.62010101267764
 21
27.57989898732235
 31
0.0
  0
LINE
  5
136
330
F9
100
AcDbEntity
  8
AM_4
100
AcDbLine
 10
27.57989898732228
 20
23.62010101267768
 30
0.0
 11
28.4637824638055
 21
24.50398448916089
 31
0.0
  0
LINE
  5
137
330
F9
100
AcDbEntity
  8
AM_4
100
AcDbLine
 10
31.29220958855169
 20
27.33241161390709
 30
0.0
 11
27.33241161390705
 21
31.29220958855174
 31
0.0
  0
LINE
  5
138
330
F9
100
AcDbEntity
  8
AM_4
100
AcDbLine
 10
27.33241161390705
 20
31.29220958855174
 30
0.0
 11
26.97885822331377
 21
30.93865619795846
 31
0.0
  0
LINE
  5
139
330
F9
100
AcDbEntity
  8
AM_4
100
AcDbLine
 10
30.93865619795841
 20
26.9788582233138
 30
0.0
 11
31.2922095885517
 21
27.33241161390709
 31
0.0
  0
LWPOLYLINE
  5
13A
330
F9
100
AcDbEntity
  8
AM_4
100
AcDbPolyline
 90
        3
 70
     0
 43
0.0
 10
29.86711343419747
 20
23.33514078677572
 10
29.37467679705257
 20
23.65552954207046
 10
28.93337321926635
 20
24.03439373370005
  0
LINE
  5
13B
330
F9
100
AcDbEntity
  8
AM_4
100
AcDbLine
 10
32.10749990034358
 20
25.57552725292184
 30
0.0
 11
29.86711343419747
 21
23.33514078677572
 31
0.0
  0
LWPOLYLINE
  5
13C
330
F9
100
AcDbEntity
  8
AM_4
100
AcDbPolyline
 90
        3
 70
     0
 43
0.0
 10
31.40824695341927
 20
26.50926746785296
 10
31.78554894385003
 20
26.07007287735602
 10
32.10749990034358
 20
25.57552725292184
  0
LINE
  5
13D
330
F9
100
AcDbEntity
  8
AM_4
100
AcDbLine
 10
30.47450673848813
 20
27.20852041477729
 30
0.0
 11
28.23412027234203
 21
24.96813394863118
 31
0.0
  0
LWPOLYLINE
  5
13E
330
F9
100
AcDbEntity
  8
AM_4
100
AcDbPolyline
 90
        3
 70
     0
 43
0.0
 10
27.20852041477724
 20
30.47450673848819
 10
28.10736974814196
 20
29.74770528697364
 10
28.95875721063609
 20
28.95875721063614
  0
LINE
  5
13F
330
F9
100
AcDbEntity
  8
AM_4
100
AcDbLine
 10
25.57552725292179
 20
32.10749990034365
 30
0.0
 11
23.33514078677568
 21
29.86711343419755
 31
0.0
  0
LWPOLYLINE
  5
140
330
F9
100
AcDbEntity
  8
AM_4
100
AcDbPolyline
 90
        3
 70
     0
 43
0.0
 10
24.03439373369999
 20
28.9333732192664
 10
23.65709174326923
 20
29.37256780976336
 10
23.33514078677568
 20
29.86711343419755
  0
LINE
  5
141
330
F9
100
AcDbEntity
  8
AM_4
100
AcDbLine
 10
27.20852041477724
 20
30.47450673848819
 30
0.0
 11
24.96813394863113
 21
28.23412027234209
 31
0.0
  0
LWPOLYLINE
  5
142
330
F9
100
AcDbEntity
  8
AM_4
100
AcDbPolyline
 90
        3
 70
     0
 43
0.0
 10
26.50926746785291
 20
31.40824695341932
 10
26.88656945828369
 20
30.96905236292238
 10
27.20852041477724
 20
30.47450673848819
  0
LWPOLYLINE
  5
143
330
F9
100
AcDbEntity
  8
AM_4
100
AcDbPolyline
 90
        3
 70
     0
 43
0.0
 10
25.57552725292179
 20
32.10749990034365
 10
26.0679638900667
 20
31.78711114504892
 10
26.50926746785291
 20
31.40824695341932
  0
LWPOLYLINE
  5
144
330
F9
100
AcDbEntity
  8
AM_4
100
AcDbPolyline
 90
        3
 70
     0
 43
0.0
 10
28.95875721063609
 20
28.95875721063614
 10
29.74430749153072
 20
28.11131432967533
 10
30.47450673848813
 20
27.20852041477729
  0
LWPOLYLINE
  5
145
330
F9
100
AcDbEntity
  8
AM_4
100
AcDbPolyline
 90
        3
 70
     0
 43
0.0
 10
30.47450673848813
 20
27.20852041477729
 10
30.96694337563304
 20
26.88813165948255
 10
31.40824695341927
 20
26.50926746785296
  0
LWPOLYLINE
  5
146
330
F9
100
AcDbEntity
  8
AM_4
100
AcDbPolyline
 90
        3
 70
     0
 43
0.0
 10
28.93337321926635
 20
24.03439373370005
 10
28.55607122883557
 20
24.473588324197
 10
28.23412027234203
 20
24.96813394863118
  0
LWPOLYLINE
  5
147
330
F9
100
AcDbEntity
  8
AM_4
100
AcDbPolyline
 90
        3
 70
     0
 43
0.0
 10
28.23412027234203
 20
24.96813394863118
 10
27.3352709389773
 20
25.69493540014573
 10
26.48388347648317
 20
26.48388347648322
  0
LWPOLYLINE
  5
148
330
F9
100
AcDbEntity
  8
AM_4
100
AcDbPolyline
 90
        3
 70
     0
 43
0.0
 10
26.48388347648317
 20
26.48388347648322
 10
25.69833319558854
 20
27.33132635744404
 10
24.96813394863113
 20
28.23412027234209
  0
LWPOLYLINE
  5
149
330
F9
100
AcDbEntity
  8
AM_4
100
AcDbPolyline
 90
        3
 70
     0
 43
0.0
 10
24.96813394863113
 20
28.23412027234209
 10
24.47569731148622
 20
28.55450902763682
 10
24.03439373369999
 20
28.9333732192664
  0
LINE
  5
14A
330
F9
100
AcDbEntity
  8
AM_4
100
AcDbLine
 10
-3.226470000000001
 20
27.44401000000001
 30
0.0
 11
-3.848439999999991
 21
27.44401000000001
 31
0.0
  0
LINE
  5
14B
330
F9
100
AcDbEntity
  8
AM_4
100
AcDbLine
 10
-2.915490000000018
 20
27.51801
 30
0.0
 11
-3.226470000000001
 21
27.44401000000001
 31
0.0
  0
LINE
  5
14C
330
F9
100
AcDbEntity
  8
AM_4
100
AcDbLine
 10
-4.625899999999995
 20
29.29405200000001
 30
0.0
 11
-4.548159999999996
 21
29.59005899999998
 31
0.0
  0
LINE
  5
14D
330
F9
100
AcDbEntity
  8
AM_4
100
AcDbLine
 10
-4.625899999999988
 20
28.18402800000001
 30
0.0
 11
-4.625899999999995
 21
29.29405200000001
 31
0.0
  0
LINE
  5
14E
330
F9
100
AcDbEntity
  8
AM_4
100
AcDbLine
 10
-4.548159999999983
 20
27.88802100000001
 30
0.0
 11
-4.625899999999988
 21
28.18402800000001
 31
0.0
  0
LINE
  5
14F
330
F9
100
AcDbEntity
  8
AM_4
100
AcDbLine
 10
-4.392659999999997
 20
27.66601999999999
 30
0.0
 11
-4.548159999999983
 21
27.88802100000001
 31
0.0
  0
LINE
  5
150
330
F9
100
AcDbEntity
  8
AM_4
100
AcDbLine
 10
-4.159430000000024
 20
27.51801000000002
 30
0.0
 11
-4.392659999999997
 21
27.66601999999999
 31
0.0
  0
LINE
  5
151
330
F9
100
AcDbEntity
  8
AM_4
100
AcDbLine
 10
-3.848439999999991
 20
27.44401000000001
 30
0.0
 11
-4.159430000000024
 21
27.51801000000002
 31
0.0
  0
LINE
  5
152
330
F9
100
AcDbEntity
  8
AM_4
100
AcDbLine
 10
-2.682249999999992
 20
27.66602000000002
 30
0.0
 11
-2.915490000000018
 21
27.51801
 31
0.0
  0
LINE
  5
153
330
F9
100
AcDbEntity
  8
AM_4
100
AcDbLine
 10
-2.526749999999991
 20
27.88802099999999
 30
0.0
 11
-2.682249999999992
 21
27.66602000000002
 31
0.0
  0
LINE
  5
154
330
F9
100
AcDbEntity
  8
AM_4
100
AcDbLine
 10
-2.449010000000003
 20
28.18402800000001
 30
0.0
 11
-2.526749999999991
 21
27.88802099999999
 31
0.0
  0
LINE
  5
155
330
F9
100
AcDbEntity
  8
AM_4
100
AcDbLine
 10
-2.449010000000001
 20
29.29405200000001
 30
0.0
 11
-2.449010000000003
 21
28.18402800000001
 31
0.0
  0
LINE
  5
156
330
F9
100
AcDbEntity
  8
AM_4
100
AcDbLine
 10
-2.526749999999998
 20
29.590059
 30
0.0
 11
-2.449010000000001
 21
29.29405200000001
 31
0.0
  0
LINE
  5
157
330
F9
100
AcDbEntity
  8
AM_4
100
AcDbLine
 10
-2.682249999999992
 20
29.81206
 30
0.0
 11
-2.526749999999998
 21
29.590059
 31
0.0
  0
LINE
  5
158
330
F9
100
AcDbEntity
  8
AM_4
100
AcDbLine
 10
-2.915489999999997
 20
29.96007000000001
 30
0.0
 11
-2.682249999999992
 21
29.81206
 31
0.0
  0
LINE
  5
159
330
F9
100
AcDbEntity
  8
AM_4
100
AcDbLine
 10
-3.226470000000005
 20
30.03407
 30
0.0
 11
-2.915489999999997
 21
29.96007000000001
 31
0.0
  0
LINE
  5
15A
330
F9
100
AcDbEntity
  8
AM_4
100
AcDbLine
 10
-3.848440000000001
 20
30.03407
 30
0.0
 11
-3.226470000000005
 21
30.03407
 31
0.0
  0
LINE
  5
15B
330
F9
100
AcDbEntity
  8
AM_4
100
AcDbLine
 10
-4.159429999999997
 20
29.96007000000001
 30
0.0
 11
-3.848440000000001
 21
30.03407
 31
0.0
  0
LINE
  5
15C
330
F9
100
AcDbEntity
  8
AM_4
100
AcDbLine
 10
-4.392660000000004
 20
29.81206
 30
0.0
 11
-4.159429999999997
 21
29.96007000000001
 31
0.0
  0
LINE
  5
15D
330
F9
100
AcDbEntity
  8
AM_4
100
AcDbLine
 10
-4.548159999999996
 20
29.59005899999998
 30
0.0
 11
-4.392660000000004
 21
29.81206
 31
0.0
  0
LINE
  5
15E
330
F9
100
AcDbEntity
  8
AM_4
100
AcDbLine
 10
0.8163359999999867
 20
27.51801
 30
0.0
 11
0.5053509999999872
 21
27.44401
 31
0.0
  0
LINE
  5
15F
330
F9
100
AcDbEntity
  8
AM_4
100
AcDbLine
 10
-0.8940819999999996
 20
27.44401000000001
 30
0.0
 11
-0.8940819999999998
 21
30.03407
 31
0.0
  0
LINE
  5
160
330
F9
100
AcDbEntity
  8
AM_4
100
AcDbLine
 10
0.5053509999999872
 20
27.44401
 30
0.0
 11
-0.8940819999999996
 21
27.44401000000001
 31
0.0
  0
LINE
  5
161
330
F9
100
AcDbEntity
  8
AM_4
100
AcDbLine
 10
1.049570000000014
 20
27.66602000000002
 30
0.0
 11
0.8163359999999867
 21
27.51801
 31
0.0
  0
LINE
  5
162
330
F9
100
AcDbEntity
  8
AM_4
100
AcDbLine
 10
1.205070000000005
 20
27.88802100000002
 30
0.0
 11
1.049570000000014
 21
27.66602000000002
 31
0.0
  0
LINE
  5
163
330
F9
100
AcDbEntity
  8
AM_4
100
AcDbLine
 10
1.282810000000007
 20
28.18402800000001
 30
0.0
 11
1.205070000000005
 21
27.88802100000002
 31
0.0
  0
LINE
  5
164
330
F9
100
AcDbEntity
  8
AM_4
100
AcDbLine
 10
1.282809999999998
 20
29.29405200000001
 30
0.0
 11
1.282810000000007
 21
28.18402800000001
 31
0.0
  0
LINE
  5
165
330
F9
100
AcDbEntity
  8
AM_4
100
AcDbLine
 10
1.20507
 20
29.59005899999998
 30
0.0
 11
1.282809999999998
 21
29.29405200000001
 31
0.0
  0
LINE
  5
166
330
F9
100
AcDbEntity
  8
AM_4
100
AcDbLine
 10
1.049569999999993
 20
29.81206000000001
 30
0.0
 11
1.20507
 21
29.59005899999998
 31
0.0
  0
LINE
  5
167
330
F9
100
AcDbEntity
  8
AM_4
100
AcDbLine
 10
0.8163360000000215
 20
29.96007
 30
0.0
 11
1.049569999999993
 21
29.81206000000001
 31
0.0
  0
LINE
  5
168
330
F9
100
AcDbEntity
  8
AM_4
100
AcDbLine
 10
0.5053509999999939
 20
30.03407
 30
0.0
 11
0.8163360000000215
 21
29.96007
 31
0.0
  0
LINE
  5
169
330
F9
100
AcDbEntity
  8
AM_4
100
AcDbLine
 10
-0.8940819999999998
 20
30.03407
 30
0.0
 11
0.5053509999999939
 21
30.03407
 31
0.0
  0
LINE
  5
16A
330
F9
100
AcDbEntity
  8
AM_4
100
AcDbLine
 10
-8.357729999999998
 20
27.44401000000001
 30
0.0
 11
-8.357729999999998
 21
30.03407
 31
0.0
  0
LINE
  5
16B
330
F9
100
AcDbEntity
  8
AM_4
100
AcDbLine
 10
-6.647310000000008
 20
27.51800999999999
 30
0.0
 11
-6.958290000000006
 21
27.44401
 31
0.0
  0
LINE
  5
16C
330
F9
100
AcDbEntity
  8
AM_4
100
AcDbLine
 10
-6.958290000000006
 20
27.44401
 30
0.0
 11
-8.357729999999998
 21
27.44401000000001
 31
0.0
  0
LINE
  5
16D
330
F9
100
AcDbEntity
  8
AM_4
100
AcDbLine
 10
-6.414070000000002
 20
27.66601999999999
 30
0.0
 11
-6.647310000000008
 21
27.51800999999999
 31
0.0
  0
LINE
  5
16E
330
F9
100
AcDbEntity
  8
AM_4
100
AcDbLine
 10
-6.258580000000001
 20
27.88802100000002
 30
0.0
 11
-6.414070000000002
 21
27.66601999999999
 31
0.0
  0
LINE
  5
16F
330
F9
100
AcDbEntity
  8
AM_4
100
AcDbLine
 10
-6.180829999999991
 20
28.18402800000001
 30
0.0
 11
-6.258580000000001
 21
27.88802100000002
 31
0.0
  0
LINE
  5
170
330
F9
100
AcDbEntity
  8
AM_4
100
AcDbLine
 10
-6.180829999999998
 20
29.29405200000001
 30
0.0
 11
-6.180829999999991
 21
28.18402800000001
 31
0.0
  0
LINE
  5
171
330
F9
100
AcDbEntity
  8
AM_4
100
AcDbLine
 10
-6.258580000000001
 20
29.59005899999998
 30
0.0
 11
-6.180829999999998
 21
29.29405200000001
 31
0.0
  0
LINE
  5
172
330
F9
100
AcDbEntity
  8
AM_4
100
AcDbLine
 10
-6.414069999999995
 20
29.81206000000002
 30
0.0
 11
-6.258580000000001
 21
29.59005899999998
 31
0.0
  0
LINE
  5
173
330
F9
100
AcDbEntity
  8
AM_4
100
AcDbLine
 10
-6.647310000000008
 20
29.96007000000001
 30
0.0
 11
-6.414069999999995
 21
29.81206000000002
 31
0.0
  0
LINE
  5
174
330
F9
100
AcDbEntity
  8
AM_4
100
AcDbLine
 10
-6.958290000000016
 20
30.03407
 30
0.0
 11
-6.647310000000008
 21
29.96007000000001
 31
0.0
  0
LINE
  5
175
330
F9
100
AcDbEntity
  8
AM_4
100
AcDbLine
 10
-8.357729999999998
 20
30.03407
 30
0.0
 11
-6.958290000000016
 21
30.03407
 31
0.0
  0
ARC
  5
176
330
F9
100
AcDbEntity
  8
AM_4
100
AcDbCircle
 10
0.0
 20
0.0000000000000036
 30
0.0
 40
26.00000000000001
100
AcDbArc
 50
193.7873528087458
 51
346.2126471912542
  0
LINE
  5
177
330
F9
100
AcDbEntity
  8
AM_4
100
AcDbLine
 10
-27.4090909090909
 20
-6.196296296296304
 30
0.0
 11
-27.4090909090909
 21
-36.5
 31
0.0
  0
LWPOLYLINE
  5
178
330
F9
100
AcDbEntity
  8
AM_4
100
AcDbPolyline
 90
       19
 70
     0
 43
0.0
 10
-69.84999999999998
 20
-22.50000000000001
 10
-69.8442920471376
 20
-22.36926638587853
 10
-69.82721162951829
 20
-22.23952773349961
 10
-69.7988887394336
 20
-22.11177143234623
 10
-69.75953893117884
 20
-21.98696978501151
 10
-69.70946168055497
 20
-21.86607260738896
 10
-69.64903810567662
 20
-21.75000000000001
 10
-69.57872806643346
 20
-21.63963534547344
 10
-69.49906666467845
 20
-21.5358185854702
 10
-69.4106601717798
 20
-21.43933982822018
 10
-69.31418141452978
 20
-21.35093333532154
 10
-69.21036465452654
 20
-21.27127193356651
 10
-69.09999999999997
 20
-21.20096189432334
 10
-68.98392739261102
 20
-21.14053831944503
 10
-68.86303021498848
 20
-21.09046106882114
 10
-68.73822856765375
 20
-21.0511112605664
 10
-68.61047226650037
 20
-21.02278837048169
 10
-68.48073361412145
 20
-21.00570795286238
 10
-68.35
 20
-21.0
  0
LINE
  5
179
330
F9
100
AcDbEntity
  8
AM_4
100
AcDbLine
 10
-69.85
 20
-22.5
 30
0.0
 11
-69.85
 21
-36.5
 31
0.0
  0
LINE
  5
17A
330
F9
100
AcDbEntity
  8
AM_4
100
AcDbLine
 10
-35.32000000000003
 20
-21.0
 30
0.0
 11
-35.32
 21
-36.5
 31
0.0
  0
LINE
  5
17B
330
F9
100
AcDbEntity
  8
AM_4
100
AcDbLine
 10
-65.66111111111111
 20
-36.5
 30
0.0
 11
-65.66111111111111
 21
-21.0
 31
0.0
  0
LINE
  5
17C
330
F9
100
AcDbEntity
  8
AM_4
100
AcDbLine
 10
-31.798
 20
19.402
 30
0.0
 11
-46.36800000000004
 21
-21.0
 31
0.0
  0
LINE
  5
17D
330
F9
100
AcDbEntity
  8
AM_4
100
AcDbLine
 10
-35.32000000000003
 20
-21.0
 30
0.0
 11
-68.35
 21
-21.0
 31
0.0
  0
LINE
  5
17E
330
F9
100
AcDbEntity
  8
AM_4
100
AcDbLine
 10
-35.32000000000003
 20
-21.0
 30
0.0
 11
-27.4090909090909
 21
-6.196296296296304
 31
0.0
  0
LINE
  5
17F
330
F9
100
AcDbEntity
  8
AM_4
100
AcDbLine
 10
-27.4090909090909
 20
-6.196296296296304
 30
0.0
 11
-25.25085963306012
 21
-6.196296296296308
 31
0.0
  0
LWPOLYLINE
  5
180
330
F9
100
AcDbEntity
  8
AM_4
100
AcDbPolyline
 90
       43
 70
     0
 43
0.0
 10
25.25085963306012
 20
-6.196296296296314
 10
25.69481529470164
 20
-3.971960091839697
 10
25.94321789699681
 20
-1.717394872749104
 10
25.99417694615257
 20
0.550240758314487
 10
25.84730461303494
 20
2.813688724962851
 10
25.50371868478288
 20
5.055722821462544
 10
24.96603405777324
 20
7.259279814562003
 10
24.23834283668041
 20
9.407589304999652
 10
23.32618319108889
 20
11.48430136036852
 10
22.23649720667869
 20
13.47361094797423
 10
20.97757805176155
 20
15.36037822067713
 10
19.55900686126256
 20
17.13024374027072
 10
17.99157981849812
 20
18.76973776147689
 10
16.28722598970199
 20
20.26638274484068
 10
14.4589165366283
 20
21.60878831833976
 10
12.52056599817836
 20
22.78673796499315
 10
10.48692639235782
 20
23.79126677672438
 10
8.373474944512166
 20
24.61472968272508
 10
6.196296296296363
 20
25.2508596330601
 10
3.971960091839746
 20
25.69481529470162
 10
1.717394872749152
 20
25.9432178969968
 10
-0.5502407583144395
 20
25.99417694615257
 10
-2.813688724962804
 20
25.84730461303494
 10
-5.055722821462498
 20
25.50371868478288
 10
-7.25927981456196
 20
24.96603405777324
 10
-9.407589304999608
 20
24.23834283668042
 10
-11.48430136036848
 20
23.32618319108891
 10
-13.47361094797419
 20
22.23649720667871
 10
-15.3603782206771
 20
20.97757805176158
 10
-17.13024374027069
 20
19.55900686126259
 10
-18.76973776147686
 20
17.99157981849815
 10
-20.26638274484066
 20
16.28722598970203
 10
-21.60878831833974
 20
14.45891653662834
 10
-22.78673796499313
 20
12.52056599817839
 10
-23.79126677672436
 20
10.48692639235787
 10
-24.61472968272507
 20
8.373474944512209
 10
-25.2508596330601
 20
6.196296296296407
 10
-25.69481529470162
 20
3.971960091839792
 10
-25.9432178969968
 20
1.717394872749199
 10
-25.99417694615258
 20
-0.5502407583143916
 10
-25.84730461303495
 20
-2.813688724962756
 10
-25.50371868478289
 20
-5.055722821462473
 10
-25.25085963306012
 20
-6.196296296296324
  0
LINE
  5
181
330
F9
100
AcDbEntity
  8
AM_4
100
AcDbLine
 10
25.25085963306012
 20
-6.196296296296308
 30
0.0
 11
27.40909090909093
 21
-6.196296296296304
 31
0.0
  0
LINE
  5
182
330
F9
100
AcDbEntity
  8
AM_4
100
AcDbLine
 10
68.34999999999997
 20
-21.0
 30
0.0
 11
35.31999999999997
 21
-20.99999999999999
 31
0.0
  0
LINE
  5
183
330
F9
100
AcDbEntity
  8
AM_4
100
AcDbLine
 10
46.36800000000002
 20
-21.0
 30
0.0
 11
31.79800000000001
 21
19.40199999999992
 31
0.0
  0
LINE
  5
184
330
F9
100
AcDbEntity
  8
AM_4
100
AcDbLine
 10
31.79800000000001
 20
19.40199999999992
 30
0.0
 11
15.10000000000006
 21
36.1
 31
0.0
  0
LINE
  5
185
330
F9
100
AcDbEntity
  8
AM_4
100
AcDbLine
 10
15.10000000000006
 20
36.1
 30
0.0
 11
-15.1
 21
36.1
 31
0.0
  0
LINE
  5
186
330
F9
100
AcDbEntity
  8
AM_4
100
AcDbLine
 10
-15.1
 20
36.1
 30
0.0
 11
-31.798
 21
19.402
 31
0.0
  0
LINE
  5
187
330
F9
100
AcDbEntity
  8
AM_4
100
AcDbLine
 10
-8.824199999999998
 20
27.0
 30
0.0
 11
-8.824200000000001
 21
30.47808000000003
 31
0.0
  0
LINE
  5
188
330
F9
100
AcDbEntity
  8
AM_4
100
AcDbLine
 10
-8.824200000000001
 20
30.47808000000003
 30
0.0
 11
-6.958290000000003
 21
30.47808000000001
 31
0.0
  0
LINE
  5
189
330
F9
100
AcDbEntity
  8
AM_4
100
AcDbLine
 10
-6.958290000000003
 20
30.47808000000001
 30
0.0
 11
-6.569559999999974
 21
30.40407999999999
 31
0.0
  0
LINE
  5
18A
330
F9
100
AcDbEntity
  8
AM_4
100
AcDbLine
 10
-6.569559999999974
 20
30.40407999999999
 30
0.0
 11
-6.258579999999979
 21
30.25607
 31
0.0
  0
LINE
  5
18B
330
F9
100
AcDbEntity
  8
AM_4
100
AcDbLine
 10
-6.258579999999979
 20
30.25607
 30
0.0
 11
-5.947589999999994
 21
29.96007
 31
0.0
  0
LINE
  5
18C
330
F9
100
AcDbEntity
  8
AM_4
100
AcDbLine
 10
-5.947589999999994
 20
29.96007
 30
0.0
 11
-5.792100000000007
 21
29.66406000000003
 31
0.0
  0
LINE
  5
18D
330
F9
100
AcDbEntity
  8
AM_4
100
AcDbLine
 10
-5.792100000000007
 20
29.66406000000003
 30
0.0
 11
-5.714350000000004
 21
29.29405200000002
 31
0.0
  0
LINE
  5
18E
330
F9
100
AcDbEntity
  8
AM_4
100
AcDbLine
 10
-5.714350000000004
 20
29.29405200000002
 30
0.0
 11
-5.714350000000002
 21
28.18402800000001
 31
0.0
  0
LINE
  5
18F
330
F9
100
AcDbEntity
  8
AM_4
100
AcDbLine
 10
-5.714350000000002
 20
28.18402800000001
 30
0.0
 11
-5.792100000000008
 21
27.81402
 31
0.0
  0
LINE
  5
190
330
F9
100
AcDbEntity
  8
AM_4
100
AcDbLine
 10
-5.792100000000008
 20
27.81402
 30
0.0
 11
-5.947590000000006
 21
27.51801
 31
0.0
  0
LINE
  5
191
330
F9
100
AcDbEntity
  8
AM_4
100
AcDbLine
 10
-5.947590000000006
 20
27.51801
 30
0.0
 11
-6.258579999999982
 21
27.22201
 31
0.0
  0
LINE
  5
192
330
F9
100
AcDbEntity
  8
AM_4
100
AcDbLine
 10
-6.258579999999982
 20
27.22201
 30
0.0
 11
-6.569560000000007
 21
27.07400000000002
 31
0.0
  0
LINE
  5
193
330
F9
100
AcDbEntity
  8
AM_4
100
AcDbLine
 10
-6.569560000000007
 20
27.07400000000002
 30
0.0
 11
-6.958289999999988
 21
27.0
 31
0.0
  0
LINE
  5
194
330
F9
100
AcDbEntity
  8
AM_4
100
AcDbLine
 10
-6.958289999999988
 20
27.0
 30
0.0
 11
-8.824199999999998
 21
27.0
 31
0.0
  0
LINE
  5
195
330
F9
100
AcDbEntity
  8
AM_4
100
AcDbLine
 10
-5.092379999999996
 20
28.18402800000001
 30
0.0
 11
-5.092380000000005
 21
29.29405200000001
 31
0.0
  0
LINE
  5
196
330
F9
100
AcDbEntity
  8
AM_4
100
AcDbLine
 10
-5.092380000000005
 20
29.29405200000001
 30
0.0
 11
-5.014640000000013
 21
29.66406000000003
 31
0.0
  0
LINE
  5
197
330
F9
100
AcDbEntity
  8
AM_4
100
AcDbLine
 10
-5.014640000000013
 20
29.66406000000003
 30
0.0
 11
-4.859140000000028
 21
29.96007000000001
 31
0.0
  0
LINE
  5
198
330
F9
100
AcDbEntity
  8
AM_4
100
AcDbLine
 10
-4.859140000000028
 20
29.96007000000001
 30
0.0
 11
-4.548159999999985
 21
30.25607
 31
0.0
  0
LINE
  5
199
330
F9
100
AcDbEntity
  8
AM_4
100
AcDbLine
 10
-4.548159999999985
 20
30.25607
 30
0.0
 11
-4.237170000000007
 21
30.40408000000001
 31
0.0
  0
LINE
  5
19A
330
F9
100
AcDbEntity
  8
AM_4
100
AcDbLine
 10
-4.237170000000007
 20
30.40408000000001
 30
0.0
 11
-3.848440000000005
 21
30.47808000000001
 31
0.0
  0
LINE
  5
19B
330
F9
100
AcDbEntity
  8
AM_4
100
AcDbLine
 10
-3.848440000000005
 20
30.47808000000001
 30
0.0
 11
-3.226470000000001
 21
30.47808000000001
 31
0.0
  0
LINE
  5
19C
330
F9
100
AcDbEntity
  8
AM_4
100
AcDbLine
 10
-3.226470000000001
 20
30.47808000000001
 30
0.0
 11
-2.837739999999989
 21
30.40408000000001
 31
0.0
  0
LINE
  5
19D
330
F9
100
AcDbEntity
  8
AM_4
100
AcDbLine
 10
-2.837739999999989
 20
30.40408000000001
 30
0.0
 11
-2.526750000000012
 21
30.25607000000003
 31
0.0
  0
LINE
  5
19E
330
F9
100
AcDbEntity
  8
AM_4
100
AcDbLine
 10
-2.526750000000012
 20
30.25607000000003
 30
0.0
 11
-2.21576999999999
 21
29.96007000000001
 31
0.0
  0
LINE
  5
19F
330
F9
100
AcDbEntity
  8
AM_4
100
AcDbLine
 10
-2.21576999999999
 20
29.96007000000001
 30
0.0
 11
-2.060279999999999
 21
29.66406000000003
 31
0.0
  0
LINE
  5
1A0
330
F9
100
AcDbEntity
  8
AM_4
100
AcDbLine
 10
-2.060279999999999
 20
29.66406000000003
 30
0.0
 11
-1.982529999999997
 21
29.29405200000001
 31
0.0
  0
LINE
  5
1A1
330
F9
100
AcDbEntity
  8
AM_4
100
AcDbLine
 10
-1.982529999999997
 20
29.29405200000001
 30
0.0
 11
-1.982530000000006
 21
28.18402800000001
 31
0.0
  0
LINE
  5
1A2
330
F9
100
AcDbEntity
  8
AM_4
100
AcDbLine
 10
-1.982530000000006
 20
28.18402800000001
 30
0.0
 11
-2.060280000000005
 21
27.81402
 31
0.0
  0
LINE
  5
1A3
330
F9
100
AcDbEntity
  8
AM_4
100
AcDbLine
 10
-2.060280000000005
 20
27.81402
 30
0.0
 11
-2.21577000000001
 21
27.51801000000002
 31
0.0
  0
LINE
  5
1A4
330
F9
100
AcDbEntity
  8
AM_4
100
AcDbLine
 10
-2.21577000000001
 20
27.51801000000002
 30
0.0
 11
-2.526749999999998
 21
27.22201
 31
0.0
  0
LINE
  5
1A5
330
F9
100
AcDbEntity
  8
AM_4
100
AcDbLine
 10
-2.526749999999998
 20
27.22201
 30
0.0
 11
-2.837740000000004
 21
27.07399999999999
 31
0.0
  0
LINE
  5
1A6
330
F9
100
AcDbEntity
  8
AM_4
100
AcDbLine
 10
-2.837740000000004
 20
27.07399999999999
 30
0.0
 11
-3.226469999999991
 21
27.0
 31
0.0
  0
LINE
  5
1A7
330
F9
100
AcDbEntity
  8
AM_4
100
AcDbLine
 10
-3.226469999999991
 20
27.0
 30
0.0
 11
-3.848440000000001
 21
27.0
 31
0.0
  0
LINE
  5
1A8
330
F9
100
AcDbEntity
  8
AM_4
100
AcDbLine
 10
-3.848440000000001
 20
27.0
 30
0.0
 11
-4.237169999999994
 21
27.07400000000001
 31
0.0
  0
LINE
  5
1A9
330
F9
100
AcDbEntity
  8
AM_4
100
AcDbLine
 10
-4.237169999999994
 20
27.07400000000001
 30
0.0
 11
-4.548160000000013
 21
27.22201000000003
 31
0.0
  0
LINE
  5
1AA
330
F9
100
AcDbEntity
  8
AM_4
100
AcDbLine
 10
-4.548160000000013
 20
27.22201000000003
 30
0.0
 11
-4.859140000000006
 21
27.51801000000002
 31
0.0
  0
LINE
  5
1AB
330
F9
100
AcDbEntity
  8
AM_4
100
AcDbLine
 10
-4.859140000000006
 20
27.51801000000002
 30
0.0
 11
-5.014640000000008
 21
27.81402
 31
0.0
  0
LINE
  5
1AC
330
F9
100
AcDbEntity
  8
AM_4
100
AcDbLine
 10
-5.014640000000008
 20
27.81402
 30
0.0
 11
-5.092379999999996
 21
28.18402800000001
 31
0.0
  0
LINE
  5
1AD
330
F9
100
AcDbEntity
  8
AM_4
100
AcDbLine
 10
0.5053509999999939
 20
27.0
 30
0.0
 11
-1.36056
 21
27.0
 31
0.0
  0
LINE
  5
1AE
330
F9
100
AcDbEntity
  8
AM_4
100
AcDbLine
 10
-1.36056
 20
27.0
 30
0.0
 11
-1.36056
 21
30.47808000000001
 31
0.0
  0
LINE
  5
1AF
330
F9
100
AcDbEntity
  8
AM_4
100
AcDbLine
 10
-1.36056
 20
30.47808000000001
 30
0.0
 11
0.5053509999999872
 21
30.47808000000001
 31
0.0
  0
LINE
  5
1B0
330
F9
100
AcDbEntity
  8
AM_4
100
AcDbLine
 10
0.5053509999999872
 20
30.47808000000001
 30
0.0
 11
0.8940820000000094
 21
30.40408000000001
 31
0.0
  0
LINE
  5
1B1
330
F9
100
AcDbEntity
  8
AM_4
100
AcDbLine
 10
0.8940820000000094
 20
30.40408000000001
 30
0.0
 11
1.205070000000002
 21
30.25607000000002
 31
0.0
  0
LINE
  5
1B2
330
F9
100
AcDbEntity
  8
AM_4
100
AcDbLine
 10
1.205070000000002
 20
30.25607000000002
 30
0.0
 11
1.51605000000001
 21
29.96007000000001
 31
0.0
  0
LINE
  5
1B3
330
F9
100
AcDbEntity
  8
AM_4
100
AcDbLine
 10
1.51605000000001
 20
29.96007000000001
 30
0.0
 11
1.671549999999994
 21
29.66406000000003
 31
0.0
  0
LINE
  5
1B4
330
F9
100
AcDbEntity
  8
AM_4
100
AcDbLine
 10
1.671549999999994
 20
29.66406000000003
 30
0.0
 11
1.749290000000009
 21
29.29405199999999
 31
0.0
  0
LINE
  5
1B5
330
F9
100
AcDbEntity
  8
AM_4
100
AcDbLine
 10
1.749290000000009
 20
29.29405199999999
 30
0.0
 11
1.749290000000008
 21
28.18402800000001
 31
0.0
  0
LINE
  5
1B6
330
F9
100
AcDbEntity
  8
AM_4
100
AcDbLine
 10
1.749290000000008
 20
28.18402800000001
 30
0.0
 11
1.671549999999996
 21
27.81402
 31
0.0
  0
LINE
  5
1B7
330
F9
100
AcDbEntity
  8
AM_4
100
AcDbLine
 10
1.671549999999996
 20
27.81402
 30
0.0
 11
1.516050000000005
 21
27.51800999999999
 31
0.0
  0
LINE
  5
1B8
330
F9
100
AcDbEntity
  8
AM_4
100
AcDbLine
 10
1.516050000000005
 20
27.51800999999999
 30
0.0
 11
1.205070000000002
 21
27.22201
 31
0.0
  0
LINE
  5
1B9
330
F9
100
AcDbEntity
  8
AM_4
100
AcDbLine
 10
1.205070000000002
 20
27.22201
 30
0.0
 11
0.8940819999999955
 21
27.07400000000002
 31
0.0
  0
LINE
  5
1BA
330
F9
100
AcDbEntity
  8
AM_4
100
AcDbLine
 10
0.8940819999999955
 20
27.07400000000002
 30
0.0
 11
0.5053509999999939
 21
27.0
 31
0.0
  0
LINE
  5
1BB
330
F9
100
AcDbEntity
  8
AM_4
100
AcDbLine
 10
2.371259999999999
 20
28.18402800000001
 30
0.0
 11
2.371260000000007
 21
29.29405200000001
 31
0.0
  0
LINE
  5
1BC
330
F9
100
AcDbEntity
  8
AM_4
100
AcDbLine
 10
2.371260000000007
 20
29.29405200000001
 30
0.0
 11
2.449009999999994
 21
29.66406000000003
 31
0.0
  0
LINE
  5
1BD
330
F9
100
AcDbEntity
  8
AM_4
100
AcDbLine
 10
2.449009999999994
 20
29.66406000000003
 30
0.0
 11
2.604499999999993
 21
29.96007000000001
 31
0.0
  0
LINE
  5
1BE
330
F9
100
AcDbEntity
  8
AM_4
100
AcDbLine
 10
2.604499999999993
 20
29.96007000000001
 30
0.0
 11
2.915489999999983
 21
30.25607000000003
 31
0.0
  0
LINE
  5
1BF
330
F9
100
AcDbEntity
  8
AM_4
100
AcDbLine
 10
2.915489999999983
 20
30.25607000000003
 30
0.0
 11
3.226470000000005
 21
30.40408000000002
 31
0.0
  0
LINE
  5
1C0
330
F9
100
AcDbEntity
  8
AM_4
100
AcDbLine
 10
3.226470000000005
 20
30.40408000000002
 30
0.0
 11
3.615199999999993
 21
30.47808
 31
0.0
  0
LINE
  5
1C1
330
F9
100
AcDbEntity
  8
AM_4
100
AcDbLine
 10
3.615199999999993
 20
30.47808
 30
0.0
 11
4.314920000000001
 21
30.47808000000001
 31
0.0
  0
LINE
  5
1C2
330
F9
100
AcDbEntity
  8
AM_4
100
AcDbLine
 10
4.314920000000001
 20
30.47808000000001
 30
0.0
 11
4.703649999999974
 21
30.40408000000001
 31
0.0
  0
LINE
  5
1C3
330
F9
100
AcDbEntity
  8
AM_4
100
AcDbLine
 10
4.703649999999974
 20
30.40408000000001
 30
0.0
 11
5.014640000000008
 21
30.25607000000002
 31
0.0
  0
LINE
  5
1C4
330
F9
100
AcDbEntity
  8
AM_4
100
AcDbLine
 10
5.014640000000008
 20
30.25607000000002
 30
0.0
 11
5.325620000000002
 21
29.96007000000001
 31
0.0
  0
LINE
  5
1C5
330
F9
100
AcDbEntity
  8
AM_4
100
AcDbLine
 10
5.325620000000002
 20
29.96007000000001
 30
0.0
 11
5.403370000000001
 21
29.59005900000001
 31
0.0
  0
LINE
  5
1C6
330
F9
100
AcDbEntity
  8
AM_4
100
AcDbLine
 10
5.403370000000001
 20
29.59005900000001
 30
0.0
 11
4.936890000000001
 21
29.590059
 31
0.0
  0
LINE
  5
1C7
330
F9
100
AcDbEntity
  8
AM_4
100
AcDbLine
 10
4.936890000000001
 20
29.590059
 30
0.0
 11
4.85914
 21
29.81206000000001
 31
0.0
  0
LINE
  5
1C8
330
F9
100
AcDbEntity
  8
AM_4
100
AcDbLine
 10
4.85914
 20
29.81206000000001
 30
0.0
 11
4.625900000000001
 21
29.96007000000001
 31
0.0
  0
LINE
  5
1C9
330
F9
100
AcDbEntity
  8
AM_4
100
AcDbLine
 10
4.625900000000001
 20
29.96007000000001
 30
0.0
 11
4.314919999999986
 21
30.03407
 31
0.0
  0
LINE
  5
1CA
330
F9
100
AcDbEntity
  8
AM_4
100
AcDbLine
 10
4.314919999999986
 20
30.03407
 30
0.0
 11
3.615200000000001
 21
30.03407
 31
0.0
  0
LINE
  5
1CB
330
F9
100
AcDbEntity
  8
AM_4
100
AcDbLine
 10
3.615200000000001
 20
30.03407
 30
0.0
 11
3.304219999999999
 21
29.96007000000001
 31
0.0
  0
LINE
  5
1CC
330
F9
100
AcDbEntity
  8
AM_4
100
AcDbLine
 10
3.304219999999999
 20
29.96007000000001
 30
0.0
 11
3.070980000000001
 21
29.81206000000001
 31
0.0
  0
LINE
  5
1CD
330
F9
100
AcDbEntity
  8
AM_4
100
AcDbLine
 10
3.070980000000001
 20
29.81206000000001
 30
0.0
 11
2.915489999999999
 21
29.59005899999998
 31
0.0
  0
LINE
  5
1CE
330
F9
100
AcDbEntity
  8
AM_4
100
AcDbLine
 10
2.915489999999999
 20
29.59005899999998
 30
0.0
 11
2.83773999999999
 21
29.29405200000001
 31
0.0
  0
LINE
  5
1CF
330
F9
100
AcDbEntity
  8
AM_4
100
AcDbLine
 10
2.83773999999999
 20
29.29405200000001
 30
0.0
 11
2.837740000000003
 21
28.18402800000001
 31
0.0
  0
LINE
  5
1D0
330
F9
100
AcDbEntity
  8
AM_4
100
AcDbLine
 10
2.837740000000003
 20
28.18402800000001
 30
0.0
 11
2.915490000000004
 21
27.88802100000002
 31
0.0
  0
LINE
  5
1D1
330
F9
100
AcDbEntity
  8
AM_4
100
AcDbLine
 10
2.915490000000004
 20
27.88802100000002
 30
0.0
 11
3.070980000000001
 21
27.66601999999999
 31
0.0
  0
LINE
  5
1D2
330
F9
100
AcDbEntity
  8
AM_4
100
AcDbLine
 10
3.070980000000001
 20
27.66601999999999
 30
0.0
 11
3.304219999999992
 21
27.51801000000002
 31
0.0
  0
LINE
  5
1D3
330
F9
100
AcDbEntity
  8
AM_4
100
AcDbLine
 10
3.304219999999992
 20
27.51801000000002
 30
0.0
 11
3.615199999999993
 21
27.44401000000003
 31
0.0
  0
LINE
  5
1D4
330
F9
100
AcDbEntity
  8
AM_4
100
AcDbLine
 10
3.615199999999993
 20
27.44401000000003
 30
0.0
 11
4.314920000000001
 21
27.44401000000001
 31
0.0
  0
LINE
  5
1D5
330
F9
100
AcDbEntity
  8
AM_4
100
AcDbLine
 10
4.314920000000001
 20
27.44401000000001
 30
0.0
 11
4.625899999999987
 21
27.51801000000002
 31
0.0
  0
LINE
  5
1D6
330
F9
100
AcDbEntity
  8
AM_4
100
AcDbLine
 10
4.625899999999987
 20
27.51801000000002
 30
0.0
 11
4.859140000000006
 21
27.66601999999999
 31
0.0
  0
LINE
  5
1D7
330
F9
100
AcDbEntity
  8
AM_4
100
AcDbLine
 10
4.859140000000006
 20
27.66601999999999
 30
0.0
 11
4.936890000000011
 21
27.88802099999999
 31
0.0
  0
LINE
  5
1D8
330
F9
100
AcDbEntity
  8
AM_4
100
AcDbLine
 10
4.936890000000011
 20
27.88802099999999
 30
0.0
 11
4.93689
 21
28.48003400000002
 31
0.0
  0
LINE
  5
1D9
330
F9
100
AcDbEntity
  8
AM_4
100
AcDbLine
 10
4.93689
 20
28.48003400000002
 30
0.0
 11
4.237170000000001
 21
28.48003400000001
 31
0.0
  0
LINE
  5
1DA
330
F9
100
AcDbEntity
  8
AM_4
100
AcDbLine
 10
4.237170000000001
 20
28.48003400000001
 30
0.0
 11
4.237170000000007
 21
28.92404400000002
 31
0.0
  0
LINE
  5
1DB
330
F9
100
AcDbEntity
  8
AM_4
100
AcDbLine
 10
4.237170000000007
 20
28.92404400000002
 30
0.0
 11
5.403370000000001
 21
28.92404400000002
 31
0.0
  0
LINE
  5
1DC
330
F9
100
AcDbEntity
  8
AM_4
100
AcDbLine
 10
5.403370000000001
 20
28.92404400000002
 30
0.0
 11
5.403369999999996
 21
27.81402
 31
0.0
  0
LINE
  5
1DD
330
F9
100
AcDbEntity
  8
AM_4
100
AcDbLine
 10
5.403369999999996
 20
27.81402
 30
0.0
 11
5.325620000000007
 21
27.51801
 31
0.0
  0
LINE
  5
1DE
330
F9
100
AcDbEntity
  8
AM_4
100
AcDbLine
 10
5.325620000000007
 20
27.51801
 30
0.0
 11
5.014639999999994
 21
27.22201000000001
 31
0.0
  0
LINE
  5
1DF
330
F9
100
AcDbEntity
  8
AM_4
100
AcDbLine
 10
5.014639999999994
 20
27.22201000000001
 30
0.0
 11
4.703650000000009
 21
27.07400000000002
 31
0.0
  0
LINE
  5
1E0
330
F9
100
AcDbEntity
  8
AM_4
100
AcDbLine
 10
4.703650000000009
 20
27.07400000000002
 30
0.0
 11
4.314919999999986
 21
27.0
 31
0.0
  0
LINE
  5
1E1
330
F9
100
AcDbEntity
  8
AM_4
100
AcDbLine
 10
4.314919999999986
 20
27.0
 30
0.0
 11
3.615200000000001
 21
27.0
 31
0.0
  0
LINE
  5
1E2
330
F9
100
AcDbEntity
  8
AM_4
100
AcDbLine
 10
3.615200000000001
 20
27.0
 30
0.0
 11
3.226469999999991
 21
27.07400000000001
 31
0.0
  0
LINE
  5
1E3
330
F9
100
AcDbEntity
  8
AM_4
100
AcDbLine
 10
3.226469999999991
 20
27.07400000000001
 30
0.0
 11
2.915489999999983
 21
27.22201000000001
 31
0.0
  0
LINE
  5
1E4
330
F9
100
AcDbEntity
  8
AM_4
100
AcDbLine
 10
2.915489999999983
 20
27.22201000000001
 30
0.0
 11
2.604500000000012
 21
27.51800999999999
 31
0.0
  0
LINE
  5
1E5
330
F9
100
AcDbEntity
  8
AM_4
100
AcDbLine
 10
2.604500000000012
 20
27.51800999999999
 30
0.0
 11
2.449010000000005
 21
27.81402
 31
0.0
  0
LINE
  5
1E6
330
F9
100
AcDbEntity
  8
AM_4
100
AcDbLine
 10
2.449010000000005
 20
27.81402
 30
0.0
 11
2.371259999999999
 21
28.18402800000001
 31
0.0
  0
LINE
  5
1E7
330
F9
100
AcDbEntity
  8
AM_4
100
AcDbLine
 10
8.824199999999998
 20
27.0
 30
0.0
 11
6.025339999999993
 21
27.0
 31
0.0
  0
LINE
  5
1E8
330
F9
100
AcDbEntity
  8
AM_4
100
AcDbLine
 10
6.025339999999993
 20
27.0
 30
0.0
 11
6.025339999999993
 21
30.47808000000001
 31
0.0
  0
LINE
  5
1E9
330
F9
100
AcDbEntity
  8
AM_4
100
AcDbLine
 10
6.025339999999993
 20
30.47808000000001
 30
0.0
 11
8.824199999999976
 21
30.47808000000001
 31
0.0
  0
LINE
  5
1EA
330
F9
100
AcDbEntity
  8
AM_4
100
AcDbLine
 10
8.824199999999976
 20
30.47808000000001
 30
0.0
 11
8.824199999999998
 21
30.03407
 31
0.0
  0
LINE
  5
1EB
330
F9
100
AcDbEntity
  8
AM_4
100
AcDbLine
 10
8.824199999999998
 20
30.03407
 30
0.0
 11
6.491809999999993
 21
30.03407
 31
0.0
  0
LINE
  5
1EC
330
F9
100
AcDbEntity
  8
AM_4
100
AcDbLine
 10
6.491809999999993
 20
30.03407
 30
0.0
 11
6.49180999999999
 21
29.072047
 31
0.0
  0
LINE
  5
1ED
330
F9
100
AcDbEntity
  8
AM_4
100
AcDbLine
 10
6.49180999999999
 20
29.072047
 30
0.0
 11
8.513219999999993
 21
29.072047
 31
0.0
  0
LINE
  5
1EE
330
F9
100
AcDbEntity
  8
AM_4
100
AcDbLine
 10
8.513219999999993
 20
29.072047
 30
0.0
 11
8.513219999999992
 21
28.628038
 31
0.0
  0
LINE
  5
1EF
330
F9
100
AcDbEntity
  8
AM_4
100
AcDbLine
 10
8.513219999999992
 20
28.628038
 30
0.0
 11
6.491809999999993
 21
28.628038
 31
0.0
  0
LINE
  5
1F0
330
F9
100
AcDbEntity
  8
AM_4
100
AcDbLine
 10
6.491809999999993
 20
28.628038
 30
0.0
 11
6.49180999999999
 21
27.44401000000001
 31
0.0
  0
LINE
  5
1F1
330
F9
100
AcDbEntity
  8
AM_4
100
AcDbLine
 10
6.49180999999999
 20
27.44401000000001
 30
0.0
 11
8.824199999999992
 21
27.44401000000001
 31
0.0
  0
LINE
  5
1F2
330
F9
100
AcDbEntity
  8
AM_4
100
AcDbLine
 10
8.824199999999992
 20
27.44401000000001
 30
0.0
 11
8.824199999999998
 21
27.0
 31
0.0
  0
LINE
  5
1F3
330
F9
100
AcDbEntity
  8
AM_4
100
AcDbLine
 10
27.40909090909093
 20
-6.196296296296304
 30
0.0
 11
35.31999999999997
 21
-20.99999999999999
 31
0.0
  0
LINE
  5
1F4
330
F9
100
AcDbEntity
  8
AM_4
100
AcDbLine
 10
27.40909090909093
 20
-6.196296296296304
 30
0.0
 11
27.40909090909093
 21
-36.5
 31
0.0
  0
LINE
  5
1F5
330
F9
100
AcDbEntity
  8
AM_4
100
AcDbLine
 10
35.32
 20
-36.5
 30
0.0
 11
35.31999999999997
 21
-20.99999999999999
 31
0.0
  0
LINE
  5
1F6
330
F9
100
AcDbEntity
  8
AM_4
100
AcDbLine
 10
69.85
 20
-22.50000000000001
 30
0.0
 11
69.85000000000001
 21
-36.5
 31
0.0
  0
LWPOLYLINE
  5
1F7
330
F9
100
AcDbEntity
  8
AM_4
100
AcDbPolyline
 90
       19
 70
     0
 43
0.0
 10
68.34999999999997
 20
-20.99999999999998
 10
68.48073361412146
 20
-21.00570795286236
 10
68.61047226650037
 20
-21.02278837048167
 10
68.73822856765375
 20
-21.05111126056638
 10
68.86303021498848
 20
-21.09046106882112
 10
68.98392739261102
 20
-21.14053831944501
 10
69.09999999999998
 20
-21.20096189432332
 10
69.21036465452656
 20
-21.2712719335665
 10
69.31418141452978
 20
-21.35093333532152
 10
69.41066017177981
 20
-21.43933982822016
 10
69.49906666467845
 20
-21.53581858547018
 10
69.57872806643347
 20
-21.63963534547342
 10
69.64903810567664
 20
-21.74999999999999
 10
69.70946168055498
 20
-21.86607260738894
 10
69.75953893117885
 20
-21.98696978501149
 10
69.79888873943361
 20
-22.11177143234622
 10
69.82721162951832
 20
-22.2395277334996
 10
69.84429204713761
 20
-22.36926638587851
 10
69.85
 20
-22.50000000000001
  0
LINE
  5
1F8
330
F9
100
AcDbEntity
  8
AM_4
100
AcDbLine
 10
65.66111111111111
 20
-21.0
 30
0.0
 11
65.66111111111113
 21
-36.5
 31
0.0
  0
LINE
  5
1F9
330
F9
100
AcDbEntity
  8
AM_4
100
AcDbLine
 10
69.85000000000001
 20
-36.5
 30
0.0
 11
-69.85
 21
-36.5
 31
0.0
  0
ENDBLK
  5
FC
330
F9
100
AcDbEntity
  8
0
100
AcDbBlockEnd
  0
ENDSEC
  0
SECTION
  2
ENTITIES
  0
INSERT
  5
6F
330
1F
100
AcDbEntity
  8
0
100
AcDbBlockReference
  2
1_129247_0
 10
0.0
 20
0.0
 30
0.0
  0
POINT
  5
1FB
330
1F
100
AcDbEntity
  8
ConnectionPoints
100
AcDbPoint
 10
0.0
 20
0.0
 30
0.0
  0
POINT
  5
1FC
330
1F
100
AcDbEntity
  8
ConnectionPoints
100
AcDbPoint
 10
0.0
 20
0.0
 30
-12.7
  0
POINT
  5
1FD
330
1F
100
AcDbEntity
  8
ConnectionPoints
100
AcDbPoint
 10
0.0
 20
0.0
 30
0.0
  0
POINT
  5
1FE
330
1F
100
AcDbEntity
  8
ConnectionPoints
100
AcDbPoint
 10
0.0
 20
0.0
 30
0.0
  0
ENDSEC
  0
SECTION
  2
OBJECTS
  0
DICTIONARY
  5
C
330
0
100
AcDbDictionary
281
     1
  3
ACAD_DETAILVIEWSTYLE
350
206
  3
ACAD_GROUP
350
D
  3
ACAD_LAYOUT
350
1A
  3
ACAD_MATERIAL
350
43
  3
ACAD_MLEADERSTYLE
350
6B
  3
ACAD_MLINESTYLE
350
17
  3
ACAD_PLOTSETTINGS
350
19
  3
ACAD_PLOTSTYLENAME
350
E
  3
ACAD_SCALELIST
350
47
  3
ACAD_SECTIONVIEWSTYLE
350
207
  3
ACAD_TABLESTYLE
350
69
  3
ACAD_VISUALSTYLE
350
2A
  3
ACDB_RECOMPOSE_DATA
350
203
  3
AcDbVariableDictionary
350
1FF
  0
SUN
  5
6D
330
29
100
AcDbSun
 90
        1
290
     0
 63
     7
421
 16777215
 40
1.0
291
     1
 91
  2455826
 92
 54000000
292
     0
 70
     2
 71
   256
280
     1
  0
DICTIONARY
  5
206
102
{ACAD_REACTORS
330
C
102
}
330
C
100
AcDbDictionary
281
     1
  0
DICTIONARY
  5
D
102
{ACAD_REACTORS
330
C
102
}
330
C
100
AcDbDictionary
281
     1
  0
DICTIONARY
  5
1A
102
{ACAD_REACTORS
330
C
102
}
330
C
100
AcDbDictionary
281
     1
  3
Layout1
350
1E
  3
Layout2
350
26
  3
Model
350
22
  0
DICTIONARY
  5
43
102
{ACAD_REACTORS
330
C
102
}
330
C
100
AcDbDictionary
281
     1
  3
ByBlock
350
45
  3
ByLayer
350
44
  3
Global
350
46
  0
DICTIONARY
  5
6B
102
{ACAD_REACTORS
330
C
102
}
330
C
100
AcDbDictionary
281
     1
  3
Standard
350
6C
  0
DICTIONARY
  5
17
102
{ACAD_REACTORS
330
C
102
}
330
C
100
AcDbDictionary
281
     1
  3
Standard
350
18
  0
DICTIONARY
  5
19
102
{ACAD_REACTORS
330
C
102
}
330
C
100
AcDbDictionary
281
     1
  0
ACDBDICTIONARYWDFLT
  5
E
102
{ACAD_REACTORS
330
C
102
}
330
C
100
AcDbDictionary
281
     1
  3
Normal
350
F
100
AcDbDictionaryWithDefault
340
F
  0
DICTIONARY
  5
47
102
{ACAD_REACTORS
330
C
102
}
330
C
100
AcDbDictionary
281
     1
  3
A0
350
48
  3
A1
350
49
  3
A2
350
4A
  3
A3
350
4B
  3
A4
350
4C
  3
A5
350
4D
  3
A6
350
4E
  3
A7
350
4F
  3
A8
350
50
  3
A9
350
51
  3
B0
350
52
  3
B1
350
53
  3
B2
350
54
  3
B3
350
55
  3
B4
350
56
  3
B5
350
57
  3
B6
350
58
  3
B7
350
59
  3
B8
350
5A
  3
B9
350
5B
  3
C0
350
5C
  3
C1
350
5D
  3
C2
350
5E
  3
C3
350
5F
  3
C4
350
60
  3
C5
350
61
  3
C6
350
62
  3
C7
350
63
  3
C8
350
64
  3
C9
350
65
  3
D0
350
66
  3
D1
350
67
  3
D2
350
68
  0
DICTIONARY
  5
207
102
{ACAD_REACTORS
330
C
102
}
330
C
100
AcDbDictionary
281
     1
  0
DICTIONARY
  5
69
102
{ACAD_REACTORS
330
C
102
}
330
C
100
AcDbDictionary
281
     1
  3
Standard
350
6A
  0
DICTIONARY
  5
2A
102
{ACAD_REACTORS
330
C
102
}
330
C
100
AcDbDictionary
281
     1
  3
2dWireframe
350
2F
  3
Basic
350
32
  3
Brighten
350
36
  3
ColorChange
350
3A
  3
Conceptual
350
34
  3
Dim
350
35
  3
EdgeColorOff
350
3D
  3
Facepattern
350
39
  3
Flat
350
2B
  3
FlatWithEdges
350
2C
  3
Gouraud
350
2D
  3
GouraudWithEdges
350
2E
  3
Hidden
350
31
  3
JitterOff
350
3B
  3
Linepattern
350
38
  3
OverhangOff
350
3C
  3
Realistic
350
33
  3
Shaded
350
42
  3
Shaded with edges
350
41
  3
Shades of Gray
350
3E
  3
Sketchy
350
3F
  3
Thicken
350
37
  3
Wireframe
350
30
  3
X-Ray
350
40
  0
XRECORD
  5
203
102
{ACAD_REACTORS
330
C
102
}
330
C
100
AcDbXrecord
280
     1
 90
        1
330
6A
  0
DICTIONARY
  5
1FF
102
{ACAD_REACTORS
330
C
102
}
330
C
100
AcDbDictionary
281
     1
  3
CANNOSCALE
350
200
  3
CMLEADERSTYLE
350
205
  3
CTABLESTYLE
350
204
  0
LAYOUT
  5
1E
102
{ACAD_REACTORS
330
1A
102
}
330
1A
100
AcDbPlotSettings
  1

  2
none_device
  4

  6

 40
0.0
 41
0.0
 42
0.0
 43
0.0
 44
0.0
 45
0.0
 46
0.0
 47
0.0
 48
0.0
 49
0.0
140
0.0
141
0.0
142
1.0
143
1.0
 70
   688
 72
     1
 73
     0
 74
     5
  7

 75
    16
 76
     0
 77
     2
 78
   300
147
1.0
148
0.0
149
0.0
100
AcDbLayout
  1
Layout1
 70
     1
 71
     1
 10
0.0
 20
0.0
 11
420.0
 21
297.0
 12
0.0
 22
0.0
 32
0.0
 14
1.000000000000000E+20
 24
1.000000000000000E+20
 34
1.000000000000000E+20
 15
-1.000000000000000E+20
 25
-1.000000000000000E+20
 35
-1.000000000000000E+20
146
0.0
 13
0.0
 23
0.0
 33
0.0
 16
1.0
 26
0.0
 36
0.0
 17
0.0
 27
1.0
 37
0.0
 76
     0
330
1B
  0
LAYOUT
  5
26
102
{ACAD_REACTORS
330
1A
102
}
330
1A
100
AcDbPlotSettings
  1

  2
none_device
  4

  6

 40
0.0
 41
0.0
 42
0.0
 43
0.0
 44
0.0
 45
0.0
 46
0.0
 47
0.0
 48
0.0
 49
0.0
140
0.0
141
0.0
142
1.0
143
1.0
 70
   688
 72
     1
 73
     0
 74
     5
  7

 75
    16
 76
     0
 77
     2
 78
   300
147
1.0
148
0.0
149
0.0
100
AcDbLayout
  1
Layout2
 70
     1
 71
     2
 10
0.0
 20
0.0
 11
0.0
 21
0.0
 12
0.0
 22
0.0
 32
0.0
 14
0.0
 24
0.0
 34
0.0
 15
0.0
 25
0.0
 35
0.0
146
0.0
 13
0.0
 23
0.0
 33
0.0
 16
1.0
 26
0.0
 36
0.0
 17
0.0
 27
1.0
 37
0.0
 76
     0
330
23
  0
LAYOUT
  5
22
102
{ACAD_REACTORS
330
1A
102
}
330
1A
100
AcDbPlotSettings
  1

  2
none_device
  4
Letter_(8.50_x_11.00_Inches)
  6

 40
6.35
 41
6.35
 42
6.35000508
 43
6.35000508
 44
215.9
 45
279.4
 46
0.0
 47
0.0
 48
0.0
 49
0.0
140
0.0
141
0.0
142
1.0
143
1.0
 70
  1712
 72
     1
 73
     0
 74
     0
  7

 75
     0
 76
     0
 77
     2
 78
   300
147
1.0
148
0.0
149
0.0
100
AcDbLayout
  1
Model
 70
     1
 71
     0
 10
0.0
 20
0.0
 11
420.0
 21
297.0
 12
0.0
 22
0.0
 32
0.0
 14
1.000000000000000E+20
 24
1.000000000000000E+20
 34
1.000000000000000E+20
 15
-1.000000000000000E+20
 25
-1.000000000000000E+20
 35
-1.000000000000000E+20
146
0.0
 13
0.0
 23
0.0
 33
0.0
 16
1.0
 26
0.0
 36
0.0
 17
0.0
 27
1.0
 37
0.0
 76
     0
330
1F
331
29
  0
MATERIAL
  5
45
102
{ACAD_REACTORS
330
43
102
}
330
43
100
AcDbMaterial
  1
ByBlock
 72
     1
 94
      127
  0
MATERIAL
  5
44
102
{ACAD_REACTORS
330
43
102
}
330
43
100
AcDbMaterial
  1
ByLayer
 72
     1
 94
      127
  0
MATERIAL
  5
46
102
{ACAD_REACTORS
330
43
102
}
330
43
100
AcDbMaterial
  1
Global
 72
     1
 94
      127
  0
MLEADERSTYLE
  5
6C
102
{ACAD_REACTORS
330
6B
102
}
330
6B
100
AcDbMLeaderStyle
179
     2
170
     2
171
     1
172
     0
 90
        2
 40
0.0
 41
0.0
173
     1
 91
-1056964608
340
14
 92
       -2
290
     1
 42
2.0
291
     1
 43
8.0
  3
Standard
341
0
 44
4.0
300

342
11
174
     1
178
     6
175
     1
176
     0
 93
-1056964608
 45
4.0
292
     0
297
     0
 46
4.0
343
0
 94
-1056964608
 47
1.0
 49
1.0
140
1.0
293
     1
141
0.0
294
     1
177
     0
142
1.0
295
     0
296
     0
143
3.75
271
     0
272
     9
273
     9
298
     0
  0
MLINESTYLE
  5
18
102
{ACAD_REACTORS
330
17
102
}
330
17
100
AcDbMlineStyle
  2
Standard
 70
     0
  3

 62
   256
 51
90.0
 52
90.0
 71
     2
 49
0.5
 62
   256
  6
BYLAYER
 49
-0.5
 62
   256
  6
BYLAYER
  0
ACDBPLACEHOLDER
  5
F
102
{ACAD_REACTORS
330
E
102
}
330
E
  0
SCALE
  5
48
102
{ACAD_REACTORS
330
47
102
}
330
47
100
AcDbScale
 70
     0
300
1:1
140
1.0
141
1.0
290
     1
  0
SCALE
  5
49
102
{ACAD_REACTORS
330
47
102
}
330
47
100
AcDbScale
 70
     0
300
1:2
140
1.0
141
2.0
290
     0
  0
SCALE
  5
4A
102
{ACAD_REACTORS
330
47
102
}
330
47
100
AcDbScale
 70
     0
300
1:4
140
1.0
141
4.0
290
     0
  0
SCALE
  5
4B
102
{ACAD_REACTORS
330
47
102
}
330
47
100
AcDbScale
 70
     0
300
1:5
140
1.0
141
5.0
290
     0
  0
SCALE
  5
4C
102
{ACAD_REACTORS
330
47
102
}
330
47
100
AcDbScale
 70
     0
300
1:8
140
1.0
141
8.0
290
     0
  0
SCALE
  5
4D
102
{ACAD_REACTORS
330
47
102
}
330
47
100
AcDbScale
 70
     0
300
1:10
140
1.0
141
10.0
290
     0
  0
SCALE
  5
4E
102
{ACAD_REACTORS
330
47
102
}
330
47
100
AcDbScale
 70
     0
300
1:16
140
1.0
141
16.0
290
     0
  0
SCALE
  5
4F
102
{ACAD_REACTORS
330
47
102
}
330
47
100
AcDbScale
 70
     0
300
1:20
140
1.0
141
20.0
290
     0
  0
SCALE
  5
50
102
{ACAD_REACTORS
330
47
102
}
330
47
100
AcDbScale
 70
     0
300
1:30
140
1.0
141
30.0
290
     0
  0
SCALE
  5
51
102
{ACAD_REACTORS
330
47
102
}
330
47
100
AcDbScale
 70
     0
300
1:40
140
1.0
141
40.0
290
     0
  0
SCALE
  5
52
102
{ACAD_REACTORS
330
47
102
}
330
47
100
AcDbScale
 70
     0
300
1:50
140
1.0
141
50.0
290
     0
  0
SCALE
  5
53
102
{ACAD_REACTORS
330
47
102
}
330
47
100
AcDbScale
 70
     0
300
1:100
140
1.0
141
100.0
290
     0
  0
SCALE
  5
54
102
{ACAD_REACTORS
330
47
102
}
330
47
100
AcDbScale
 70
     0
300
2:1
140
2.0
141
1.0
290
     0
  0
SCALE
  5
55
102
{ACAD_REACTORS
330
47
102
}
330
47
100
AcDbScale
 70
     0
300
4:1
140
4.0
141
1.0
290
     0
  0
SCALE
  5
56
102
{ACAD_REACTORS
330
47
102
}
330
47
100
AcDbScale
 70
     0
300
8:1
140
8.0
141
1.0
290
     0
  0
SCALE
  5
57
102
{ACAD_REACTORS
330
47
102
}
330
47
100
AcDbScale
 70
     0
300
10:1
140
10.0
141
1.0
290
     0
  0
SCALE
  5
58
102
{ACAD_REACTORS
330
47
102
}
330
47
100
AcDbScale
 70
     0
300
100:1
140
100.0
141
1.0
290
     0
  0
SCALE
  5
59
102
{ACAD_REACTORS
330
47
102
}
330
47
100
AcDbScale
 70
     0
300
1/128" = 1'-0"
140
0.0078125
141
12.0
290
     0
  0
SCALE
  5
5A
102
{ACAD_REACTORS
330
47
102
}
330
47
100
AcDbScale
 70
     0
300
1/64" = 1'-0"
140
0.015625
141
12.0
290
     0
  0
SCALE
  5
5B
102
{ACAD_REACTORS
330
47
102
}
330
47
100
AcDbScale
 70
     0
300
1/32" = 1'-0"
140
0.03125
141
12.0
290
     0
  0
SCALE
  5
5C
102
{ACAD_REACTORS
330
47
102
}
330
47
100
AcDbScale
 70
     0
300
1/16" = 1'-0"
140
0.0625
141
12.0
290
     0
  0
SCALE
  5
5D
102
{ACAD_REACTORS
330
47
102
}
330
47
100
AcDbScale
 70
     0
300
3/32" = 1'-0"
140
0.09375
141
12.0
290
     0
  0
SCALE
  5
5E
102
{ACAD_REACTORS
330
47
102
}
330
47
100
AcDbScale
 70
     0
300
1/8" = 1'-0"
140
0.125
141
12.0
290
     0
  0
SCALE
  5
5F
102
{ACAD_REACTORS
330
47
102
}
330
47
100
AcDbScale
 70
     0
300
3/16" = 1'-0"
140
0.1875
141
12.0
290
     0
  0
SCALE
  5
60
102
{ACAD_REACTORS
330
47
102
}
330
47
100
AcDbScale
 70
     0
300
1/4" = 1'-0"
140
0.25
141
12.0
290
     0
  0
SCALE
  5
61
102
{ACAD_REACTORS
330
47
102
}
330
47
100
AcDbScale
 70
     0
300
3/8" = 1'-0"
140
0.375
141
12.0
290
     0
  0
SCALE
  5
62
102
{ACAD_REACTORS
330
47
102
}
330
47
100
AcDbScale
 70
     0
300
1/2" = 1'-0"
140
0.5
141
12.0
290
     0
  0
SCALE
  5
63
102
{ACAD_REACTORS
330
47
102
}
330
47
100
AcDbScale
 70
     0
300
3/4" = 1'-0"
140
0.75
141
12.0
290
     0
  0
SCALE
  5
64
102
{ACAD_REACTORS
330
47
102
}
330
47
100
AcDbScale
 70
     0
300
1" = 1'-0"
140
1.0
141
12.0
290
     0
  0
SCALE
  5
65
102
{ACAD_REACTORS
330
47
102
}
330
47
100
AcDbScale
 70
     0
300
1-1/2" = 1'-0"
140
1.5
141
12.0
290
     0
  0
SCALE
  5
66
102
{ACAD_REACTORS
330
47
102
}
330
47
100
AcDbScale
 70
     0
300
3" = 1'-0"
140
3.0
141
12.0
290
     0
  0
SCALE
  5
67
102
{ACAD_REACTORS
330
47
102
}
330
47
100
AcDbScale
 70
     0
300
6" = 1'-0"
140
6.0
141
12.0
290
     0
  0
SCALE
  5
68
102
{ACAD_REACTORS
330
47
102
}
330
47
100
AcDbScale
 70
     0
300
1'-0" = 1'-0"
140
12.0
141
12.0
290
     0
  0
TABLESTYLE
  5
6A
102
{ACAD_REACTORS
330
69
102
}
102
{ACAD_XDICTIONARY
360
201
102
}
330
69
100
AcDbTableStyle
  3
Standard
 70
     0
 71
     0
 40
0.06
 41
0.06
280
     0
281
     0
  7
Standard
140
4.5
170
     2
 62
     0
 63
   257
283
     0
 90
        4
 91
        0
  1

274
    -2
284
     1
 64
     0
275
    -2
285
     1
 65
     0
276
    -2
286
     1
 66
     0
277
    -2
287
     1
 67
     0
278
    -2
288
     1
 68
     0
279
    -2
289
     1
 69
     0
  7
Standard
140
6.0
170
     5
 62
     0
 63
   257
283
     0
 90
        4
 91
        0
  1

274
    -2
284
     1
 64
     0
275
    -2
285
     1
 65
     0
276
    -2
286
     1
 66
     0
277
    -2
287
     1
 67
     0
278
    -2
288
     1
 68
     0
279
    -2
289
     1
 69
     0
  7
Standard
140
4.5
170
     5
 62
     0
 63
   257
283
     0
 90
        4
 91
        0
  1

274
    -2
284
     1
 64
     0
275
    -2
285
     1
 65
     0
276
    -2
286
     1
 66
     0
277
    -2
287
     1
 67
     0
278
    -2
288
     1
 68
     0
279
    -2
289
     1
 69
     0
  0
VISUALSTYLE
  5
2F
102
{ACAD_REACTORS
330
2A
102
}
330
2A
100
AcDbVisualStyle
  2
2dWireframe
 70
     4
177
     3
291
     0
 70
    58
 90
        0
176
     1
 90
        2
176
     1
 90
        0
176
     1
 90
        0
176
     1
 40
0.6
176
     1
 40
30.0
176
     1
 62
     7
420
 16777215
176
     1
 90
        1
176
     1
 90
        4
176
     1
 62
     7
176
     1
 62
   257
176
     1
 90
        1
176
     1
 90
        1
176
     1
 40
1.0
176
     1
 90
        0
176
     1
 62
   257
176
     1
 40
1.0
176
     1
 90
        1
176
     1
 90
        6
176
     1
 90
        2
176
     1
 62
     7
176
     1
 90
        5
176
     1
 90
        0
176
     1
 90
        0
176
     1
290
     0
176
     1
 90
        1
176
     1
 40
0.0
176
     1
 90
        0
176
     1
290
     1
176
     1
290
     1
176
     1
290
     0
176
     1
290
     0
176
     1
290
     0
176
     1
290
     0
176
     1
290
     0
176
     1
290
     0
176
     1
290
     0
176
     1
 90
       50
176
     1
 40
0.0
176
     1
 40
1.0
176
     1
 90
        0
176
     1
 62
    18
420
        0
176
     1
 90
       50
176
     1
 90
        3
176
     1
 62
     5
420
      255
176
     1
290
     0
176
     1
 90
       50
176
     1
 90
       50
176
     1
 90
       50
176
     1
290
     0
176
     1
 90
       50
176
     1
 62
   256
176
     0
 40
1.0
176
     0
 90
        2
176
     1
  1
strokes_ogs.tif
176
     1
290
     0
176
     1
 40
1.0
176
     1
 40
1.0
176
     1
  0
VISUALSTYLE
  5
32
102
{ACAD_REACTORS
330
2A
102
}
330
2A
100
AcDbVisualStyle
  2
Basic
 70
     7
177
     3
291
     1
 70
    58
 90
        1
176
     1
 90
        0
176
     1
 90
        1
176
     1
 90
        0
176
     1
 40
0.6
176
     1
 40
30.0
176
     1
 62
     7
420
 16777215
176
     1
 90
        0
176
     1
 90
        4
176
     1
 62
     7
176
     1
 62
   257
176
     1
 90
        1
176
     1
 90
        1
176
     1
 40
1.0
176
     1
 90
        8
176
     1
 62
     7
176
     1
 40
1.0
176
     1
 90
        1
176
     1
 90
        6
176
     1
 90
        2
176
     1
 62
     7
176
     1
 90
        5
176
     1
 90
        0
176
     1
 90
        0
176
     1
290
     0
176
     1
 90
        1
176
     1
 40
0.0
176
     1
 90
        0
176
     1
290
     0
176
     1
290
     1
176
     1
290
     1
176
     1
290
     0
176
     1
290
     0
176
     1
290
     0
176
     1
290
     0
176
     1
290
     0
176
     1
290
     0
176
     1
 90
       50
176
     1
 40
0.0
176
     1
 40
1.0
176
     1
 90
        0
176
     1
 62
    18
420
        0
176
     1
 90
       50
176
     1
 90
        3
176
     1
 62
     5
420
      255
176
     1
290
     0
176
     1
 90
       50
176
     1
 90
       50
176
     1
 90
       50
176
     1
290
     0
176
     1
 90
       50
176
     1
 62
   256
176
     0
 40
1.0
176
     0
 90
        2
176
     1
  1
strokes_ogs.tif
176
     1
290
     0
176
     1
 40
1.0
176
     1
 40
1.0
176
     1
  0
VISUALSTYLE
  5
36
102
{ACAD_REACTORS
330
2A
102
}
330
2A
100
AcDbVisualStyle
  2
Brighten
 70
    12
177
     3
291
     1
 70
    58
 90
        2
176
     1
 90
        2
176
     1
 90
        0
176
     1
 90
        0
176
     1
 40
0.6
176
     1
 40
30.0
176
     1
 62
     7
420
 16777215
176
     1
 90
        1
176
     1
 90
        4
176
     1
 62
     7
176
     1
 62
   257
176
     1
 90
        1
176
     1
 90
        1
176
     1
 40
1.0
176
     1
 90
        8
176
     1
 62
     7
176
     1
 40
1.0
176
     1
 90
        1
176
     1
 90
        6
176
     1
 90
        2
176
     1
 62
     7
176
     1
 90
        5
176
     1
 90
        0
176
     1
 90
        0
176
     1
290
     0
176
     1
 90
        1
176
     1
 40
50.0
176
     1
 90
        0
176
     1
290
     0
176
     1
290
     1
176
     1
290
     1
176
     1
290
     0
176
     1
290
     0
176
     1
290
     0
176
     1
290
     0
176
     1
290
     0
176
     1
290
     0
176
     1
 90
       50
176
     1
 40
0.0
176
     1
 40
1.0
176
     1
 90
        0
176
     1
 62
    18
420
        0
176
     1
 90
       50
176
     1
 90
        3
176
     1
 62
     5
420
      255
176
     1
290
     0
176
     1
 90
       50
176
     1
 90
       50
176
     1
 90
       50
176
     1
290
     0
176
     1
 90
       50
176
     1
 62
   256
176
     0
 40
1.0
176
     0
 90
        2
176
     1
  1
strokes_ogs.tif
176
     1
290
     0
176
     1
 40
1.0
176
     1
 40
1.0
176
     1
  0
VISUALSTYLE
  5
3A
102
{ACAD_REACTORS
330
2A
102
}
330
2A
100
AcDbVisualStyle
  2
ColorChange
 70
    16
177
     3
291
     1
 70
    58
 90
        2
176
     1
 90
        2
176
     1
 90
        3
176
     1
 90
        0
176
     1
 40
0.6
176
     1
 40
30.0
176
     1
 62
     8
420
  8421504
176
     1
 90
        1
176
     1
 90
        4
176
     1
 62
     7
176
     1
 62
   257
176
     1
 90
        1
176
     1
 90
        1
176
     1
 40
1.0
176
     1
 90
        8
176
     1
 62
     8
420
  8421504
176
     1
 40
1.0
176
     1
 90
        1
176
     1
 90
        6
176
     1
 90
        2
176
     1
 62
     7
176
     1
 90
        5
176
     1
 90
        0
176
     1
 90
        0
176
     1
290
     0
176
     1
 90
        1
176
     1
 40
0.0
176
     1
 90
        0
176
     1
290
     0
176
     1
290
     1
176
     1
290
     1
176
     1
290
     0
176
     1
290
     0
176
     1
290
     0
176
     1
290
     0
176
     1
290
     0
176
     1
290
     0
176
     1
 90
       50
176
     1
 40
0.0
176
     1
 40
1.0
176
     1
 90
        0
176
     1
 62
    18
420
        0
176
     1
 90
       50
176
     1
 90
        3
176
     1
 62
     5
420
      255
176
     1
290
     0
176
     1
 90
       50
176
     1
 90
       50
176
     1
 90
       50
176
     1
290
     0
176
     1
 90
       50
176
     1
 62
   256
176
     0
 40
1.0
176
     0
 90
        2
176
     1
  1
strokes_ogs.tif
176
     1
290
     0
176
     1
 40
1.0
176
     1
 40
1.0
176
     1
  0
VISUALSTYLE
  5
34
102
{ACAD_REACTORS
330
2A
102
}
330
2A
100
AcDbVisualStyle
  2
Conceptual
 70
     9
177
     3
291
     0
 70
    58
 90
        3
176
     1
 90
        2
176
     1
 90
        0
176
     1
 90
        0
176
     1
 40
0.6
176
     1
 40
30.0
176
     1
 62
     7
420
 16777215
176
     1
 90
        2
176
     1
 90
        2
176
     1
 62
     7
176
     1
 62
   257
176
     1
 90
        1
176
     1
 90
        1
176
     1
 40
179.0
176
     1
 90
        8
176
     1
 62
     7
176
     1
 40
1.0
176
     1
 90
        1
176
     1
 90
        6
176
     1
 90
        2
176
     1
 62
     7
176
     1
 90
        3
176
     1
 90
        0
176
     1
 90
        0
176
     1
290
     0
176
     1
 90
        1
176
     1
 40
0.0
176
     1
 90
        0
176
     1
290
     0
176
     1
290
     1
176
     1
290
     1
176
     1
290
     0
176
     1
290
     0
176
     1
290
     0
176
     1
290
     0
176
     1
290
     0
176
     1
290
     0
176
     1
 90
       50
176
     1
 40
0.0
176
     1
 40
1.0
176
     1
 90
        0
176
     1
 62
    18
420
        0
176
     1
 90
       50
176
     1
 90
        3
176
     1
 62
     5
420
      255
176
     1
290
     0
176
     1
 90
       50
176
     1
 90
       50
176
     1
 90
       50
176
     1
290
     0
176
     1
 90
       50
176
     1
 62
   256
176
     0
 40
1.0
176
     0
 90
        2
176
     1
  1
strokes_ogs.tif
176
     1
290
     0
176
     1
 40
1.0
176
     1
 40
1.0
176
     1
  0
VISUALSTYLE
  5
35
102
{ACAD_REACTORS
330
2A
102
}
330
2A
100
AcDbVisualStyle
  2
Dim
 70
    11
177
     3
291
     1
 70
    58
 90
        2
176
     1
 90
        2
176
     1
 90
        0
176
     1
 90
        0
176
     1
 40
0.6
176
     1
 40
30.0
176
     1
 62
     7
420
 16777215
176
     1
 90
        1
176
     1
 90
        4
176
     1
 62
     7
176
     1
 62
   257
176
     1
 90
        1
176
     1
 90
        1
176
     1
 40
1.0
176
     1
 90
        8
176
     1
 62
     7
176
     1
 40
1.0
176
     1
 90
        1
176
     1
 90
        6
176
     1
 90
        2
176
     1
 62
     7
176
     1
 90
        5
176
     1
 90
        0
176
     1
 90
        0
176
     1
290
     0
176
     1
 90
        1
176
     1
 40
-50.0
176
     1
 90
        0
176
     1
290
     0
176
     1
290
     1
176
     1
290
     1
176
     1
290
     0
176
     1
290
     0
176
     1
290
     0
176
     1
290
     0
176
     1
290
     0
176
     1
290
     0
176
     1
 90
       50
176
     1
 40
0.0
176
     1
 40
1.0
176
     1
 90
        0
176
     1
 62
    18
420
        0
176
     1
 90
       50
176
     1
 90
        3
176
     1
 62
     5
420
      255
176
     1
290
     0
176
     1
 90
       50
176
     1
 90
       50
176
     1
 90
       50
176
     1
290
     0
176
     1
 90
       50
176
     1
 62
   256
176
     0
 40
1.0
176
     0
 90
        2
176
     1
  1
strokes_ogs.tif
176
     1
290
     0
176
     1
 40
1.0
176
     1
 40
1.0
176
     1
  0
VISUALSTYLE
  5
3D
102
{ACAD_REACTORS
330
2A
102
}
330
2A
100
AcDbVisualStyle
  2
EdgeColorOff
 70
    22
177
     3
291
     1
 70
    58
 90
        2
176
     0
 90
        2
176
     0
 90
        0
176
     0
 90
        0
176
     0
 40
0.6
176
     0
 40
30.0
176
     0
 62
     7
420
 16777215
176
     0
 90
        1
176
     0
 90
        4
176
     0
 62
     7
176
     0
 62
   257
176
     0
 90
        1
176
     0
 90
        1
176
     0
 40
1.0
176
     0
 90
        8
176
     2
 62
     7
176
     0
 40
1.0
176
     0
 90
        1
176
     0
 90
        6
176
     0
 90
        2
176
     0
 62
     7
176
     0
 90
        5
176
     0
 90
        0
176
     0
 90
        0
176
     0
290
     0
176
     0
 90
        1
176
     0
 40
0.0
176
     0
 90
        0
176
     0
290
     0
176
     0
290
     1
176
     0
290
     1
176
     0
290
     0
176
     0
290
     0
176
     0
290
     0
176
     0
290
     0
176
     0
290
     0
176
     0
290
     0
176
     0
 90
       50
176
     0
 40
0.0
176
     0
 40
1.0
176
     0
 90
        0
176
     0
 62
    18
420
        0
176
     0
 90
       50
176
     0
 90
        3
176
     0
 62
     5
420
      255
176
     0
290
     0
176
     0
 90
       50
176
     0
 90
       50
176
     0
 90
       50
176
     0
290
     0
176
     0
 90
       50
176
     0
 62
   256
176
     0
 40
1.0
176
     0
 90
        2
176
     0
  1
strokes_ogs.tif
176
     0
290
     0
176
     0
 40
1.0
176
     0
 40
1.0
176
     0
  0
VISUALSTYLE
  5
39
102
{ACAD_REACTORS
330
2A
102
}
330
2A
100
AcDbVisualStyle
  2
Facepattern
 70
    15
177
     3
291
     1
 70
    58
 90
        2
176
     1
 90
        2
176
     1
 90
        0
176
     1
 90
        0
176
     1
 40
0.6
176
     1
 40
30.0
176
     1
 62
     7
420
 16777215
176
     1
 90
        1
176
     1
 90
        4
176
     1
 62
     7
176
     1
 62
   257
176
     1
 90
        1
176
     1
 90
        1
176
     1
 40
1.0
176
     1
 90
        8
176
     1
 62
     7
176
     1
 40
1.0
176
     1
 90
        1
176
     1
 90
        6
176
     1
 90
        2
176
     1
 62
     7
176
     1
 90
        5
176
     1
 90
        0
176
     1
 90
        0
176
     1
290
     0
176
     1
 90
        1
176
     1
 40
0.0
176
     1
 90
        0
176
     1
290
     0
176
     1
290
     1
176
     1
290
     1
176
     1
290
     0
176
     1
290
     0
176
     1
290
     0
176
     1
290
     0
176
     1
290
     0
176
     1
290
     0
176
     1
 90
       50
176
     1
 40
0.0
176
     1
 40
1.0
176
     1
 90
        0
176
     1
 62
    18
420
        0
176
     1
 90
       50
176
     1
 90
        3
176
     1
 62
     5
420
      255
176
     1
290
     0
176
     1
 90
       50
176
     1
 90
       50
176
     1
 90
       50
176
     1
290
     0
176
     1
 90
       50
176
     1
 62
   256
176
     0
 40
1.0
176
     0
 90
        2
176
     1
  1
strokes_ogs.tif
176
     1
290
     0
176
     1
 40
1.0
176
     1
 40
1.0
176
     1
  0
VISUALSTYLE
  5
2B
102
{ACAD_REACTORS
330
2A
102
}
330
2A
100
AcDbVisualStyle
  2
Flat
 70
     0
177
     3
291
     1
 70
    58
 90
        2
176
     1
 90
        1
176
     1
 90
        1
176
     1
 90
        2
176
     1
 40
0.6
176
     1
 40
30.0
176
     1
 62
     7
420
 16777215
176
     1
 90
        0
176
     1
 90
        0
176
     1
 62
     7
176
     1
 62
   257
176
     1
 90
        1
176
     1
 90
        1
176
     1
 40
1.0
176
     1
 90
        8
176
     1
 62
     7
176
     1
 40
1.0
176
     1
 90
        1
176
     1
 90
        6
176
     1
 90
        2
176
     1
 62
     7
176
     1
 90
        5
176
     1
 90
        0
176
     1
 90
        0
176
     1
290
     0
176
     1
 90
       13
176
     1
 40
0.0
176
     1
 90
        0
176
     1
290
     0
176
     1
290
     1
176
     1
290
     1
176
     1
290
     0
176
     1
290
     0
176
     1
290
     0
176
     1
290
     0
176
     1
290
     0
176
     1
290
     0
176
     1
 90
       50
176
     1
 40
0.0
176
     1
 40
1.0
176
     1
 90
        0
176
     1
 62
    18
420
        0
176
     1
 90
       50
176
     1
 90
        3
176
     1
 62
     5
420
      255
176
     1
290
     0
176
     1
 90
       50
176
     1
 90
       50
176
     1
 90
       50
176
     1
290
     0
176
     1
 90
       50
176
     1
 62
   256
176
     0
 40
1.0
176
     0
 90
        2
176
     1
  1
strokes_ogs.tif
176
     1
290
     0
176
     1
 40
1.0
176
     1
 40
1.0
176
     1
  0
VISUALSTYLE
  5
2C
102
{ACAD_REACTORS
330
2A
102
}
330
2A
100
AcDbVisualStyle
  2
FlatWithEdges
 70
     1
177
     3
291
     1
 70
    58
 90
        2
176
     1
 90
        1
176
     1
 90
        1
176
     1
 90
        2
176
     1
 40
0.6
176
     1
 40
30.0
176
     1
 62
     7
420
 16777215
176
     1
 90
        1
176
     1
 90
        0
176
     1
 62
     7
176
     1
 62
   257
176
     1
 90
        1
176
     1
 90
        1
176
     1
 40
1.0
176
     1
 90
        0
176
     1
 62
   257
176
     1
 40
1.0
176
     1
 90
        1
176
     1
 90
        6
176
     1
 90
        2
176
     1
 62
     7
176
     1
 90
        5
176
     1
 90
        0
176
     1
 90
        0
176
     1
290
     0
176
     1
 90
       13
176
     1
 40
0.0
176
     1
 90
        0
176
     1
290
     0
176
     1
290
     1
176
     1
290
     1
176
     1
290
     0
176
     1
290
     0
176
     1
290
     0
176
     1
290
     0
176
     1
290
     0
176
     1
290
     0
176
     1
 90
       50
176
     1
 40
0.0
176
     1
 40
1.0
176
     1
 90
        0
176
     1
 62
    18
420
        0
176
     1
 90
       50
176
     1
 90
        3
176
     1
 62
     5
420
      255
176
     1
290
     0
176
     1
 90
       50
176
     1
 90
       50
176
     1
 90
       50
176
     1
290
     0
176
     1
 90
       50
176
     1
 62
   256
176
     0
 40
1.0
176
     0
 90
        2
176
     1
  1
strokes_ogs.tif
176
     1
290
     0
176
     1
 40
1.0
176
     1
 40
1.0
176
     1
  0
VISUALSTYLE
  5
2D
102
{ACAD_REACTORS
330
2A
102
}
330
2A
100
AcDbVisualStyle
  2
Gouraud
 70
     2
177
     3
291
     1
 70
    58
 90
        2
176
     1
 90
        2
176
     1
 90
        1
176
     1
 90
        2
176
     1
 40
0.6
176
     1
 40
30.0
176
     1
 62
     7
420
 16777215
176
     1
 90
        0
176
     1
 90
        0
176
     1
 62
     7
176
     1
 62
   257
176
     1
 90
        1
176
     1
 90
        1
176
     1
 40
1.0
176
     1
 90
        0
176
     1
 62
     7
176
     1
 40
1.0
176
     1
 90
        1
176
     1
 90
        6
176
     1
 90
        2
176
     1
 62
     7
176
     1
 90
        5
176
     1
 90
        0
176
     1
 90
        0
176
     1
290
     0
176
     1
 90
       13
176
     1
 40
0.0
176
     1
 90
        0
176
     1
290
     0
176
     1
290
     1
176
     1
290
     1
176
     1
290
     0
176
     1
290
     0
176
     1
290
     0
176
     1
290
     0
176
     1
290
     0
176
     1
290
     0
176
     1
 90
       50
176
     1
 40
0.0
176
     1
 40
1.0
176
     1
 90
        0
176
     1
 62
    18
420
        0
176
     1
 90
       50
176
     1
 90
        3
176
     1
 62
     5
420
      255
176
     1
290
     0
176
     1
 90
       50
176
     1
 90
       50
176
     1
 90
       50
176
     1
290
     0
176
     1
 90
       50
176
     1
 62
   256
176
     0
 40
1.0
176
     0
 90
        2
176
     1
  1
strokes_ogs.tif
176
     1
290
     0
176
     1
 40
1.0
176
     1
 40
1.0
176
     1
  0
VISUALSTYLE
  5
2E
102
{ACAD_REACTORS
330
2A
102
}
330
2A
100
AcDbVisualStyle
  2
GouraudWithEdges
 70
     3
177
     3
291
     1
 70
    58
 90
        2
176
     1
 90
        2
176
     1
 90
        1
176
     1
 90
        2
176
     1
 40
0.6
176
     1
 40
30.0
176
     1
 62
     7
420
 16777215
176
     1
 90
        1
176
     1
 90
        0
176
     1
 62
     7
176
     1
 62
   257
176
     1
 90
        1
176
     1
 90
        1
176
     1
 40
1.0
176
     1
 90
        0
176
     1
 62
   257
176
     1
 40
1.0
176
     1
 90
        1
176
     1
 90
        6
176
     1
 90
        2
176
     1
 62
     7
176
     1
 90
        5
176
     1
 90
        0
176
     1
 90
        0
176
     1
290
     0
176
     1
 90
       13
176
     1
 40
0.0
176
     1
 90
        0
176
     1
290
     0
176
     1
290
     1
176
     1
290
     1
176
     1
290
     0
176
     1
290
     0
176
     1
290
     0
176
     1
290
     0
176
     1
290
     0
176
     1
290
     0
176
     1
 90
       50
176
     1
 40
0.0
176
     1
 40
1.0
176
     1
 90
        0
176
     1
 62
    18
420
        0
176
     1
 90
       50
176
     1
 90
        3
176
     1
 62
     5
420
      255
176
     1
290
     0
176
     1
 90
       50
176
     1
 90
       50
176
     1
 90
       50
176
     1
290
     0
176
     1
 90
       50
176
     1
 62
   256
176
     0
 40
1.0
176
     0
 90
        2
176
     1
  1
strokes_ogs.tif
176
     1
290
     0
176
     1
 40
1.0
176
     1
 40
1.0
176
     1
  0
VISUALSTYLE
  5
31
102
{ACAD_REACTORS
330
2A
102
}
330
2A
100
AcDbVisualStyle
  2
Hidden
 70
     6
177
     3
291
     0
 70
    58
 90
        1
176
     1
 90
        2
176
     1
 90
        2
176
     1
 90
        0
176
     1
 40
0.6
176
     1
 40
30.0
176
     1
 62
     7
420
 16777215
176
     1
 90
        2
176
     1
 90
        2
176
     1
 62
     7
176
     1
 62
   257
176
     1
 90
        2
176
     1
 90
        1
176
     1
 40
40.0
176
     1
 90
        0
176
     1
 62
   257
176
     1
 40
1.0
176
     1
 90
        1
176
     1
 90
        6
176
     1
 90
        2
176
     1
 62
     7
176
     1
 90
        3
176
     1
 90
        0
176
     1
 90
        0
176
     1
290
     0
176
     1
 90
        1
176
     1
 40
0.0
176
     1
 90
        0
176
     1
290
     0
176
     1
290
     1
176
     1
290
     1
176
     1
290
     0
176
     1
290
     0
176
     1
290
     0
176
     1
290
     0
176
     1
290
     0
176
     1
290
     0
176
     1
 90
       50
176
     1
 40
0.0
176
     1
 40
1.0
176
     1
 90
        0
176
     1
 62
    18
420
        0
176
     1
 90
       50
176
     1
 90
        3
176
     1
 62
     5
420
      255
176
     1
290
     0
176
     1
 90
       50
176
     1
 90
       50
176
     1
 90
       50
176
     1
290
     0
176
     1
 90
       50
176
     1
 62
   256
176
     0
 40
1.0
176
     0
 90
        2
176
     1
  1
strokes_ogs.tif
176
     1
290
     0
176
     1
 40
1.0
176
     1
 40
1.0
176
     1
  0
VISUALSTYLE
  5
3B
102
{ACAD_REACTORS
330
2A
102
}
330
2A
100
AcDbVisualStyle
  2
JitterOff
 70
    20
177
     3
291
     1
 70
    58
 90
        2
176
     0
 90
        2
176
     0
 90
        0
176
     0
 90
        0
176
     0
 40
0.6
176
     0
 40
30.0
176
     0
 62
     7
420
 16777215
176
     0
 90
        1
176
     0
 90
        4
176
     0
 62
     7
176
     0
 62
   257
176
     0
 90
        1
176
     0
 90
        1
176
     0
 40
1.0
176
     0
 90
       10
176
     2
 62
     7
176
     0
 40
1.0
176
     0
 90
        1
176
     0
 90
        6
176
     0
 90
        2
176
     0
 62
     7
176
     0
 90
        5
176
     0
 90
        0
176
     0
 90
        0
176
     0
290
     0
176
     0
 90
        1
176
     0
 40
0.0
176
     0
 90
        0
176
     0
290
     0
176
     0
290
     1
176
     0
290
     1
176
     0
290
     0
176
     0
290
     0
176
     0
290
     0
176
     0
290
     0
176
     0
290
     0
176
     0
290
     0
176
     0
 90
       50
176
     0
 40
0.0
176
     0
 40
1.0
176
     0
 90
        0
176
     0
 62
    18
420
        0
176
     0
 90
       50
176
     0
 90
        3
176
     0
 62
     5
420
      255
176
     0
290
     0
176
     0
 90
       50
176
     0
 90
       50
176
     0
 90
       50
176
     0
290
     0
176
     0
 90
       50
176
     0
 62
   256
176
     0
 40
1.0
176
     0
 90
        2
176
     0
  1
strokes_ogs.tif
176
     0
290
     0
176
     0
 40
1.0
176
     0
 40
1.0
176
     0
  0
VISUALSTYLE
  5
38
102
{ACAD_REACTORS
330
2A
102
}
330
2A
100
AcDbVisualStyle
  2
Linepattern
 70
    14
177
     3
291
     1
 70
    58
 90
        2
176
     1
 90
        2
176
     1
 90
        0
176
     1
 90
        0
176
     1
 40
0.6
176
     1
 40
30.0
176
     1
 62
     7
420
 16777215
176
     1
 90
        1
176
     1
 90
        4
176
     1
 62
     7
176
     1
 62
   257
176
     1
 90
        7
176
     1
 90
        7
176
     1
 40
1.0
176
     1
 90
        8
176
     1
 62
     7
176
     1
 40
1.0
176
     1
 90
        1
176
     1
 90
        6
176
     1
 90
        2
176
     1
 62
     7
176
     1
 90
        5
176
     1
 90
        0
176
     1
 90
        0
176
     1
290
     0
176
     1
 90
        1
176
     1
 40
0.0
176
     1
 90
        0
176
     1
290
     0
176
     1
290
     1
176
     1
290
     1
176
     1
290
     0
176
     1
290
     0
176
     1
290
     0
176
     1
290
     0
176
     1
290
     0
176
     1
290
     0
176
     1
 90
       50
176
     1
 40
0.0
176
     1
 40
1.0
176
     1
 90
        0
176
     1
 62
    18
420
        0
176
     1
 90
       50
176
     1
 90
        3
176
     1
 62
     5
420
      255
176
     1
290
     0
176
     1
 90
       50
176
     1
 90
       50
176
     1
 90
       50
176
     1
290
     0
176
     1
 90
       50
176
     1
 62
   256
176
     0
 40
1.0
176
     0
 90
        2
176
     1
  1
strokes_ogs.tif
176
     1
290
     0
176
     1
 40
1.0
176
     1
 40
1.0
176
     1
  0
VISUALSTYLE
  5
3C
102
{ACAD_REACTORS
330
2A
102
}
330
2A
100
AcDbVisualStyle
  2
OverhangOff
 70
    21
177
     3
291
     1
 70
    58
 90
        2
176
     0
 90
        2
176
     0
 90
        0
176
     0
 90
        0
176
     0
 40
0.6
176
     0
 40
30.0
176
     0
 62
     7
420
 16777215
176
     0
 90
        1
176
     0
 90
        4
176
     0
 62
     7
176
     0
 62
   257
176
     0
 90
        1
176
     0
 90
        1
176
     0
 40
1.0
176
     0
 90
        9
176
     2
 62
     7
176
     0
 40
1.0
176
     0
 90
        1
176
     0
 90
        6
176
     0
 90
        2
176
     0
 62
     7
176
     0
 90
        5
176
     0
 90
        0
176
     0
 90
        0
176
     0
290
     0
176
     0
 90
        1
176
     0
 40
0.0
176
     0
 90
        0
176
     0
290
     0
176
     0
290
     1
176
     0
290
     1
176
     0
290
     0
176
     0
290
     0
176
     0
290
     0
176
     0
290
     0
176
     0
290
     0
176
     0
290
     0
176
     0
 90
       50
176
     0
 40
0.0
176
     0
 40
1.0
176
     0
 90
        0
176
     0
 62
    18
420
        0
176
     0
 90
       50
176
     0
 90
        3
176
     0
 62
     5
420
      255
176
     0
290
     0
176
     0
 90
       50
176
     0
 90
       50
176
     0
 90
       50
176
     0
290
     0
176
     0
 90
       50
176
     0
 62
   256
176
     0
 40
1.0
176
     0
 90
        2
176
     0
  1
strokes_ogs.tif
176
     0
290
     0
176
     0
 40
1.0
176
     0
 40
1.0
176
     0
  0
VISUALSTYLE
  5
33
102
{ACAD_REACTORS
330
2A
102
}
330
2A
100
AcDbVisualStyle
  2
Realistic
 70
     8
177
     3
291
     0
 70
    58
 90
        2
176
     1
 90
        3
176
     1
 90
        0
176
     1
 90
        2
176
     1
 40
0.6
176
     1
 40
30.0
176
     1
 62
     7
420
 16777215
176
     1
 90
        0
176
     1
 90
        0
176
     1
 62
     7
176
     1
 62
   257
176
     1
 90
        1
176
     1
 90
        1
176
     1
 40
1.0
176
     1
 90
        8
176
     1
 62
   257
176
     1
 40
1.0
176
     1
 90
        1
176
     1
 90
        6
176
     1
 90
        2
176
     1
 62
     7
176
     1
 90
        3
176
     1
 90
        0
176
     1
 90
        0
176
     1
290
     0
176
     1
 90
       13
176
     1
 40
0.0
176
     1
 90
        0
176
     1
290
     0
176
     1
290
     1
176
     1
290
     1
176
     1
290
     0
176
     1
290
     0
176
     1
290
     0
176
     1
290
     0
176
     1
290
     0
176
     1
290
     0
176
     1
 90
       50
176
     1
 40
0.0
176
     1
 40
1.0
176
     1
 90
        0
176
     1
 62
    18
420
        0
176
     1
 90
       50
176
     1
 90
        3
176
     1
 62
     5
420
      255
176
     1
290
     0
176
     1
 90
       50
176
     1
 90
       50
176
     1
 90
       50
176
     1
290
     0
176
     1
 90
       50
176
     1
 62
   256
176
     0
 40
1.0
176
     0
 90
        2
176
     1
  1
strokes_ogs.tif
176
     1
290
     0
176
     1
 40
1.0
176
     1
 40
1.0
176
     1
  0
VISUALSTYLE
  5
42
102
{ACAD_REACTORS
330
2A
102
}
330
2A
100
AcDbVisualStyle
  2
Shaded
 70
    27
177
     3
291
     0
 70
    58
 90
        2
176
     1
 90
        2
176
     1
 90
        1
176
     1
 90
        2
176
     1
 40
0.6
176
     1
 40
30.0
176
     1
 62
     7
420
 16777215
176
     1
 90
        0
176
     1
 90
        4
176
     1
 62
     7
176
     1
 62
   257
176
     1
 90
        1
176
     1
 90
        1
176
     1
 40
1.0
176
     1
 90
        8
176
     1
 62
   257
176
     1
 40
1.0
176
     1
 90
        1
176
     1
 90
        6
176
     1
 90
        2
176
     1
 62
     8
420
  7895160
176
     1
 90
        3
176
     1
 90
        0
176
     1
 90
        0
176
     1
290
     0
176
     1
 90
        5
176
     1
 40
0.0
176
     1
 90
        0
176
     1
290
     0
176
     1
290
     1
176
     1
290
     1
176
     1
290
     0
176
     1
290
     0
176
     1
290
     0
176
     1
290
     0
176
     1
290
     0
176
     1
290
     0
176
     1
 90
       50
176
     1
 40
0.0
176
     1
 40
1.0
176
     1
 90
        0
176
     1
 62
    18
420
        0
176
     1
 90
       50
176
     1
 90
        3
176
     1
 62
     5
420
      255
176
     1
290
     0
176
     1
 90
       50
176
     1
 90
       50
176
     1
 90
       50
176
     1
290
     0
176
     1
 90
       50
176
     1
 62
   256
176
     0
 40
1.0
176
     0
 90
        2
176
     1
  1
strokes_ogs.tif
176
     1
290
     0
176
     1
 40
1.0
176
     1
 40
1.0
176
     1
  0
VISUALSTYLE
  5
41
102
{ACAD_REACTORS
330
2A
102
}
330
2A
100
AcDbVisualStyle
  2
Shaded with edges
 70
    26
177
     3
291
     0
 70
    58
 90
        2
176
     1
 90
        2
176
     1
 90
        1
176
     1
 90
        2
176
     1
 40
0.6
176
     1
 40
30.0
176
     1
 62
     7
420
 16777215
176
     1
 90
        1
176
     1
 90
       10
176
     1
 62
     7
176
     1
 62
   257
176
     1
 90
        2
176
     1
 90
        1
176
     1
 40
1.0
176
     1
 90
        8
176
     1
 62
   257
176
     1
 40
1.0
176
     1
 90
        1
176
     1
 90
        6
176
     1
 90
        2
176
     1
 62
     7
176
     1
 90
        3
176
     1
 90
        0
176
     1
 90
        0
176
     1
290
     0
176
     1
 90
        5
176
     1
 40
0.0
176
     1
 90
        0
176
     1
290
     0
176
     1
290
     1
176
     1
290
     1
176
     1
290
     0
176
     1
290
     0
176
     1
290
     0
176
     1
290
     0
176
     1
290
     0
176
     1
290
     0
176
     1
 90
       50
176
     1
 40
0.0
176
     1
 40
1.0
176
     1
 90
        0
176
     1
 62
    18
420
        0
176
     1
 90
       50
176
     1
 90
        3
176
     1
 62
     5
420
      255
176
     1
290
     0
176
     1
 90
       50
176
     1
 90
       50
176
     1
 90
       50
176
     1
290
     0
176
     1
 90
       50
176
     1
 62
   256
176
     0
 40
1.0
176
     0
 90
        2
176
     1
  1
strokes_ogs.tif
176
     1
290
     0
176
     1
 40
1.0
176
     1
 40
1.0
176
     1
  0
VISUALSTYLE
  5
3E
102
{ACAD_REACTORS
330
2A
102
}
330
2A
100
AcDbVisualStyle
  2
Shades of Gray
 70
    23
177
     3
291
     0
 70
    58
 90
        2
176
     1
 90
        2
176
     1
 90
        3
176
     1
 90
        0
176
     1
 40
0.6
176
     1
 40
30.0
176
     1
 62
     7
420
 16777215
176
     1
 90
        2
176
     1
 90
        2
176
     1
 62
     7
176
     1
 62
     7
176
     1
 90
        1
176
     1
 90
        1
176
     1
 40
40.0
176
     1
 90
        8
176
     1
 62
     7
176
     1
 40
1.0
176
     1
 90
        1
176
     1
 90
        6
176
     1
 90
        2
176
     1
 62
     7
176
     1
 90
        3
176
     1
 90
        0
176
     1
 90
        0
176
     1
290
     0
176
     1
 90
        1
176
     1
 40
0.0
176
     1
 90
        0
176
     1
290
     0
176
     1
290
     1
176
     1
290
     1
176
     1
290
     0
176
     1
290
     0
176
     1
290
     0
176
     1
290
     0
176
     1
290
     0
176
     1
290
     0
176
     1
 90
       50
176
     1
 40
0.0
176
     1
 40
1.0
176
     1
 90
        0
176
     1
 62
    18
420
        0
176
     1
 90
       50
176
     1
 90
        3
176
     1
 62
     5
420
      255
176
     1
290
     0
176
     1
 90
       50
176
     1
 90
       50
176
     1
 90
       50
176
     1
290
     0
176
     1
 90
       50
176
     1
 62
   256
176
     0
 40
1.0
176
     0
 90
        2
176
     1
  1
strokes_ogs.tif
176
     1
290
     0
176
     1
 40
1.0
176
     1
 40
1.0
176
     1
  0
VISUALSTYLE
  5
3F
102
{ACAD_REACTORS
330
2A
102
}
330
2A
100
AcDbVisualStyle
  2
Sketchy
 70
    24
177
     3
291
     0
 70
    58
 90
        1
176
     1
 90
        2
176
     1
 90
        2
176
     1
 90
        0
176
     1
 40
0.6
176
     1
 40
30.0
176
     1
 62
     7
420
 16777215
176
     1
 90
        2
176
     1
 90
        2
176
     1
 62
     7
176
     1
 62
     7
176
     1
 90
        1
176
     1
 90
        1
176
     1
 40
40.0
176
     1
 90
       11
176
     1
 62
     7
176
     1
 40
1.0
176
     1
 90
        1
176
     1
 90
        6
176
     1
 90
        2
176
     1
 62
     7
176
     1
 90
        6
176
     1
 90
        0
176
     1
 90
        0
176
     1
290
     0
176
     1
 90
        1
176
     1
 40
0.0
176
     1
 90
        0
176
     1
290
     0
176
     1
290
     1
176
     1
290
     1
176
     1
290
     0
176
     1
290
     0
176
     1
290
     0
176
     1
290
     0
176
     1
290
     0
176
     1
290
     0
176
     1
 90
       50
176
     1
 40
0.0
176
     1
 40
1.0
176
     1
 90
        0
176
     1
 62
    18
420
        0
176
     1
 90
       50
176
     1
 90
        3
176
     1
 62
     5
420
      255
176
     1
290
     0
176
     1
 90
       50
176
     1
 90
       50
176
     1
 90
       50
176
     1
290
     0
176
     1
 90
       50
176
     1
 62
   256
176
     0
 40
1.0
176
     0
 90
        2
176
     1
  1
strokes_ogs.tif
176
     1
290
     0
176
     1
 40
1.0
176
     1
 40
1.0
176
     1
  0
VISUALSTYLE
  5
37
102
{ACAD_REACTORS
330
2A
102
}
330
2A
100
AcDbVisualStyle
  2
Thicken
 70
    13
177
     3
291
     1
 70
    58
 90
        2
176
     1
 90
        2
176
     1
 90
        0
176
     1
 90
        0
176
     1
 40
0.6
176
     1
 40
30.0
176
     1
 62
     7
420
 16777215
176
     1
 90
        1
176
     1
 90
        4
176
     1
 62
     7
176
     1
 62
   257
176
     1
 90
        1
176
     1
 90
        1
176
     1
 40
1.0
176
     1
 90
       12
176
     1
 62
     7
176
     1
 40
1.0
176
     1
 90
        1
176
     1
 90
        6
176
     1
 90
        2
176
     1
 62
     7
176
     1
 90
        5
176
     1
 90
        0
176
     1
 90
        0
176
     1
290
     0
176
     1
 90
        1
176
     1
 40
0.0
176
     1
 90
        0
176
     1
290
     0
176
     1
290
     1
176
     1
290
     1
176
     1
290
     0
176
     1
290
     0
176
     1
290
     0
176
     1
290
     0
176
     1
290
     0
176
     1
290
     0
176
     1
 90
       50
176
     1
 40
0.0
176
     1
 40
1.0
176
     1
 90
        0
176
     1
 62
    18
420
        0
176
     1
 90
       50
176
     1
 90
        3
176
     1
 62
     5
420
      255
176
     1
290
     0
176
     1
 90
       50
176
     1
 90
       50
176
     1
 90
       50
176
     1
290
     0
176
     1
 90
       50
176
     1
 62
   256
176
     0
 40
1.0
176
     0
 90
        2
176
     1
  1
strokes_ogs.tif
176
     1
290
     0
176
     1
 40
1.0
176
     1
 40
1.0
176
     1
  0
VISUALSTYLE
  5
30
102
{ACAD_REACTORS
330
2A
102
}
330
2A
100
AcDbVisualStyle
  2
Wireframe
 70
     5
177
     3
291
     0
 70
    58
 90
        0
176
     1
 90
        2
176
     1
 90
        0
176
     1
 90
        0
176
     1
 40
0.6
176
     1
 40
30.0
176
     1
 62
     7
420
 16777215
176
     1
 90
        1
176
     1
 90
        4
176
     1
 62
     7
176
     1
 62
   257
176
     1
 90
        1
176
     1
 90
        1
176
     1
 40
1.0
176
     1
 90
        0
176
     1
 62
   257
176
     1
 40
1.0
176
     1
 90
        1
176
     1
 90
        6
176
     1
 90
        2
176
     1
 62
     7
176
     1
 90
        3
176
     1
 90
        0
176
     1
 90
        0
176
     1
290
     0
176
     1
 90
        1
176
     1
 40
0.0
176
     1
 90
        0
176
     1
290
     0
176
     1
290
     1
176
     1
290
     1
176
     1
290
     0
176
     1
290
     0
176
     1
290
     0
176
     1
290
     0
176
     1
290
     0
176
     1
290
     0
176
     1
 90
       50
176
     1
 40
0.0
176
     1
 40
1.0
176
     1
 90
        0
176
     1
 62
    18
420
        0
176
     1
 90
       50
176
     1
 90
        3
176
     1
 62
     5
420
      255
176
     1
290
     0
176
     1
 90
       50
176
     1
 90
       50
176
     1
 90
       50
176
     1
290
     0
176
     1
 90
       50
176
     1
 62
   256
176
     0
 40
1.0
176
     0
 90
        2
176
     1
  1
strokes_ogs.tif
176
     1
290
     0
176
     1
 40
1.0
176
     1
 40
1.0
176
     1
  0
VISUALSTYLE
  5
40
102
{ACAD_REACTORS
330
2A
102
}
330
2A
100
AcDbVisualStyle
  2
X-Ray
 70
    25
177
     3
291
     0
 70
    58
 90
        2
176
     1
 90
        2
176
     1
 90
        1
176
     1
 90
        1
176
     1
 40
0.5
176
     1
 40
30.0
176
     1
 62
     7
420
 16777215
176
     1
 90
        1
176
     1
 90
        0
176
     1
 62
     7
176
     1
 62
   257
176
     1
 90
        1
176
     1
 90
        1
176
     1
 40
1.0
176
     1
 90
        8
176
     1
 62
     7
176
     1
 40
1.0
176
     1
 90
        1
176
     1
 90
        6
176
     1
 90
        2
176
     1
 62
     7
176
     1
 90
        3
176
     1
 90
        0
176
     1
 90
        0
176
     1
290
     0
176
     1
 90
       13
176
     1
 40
0.0
176
     1
 90
        0
176
     1
290
     0
176
     1
290
     1
176
     1
290
     1
176
     1
290
     0
176
     1
290
     0
176
     1
290
     0
176
     1
290
     0
176
     1
290
     0
176
     1
290
     0
176
     1
 90
       50
176
     1
 40
0.0
176
     1
 40
1.0
176
     1
 90
        0
176
     1
 62
    18
420
        0
176
     1
 90
       50
176
     1
 90
        3
176
     1
 62
     5
420
      255
176
     1
290
     0
176
     1
 90
       50
176
     1
 90
       50
176
     1
 90
       50
176
     1
290
     0
176
     1
 90
       50
176
     1
 62
   256
176
     0
 40
1.0
176
     0
 90
        2
176
     1
  1
strokes_ogs.tif
176
     1
290
     0
176
     1
 40
1.0
176
     1
 40
1.0
176
     1
  0
DICTIONARYVAR
  5
200
102
{ACAD_REACTORS
330
1FF
102
}
330
1FF
100
DictionaryVariables
280
     0
  1
1:1
  0
DICTIONARYVAR
  5
205
102
{ACAD_REACTORS
330
1FF
102
}
330
1FF
100
DictionaryVariables
280
     0
  1
Standard
  0
DICTIONARYVAR
  5
204
102
{ACAD_REACTORS
330
1FF
102
}
330
1FF
100
DictionaryVariables
280
     0
  1
Standard
  0
DICTIONARY
  5
201
330
6A
100
AcDbDictionary
280
     1
281
     1
  3
ACAD_ROUNDTRIP_2008_TABLESTYLE_CELLSTYLEMAP
360
202
  0
CELLSTYLEMAP
  5
202
102
{ACAD_REACTORS
330
201
102
}
330
201
100
AcDbCellStyleMap
 90
        3
300
CELLSTYLE
  1
TABLEFORMAT_BEGIN
 90
        5
170
     1
 91
        0
 92
    32768
 62
   257
 93
        1
300
CONTENTFORMAT
  1
CONTENTFORMAT_BEGIN
 90
        0
 91
        0
 92
        4
 93
        0
300

 40
0.0
140
1.0
 94
        5
 62
     0
340
11
144
6.0
309
CONTENTFORMAT_END
171
     1
301
MARGIN
  1
CELLMARGIN_BEGIN
 40
1.5
 40
1.5
 40
1.5
 40
1.5
 40
1.5
 40
1.5
309
CELLMARGIN_END
 94
        6
 95
        1
302
GRIDFORMAT
  1
GRIDFORMAT_BEGIN
 90
        0
 91
        1
 62
     0
 92
       -2
340
14
 93
        0
 40
0.045
309
GRIDFORMAT_END
 95
        2
302
GRIDFORMAT
  1
GRIDFORMAT_BEGIN
 90
        0
 91
        1
 62
     0
 92
       -2
340
14
 93
        0
 40
0.045
309
GRIDFORMAT_END
 95
        4
302
GRIDFORMAT
  1
GRIDFORMAT_BEGIN
 90
        0
 91
        1
 62
     0
 92
       -2
340
14
 93
        0
 40
0.045
309
GRIDFORMAT_END
 95
        8
302
GRIDFORMAT
  1
GRIDFORMAT_BEGIN
 90
        0
 91
        1
 62
     0
 92
       -2
340
14
 93
        0
 40
0.045
309
GRIDFORMAT_END
 95
       16
302
GRIDFORMAT
  1
GRIDFORMAT_BEGIN
 90
        0
 91
        1
 62
     0
 92
       -2
340
14
 93
        0
 40
0.045
309
GRIDFORMAT_END
 95
       32
302
GRIDFORMAT
  1
GRIDFORMAT_BEGIN
 90
        0
 91
        1
 62
     0
 92
       -2
340
14
 93
        0
 40
0.045
309
GRIDFORMAT_END
309
TABLEFORMAT_END
  1
CELLSTYLE_BEGIN
 90
        1
 91
        1
300
_TITLE
309
CELLSTYLE_END
300
CELLSTYLE
  1
TABLEFORMAT_BEGIN
 90
        5
170
     1
 91
        0
 92
        0
 62
   257
 93
        1
300
CONTENTFORMAT
  1
CONTENTFORMAT_BEGIN
 90
        0
 91
        0
 92
        4
 93
        0
300

 40
0.0
140
1.0
 94
        5
 62
     0
340
11
144
4.5
309
CONTENTFORMAT_END
171
     1
301
MARGIN
  1
CELLMARGIN_BEGIN
 40
1.5
 40
1.5
 40
1.5
 40
1.5
 40
1.5
 40
1.5
309
CELLMARGIN_END
 94
        6
 95
        1
302
GRIDFORMAT
  1
GRIDFORMAT_BEGIN
 90
        0
 91
        1
 62
     0
 92
       -2
340
14
 93
        0
 40
0.045
309
GRIDFORMAT_END
 95
        2
302
GRIDFORMAT
  1
GRIDFORMAT_BEGIN
 90
        0
 91
        1
 62
     0
 92
       -2
340
14
 93
        0
 40
0.045
309
GRIDFORMAT_END
 95
        4
302
GRIDFORMAT
  1
GRIDFORMAT_BEGIN
 90
        0
 91
        1
 62
     0
 92
       -2
340
14
 93
        0
 40
0.045
309
GRIDFORMAT_END
 95
        8
302
GRIDFORMAT
  1
GRIDFORMAT_BEGIN
 90
        0
 91
        1
 62
     0
 92
       -2
340
14
 93
        0
 40
0.045
309
GRIDFORMAT_END
 95
       16
302
GRIDFORMAT
  1
GRIDFORMAT_BEGIN
 90
        0
 91
        1
 62
     0
 92
       -2
340
14
 93
        0
 40
0.045
309
GRIDFORMAT_END
 95
       32
302
GRIDFORMAT
  1
GRIDFORMAT_BEGIN
 90
        0
 91
        1
 62
     0
 92
       -2
340
14
 93
        0
 40
0.045
309
GRIDFORMAT_END
309
TABLEFORMAT_END
  1
CELLSTYLE_BEGIN
 90
        2
 91
        1
300
_HEADER
309
CELLSTYLE_END
300
CELLSTYLE
  1
TABLEFORMAT_BEGIN
 90
        5
170
     1
 91
        0
 92
        0
 62
   257
 93
        1
300
CONTENTFORMAT
  1
CONTENTFORMAT_BEGIN
 90
        0
 91
        0
 92
        4
 93
        0
300

 40
0.0
140
1.0
 94
        2
 62
     0
340
11
144
4.5
309
CONTENTFORMAT_END
171
     1
301
MARGIN
  1
CELLMARGIN_BEGIN
 40
1.5
 40
1.5
 40
1.5
 40
1.5
 40
1.5
 40
1.5
309
CELLMARGIN_END
 94
        6
 95
        1
302
GRIDFORMAT
  1
GRIDFORMAT_BEGIN
 90
        0
 91
        1
 62
     0
 92
       -2
340
14
 93
        0
 40
0.045
309
GRIDFORMAT_END
 95
        2
302
GRIDFORMAT
  1
GRIDFORMAT_BEGIN
 90
        0
 91
        1
 62
     0
 92
       -2
340
14
 93
        0
 40
0.045
309
GRIDFORMAT_END
 95
        4
302
GRIDFORMAT
  1
GRIDFORMAT_BEGIN
 90
        0
 91
        1
 62
     0
 92
       -2
340
14
 93
        0
 40
0.045
309
GRIDFORMAT_END
 95
        8
302
GRIDFORMAT
  1
GRIDFORMAT_BEGIN
 90
        0
 91
        1
 62
     0
 92
       -2
340
14
 93
        0
 40
0.045
309
GRIDFORMAT_END
 95
       16
302
GRIDFORMAT
  1
GRIDFORMAT_BEGIN
 90
        0
 91
        1
 62
     0
 92
       -2
340
14
 93
        0
 40
0.045
309
GRIDFORMAT_END
 95
       32
302
GRIDFORMAT
  1
GRIDFORMAT_BEGIN
 90
        0
 91
        1
 62
     0
 92
       -2
340
14
 93
        0
 40
0.045
309
GRIDFORMAT_END
309
TABLEFORMAT_END
  1
CELLSTYLE_BEGIN
 90
        3
 91
        2
300
_DATA
309
CELLSTYLE_END
  0
ENDSEC
  0
EOF