0
SECTION
  2
HEADER
  9
$ACADVER
  1
AC1027
  9
$ACADMAINTVER
 70
     8
  9
$DWGCODEPAGE
  3
ANSI_1252
  9
$REQUIREDVERSIONS
160
                 0
  9
$COMMENTS
  1
File was created by Cadenas
  9
$CUSTOMPROPERTYTAG
  1
NN
  9
$CUSTOMPROPERTY
  1
Grip Tight Medium Duty Air-Handling Two-Bolt Pillow Block Inch Bore
  9
$CUSTOMPROPERTYTAG
  1
NT
  9
$CUSTOMPROPERTY
  1
GTMAH Air Handling Medium Duty Pillow Blocks
  9
$CUSTOMPROPERTYTAG
  1
NB
  9
$CUSTOMPROPERTY
  1
129242
  9
$CUSTOMPROPERTYTAG
  1
NBSYN
  9
$CUSTOMPROPERTY
  1
$PN.$LUBE.
  9
$CUSTOMPROPERTYTAG
  1
LINA
  9
$CUSTOMPROPERTY
  1
129242
  9
$CUSTOMPROPERTYTAG
  1
SERIES
  9
$CUSTOMPROPERTY
  1
216
  9
$CUSTOMPROPERTYTAG
  1
SS
  9
$CUSTOMPROPERTY
  1
2-15/16
  9
$CUSTOMPROPERTYTAG
  1
PN
  9
$CUSTOMPROPERTY
  1
129242
  9
$CUSTOMPROPERTYTAG
  1
DESCRIPTION
  9
$CUSTOMPROPERTY
  1
P2B-GTMAH-215
  9
$CUSTOMPROPERTYTAG
  1
A
  9
$CUSTOMPROPERTY
  1
2-49/64
  9
$CUSTOMPROPERTYTAG
  1
B
  9
$CUSTOMPROPERTY
  1
11-3/4
  9
$CUSTOMPROPERTYTAG
  1
C
  9
$CUSTOMPROPERTY
  1
3
  9
$CUSTOMPROPERTYTAG
  1
DMIN
  9
$CUSTOMPROPERTY
  1
8-1/2
  9
$CUSTOMPROPERTYTAG
  1
DMAX
  9
$CUSTOMPROPERTY
  1
9-1/2
  9
$CUSTOMPROPERTYTAG
  1
F
  9
$CUSTOMPROPERTY
  1
7/8
  9
$CUSTOMPROPERTYTAG
  1
G
  9
$CUSTOMPROPERTY
  1
1-7/16
  9
$CUSTOMPROPERTYTAG
  1
H
  9
$CUSTOMPROPERTY
  1
1-1/4
  9
$CUSTOMPROPERTYTAG
  1
J
  9
$CUSTOMPROPERTY
  1
6-15/16
  9
$CUSTOMPROPERTYTAG
  1
L
  9
$CUSTOMPROPERTY
  1
4-1/2
  9
$CUSTOMPROPERTYTAG
  1
M
  9
$CUSTOMPROPERTY
  1
3-1/2
  9
$CUSTOMPROPERTYTAG
  1
R
  9
$CUSTOMPROPERTY
  1
29/32
  9
$CUSTOMPROPERTYTAG
  1
S
  9
$CUSTOMPROPERTY
  1
1-55/64
  9
$CUSTOMPROPERTYTAG
  1
U
  9
$CUSTOMPROPERTY
  1
5-1/2
  9
$CUSTOMPROPERTYTAG
  1
V
  9
$CUSTOMPROPERTY
  1
11
  9
$CUSTOMPROPERTYTAG
  1
W
  9
$CUSTOMPROPERTY
  1
1-3/32
  9
$CUSTOMPROPERTYTAG
  1
X
  9
$CUSTOMPROPERTY
  1
3/16
  9
$CUSTOMPROPERTYTAG
  1
Z
  9
$CUSTOMPROPERTY
  1
1-51/64
  9
$CUSTOMPROPERTYTAG
  1
COMPANY
  9
$CUSTOMPROPERTY
  1
baldor
  9
$INSBASE
 10
0.0
 20
0.0
 30
0.0
  9
$EXTMIN
 10
1.000000000000000E+20
 20
1.000000000000000E+20
 30
1.000000000000000E+20
  9
$EXTMAX
 10
-1.000000000000000E+20
 20
-1.000000000000000E+20
 30
-1.000000000000000E+20
  9
$LIMMIN
 10
0.0
 20
0.0
  9
$LIMMAX
 10
12.0
 20
9.0
  9
$ORTHOMODE
 70
     0
  9
$REGENMODE
 70
     1
  9
$FILLMODE
 70
     1
  9
$QTEXTMODE
 70
     0
  9
$MIRRTEXT
 70
     1
  9
$LTSCALE
 40
1.0
  9
$ATTMODE
 70
     1
  9
$TEXTSIZE
 40
0.2
  9
$TRACEWID
 40
0.05
  9
$TEXTSTYLE
  7
Standard
  9
$CLAYER
  8
0
  9
$CELTYPE
  6
ByLayer
  9
$CECOLOR
 62
   256
  9
$CELTSCALE
 40
1.0
  9
$DISPSILH
 70
     0
  9
$DIMSCALE
 40
1.0
  9
$DIMASZ
 40
0.18
  9
$DIMEXO
 40
0.0625
  9
$DIMDLI
 40
0.38
  9
$DIMRND
 40
0.0
  9
$DIMDLE
 40
0.0
  9
$DIMEXE
 40
0.18
  9
$DIMTP
 40
0.0
  9
$DIMTM
 40
0.0
  9
$DIMTXT
 40
0.18
  9
$DIMCEN
 40
0.09
  9
$DIMTSZ
 40
0.0
  9
$DIMTOL
 70
     0
  9
$DIMLIM
 70
     0
  9
$DIMTIH
 70
     1
  9
$DIMTOH
 70
     1
  9
$DIMSE1
 70
     0
  9
$DIMSE2
 70
     0
  9
$DIMTAD
 70
     0
  9
$DIMZIN
 70
     0
  9
$DIMBLK
  1

  9
$DIMASO
 70
     1
  9
$DIMSHO
 70
     1
  9
$DIMPOST
  1

  9
$DIMAPOST
  1

  9
$DIMALT
 70
     0
  9
$DIMALTD
 70
     2
  9
$DIMALTF
 40
25.4
  9
$DIMLFAC
 40
1.0
  9
$DIMTOFL
 70
     0
  9
$DIMTVP
 40
0.0
  9
$DIMTIX
 70
     0
  9
$DIMSOXD
 70
     0
  9
$DIMSAH
 70
     0
  9
$DIMBLK1
  1

  9
$DIMBLK2
  1

  9
$DIMSTYLE
  2
Standard
  9
$DIMCLRD
 70
     0
  9
$DIMCLRE
 70
     0
  9
$DIMCLRT
 70
     0
  9
$DIMTFAC
 40
1.0
  9
$DIMGAP
 40
0.09
  9
$DIMJUST
 70
     0
  9
$DIMSD1
 70
     0
  9
$DIMSD2
 70
     0
  9
$DIMTOLJ
 70
     1
  9
$DIMTZIN
 70
     0
  9
$DIMALTZ
 70
     0
  9
$DIMALTTZ
 70
     0
  9
$DIMUPT
 70
     0
  9
$DIMDEC
 70
     4
  9
$DIMTDEC
 70
     4
  9
$DIMALTU
 70
     2
  9
$DIMALTTD
 70
     2
  9
$DIMTXSTY
  7
Standard
  9
$DIMAUNIT
 70
     0
  9
$DIMADEC
 70
     0
  9
$DIMALTRND
 40
0.0
  9
$DIMAZIN
 70
     0
  9
$DIMDSEP
 70
    46
  9
$DIMATFIT
 70
     3
  9
$DIMFRAC
 70
     0
  9
$DIMLDRBLK
  1

  9
$DIMLUNIT
 70
     2
  9
$DIMLWD
 70
    -2
  9
$DIMLWE
 70
    -2
  9
$DIMTMOVE
 70
     0
  9
$DIMFXL
 40
1.0
  9
$DIMFXLON
 70
     0
  9
$DIMJOGANG
 40
0.7853981633974483
  9
$DIMTFILL
 70
     0
  9
$DIMTFILLCLR
 70
     0
  9
$DIMARCSYM
 70
     0
  9
$DIMLTYPE
  6

  9
$DIMLTEX1
  6

  9
$DIMLTEX2
  6

  9
$DIMTXTDIRECTION
 70
     0
  9
$LUNITS
 70
     2
  9
$LUPREC
 70
     4
  9
$SKETCHINC
 40
0.1
  9
$FILLETRAD
 40
0.5
  9
$AUNITS
 70
     0
  9
$AUPREC
 70
     0
  9
$MENU
  1
.
  9
$ELEVATION
 40
0.0
  9
$PELEVATION
 40
0.0
  9
$THICKNESS
 40
0.0
  9
$LIMCHECK
 70
     0
  9
$CHAMFERA
 40
0.0
  9
$CHAMFERB
 40
0.0
  9
$CHAMFERC
 40
0.0
  9
$CHAMFERD
 40
0.0
  9
$SKPOLY
 70
     0
  9
$TDCREATE
 40
2458168.993410833
  9
$TDUCREATE
 40
2458168.951744167
  9
$TDUPDATE
 40
2458168.993411019
  9
$TDUUPDATE
 40
2458168.951744352
  9
$TDINDWG
 40
0.0000000116
  9
$TDUSRTIMER
 40
0.0000000116
  9
$USRTIMER
 70
     1
  9
$ANGBASE
 50
0.0
  9
$ANGDIR
 70
     0
  9
$PDMODE
 70
     0
  9
$PDSIZE
 40
0.0
  9
$PLINEWID
 40
0.0
  9
$SPLFRAME
 70
     0
  9
$SPLINETYPE
 70
     6
  9
$SPLINESEGS
 70
     8
  9
$HANDSEED
  5
280
  9
$SURFTAB1
 70
     6
  9
$SURFTAB2
 70
     6
  9
$SURFTYPE
 70
     6
  9
$SURFU
 70
     6
  9
$SURFV
 70
     6
  9
$UCSBASE
  2

  9
$UCSNAME
  2

  9
$UCSORG
 10
0.0
 20
0.0
 30
0.0
  9
$UCSXDIR
 10
1.0
 20
0.0
 30
0.0
  9
$UCSYDIR
 10
0.0
 20
1.0
 30
0.0
  9
$UCSORTHOREF
  2

  9
$UCSORTHOVIEW
 70
     0
  9
$UCSORGTOP
 10
0.0
 20
0.0
 30
0.0
  9
$UCSORGBOTTOM
 10
0.0
 20
0.0
 30
0.0
  9
$UCSORGLEFT
 10
0.0
 20
0.0
 30
0.0
  9
$UCSORGRIGHT
 10
0.0
 20
0.0
 30
0.0
  9
$UCSORGFRONT
 10
0.0
 20
0.0
 30
0.0
  9
$UCSORGBACK
 10
0.0
 20
0.0
 30
0.0
  9
$PUCSBASE
  2

  9
$PUCSNAME
  2

  9
$PUCSORG
 10
0.0
 20
0.0
 30
0.0
  9
$PUCSXDIR
 10
1.0
 20
0.0
 30
0.0
  9
$PUCSYDIR
 10
0.0
 20
1.0
 30
0.0
  9
$PUCSORTHOREF
  2

  9
$PUCSORTHOVIEW
 70
     0
  9
$PUCSORGTOP
 10
0.0
 20
0.0
 30
0.0
  9
$PUCSORGBOTTOM
 10
0.0
 20
0.0
 30
0.0
  9
$PUCSORGLEFT
 10
0.0
 20
0.0
 30
0.0
  9
$PUCSORGRIGHT
 10
0.0
 20
0.0
 30
0.0
  9
$PUCSORGFRONT
 10
0.0
 20
0.0
 30
0.0
  9
$PUCSORGBACK
 10
0.0
 20
0.0
 30
0.0
  9
$USERI1
 70
     0
  9
$USERI2
 70
     0
  9
$USERI3
 70
     0
  9
$USERI4
 70
     0
  9
$USERI5
 70
     0
  9
$USERR1
 40
0.0
  9
$USERR2
 40
0.0
  9
$USERR3
 40
0.0
  9
$USERR4
 40
0.0
  9
$USERR5
 40
0.0
  9
$WORLDVIEW
 70
     1
  9
$SHADEDGE
 70
     3
  9
$SHADEDIF
 70
    70
  9
$TILEMODE
 70
     1
  9
$MAXACTVP
 70
    64
  9
$PINSBASE
 10
0.0
 20
0.0
 30
0.0
  9
$PLIMCHECK
 70
     0
  9
$PEXTMIN
 10
1.000000000000000E+20
 20
1.000000000000000E+20
 30
1.000000000000000E+20
  9
$PEXTMAX
 10
-1.000000000000000E+20
 20
-1.000000000000000E+20
 30
-1.000000000000000E+20
  9
$PLIMMIN
 10
0.0
 20
0.0
  9
$PLIMMAX
 10
12.0
 20
9.0
  9
$UNITMODE
 70
     0
  9
$VISRETAIN
 70
     1
  9
$PLINEGEN
 70
     0
  9
$PSLTSCALE
 70
     1
  9
$TREEDEPTH
 70
  3020
  9
$CMLSTYLE
  2
Standard
  9
$CMLJUST
 70
     0
  9
$CMLSCALE
 40
1.0
  9
$PROXYGRAPHICS
 70
     1
  9
$MEASUREMENT
 70
     0
  9
$CELWEIGHT
370
    -1
  9
$ENDCAPS
280
     0
  9
$JOINSTYLE
280
     0
  9
$LWDISPLAY
290
     0
  9
$INSUNITS
 70
     1
  9
$HYPERLINKBASE
  1

  9
$STYLESHEET
  1

  9
$XEDIT
290
     1
  9
$CEPSNTYPE
380
     0
  9
$PSTYLEMODE
290
     1
  9
$FINGERPRINTGUID
  2
{FDF50617-3CC7-451B-8DFC-79C0438D1850}
  9
$VERSIONGUID
  2
{FAEB1C32-E019-11D5-929B-00C0DF256EC4}
  9
$EXTNAMES
290
     1
  9
$PSVPSCALE
 40
0.0
  9
$OLESTARTUP
290
     0
  9
$SORTENTS
280
   127
  9
$INDEXCTL
280
     0
  9
$HIDETEXT
280
     1
  9
$XCLIPFRAME
280
     2
  9
$HALOGAP
280
     0
  9
$OBSCOLOR
 70
   257
  9
$OBSLTYPE
280
     0
  9
$INTERSECTIONDISPLAY
280
     0
  9
$INTERSECTIONCOLOR
 70
   257
  9
$DIMASSOC
280
     2
  9
$PROJECTNAME
  1

  9
$CAMERADISPLAY
290
     0
  9
$LENSLENGTH
 40
50.0
  9
$CAMERAHEIGHT
 40
0.0
  9
$STEPSPERSEC
 40
2.0
  9
$STEPSIZE
 40
6.0
  9
$3DDWFPREC
 40
2.0
  9
$PSOLWIDTH
 40
0.25
  9
$PSOLHEIGHT
 40
4.0
  9
$LOFTANG1
 40
1.570796326794897
  9
$LOFTANG2
 40
1.570796326794897
  9
$LOFTMAG1
 40
0.0
  9
$LOFTMAG2
 40
0.0
  9
$LOFTPARAM
 70
     7
  9
$LOFTNORMALS
280
     1
  9
$LATITUDE
 40
37.795
  9
$LONGITUDE
 40
-122.394
  9
$NORTHDIRECTION
 40
0.0
  9
$TIMEZONE
 70
 -8000
  9
$LIGHTGLYPHDISPLAY
280
     1
  9
$TILEMODELIGHTSYNCH
280
     1
  9
$CMATERIAL
347
44
  9
$SOLIDHIST
280
     0
  9
$SHOWHIST
280
     1
  9
$DWFFRAME
280
     2
  9
$DGNFRAME
280
     2
  9
$REALWORLDSCALE
290
     1
  9
$INTERFERECOLOR
 62
   256
  9
$CSHADOW
280
     0
  9
$SHADOWPLANELOCATION
 40
0.0
  0
ENDSEC
  0
SECTION
  2
CLASSES
  0
CLASS
  1
ACDBDICTIONARYWDFLT
  2
AcDbDictionaryWithDefault
  3
ObjectDBX Classes
 90
        0
 91
        4
280
     0
281
     0
  0
CLASS
  1
VISUALSTYLE
  2
AcDbVisualStyle
  3
ObjectDBX Classes
 90
     4095
 91
        4
280
     0
281
     0
  0
CLASS
  1
MATERIAL
  2
AcDbMaterial
  3
ObjectDBX Classes
 90
     1153
 91
        4
280
     0
281
     0
  0
CLASS
  1
SCALE
  2
AcDbScale
  3
ObjectDBX Classes
 90
     1153
 91
        4
280
     0
281
     0
  0
CLASS
  1
TABLESTYLE
  2
AcDbTableStyle
  3
ObjectDBX Classes
 90
     4095
 91
        4
280
     0
281
     0
  0
CLASS
  1
MLEADERSTYLE
  2
AcDbMLeaderStyle
  3
ACDB_MLEADERSTYLE_CLASS
 90
     4095
 91
        4
280
     0
281
     0
  0
CLASS
  1
SUN
  2
AcDbSun
  3
SCENEOE
 90
     1153
 91
        4
280
     0
281
     0
  0
CLASS
  1
DICTIONARYVAR
  2
AcDbDictionaryVar
  3
ObjectDBX Classes
 90
        0
 91
        4
280
     0
281
     0
  0
CLASS
  1
CELLSTYLEMAP
  2
AcDbCellStyleMap
  3
ObjectDBX Classes
 90
     1152
 91
        4
280
     0
281
     0
  0
ENDSEC
  0
SECTION
  2
TABLES
  0
TABLE
  2
VPORT
  5
8
330
0
100
AcDbSymbolTable
 70
     1
  0
VPORT
  5
29
330
8
100
AcDbSymbolTableRecord
100
AcDbViewportTableRecord
  2
*Active
 70
     0
 10
0.0
 20
0.0
 11
1.0
 21
1.0
 12
0.0
 22
-0.173828125
 13
0.0
 23
0.0
 14
0.5
 24
0.5
 15
0.5
 25
0.5
 16
0.0
 26
0.0
 36
1.0
 17
0.0
 27
0.0
 37
0.0
 40
3.720609374999999
 41
3.221246519597345
 42
50.0
 43
0.0
 44
0.0
 50
0.0
 51
0.0
 71
     0
 72
   100
 73
     1
 74
     3
 75
     0
 76
     0
 77
     0
 78
     0
281
     0
 65
     1
110
0.0
120
0.0
130
0.0
111
1.0
121
0.0
131
0.0
112
0.0
122
1.0
132
0.0
 79
     0
146
0.0
348
2F
 60
     3
 61
     5
292
     1
282
     1
141
0.0
142
0.0
 63
   250
361
6D
  0
ENDTAB
  0
TABLE
  2
LTYPE
  5
5
330
0
100
AcDbSymbolTable
 70
     3
  0
LTYPE
  5
14
330
5
100
AcDbSymbolTableRecord
100
AcDbLinetypeTableRecord
  2
ByBlock
 70
     0
  3

 72
    65
 73
     0
 40
0.0
  0
LTYPE
  5
15
330
5
100
AcDbSymbolTableRecord
100
AcDbLinetypeTableRecord
  2
ByLayer
 70
     0
  3

 72
    65
 73
     0
 40
0.0
  0
LTYPE
  5
16
330
5
100
AcDbSymbolTableRecord
100
AcDbLinetypeTableRecord
  2
Continuous
 70
     0
  3
Solid line
 72
    65
 73
     0
 40
0.0
  0
LTYPE
  5
A5
330
5
100
AcDbSymbolTableRecord
100
AcDbLinetypeTableRecord
  2
Dashed
 70
     0
  3

 72
    65
 73
     2
 40
2.0
 49
1.0
 74
     0
 49
-1.0
 74
     0
  0
LTYPE
  5
116
330
5
100
AcDbSymbolTableRecord
100
AcDbLinetypeTableRecord
  2
Center
 70
     0
  3

 72
    65
 73
     4
 40
1.5
 49
0.45
 74
     0
 49
-0.5
 74
     0
 49
0.05
 74
     0
 49
-0.5
 74
     0
  0
ENDTAB
  0
TABLE
  2
LAYER
  5
2
330
0
100
AcDbSymbolTable
 70
     7
  0
LAYER
  5
10
330
2
100
AcDbSymbolTableRecord
100
AcDbLayerTableRecord
  2
0
 70
     0
 62
     7
  6
Continuous
370
    -3
390
F
347
46
348
0
  0
LAYER
  5
72
330
2
100
AcDbSymbolTableRecord
100
AcDbLayerTableRecord
  2
AM_6
 70
     0
 62
    -2
  6
Continuous
370
    35
390
F
347
46
348
0
  0
LAYER
  5
A6
330
2
100
AcDbSymbolTableRecord
100
AcDbLayerTableRecord
  2
AM_9
 70
     0
 62
     6
  6
Dashed
370
    25
390
F
347
46
348
0
  0
LAYER
  5
113
330
2
100
AcDbSymbolTableRecord
100
AcDbLayerTableRecord
  2
AM_5
 70
     0
 62
     3
  6
Continuous
370
    25
390
F
347
46
348
0
  0
LAYER
  5
117
330
2
100
AcDbSymbolTableRecord
100
AcDbLayerTableRecord
  2
AM_7
 70
     0
 62
     7
  6
Center
370
    25
390
F
347
46
348
0
  0
LAYER
  5
119
330
2
100
AcDbSymbolTableRecord
100
AcDbLayerTableRecord
  2
AM_4
 70
     0
 62
     7
  6
Continuous
370
    50
390
F
347
46
348
0
  0
LAYER
  5
272
330
2
100
AcDbSymbolTableRecord
100
AcDbLayerTableRecord
  2
ConnectionPoints
 70
     0
 62
     7
  6
Continuous
370
    50
390
F
347
46
348
0
  0
ENDTAB
  0
TABLE
  2
STYLE
  5
3
330
0
100
AcDbSymbolTable
 70
     1
  0
STYLE
  5
11
330
3
100
AcDbSymbolTableRecord
100
AcDbTextStyleTableRecord
  2
Standard
 70
     0
 40
0.0
 41
1.0
 50
0.0
 71
     0
 42
0.2
  3
txt
  4

  0
ENDTAB
  0
TABLE
  2
VIEW
  5
6
330
0
100
AcDbSymbolTable
 70
     0
  0
ENDTAB
  0
TABLE
  2
UCS
  5
7
330
0
100
AcDbSymbolTable
 70
     0
  0
ENDTAB
  0
TABLE
  2
APPID
  5
9
330
0
100
AcDbSymbolTable
 70
     1
  0
APPID
  5
12
330
9
100
AcDbSymbolTableRecord
100
AcDbRegAppTableRecord
  2
ACAD
 70
     0
  0
ENDTAB
  0
TABLE
  2
DIMSTYLE
  5
A
330
0
100
AcDbSymbolTable
 70
     1
100
AcDbDimStyleTable
  0
DIMSTYLE
105
27
330
A
100
AcDbSymbolTableRecord
100
AcDbDimStyleTableRecord
  2
Standard
 70
     0
178
     0
340
11
  0
ENDTAB
  0
TABLE
  2
BLOCK_RECORD
  5
1
330
0
100
AcDbSymbolTable
 70
     5
  0
BLOCK_RECORD
  5
1F
330
1
100
AcDbSymbolTableRecord
100
AcDbBlockTableRecord
  2
*Model_Space
340
22
 70
     0
280
     1
281
     0
  0
BLOCK_RECORD
  5
1B
330
1
100
AcDbSymbolTableRecord
100
AcDbBlockTableRecord
  2
*Paper_Space
340
1E
 70
     0
280
     1
281
     0
  0
BLOCK_RECORD
  5
23
330
1
100
AcDbSymbolTableRecord
100
AcDbBlockTableRecord
  2
*Paper_Space0
340
26
 70
     0
280
     1
281
     0
  0
BLOCK_RECORD
  5
6E
330
1
100
AcDbSymbolTableRecord
100
AcDbBlockTableRecord
  2
1_129242_4
340
0
102
{BLKREFS
331
6F
102
}
 70
     0
280
     1
281
     0
  0
BLOCK_RECORD
  5
8F
330
1
100
AcDbSymbolTableRecord
100
AcDbBlockTableRecord
  2
2_129528I_0_in_129242_4
340
0
102
{BLKREFS
331
90
102
}
 70
     0
280
     1
281
     0
  0
BLOCK_RECORD
  5
D4
330
1
100
AcDbSymbolTableRecord
100
AcDbBlockTableRecord
  2
3_129938_0_in_129242_4
340
0
102
{BLKREFS
331
D5
102
}
 70
     0
280
     1
281
     0
  0
BLOCK_RECORD
  5
12E
330
1
100
AcDbSymbolTableRecord
100
AcDbBlockTableRecord
  2
4_129455I_0_in_129242_4
340
0
102
{BLKREFS
331
12F
102
}
 70
     0
280
     1
281
     0
  0
ENDTAB
  0
ENDSEC
  0
SECTION
  2
BLOCKS
  0
BLOCK
  5
20
330
1F
100
AcDbEntity
  8
0
100
AcDbBlockBegin
  2
*Model_Space
 70
     0
 10
0.0
 20
0.0
 30
0.0
  3
*Model_Space
  1

  0
ENDBLK
  5
21
330
1F
100
AcDbEntity
  8
0
100
AcDbBlockEnd
  0
BLOCK
  5
1C
330
1B
100
AcDbEntity
 67
     1
  8
0
100
AcDbBlockBegin
  2
*Paper_Space
 70
     0
 10
0.0
 20
0.0
 30
0.0
  3
*Paper_Space
  1

  0
ENDBLK
  5
1D
330
1B
100
AcDbEntity
 67
     1
  8
0
100
AcDbBlockEnd
  0
BLOCK
  5
24
330
23
100
AcDbEntity
  8
0
100
AcDbBlockBegin
  2
*Paper_Space0
 70
     0
 10
0.0
 20
0.0
 30
0.0
  3
*Paper_Space0
  1

  0
ENDBLK
  5
25
330
23
100
AcDbEntity
  8
0
100
AcDbBlockEnd
  0
BLOCK
  5
70
330
6E
100
AcDbEntity
  8
0
100
AcDbBlockBegin
  2
1_129242_4
 70
     2
 10
0.0
 20
0.0
 30
0.0
  3
1_129242_4
  1

  0
ATTDEF
  5
73
330
6E
100
AcDbEntity
  8
AM_6
100
AcDbText
 10
10.875
 20
1.65
 30
0.0
 40
0.5
  1
Grip Tight Medium Duty Air-Handling Two-Bolt Pillow Block Inch Bore
100
AcDbAttributeDefinition
  3

  2
NN
 70
     8
280
     0
  0
ATTDEF
  5
74
330
6E
100
AcDbEntity
  8
AM_6
100
AcDbText
 10
10.875
 20
1.15
 30
0.0
 40
0.5
  1
GTMAH Air Handling Medium Duty Pillow Blocks
100
AcDbAttributeDefinition
  3

  2
NT
 70
     8
280
     0
  0
ATTDEF
  5
75
330
6E
100
AcDbEntity
  8
AM_6
100
AcDbText
 10
10.875
 20
0.6499999999999997
 30
0.0
 40
0.5
  1
129242
100
AcDbAttributeDefinition
  3

  2
NB
 70
     8
280
     0
  0
ATTDEF
  5
76
330
6E
100
AcDbEntity
  8
AM_6
100
AcDbText
 10
10.875
 20
0.1499999999999997
 30
0.0
 40
0.5
  1
$PN.$LUBE.
100
AcDbAttributeDefinition
  3

  2
NBSYN
 70
     8
280
     0
  0
ATTDEF
  5
77
330
6E
100
AcDbEntity
  8
AM_6
100
AcDbText
 10
10.875
 20
-0.3500000000000003
 30
0.0
 40
0.5
  1
129242
100
AcDbAttributeDefinition
  3

  2
LINA
 70
     8
280
     0
  0
ATTDEF
  5
78
330
6E
100
AcDbEntity
  8
AM_6
100
AcDbText
 10
10.875
 20
-0.8500000000000003
 30
0.0
 40
0.5
  1
216
100
AcDbAttributeDefinition
  3

  2
SERIES
 70
     8
280
     0
  0
ATTDEF
  5
79
330
6E
100
AcDbEntity
  8
AM_6
100
AcDbText
 10
10.875
 20
-1.35
 30
0.0
 40
0.5
  1
2-15/16
100
AcDbAttributeDefinition
  3

  2
SS
 70
     8
280
     0
  0
ATTDEF
  5
7A
330
6E
100
AcDbEntity
  8
AM_6
100
AcDbText
 10
10.875
 20
-1.85
 30
0.0
 40
0.5
  1
129242
100
AcDbAttributeDefinition
  3

  2
PN
 70
     8
280
     0
  0
ATTDEF
  5
7B
330
6E
100
AcDbEntity
  8
AM_6
100
AcDbText
 10
10.875
 20
-2.350000000000001
 30
0.0
 40
0.5
  1
P2B-GTMAH-215
100
AcDbAttributeDefinition
  3

  2
DESCRIPTION
 70
     8
280
     0
  0
ATTDEF
  5
7C
330
6E
100
AcDbEntity
  8
AM_6
100
AcDbText
 10
10.875
 20
-2.850000000000001
 30
0.0
 40
0.5
  1
2-49/64
100
AcDbAttributeDefinition
  3

  2
A
 70
     8
280
     0
  0
ATTDEF
  5
7D
330
6E
100
AcDbEntity
  8
AM_6
100
AcDbText
 10
10.875
 20
-3.350000000000001
 30
0.0
 40
0.5
  1
11-3/4
100
AcDbAttributeDefinition
  3

  2
B
 70
     8
280
     0
  0
ATTDEF
  5
7E
330
6E
100
AcDbEntity
  8
AM_6
100
AcDbText
 10
10.875
 20
-3.850000000000001
 30
0.0
 40
0.5
  1
3
100
AcDbAttributeDefinition
  3

  2
C
 70
     8
280
     0
  0
ATTDEF
  5
7F
330
6E
100
AcDbEntity
  8
AM_6
100
AcDbText
 10
10.875
 20
-4.350000000000001
 30
0.0
 40
0.5
  1
8-1/2
100
AcDbAttributeDefinition
  3

  2
DMIN
 70
     8
280
     0
  0
ATTDEF
  5
80
330
6E
100
AcDbEntity
  8
AM_6
100
AcDbText
 10
10.875
 20
-4.850000000000001
 30
0.0
 40
0.5
  1
9-1/2
100
AcDbAttributeDefinition
  3

  2
DMAX
 70
     8
280
     0
  0
ATTDEF
  5
81
330
6E
100
AcDbEntity
  8
AM_6
100
AcDbText
 10
10.875
 20
-5.350000000000001
 30
0.0
 40
0.5
  1
7/8
100
AcDbAttributeDefinition
  3

  2
F
 70
     8
280
     0
  0
ATTDEF
  5
82
330
6E
100
AcDbEntity
  8
AM_6
100
AcDbText
 10
10.875
 20
-5.850000000000001
 30
0.0
 40
0.5
  1
1-7/16
100
AcDbAttributeDefinition
  3

  2
G
 70
     8
280
     0
  0
ATTDEF
  5
83
330
6E
100
AcDbEntity
  8
AM_6
100
AcDbText
 10
10.875
 20
-6.350000000000001
 30
0.0
 40
0.5
  1
1-1/4
100
AcDbAttributeDefinition
  3

  2
H
 70
     8
280
     0
  0
ATTDEF
  5
84
330
6E
100
AcDbEntity
  8
AM_6
100
AcDbText
 10
10.875
 20
-6.850000000000001
 30
0.0
 40
0.5
  1
6-15/16
100
AcDbAttributeDefinition
  3

  2
J
 70
     8
280
     0
  0
ATTDEF
  5
85
330
6E
100
AcDbEntity
  8
AM_6
100
AcDbText
 10
10.875
 20
-7.350000000000001
 30
0.0
 40
0.5
  1
4-1/2
100
AcDbAttributeDefinition
  3

  2
L
 70
     8
280
     0
  0
ATTDEF
  5
86
330
6E
100
AcDbEntity
  8
AM_6
100
AcDbText
 10
10.875
 20
-7.850000000000001
 30
0.0
 40
0.5
  1
3-1/2
100
AcDbAttributeDefinition
  3

  2
M
 70
     8
280
     0
  0
ATTDEF
  5
87
330
6E
100
AcDbEntity
  8
AM_6
100
AcDbText
 10
10.875
 20
-8.350000000000001
 30
0.0
 40
0.5
  1
29/32
100
AcDbAttributeDefinition
  3

  2
R
 70
     8
280
     0
  0
ATTDEF
  5
88
330
6E
100
AcDbEntity
  8
AM_6
100
AcDbText
 10
10.875
 20
-8.850000000000001
 30
0.0
 40
0.5
  1
1-55/64
100
AcDbAttributeDefinition
  3

  2
S
 70
     8
280
     0
  0
ATTDEF
  5
89
330
6E
100
AcDbEntity
  8
AM_6
100
AcDbText
 10
10.875
 20
-9.350000000000001
 30
0.0
 40
0.5
  1
5-1/2
100
AcDbAttributeDefinition
  3

  2
U
 70
     8
280
     0
  0
ATTDEF
  5
8A
330
6E
100
AcDbEntity
  8
AM_6
100
AcDbText
 10
10.875
 20
-9.850000000000001
 30
0.0
 40
0.5
  1
11
100
AcDbAttributeDefinition
  3

  2
V
 70
     8
280
     0
  0
ATTDEF
  5
8B
330
6E
100
AcDbEntity
  8
AM_6
100
AcDbText
 10
10.875
 20
-10.35
 30
0.0
 40
0.5
  1
1-3/32
100
AcDbAttributeDefinition
  3

  2
W
 70
     8
280
     0
  0
ATTDEF
  5
8C
330
6E
100
AcDbEntity
  8
AM_6
100
AcDbText
 10
10.875
 20
-10.85
 30
0.0
 40
0.5
  1
3/16
100
AcDbAttributeDefinition
  3

  2
X
 70
     8
280
     0
  0
ATTDEF
  5
8D
330
6E
100
AcDbEntity
  8
AM_6
100
AcDbText
 10
10.875
 20
-11.35
 30
0.0
 40
0.5
  1
1-51/64
100
AcDbAttributeDefinition
  3

  2
Z
 70
     8
280
     0
  0
ATTDEF
  5
8E
330
6E
100
AcDbEntity
  8
AM_6
100
AcDbText
 10
10.875
 20
-11.85
 30
0.0
 40
0.5
  1
baldor
100
AcDbAttributeDefinition
  3

  2
COMPANY
 70
     8
280
     0
  0
INSERT
  5
90
330
6E
100
AcDbEntity
  8
0
100
AcDbBlockReference
  2
2_129528I_0_in_129242_4
 10
0.0
 20
0.0
 30
0.0
  0
INSERT
  5
D5
330
6E
100
AcDbEntity
  8
0
100
AcDbBlockReference
  2
3_129938_0_in_129242_4
 10
0.0
 20
0.0
 30
0.0
  0
INSERT
  5
12F
330
6E
100
AcDbEntity
  8
0
100
AcDbBlockReference
  2
4_129455I_0_in_129242_4
 10
0.0
 20
0.0
 30
0.0
  0
ENDBLK
  5
71
330
6E
100
AcDbEntity
  8
0
100
AcDbBlockEnd
  0
BLOCK
  5
91
330
8F
100
AcDbEntity
  8
0
100
AcDbBlockBegin
  2
2_129528I_0_in_129242_4
 70
     2
 10
0.0
 20
0.0
 30
0.0
  3
2_129528I_0_in_129242_4
  1

  0
ATTDEF
  5
93
330
8F
100
AcDbEntity
  8
AM_6
100
AcDbText
 10
7.755307535997417
 20
0.8010000000000002
 30
0.0
 40
0.5
  1
INS-GT B
100
AcDbAttributeDefinition
  3

  2
NN
 70
     8
280
     0
  0
ATTDEF
  5
94
330
8F
100
AcDbEntity
  8
AM_6
100
AcDbText
 10
7.755307535997417
 20
0.3010000000000002
 30
0.0
 40
0.5
  1
GT Normal Duty Bearing Inserts
100
AcDbAttributeDefinition
  3

  2
NT
 70
     8
280
     0
  0
ATTDEF
  5
95
330
8F
100
AcDbEntity
  8
AM_6
100
AcDbText
 10
7.755307535997417
 20
-0.1989999999999998
 30
0.0
 40
0.5
  1
129528I
100
AcDbAttributeDefinition
  3

  2
NB
 70
     8
280
     0
  0
ATTDEF
  5
96
330
8F
100
AcDbEntity
  8
AM_6
100
AcDbText
 10
7.755307535997417
 20
-0.6989999999999998
 30
0.0
 40
0.5
  1
$PN.I
100
AcDbAttributeDefinition
  3

  2
NBSYN
 70
     8
280
     0
  0
ATTDEF
  5
97
330
8F
100
AcDbEntity
  8
AM_6
100
AcDbText
 10
7.755307535997417
 20
-1.199
 30
0.0
 40
0.5
  1
129528
100
AcDbAttributeDefinition
  3

  2
LINA
 70
     8
280
     0
  0
ATTDEF
  5
98
330
8F
100
AcDbEntity
  8
AM_6
100
AcDbText
 10
7.755307535997417
 20
-1.699
 30
0.0
 40
0.5
  1
216
100
AcDbAttributeDefinition
  3

  2
SERIES
 70
     8
280
     0
  0
ATTDEF
  5
99
330
8F
100
AcDbEntity
  8
AM_6
100
AcDbText
 10
7.755307535997417
 20
-2.199
 30
0.0
 40
0.5
  1
129528
100
AcDbAttributeDefinition
  3

  2
PN
 70
     8
280
     0
  0
ATTDEF
  5
9A
330
8F
100
AcDbEntity
  8
AM_6
100
AcDbText
 10
7.755307535997417
 20
-2.699
 30
0.0
 40
0.5
  1
INS-GT-16
100
AcDbAttributeDefinition
  3

  2
DESCRIPTION
 70
     8
280
     0
  0
ATTDEF
  5
9B
330
8F
100
AcDbEntity
  8
AM_6
100
AcDbText
 10
7.755307535997417
 20
-3.199
 30
0.0
 40
0.5
  1
2.70
100
AcDbAttributeDefinition
  3

  2
A
 70
     8
280
     0
  0
ATTDEF
  5
9C
330
8F
100
AcDbEntity
  8
AM_6
100
AcDbText
 10
7.755307535997417
 20
-3.699
 30
0.0
 40
0.5
  1
1.18
100
AcDbAttributeDefinition
  3

  2
C
 70
     8
280
     0
  0
ATTDEF
  5
9D
330
8F
100
AcDbEntity
  8
AM_6
100
AcDbText
 10
7.755307535997417
 20
-4.199
 30
0.0
 40
0.5
  1
5.5118
100
AcDbAttributeDefinition
  3

  2
D
 70
     8
280
     0
  0
ATTDEF
  5
9E
330
8F
100
AcDbEntity
  8
AM_6
100
AcDbText
 10
7.755307535997417
 20
-4.699
 30
0.0
 40
0.5
  1
0.29
100
AcDbAttributeDefinition
  3

  2
J
 70
     8
280
     0
  0
ATTDEF
  5
9F
330
8F
100
AcDbEntity
  8
AM_6
100
AcDbText
 10
7.755307535997417
 20
-5.199
 30
0.0
 40
0.5
  1
4.69
100
AcDbAttributeDefinition
  3

  2
L
 70
     8
280
     0
  0
ATTDEF
  5
A0
330
8F
100
AcDbEntity
  8
AM_6
100
AcDbText
 10
7.755307535997417
 20
-5.699
 30
0.0
 40
0.5
  1
#10 - 32 x 1/4
100
AcDbAttributeDefinition
  3

  2
N
 70
     8
280
     0
  0
ATTDEF
  5
A1
330
8F
100
AcDbEntity
  8
AM_6
100
AcDbText
 10
7.755307535997417
 20
-6.199
 30
0.0
 40
0.5
  1
0.89000
100
AcDbAttributeDefinition
  3

  2
W
 70
     8
280
     0
  0
ATTDEF
  5
A2
330
8F
100
AcDbEntity
  8
AM_6
100
AcDbText
 10
7.755307535997417
 20
-6.699
 30
0.0
 40
0.5
  1
1.78
100
AcDbAttributeDefinition
  3

  2
X
 70
     8
280
     0
  0
ATTDEF
  5
A3
330
8F
100
AcDbEntity
  8
AM_6
100
AcDbText
 10
7.755307535997417
 20
-7.199
 30
0.0
 40
0.5
  1
1.81
100
AcDbAttributeDefinition
  3

  2
Y
 70
     8
280
     0
  0
ATTDEF
  5
A4
330
8F
100
AcDbEntity
  8
AM_6
100
AcDbText
 10
7.755307535997417
 20
-7.699
 30
0.0
 40
0.5
  1
baldor
100
AcDbAttributeDefinition
  3

  2
COMPANY
 70
     8
280
     0
  0
LINE
  5
A7
330
8F
100
AcDbEntity
  8
AM_9
100
AcDbLine
 10
1.749444310444445
 20
-1.334998869697739
 30
0.0
 11
1.749444310444445
 21
-0.667498869697744
 31
0.0
  0
LINE
  5
A8
330
8F
100
AcDbEntity
  8
AM_9
100
AcDbLine
 10
-1.749444310444445
 20
-0.667498869697744
 30
0.0
 11
-1.749444310444445
 21
-1.334998869697739
 31
0.0
  0
LINE
  5
A9
330
8F
100
AcDbEntity
  8
AM_9
100
AcDbLine
 10
-1.749444310444445
 20
-0.667498869697744
 30
0.0
 11
1.749444310444445
 21
-0.667498869697744
 31
0.0
  0
LINE
  5
AA
330
8F
100
AcDbEntity
  8
AM_9
100
AcDbLine
 10
1.749444310444445
 20
-0.667498869697744
 30
0.0
 11
1.800725420972052
 21
0.8010000000000002
 31
0.0
  0
LINE
  5
AB
330
8F
100
AcDbEntity
  8
AM_9
100
AcDbLine
 10
-1.800725420972052
 20
0.8010000000000002
 30
0.0
 11
-1.749444310444445
 21
-0.667498869697744
 31
0.0
  0
LINE
  5
AC
330
8F
100
AcDbEntity
  8
AM_9
100
AcDbLine
 10
1.916944377444444
 20
-1.112498869697739
 30
0.0
 11
1.916944377444444
 21
-0.8899988696977391
 31
0.0
  0
LINE
  5
AD
330
8F
100
AcDbEntity
  8
AM_9
100
AcDbLine
 10
-1.916944377444444
 20
-0.8899988696977391
 30
0.0
 11
-1.916944377444444
 21
-1.112498869697739
 31
0.0
  0
LINE
  5
AE
330
8F
100
AcDbEntity
  8
AM_9
100
AcDbLine
 10
2.037244444444445
 20
-1.334998869697739
 30
0.0
 11
2.084444444444445
 21
-1.287798869697739
 31
0.0
  0
LINE
  5
AF
330
8F
100
AcDbEntity
  8
AM_9
100
AcDbLine
 10
-2.084444444444445
 20
-1.287798869697739
 30
0.0
 11
-2.037244444444445
 21
-1.334998869697739
 31
0.0
  0
LINE
  5
B0
330
8F
100
AcDbEntity
  8
AM_9
100
AcDbLine
 10
-2.037244444444445
 20
-1.334998869697739
 30
0.0
 11
2.037244444444445
 21
-1.334998869697739
 31
0.0
  0
LINE
  5
B1
330
8F
100
AcDbEntity
  8
AM_9
100
AcDbLine
 10
-2.084444444444444
 20
-0.8899988696977394
 30
0.0
 11
2.084444444444444
 21
-0.8899988696977394
 31
0.0
  0
LINE
  5
B2
330
8F
100
AcDbEntity
  8
AM_9
100
AcDbLine
 10
2.084444444444444
 20
-0.8899988696977394
 30
0.0
 11
2.084444444444444
 21
-0.59
 31
0.0
  0
LINE
  5
B3
330
8F
100
AcDbEntity
  8
AM_9
100
AcDbLine
 10
-2.084444444444444
 20
-0.59
 30
0.0
 11
-2.084444444444444
 21
-0.8899988696977394
 31
0.0
  0
LINE
  5
B4
330
8F
100
AcDbEntity
  8
AM_9
100
AcDbLine
 10
-2.037244444444445
 20
0.801
 30
0.0
 11
2.037244444444445
 21
0.801
 31
0.0
  0
LINE
  5
B5
330
8F
100
AcDbEntity
  8
AM_9
100
AcDbLine
 10
-2.037244444444445
 20
0.801
 30
0.0
 11
-2.084444444444445
 21
0.7538
 31
0.0
  0
LINE
  5
B6
330
8F
100
AcDbEntity
  8
AM_9
100
AcDbLine
 10
2.084444444444445
 20
0.7538
 30
0.0
 11
2.037244444444445
 21
0.801
 31
0.0
  0
LINE
  5
B7
330
8F
100
AcDbEntity
  8
AM_9
100
AcDbLine
 10
2.084444444444445
 20
-1.287798869697739
 30
0.0
 11
2.084444444444445
 21
-1.112498869697739
 31
0.0
  0
LINE
  5
B8
330
8F
100
AcDbEntity
  8
AM_9
100
AcDbLine
 10
-2.084444444444445
 20
-1.112498869697739
 30
0.0
 11
-2.084444444444445
 21
-1.287798869697739
 31
0.0
  0
LINE
  5
B9
330
8F
100
AcDbEntity
  8
AM_9
100
AcDbLine
 10
-2.084444444444445
 20
-1.287798869697739
 30
0.0
 11
2.084444444444445
 21
-1.287798869697739
 31
0.0
  0
LINE
  5
BA
330
8F
100
AcDbEntity
  8
AM_9
100
AcDbLine
 10
-2.084444444444445
 20
-1.112498869697739
 30
0.0
 11
2.084444444444445
 21
-1.112498869697739
 31
0.0
  0
LINE
  5
BB
330
8F
100
AcDbEntity
  8
AM_9
100
AcDbLine
 10
-2.084444444444445
 20
0.7538
 30
0.0
 11
2.084444444444445
 21
0.7538
 31
0.0
  0
LINE
  5
BC
330
8F
100
AcDbEntity
  8
AM_9
100
AcDbLine
 10
2.084444444444445
 20
0.59
 30
0.0
 11
2.084444444444445
 21
0.7538
 31
0.0
  0
LINE
  5
BD
330
8F
100
AcDbEntity
  8
AM_9
100
AcDbLine
 10
-2.084444444444445
 20
0.7538
 30
0.0
 11
-2.084444444444445
 21
0.59
 31
0.0
  0
LINE
  5
BE
330
8F
100
AcDbEntity
  8
AM_9
100
AcDbLine
 10
2.6379
 20
-0.348
 30
0.0
 11
2.6379
 21
-0.232
 31
0.0
  0
LINE
  5
BF
330
8F
100
AcDbEntity
  8
AM_9
100
AcDbLine
 10
-2.6379
 20
-0.232
 30
0.0
 11
-2.6379
 21
-0.348
 31
0.0
  0
LINE
  5
C0
330
8F
100
AcDbEntity
  8
AM_9
100
AcDbLine
 10
-2.606075711389274
 20
-0.5900000000000003
 30
0.0
 11
2.606075711389274
 21
-0.5900000000000003
 31
0.0
  0
ARC
  5
C1
330
8F
100
AcDbEntity
  8
AM_9
100
AcDbCircle
 10
2.606075711389273
 20
-0.5427999999999972
 30
0.0
 40
0.0472000000000031
100
AcDbArc
 50
270.0
 51
338.5875329531142
  0
ARC
  5
C2
330
8F
100
AcDbEntity
  8
AM_9
100
AcDbCircle
 10
-2.606075711389273
 20
-0.5427999999999972
 30
0.0
 40
0.0472000000000029
100
AcDbArc
 50
201.4124670468857
 51
270.0
  0
LINE
  5
C3
330
8F
100
AcDbEntity
  8
AM_9
100
AcDbLine
 10
-2.606075711389274
 20
0.59
 30
0.0
 11
2.606075711389274
 21
0.59
 31
0.0
  0
ARC
  5
C4
330
8F
100
AcDbEntity
  8
AM_9
100
AcDbCircle
 10
2.606075711389275
 20
0.5428000000000006
 30
0.0
 40
0.0471999999999994
100
AcDbArc
 50
21.4124592963838
 51
90.0
  0
ARC
  5
C5
330
8F
100
AcDbEntity
  8
AM_9
100
AcDbCircle
 10
-2.606075711389275
 20
0.5428000000000006
 30
0.0
 40
0.0471999999999994
100
AcDbArc
 50
90.0
 51
158.5875407036162
  0
LINE
  5
C6
330
8F
100
AcDbEntity
  8
AM_9
100
AcDbLine
 10
-2.650017797465125
 20
-0.5600317460317455
 30
0.0
 11
2.650017797465125
 21
-0.5600317460317455
 31
0.0
  0
ARC
  5
C7
330
8F
100
AcDbEntity
  8
AM_9
100
AcDbCircle
 10
1.221899999999619
 20
0.0000000000001164
 30
0.0
 40
1.534000000000399
100
AcDbArc
 50
338.5875329531171
 51
346.3277000380332
  0
ARC
  5
C8
330
8F
100
AcDbEntity
  8
AM_9
100
AcDbCircle
 10
-1.221899999999573
 20
0.0000000000001311
 30
0.0
 40
1.534000000000448
100
AcDbArc
 50
193.6722999619669
 51
201.4124670468828
  0
LINE
  5
C9
330
8F
100
AcDbEntity
  8
AM_9
100
AcDbLine
 10
-2.712431820475596
 20
-0.3625891506232794
 30
0.0
 11
2.712431820475596
 21
-0.3625891506232794
 31
0.0
  0
LINE
  5
CA
330
8F
100
AcDbEntity
  8
AM_9
100
AcDbLine
 10
-2.700966191892709
 20
-0.348
 30
0.0
 11
2.700966191892709
 21
-0.348
 31
0.0
  0
ARC
  5
CB
330
8F
100
AcDbEntity
  8
AM_9
100
AcDbCircle
 10
2.700966191892711
 20
-0.3598000000000003
 30
0.0
 40
0.0118
100
AcDbArc
 50
346.3276834934185
 51
90.0
  0
ARC
  5
CC
330
8F
100
AcDbEntity
  8
AM_9
100
AcDbCircle
 10
-2.700966191892711
 20
-0.3598000000000003
 30
0.0
 40
0.0118000000000004
100
AcDbArc
 50
90.0
 51
193.6723165065815
  0
LINE
  5
CD
330
8F
100
AcDbEntity
  8
AM_9
100
AcDbLine
 10
-2.728088832782929
 20
-0.2319999999999997
 30
0.0
 11
2.728088832782929
 21
-0.2319999999999997
 31
0.0
  0
ARC
  5
CE
330
8F
100
AcDbEntity
  8
AM_9
100
AcDbCircle
 10
2.728088832782929
 20
-0.2202000000000004
 30
0.0
 40
0.0117999999999994
100
AcDbArc
 50
270.0
 51
351.6824641915762
  0
ARC
  5
CF
330
8F
100
AcDbEntity
  8
AM_9
100
AcDbCircle
 10
-2.728088832782929
 20
-0.2202000000000004
 30
0.0
 40
0.0117999999999993
100
AcDbArc
 50
188.3175358084238
 51
270.0
  0
LINE
  5
D0
330
8F
100
AcDbEntity
  8
AM_9
100
AcDbLine
 10
-2.739764715207603
 20
-0.2219069767441859
 30
0.0
 11
2.739764715207603
 21
-0.2219069767441859
 31
0.0
  0
LINE
  5
D1
330
8F
100
AcDbEntity
  8
AM_9
100
AcDbLine
 10
-2.650017799796093
 20
0.5600317400876235
 30
0.0
 11
2.650017799796093
 21
0.5600317400876235
 31
0.0
  0
ARC
  5
D2
330
8F
100
AcDbEntity
  8
AM_9
100
AcDbCircle
 10
1.221899999999982
 20
-0.0000000000000004
 30
0.0
 40
1.534000000000018
100
AcDbArc
 50
351.6824641915746
 51
21.41246680840688
  0
ARC
  5
D3
330
8F
100
AcDbEntity
  8
AM_9
100
AcDbCircle
 10
-1.221899999999979
 20
-0.0000000000000008
 30
0.0
 40
1.534000000000021
100
AcDbArc
 50
158.5875331915931
 51
188.3175358084255
  0
ENDBLK
  5
92
330
8F
100
AcDbEntity
  8
0
100
AcDbBlockEnd
  0
BLOCK
  5
D6
330
D4
100
AcDbEntity
  8
0
100
AcDbBlockBegin
  2
3_129938_0_in_129242_4
 70
     2
 10
0.0
 20
0.0
 30
0.0
  3
3_129938_0_in_129242_4
  1

  0
ATTDEF
  5
D8
330
D4
100
AcDbEntity
  8
AM_6
100
AcDbText
 10
7.245482965867254
 20
0.9062500000000001
 30
0.0
 40
0.5
  1
Grip Tight Normal Duty Adapter and Nut Inch Bore
100
AcDbAttributeDefinition
  3

  2
NN
 70
     8
280
     0
  0
ATTDEF
  5
D9
330
D4
100
AcDbEntity
  8
AM_6
100
AcDbText
 10
7.245482965867254
 20
0.4062500000000001
 30
0.0
 40
0.5
  1
GT and GTM Adapter & Lock Nut Assemblies
100
AcDbAttributeDefinition
  3

  2
NT
 70
     8
280
     0
  0
ATTDEF
  5
DA
330
D4
100
AcDbEntity
  8
AM_6
100
AcDbText
 10
7.245482965867254
 20
-0.0937499999999999
 30
0.0
 40
0.5
  1
129938
100
AcDbAttributeDefinition
  3

  2
NB
 70
     8
280
     0
  0
ATTDEF
  5
DB
330
D4
100
AcDbEntity
  8
AM_6
100
AcDbText
 10
7.245482965867254
 20
-0.5937499999999999
 30
0.0
 40
0.5
  1
$PN.
100
AcDbAttributeDefinition
  3

  2
NBSYN
 70
     8
280
     0
  0
ATTDEF
  5
DC
330
D4
100
AcDbEntity
  8
AM_6
100
AcDbText
 10
7.245482965867254
 20
-1.09375
 30
0.0
 40
0.5
  1
129938
100
AcDbAttributeDefinition
  3

  2
LINA
 70
     8
280
     0
  0
ATTDEF
  5
DD
330
D4
100
AcDbEntity
  8
AM_6
100
AcDbText
 10
7.245482965867254
 20
-1.59375
 30
0.0
 40
0.5
  1
216
100
AcDbAttributeDefinition
  3

  2
SERIES
 70
     8
280
     0
  0
ATTDEF
  5
DE
330
D4
100
AcDbEntity
  8
AM_6
100
AcDbText
 10
7.245482965867254
 20
-2.09375
 30
0.0
 40
0.5
  1
2-15/16
100
AcDbAttributeDefinition
  3

  2
SS
 70
     8
280
     0
  0
ATTDEF
  5
DF
330
D4
100
AcDbEntity
  8
AM_6
100
AcDbText
 10
7.245482965867254
 20
-2.59375
 30
0.0
 40
0.5
  1
129938
100
AcDbAttributeDefinition
  3

  2
PN
 70
     8
280
     0
  0
ATTDEF
  5
E0
330
D4
100
AcDbEntity
  8
AM_6
100
AcDbText
 10
7.245482965867254
 20
-3.09375
 30
0.0
 40
0.5
  1
AN-GTM-16-215
100
AcDbAttributeDefinition
  3

  2
DESCRIPTION
 70
     8
280
     0
  0
ATTDEF
  5
E1
330
D4
100
AcDbEntity
  8
AM_6
100
AcDbText
 10
7.245482965867254
 20
-3.59375
 30
0.0
 40
0.5
  1
2-49/64
100
AcDbAttributeDefinition
  3

  2
A
 70
     8
280
     0
  0
ATTDEF
  5
E2
330
D4
100
AcDbEntity
  8
AM_6
100
AcDbText
 10
7.245482965867254
 20
-4.09375
 30
0.0
 40
0.5
  1
1.1810
100
AcDbAttributeDefinition
  3

  2
C
 70
     8
280
     0
  0
ATTDEF
  5
E3
330
D4
100
AcDbEntity
  8
AM_6
100
AcDbText
 10
7.245482965867254
 20
-4.59375
 30
0.0
 40
0.5
  1
5.5118
100
AcDbAttributeDefinition
  3

  2
D
 70
     8
280
     0
  0
ATTDEF
  5
E4
330
D4
100
AcDbEntity
  8
AM_6
100
AcDbText
 10
7.245482965867254
 20
-5.09375
 30
0.0
 40
0.5
  1
0.285
100
AcDbAttributeDefinition
  3

  2
J
 70
     8
280
     0
  0
ATTDEF
  5
E5
330
D4
100
AcDbEntity
  8
AM_6
100
AcDbText
 10
7.245482965867254
 20
-5.59375
 30
0.0
 40
0.5
  1
4-1/2
100
AcDbAttributeDefinition
  3

  2
L
 70
     8
280
     0
  0
ATTDEF
  5
E6
330
D4
100
AcDbEntity
  8
AM_6
100
AcDbText
 10
7.245482965867254
 20
-6.09375
 30
0.0
 40
0.5
  1
10 - 32 x 1/4
100
AcDbAttributeDefinition
  3

  2
N
 70
     8
280
     0
  0
ATTDEF
  5
E7
330
D4
100
AcDbEntity
  8
AM_6
100
AcDbText
 10
7.245482965867254
 20
-6.59375
 30
0.0
 40
0.5
  1
29/32
100
AcDbAttributeDefinition
  3

  2
W
 70
     8
280
     0
  0
ATTDEF
  5
E8
330
D4
100
AcDbEntity
  8
AM_6
100
AcDbText
 10
7.245482965867254
 20
-7.09375
 30
0.0
 40
0.5
  1
1-51/64
100
AcDbAttributeDefinition
  3

  2
X
 70
     8
280
     0
  0
ATTDEF
  5
E9
330
D4
100
AcDbEntity
  8
AM_6
100
AcDbText
 10
7.245482965867254
 20
-7.59375
 30
0.0
 40
0.5
  1
1-55/64
100
AcDbAttributeDefinition
  3

  2
Y
 70
     8
280
     0
  0
ATTDEF
  5
EA
330
D4
100
AcDbEntity
  8
AM_6
100
AcDbText
 10
7.245482965867254
 20
-8.09375
 30
0.0
 40
0.5
  1
baldor
100
AcDbAttributeDefinition
  3

  2
COMPANY
 70
     8
280
     0
  0
LINE
  5
EB
330
D4
100
AcDbEntity
  8
AM_9
100
AcDbLine
 10
-2.22745
 20
-1.6505231666455
 30
0.0
 11
-1.71005
 21
-1.6505231666455
 31
0.0
  0
LINE
  5
EC
330
D4
100
AcDbEntity
  8
AM_9
100
AcDbLine
 10
-1.71005
 20
-1.5056231666455
 30
0.0
 11
-2.22745
 21
-1.5056231666455
 31
0.0
  0
LINE
  5
ED
330
D4
100
AcDbEntity
  8
AM_9
100
AcDbLine
 10
-1.71005
 20
-1.6505231666455
 30
0.0
 11
-1.6875
 21
-1.6730731666455
 31
0.0
  0
LINE
  5
EE
330
D4
100
AcDbEntity
  8
AM_9
100
AcDbLine
 10
-1.6875
 20
-1.483073166645499
 30
0.0
 11
-1.71005
 21
-1.5056231666455
 31
0.0
  0
LINE
  5
EF
330
D4
100
AcDbEntity
  8
AM_9
100
AcDbLine
 10
-1.6875
 20
-1.483073166645499
 30
0.0
 11
-1.6875
 21
-1.6730731666455
 31
0.0
  0
LINE
  5
F0
330
D4
100
AcDbEntity
  8
AM_9
100
AcDbLine
 10
-1.71005
 20
-1.5056231666455
 30
0.0
 11
-1.71005
 21
-1.6505231666455
 31
0.0
  0
LINE
  5
F1
330
D4
100
AcDbEntity
  8
AM_9
100
AcDbLine
 10
-2.22745
 20
-1.5056231666455
 30
0.0
 11
-2.25
 21
-1.483073166645499
 31
0.0
  0
LINE
  5
F2
330
D4
100
AcDbEntity
  8
AM_9
100
AcDbLine
 10
-2.25
 20
-1.6730731666455
 30
0.0
 11
-2.22745
 21
-1.6505231666455
 31
0.0
  0
LINE
  5
F3
330
D4
100
AcDbEntity
  8
AM_9
100
AcDbLine
 10
-2.22745
 20
-1.5056231666455
 30
0.0
 11
-2.22745
 21
-1.6505231666455
 31
0.0
  0
LINE
  5
F4
330
D4
100
AcDbEntity
  8
AM_9
100
AcDbLine
 10
2.099999618999238
 20
-0.8984375
 30
0.0
 11
2.099999618999238
 21
-1.796875
 31
0.0
  0
LINE
  5
F5
330
D4
100
AcDbEntity
  8
AM_9
100
AcDbLine
 10
1.46875
 20
-1.859375
 30
0.0
 11
1.46875
 21
0.9062499999999997
 31
0.0
  0
LINE
  5
F6
330
D4
100
AcDbEntity
  8
AM_9
100
AcDbLine
 10
-1.46875
 20
0.9062499999999997
 30
0.0
 11
-1.46875
 21
-1.859375
 31
0.0
  0
LINE
  5
F7
330
D4
100
AcDbEntity
  8
AM_9
100
AcDbLine
 10
1.678571428571429
 20
-1.34765625
 30
0.0
 11
1.678571428571429
 21
-0.6738281249999982
 31
0.0
  0
LINE
  5
F8
330
D4
100
AcDbEntity
  8
AM_9
100
AcDbLine
 10
-1.678571428571429
 20
-0.6738281249999982
 30
0.0
 11
-1.678571428571429
 21
-1.34765625
 31
0.0
  0
LINE
  5
F9
330
D4
100
AcDbEntity
  8
AM_9
100
AcDbLine
 10
0.05
 20
0.9062500000000001
 30
0.0
 11
0.05
 21
-1.796875
 31
0.0
  0
LINE
  5
FA
330
D4
100
AcDbEntity
  8
AM_9
100
AcDbLine
 10
-0.05
 20
0.9062500000000001
 30
0.0
 11
-0.05
 21
-1.796875
 31
0.0
  0
LINE
  5
FB
330
D4
100
AcDbEntity
  8
AM_9
100
AcDbLine
 10
1.678571428571429
 20
-0.6738281249999982
 30
0.0
 11
1.733748972553506
 21
0.9062499999999999
 31
0.0
  0
LINE
  5
FC
330
D4
100
AcDbEntity
  8
AM_9
100
AcDbLine
 10
-1.733748972553506
 20
0.9062499999999999
 30
0.0
 11
-1.678571428571429
 21
-0.6738281249999982
 31
0.0
  0
LINE
  5
FD
330
D4
100
AcDbEntity
  8
AM_9
100
AcDbLine
 10
-1.678571428571429
 20
-0.6738281249999982
 30
0.0
 11
1.678571428571429
 21
-0.6738281249999982
 31
0.0
  0
LINE
  5
FE
330
D4
100
AcDbEntity
  8
AM_9
100
AcDbLine
 10
-1.733748972553506
 20
0.9062499999999999
 30
0.0
 11
1.733748972553506
 21
0.9062499999999999
 31
0.0
  0
LINE
  5
FF
330
D4
100
AcDbEntity
  8
AM_9
100
AcDbLine
 10
1.839285714285715
 20
-1.123046875
 30
0.0
 11
1.839285714285715
 21
-0.8984375000000001
 31
0.0
  0
LINE
  5
100
330
D4
100
AcDbEntity
  8
AM_9
100
AcDbLine
 10
-1.839285714285715
 20
-0.8984375000000001
 30
0.0
 11
-1.839285714285715
 21
-1.123046875
 31
0.0
  0
LINE
  5
101
330
D4
100
AcDbEntity
  8
AM_9
100
AcDbLine
 10
-2.25
 20
-0.9456774999999998
 30
0.0
 11
-2.25
 21
-1.162295740091853
 31
0.0
  0
LINE
  5
102
330
D4
100
AcDbEntity
  8
AM_9
100
AcDbLine
 10
-2.249529989655263
 20
-1.66066307706217
 30
0.0
 11
-2.248988500023263
 21
-1.643518650626532
 31
0.0
  0
LINE
  5
103
330
D4
100
AcDbEntity
  8
AM_9
100
AcDbLine
 10
-2.20276
 20
-0.8984375000000001
 30
0.0
 11
-2.25
 21
-0.9456774999999998
 31
0.0
  0
LINE
  5
104
330
D4
100
AcDbEntity
  8
AM_9
100
AcDbLine
 10
-2.25
 20
-0.9456774999999998
 30
0.0
 11
-1.246150102972911
 21
-0.9456774999999996
 31
0.0
  0
LINE
  5
105
330
D4
100
AcDbEntity
  8
AM_9
100
AcDbLine
 10
-1.222481566617444
 20
-0.8984375000000001
 30
0.0
 11
-1.246150102972911
 21
-0.9456774999999996
 31
0.0
  0
LINE
  5
106
330
D4
100
AcDbEntity
  8
AM_9
100
AcDbLine
 10
-1.246150102972911
 20
-0.9456774999999996
 30
0.0
 11
-1.246150102972911
 21
-1.08610314798859
 31
0.0
  0
LINE
  5
107
330
D4
100
AcDbEntity
  8
AM_9
100
AcDbLine
 10
-0.9265911894603371
 20
-0.8984374999999998
 30
0.0
 11
-0.9265911894603371
 21
-1.796875
 31
0.0
  0
LINE
  5
108
330
D4
100
AcDbEntity
  8
AM_9
100
AcDbLine
 10
-1.173408429538902
 20
-0.8984374999999998
 30
0.0
 11
-1.173408429538902
 21
-1.082978389652711
 31
0.0
  0
LINE
  5
109
330
D4
100
AcDbEntity
  8
AM_9
100
AcDbLine
 10
-2.0
 20
-1.123046875
 30
0.0
 11
2.0
 21
-1.123046875
 31
0.0
  0
LINE
  5
10A
330
D4
100
AcDbEntity
  8
AM_9
100
AcDbLine
 10
-2.0
 20
-1.34765625
 30
0.0
 11
2.0
 21
-1.34765625
 31
0.0
  0
LINE
  5
10B
330
D4
100
AcDbEntity
  8
AM_9
100
AcDbLine
 10
2.0
 20
-1.34765625
 30
0.0
 11
2.0
 21
-1.123046875
 31
0.0
  0
LINE
  5
10C
330
D4
100
AcDbEntity
  8
AM_9
100
AcDbLine
 10
-2.0
 20
-1.123046875
 30
0.0
 11
-2.0
 21
-1.34765625
 31
0.0
  0
LINE
  5
10D
330
D4
100
AcDbEntity
  8
AM_9
100
AcDbLine
 10
2.245482965867254
 20
-0.9456774999999998
 30
0.0
 11
2.245482965867254
 21
-1.16173597243588
 31
0.0
  0
LINE
  5
10E
330
D4
100
AcDbEntity
  8
AM_9
100
AcDbLine
 10
-0.9993328628943452
 20
-1.076409708257687
 30
0.0
 11
-0.9993328628943452
 21
-0.9456774999999996
 31
0.0
  0
LINE
  5
10F
330
D4
100
AcDbEntity
  8
AM_9
100
AcDbLine
 10
2.198145893156321
 20
-0.8984375000000001
 30
0.0
 11
2.245482965867254
 21
-0.9456774999999998
 31
0.0
  0
LINE
  5
110
330
D4
100
AcDbEntity
  8
AM_9
100
AcDbLine
 10
-2.20276
 20
-0.8984375000000001
 30
0.0
 11
2.198145893156321
 21
-0.8984375000000001
 31
0.0
  0
LINE
  5
111
330
D4
100
AcDbEntity
  8
AM_9
100
AcDbLine
 10
-0.9993328628943452
 20
-0.9456774999999996
 30
0.0
 11
-0.9756643265388788
 21
-0.8984375000000001
 31
0.0
  0
LINE
  5
112
330
D4
100
AcDbEntity
  8
AM_9
100
AcDbLine
 10
-0.9993328628943452
 20
-0.9456774999999996
 30
0.0
 11
2.245482965867254
 21
-0.9456774999999998
 31
0.0
  0
LINE
  5
114
330
D4
100
AcDbEntity
  8
AM_5
100
AcDbLine
 10
-2.25
 20
-1.6730731666455
 30
0.0
 11
-1.6875
 21
-1.6730731666455
 31
0.0
  0
LINE
  5
115
330
D4
100
AcDbEntity
  8
AM_5
100
AcDbLine
 10
-2.25
 20
-1.4830731666455
 30
0.0
 11
-1.6875
 21
-1.4830731666455
 31
0.0
  0
LINE
  5
118
330
D4
100
AcDbEntity
  8
AM_7
100
AcDbLine
 10
-1.659375
 20
-1.5780731666455
 30
0.0
 11
-2.278125
 21
-1.5780731666455
 31
0.0
  0
LINE
  5
11A
330
D4
100
AcDbEntity
  8
AM_4
100
AcDbLine
 10
0.05
 20
-1.859375
 30
0.0
 11
0.05
 21
-1.796875
 31
0.0
  0
LINE
  5
11B
330
D4
100
AcDbEntity
  8
AM_4
100
AcDbLine
 10
-0.05
 20
-1.859375
 30
0.0
 11
-0.05
 21
-1.796875
 31
0.0
  0
LINE
  5
11C
330
D4
100
AcDbEntity
  8
AM_4
100
AcDbLine
 10
1.678571428571429
 20
-1.859375
 30
0.0
 11
1.678571428571429
 21
-1.796875
 31
0.0
  0
LINE
  5
11D
330
D4
100
AcDbEntity
  8
AM_4
100
AcDbLine
 10
-1.678571428571429
 20
-1.796875
 30
0.0
 11
-1.678571428571429
 21
-1.859375
 31
0.0
  0
LINE
  5
11E
330
D4
100
AcDbEntity
  8
AM_4
100
AcDbLine
 10
-1.678571428571429
 20
-1.859375
 30
0.0
 11
1.678571428571429
 21
-1.859375
 31
0.0
  0
LINE
  5
11F
330
D4
100
AcDbEntity
  8
AM_4
100
AcDbLine
 10
-2.25
 20
-1.749635
 30
0.0
 11
-2.20276
 21
-1.796875
 31
0.0
  0
LINE
  5
120
330
D4
100
AcDbEntity
  8
AM_4
100
AcDbLine
 10
-2.249016040929447
 20
-1.644497321213017
 30
0.0
 11
-2.25
 21
-1.6730731666455
 31
0.0
  0
LINE
  5
121
330
D4
100
AcDbEntity
  8
AM_4
100
AcDbLine
 10
-2.25
 20
-1.162295740091853
 30
0.0
 11
-2.25
 21
-1.483073166645499
 31
0.0
  0
LINE
  5
122
330
D4
100
AcDbEntity
  8
AM_4
100
AcDbLine
 10
-2.25
 20
-1.6730731666455
 30
0.0
 11
-2.25
 21
-1.749635
 31
0.0
  0
LINE
  5
123
330
D4
100
AcDbEntity
  8
AM_4
100
AcDbLine
 10
-2.25
 20
-1.749635
 30
0.0
 11
-1.246150102972911
 21
-1.749634999999999
 31
0.0
  0
LWPOLYLINE
  5
124
330
D4
100
AcDbEntity
  8
AM_4
100
AcDbPolyline
 90
       12
 70
     0
 43
0.0
 10
-2.25
 20
-1.4830731666455
 10
-2.249991081036293
 20
-1.483293579078811
 10
-2.249710498142943
 20
-1.490509453196072
 10
-2.249148450027942
 20
-1.507131776006782
 10
-2.248535068433494
 20
-1.531610676375653
 10
-2.248294206924556
 20
-1.54596942953903
 10
-2.248131928754579
 20
-1.561619436389659
 10
-2.248074172830338
 20
-1.577536328810558
 10
-2.248127748331529
 20
-1.593920889746723
 10
-2.248285099937126
 20
-1.609505641406065
 10
-2.248536969673621
 20
-1.624631395614746
 10
-2.249016040929447
 20
-1.644497321213017
  0
LINE
  5
125
330
D4
100
AcDbEntity
  8
AM_4
100
AcDbLine
 10
-1.246150102972911
 20
-1.08610314798859
 30
0.0
 11
-1.246150102972911
 21
-1.749634999999999
 31
0.0
  0
LINE
  5
126
330
D4
100
AcDbEntity
  8
AM_4
100
AcDbLine
 10
-1.246150102972911
 20
-1.749634999999999
 30
0.0
 11
-1.222481566617444
 21
-1.796875
 31
0.0
  0
LINE
  5
127
330
D4
100
AcDbEntity
  8
AM_4
100
AcDbLine
 10
-1.173408429538902
 20
-1.082978389652711
 30
0.0
 11
-1.173408429538902
 21
-1.796875
 31
0.0
  0
LINE
  5
128
330
D4
100
AcDbEntity
  8
AM_4
100
AcDbLine
 10
2.245482965867254
 20
-1.749635
 30
0.0
 11
2.198145893156321
 21
-1.796875
 31
0.0
  0
LINE
  5
129
330
D4
100
AcDbEntity
  8
AM_4
100
AcDbLine
 10
-0.9756643265388788
 20
-1.796875
 30
0.0
 11
-0.9993328628943453
 21
-1.749635
 31
0.0
  0
LINE
  5
12A
330
D4
100
AcDbEntity
  8
AM_4
100
AcDbLine
 10
-2.20276
 20
-1.796875
 30
0.0
 11
2.198145893156321
 21
-1.796875
 31
0.0
  0
LINE
  5
12B
330
D4
100
AcDbEntity
  8
AM_4
100
AcDbLine
 10
2.245482965867254
 20
-1.16173597243588
 30
0.0
 11
2.245482965867254
 21
-1.749635
 31
0.0
  0
LINE
  5
12C
330
D4
100
AcDbEntity
  8
AM_4
100
AcDbLine
 10
-0.9993328628943453
 20
-1.749635
 30
0.0
 11
-0.9993328628943452
 21
-1.076409708257687
 31
0.0
  0
LINE
  5
12D
330
D4
100
AcDbEntity
  8
AM_4
100
AcDbLine
 10
-0.9993328628943453
 20
-1.749635
 30
0.0
 11
2.245482965867254
 21
-1.749635
 31
0.0
  0
ENDBLK
  5
D7
330
D4
100
AcDbEntity
  8
0
100
AcDbBlockEnd
  0
BLOCK
  5
130
330
12E
100
AcDbEntity
  8
0
100
AcDbBlockBegin
  2
4_129455I_0_in_129242_4
 70
     2
 10
0.0
 20
0.0
 30
0.0
  3
4_129455I_0_in_129242_4
  1

  0
ATTDEF
  5
132
330
12E
100
AcDbEntity
  8
AM_6
100
AcDbText
 10
10.875
 20
1.65
 30
0.0
 40
0.5
  1
GTAH-I
100
AcDbAttributeDefinition
  3

  2
NN
 70
     8
280
     0
  0
ATTDEF
  5
133
330
12E
100
AcDbEntity
  8
AM_6
100
AcDbText
 10
10.875
 20
1.15
 30
0.0
 40
0.5
  1
GTAH Air Handling Normal and Medium Duty Pillow Blocks
100
AcDbAttributeDefinition
  3

  2
NT
 70
     8
280
     0
  0
ATTDEF
  5
134
330
12E
100
AcDbEntity
  8
AM_6
100
AcDbText
 10
10.875
 20
0.6499999999999997
 30
0.0
 40
0.5
  1
129455I
100
AcDbAttributeDefinition
  3

  2
NB
 70
     8
280
     0
  0
ATTDEF
  5
135
330
12E
100
AcDbEntity
  8
AM_6
100
AcDbText
 10
10.875
 20
0.1499999999999997
 30
0.0
 40
0.5
  1
$PN.$LUBE.I
100
AcDbAttributeDefinition
  3

  2
NBSYN
 70
     8
280
     0
  0
ATTDEF
  5
136
330
12E
100
AcDbEntity
  8
AM_6
100
AcDbText
 10
10.875
 20
-0.3500000000000003
 30
0.0
 40
0.5
  1
129455
100
AcDbAttributeDefinition
  3

  2
LINA
 70
     8
280
     0
  0
ATTDEF
  5
137
330
12E
100
AcDbEntity
  8
AM_6
100
AcDbText
 10
10.875
 20
-0.8500000000000003
 30
0.0
 40
0.5
  1
216
100
AcDbAttributeDefinition
  3

  2
SERIES
 70
     8
280
     0
  0
ATTDEF
  5
138
330
12E
100
AcDbEntity
  8
AM_6
100
AcDbText
 10
10.875
 20
-1.35
 30
0.0
 40
0.5
  1
129455
100
AcDbAttributeDefinition
  3

  2
PN
 70
     8
280
     0
  0
ATTDEF
  5
139
330
12E
100
AcDbEntity
  8
AM_6
100
AcDbText
 10
10.875
 20
-1.85
 30
0.0
 40
0.5
  1
P2B-GTAH-16
100
AcDbAttributeDefinition
  3

  2
DESCRIPTION
 70
     8
280
     0
  0
ATTDEF
  5
13A
330
12E
100
AcDbEntity
  8
AM_6
100
AcDbText
 10
10.875
 20
-2.350000000000001
 30
0.0
 40
0.5
  1
2-49/64
100
AcDbAttributeDefinition
  3

  2
A
 70
     8
280
     0
  0
ATTDEF
  5
13B
330
12E
100
AcDbEntity
  8
AM_6
100
AcDbText
 10
10.875
 20
-2.850000000000001
 30
0.0
 40
0.5
  1
11-3/4
100
AcDbAttributeDefinition
  3

  2
B
 70
     8
280
     0
  0
ATTDEF
  5
13C
330
12E
100
AcDbEntity
  8
AM_6
100
AcDbText
 10
10.875
 20
-3.350000000000001
 30
0.0
 40
0.5
  1
3
100
AcDbAttributeDefinition
  3

  2
C
 70
     8
280
     0
  0
ATTDEF
  5
13D
330
12E
100
AcDbEntity
  8
AM_6
100
AcDbText
 10
10.875
 20
-3.850000000000001
 30
0.0
 40
0.5
  1
8-1/2
100
AcDbAttributeDefinition
  3

  2
DMIN
 70
     8
280
     0
  0
ATTDEF
  5
13E
330
12E
100
AcDbEntity
  8
AM_6
100
AcDbText
 10
10.875
 20
-4.350000000000001
 30
0.0
 40
0.5
  1
9-1/2
100
AcDbAttributeDefinition
  3

  2
DMAX
 70
     8
280
     0
  0
ATTDEF
  5
13F
330
12E
100
AcDbEntity
  8
AM_6
100
AcDbText
 10
10.875
 20
-4.850000000000001
 30
0.0
 40
0.5
  1
7/8
100
AcDbAttributeDefinition
  3

  2
F
 70
     8
280
     0
  0
ATTDEF
  5
140
330
12E
100
AcDbEntity
  8
AM_6
100
AcDbText
 10
10.875
 20
-5.350000000000001
 30
0.0
 40
0.5
  1
1-7/16
100
AcDbAttributeDefinition
  3

  2
G
 70
     8
280
     0
  0
ATTDEF
  5
141
330
12E
100
AcDbEntity
  8
AM_6
100
AcDbText
 10
10.875
 20
-5.850000000000001
 30
0.0
 40
0.5
  1
1-1/4
100
AcDbAttributeDefinition
  3

  2
H
 70
     8
280
     0
  0
ATTDEF
  5
142
330
12E
100
AcDbEntity
  8
AM_6
100
AcDbText
 10
10.875
 20
-6.350000000000001
 30
0.0
 40
0.5
  1
6-15/16
100
AcDbAttributeDefinition
  3

  2
J
 70
     8
280
     0
  0
ATTDEF
  5
143
330
12E
100
AcDbEntity
  8
AM_6
100
AcDbText
 10
10.875
 20
-6.850000000000001
 30
0.0
 40
0.5
  1
4-1/2
100
AcDbAttributeDefinition
  3

  2
L
 70
     8
280
     0
  0
ATTDEF
  5
144
330
12E
100
AcDbEntity
  8
AM_6
100
AcDbText
 10
10.875
 20
-7.350000000000001
 30
0.0
 40
0.5
  1
3-1/2
100
AcDbAttributeDefinition
  3

  2
M
 70
     8
280
     0
  0
ATTDEF
  5
145
330
12E
100
AcDbEntity
  8
AM_6
100
AcDbText
 10
10.875
 20
-7.850000000000001
 30
0.0
 40
0.5
  1
29/32
100
AcDbAttributeDefinition
  3

  2
R
 70
     8
280
     0
  0
ATTDEF
  5
146
330
12E
100
AcDbEntity
  8
AM_6
100
AcDbText
 10
10.875
 20
-8.350000000000001
 30
0.0
 40
0.5
  1
1-55/64
100
AcDbAttributeDefinition
  3

  2
S
 70
     8
280
     0
  0
ATTDEF
  5
147
330
12E
100
AcDbEntity
  8
AM_6
100
AcDbText
 10
10.875
 20
-8.850000000000001
 30
0.0
 40
0.5
  1
5-1/2
100
AcDbAttributeDefinition
  3

  2
U
 70
     8
280
     0
  0
ATTDEF
  5
148
330
12E
100
AcDbEntity
  8
AM_6
100
AcDbText
 10
10.875
 20
-9.350000000000001
 30
0.0
 40
0.5
  1
11
100
AcDbAttributeDefinition
  3

  2
V
 70
     8
280
     0
  0
ATTDEF
  5
149
330
12E
100
AcDbEntity
  8
AM_6
100
AcDbText
 10
10.875
 20
-9.850000000000001
 30
0.0
 40
0.5
  1
1-3/32
100
AcDbAttributeDefinition
  3

  2
W
 70
     8
280
     0
  0
ATTDEF
  5
14A
330
12E
100
AcDbEntity
  8
AM_6
100
AcDbText
 10
10.875
 20
-10.35
 30
0.0
 40
0.5
  1
3/16
100
AcDbAttributeDefinition
  3

  2
X
 70
     8
280
     0
  0
ATTDEF
  5
14B
330
12E
100
AcDbEntity
  8
AM_6
100
AcDbText
 10
10.875
 20
-10.85
 30
0.0
 40
0.5
  1
1-51/64
100
AcDbAttributeDefinition
  3

  2
Z
 70
     8
280
     0
  0
ATTDEF
  5
14C
330
12E
100
AcDbEntity
  8
AM_6
100
AcDbText
 10
10.875
 20
-11.35
 30
0.0
 40
0.5
  1
baldor
100
AcDbAttributeDefinition
  3

  2
COMPANY
 70
     8
280
     0
  0
LINE
  5
14D
330
12E
100
AcDbEntity
  8
AM_9
100
AcDbLine
 10
2.302694900000001
 20
-1.2800001
 30
0.0
 11
2.302694900000001
 21
1.2800001
 31
0.0
  0
LINE
  5
14E
330
12E
100
AcDbEntity
  8
AM_9
100
AcDbLine
 10
2.361750000000001
 20
-1.5
 30
0.0
 11
2.361750000000001
 21
1.5
 31
0.0
  0
LINE
  5
14F
330
12E
100
AcDbEntity
  8
AM_9
100
AcDbLine
 10
-2.3026949
 20
-1.280000100000001
 30
0.0
 11
-2.3026949
 21
1.280000099999999
 31
0.0
  0
LINE
  5
150
330
12E
100
AcDbEntity
  8
AM_9
100
AcDbLine
 10
-2.36175
 20
-1.5
 30
0.0
 11
-2.36175
 21
1.5
 31
0.0
  0
LWPOLYLINE
  5
151
330
12E
100
AcDbEntity
  8
AM_9
100
AcDbPolyline
 90
        5
 70
     0
 43
0.0
 10
2.560570513386915
 20
-0.0909214090671167
 10
2.557206684730535
 20
-0.0460980447457686
 10
2.555955076881894
 20
-0.0008744807129144
 10
2.557149980067034
 20
0.0450211226067941
 10
2.560570513386915
 20
0.090921409067117
  0
LINE
  5
152
330
12E
100
AcDbEntity
  8
AM_9
100
AcDbLine
 10
2.560570513386915
 20
0.090921409067117
 30
0.0
 11
2.648775016886269
 21
0.090921409067117
 31
0.0
  0
LINE
  5
153
330
12E
100
AcDbEntity
  8
AM_9
100
AcDbLine
 10
2.560570513386915
 20
-0.0909214090671167
 30
0.0
 11
2.648775016886269
 21
-0.0909214090671167
 31
0.0
  0
LINE
  5
154
330
12E
100
AcDbEntity
  8
AM_9
100
AcDbLine
 10
2.444598992671753
 20
0.1102360000000003
 30
0.0
 11
2.430671595956509
 21
0.1102360000000003
 31
0.0
  0
LINE
  5
155
330
12E
100
AcDbEntity
  8
AM_9
100
AcDbLine
 10
2.43067757459334
 20
-0.110236
 30
0.0
 11
2.444598992671753
 21
-0.110236
 31
0.0
  0
LWPOLYLINE
  5
156
330
12E
100
AcDbEntity
  8
AM_9
100
AcDbPolyline
 90
       20
 70
     0
 43
0.0
 10
2.430687109350271
 20
0.1102359994830375
 10
2.421656613948614
 20
0.1094977178625241
 10
2.408712056525565
 20
0.1057972192219947
 10
2.396325282414871
 20
0.0991177477660074
 10
2.384867045991207
 20
0.0896064174826335
 10
2.374665129274304
 20
0.0775714893565906
 10
2.366042210904666
 20
0.0633140934203688
 10
2.359241323690564
 20
0.0472714098286487
 10
2.354498585792207
 20
0.0298763145879286
 10
2.351930332255441
 20
0.0116382184607183
 10
2.351648010053854
 20
-0.0069246784537511
 10
2.353626000744701
 20
-0.0252923131078006
 10
2.357834098958606
 20
-0.0429332174631326
 10
2.364111631640737
 20
-0.0593645638280003
 10
2.372297400224846
 20
-0.074105341539688
 10
2.382115347828297
 20
-0.0867581276924989
 10
2.393294680294034
 20
-0.0969355595531616
 10
2.405482560518089
 20
-0.1043800418174056
 10
2.41832858006173
 20
-0.1088393044411975
 10
2.430684211426075
 20
-0.1102359998037605
  0
LWPOLYLINE
  5
157
330
12E
100
AcDbEntity
  8
AM_9
100
AcDbPolyline
 90
       11
 70
     0
 43
0.0
 10
2.430684211426075
 20
-0.1102359998037605
 10
2.431456181661792
 20
-0.11023052675661
 10
2.444484368641306
 20
-0.108472005624548
 10
2.457057284484901
 20
-0.1036585609621173
 10
2.468817387254932
 20
-0.0958850139978653
 10
2.479458918349904
 20
-0.0854116337185945
 10
2.48868258015247
 20
-0.072493218020039
 10
2.496260942119783
 20
-0.0575315146449565
 10
2.501972534831753
 20
-0.0409214449101933
 10
2.505693943294591
 20
-0.0231567977189327
 10
2.507378008223604
 20
0.0000000000000001
  0
LWPOLYLINE
  5
158
330
12E
100
AcDbEntity
  8
AM_9
100
AcDbPolyline
 90
        5
 70
     0
 43
0.0
 10
2.449214983932267
 20
-0.1818428181342335
 10
2.473299748061431
 20
-0.1594311359735596
 10
2.499741804270433
 20
-0.1368193539571329
 10
2.529041909848191
 20
-0.1138715522972786
 10
2.560570513386915
 20
-0.0909214090671167
  0
LWPOLYLINE
  5
159
330
12E
100
AcDbEntity
  8
AM_9
100
AcDbPolyline
 90
        5
 70
     0
 43
0.0
 10
2.560570513386915
 20
0.090921409067117
 10
2.529758091944991
 20
0.1133330912277914
 10
2.500812820038706
 20
0.1359448732442185
 10
2.473902520831229
 20
0.1588926749040727
 10
2.449214983932267
 20
0.1818428181342339
  0
ELLIPSE
  5
15A
330
12E
100
AcDbEntity
  8
AM_9
100
AcDbEllipse
 10
2.444598992671754
 20
0.0000000000000001
 30
0.0
 11
-2.892860668945900E-17
 21
-0.1574800000000012
 31
0.0
210
0.0
220
0.0
230
1.0
 40
0.7071067811865486
 41
0.0
 42
6.283185307179586
  0
ELLIPSE
  5
15B
330
12E
100
AcDbEntity
  8
AM_9
100
AcDbEllipse
 10
2.542035478692135
 20
-0.0000000000000003
 30
0.0
 11
6.750008227540355E-18
 21
0.1102359999999996
 31
0.0
210
0.0
220
0.0
230
1.0
 40
0.707106781186547
 41
3.141592653589793
 42
6.283185307179586
  0
ELLIPSE
  5
15C
330
12E
100
AcDbEntity
  8
AM_9
100
AcDbEllipse
 10
2.555954875679802
 20
0.0000000000000143
 30
0.0
 11
6.750008227539129E-18
 21
0.1102359999999795
 31
0.0
210
0.0
220
0.0
230
1.0
 40
0.7071067811865467
 41
5.307260712166888
 42
5.685682100197744
  0
LINE
  5
15D
330
12E
100
AcDbEntity
  8
AM_9
100
AcDbLine
 10
2.648775016886269
 20
-0.0909214090671167
 30
0.0
 11
2.63348741101655
 21
-0.1053486758122224
 31
0.0
  0
LWPOLYLINE
  5
15E
330
12E
100
AcDbEntity
  8
AM_9
100
AcDbPolyline
 90
        3
 70
     0
 43
0.0
 10
2.653094077986122
 20
-0.0222687059503752
 10
2.65219555020615
 20
-0.0450211226067939
 10
2.648775016886269
 20
-0.0909214090671167
  0
LWPOLYLINE
  5
15F
330
12E
100
AcDbEntity
  8
AM_9
100
AcDbPolyline
 90
        3
 70
     0
 43
0.0
 10
2.648775016886269
 20
0.090921409067117
 10
2.652138845542649
 20
0.0460980447457689
 10
2.65315851262485
 20
0.0196934807116056
  0
LINE
  5
160
330
12E
100
AcDbEntity
  8
AM_9
100
AcDbLine
 10
2.63341093388827
 20
0.1054191009470249
 30
0.0
 11
2.648775016886269
 21
0.090921409067117
 31
0.0
  0
ELLIPSE
  5
161
330
12E
100
AcDbEntity
  8
AM_9
100
AcDbEllipse
 10
2.542035478692135
 20
0.0000000000000007
 30
0.0
 11
9.642868896486348E-18
 21
0.1574800000000015
 31
0.0
210
0.0
220
0.0
230
1.0
 40
0.7071067811865476
 41
3.987708375367113
 42
5.438447250934511
  0
ELLIPSE
  5
162
330
12E
100
AcDbEntity
  8
AM_9
100
AcDbEllipse
 10
2.555954875679793
 20
0.0000000000000064
 30
0.0
 11
6.750008227540857E-18
 21
0.1102360000000078
 31
0.0
210
0.0
220
0.0
230
1.0
 40
0.7071067811865065
 41
3.737862488169629
 42
4.136310007495577
  0
ELLIPSE
  5
163
330
12E
100
AcDbEntity
  8
AM_9
100
AcDbEllipse
 10
2.55595487567976
 20
0.0000000000000094
 30
0.0
 11
6.750008227543166E-18
 21
0.1102360000000455
 31
0.0
210
0.0
220
0.0
230
1.0
 40
0.7071067811865468
 41
4.409958477196366
 42
4.745821479491461
  0
LWPOLYLINE
  5
164
330
12E
100
AcDbEntity
  8
AM_9
100
AcDbPolyline
 90
        3
 70
     0
 43
0.0
 10
2.585200566636889
 20
-0.0762467286736539
 10
2.583249661215826
 20
-0.0738939470073473
 10
2.578991822532053
 20
-0.0678488392645643
  0
LWPOLYLINE
  5
165
330
12E
100
AcDbEntity
  8
AM_9
100
AcDbPolyline
 90
        3
 70
     0
 43
0.0
 10
2.590932408547481
 20
-0.0817966350487285
 10
2.588152005763342
 20
-0.0793537306305388
 10
2.585200566636889
 20
-0.0762467286736539
  0
LWPOLYLINE
  5
166
330
12E
100
AcDbEntity
  8
AM_9
100
AcDbPolyline
 90
       17
 70
     0
 43
0.0
 10
2.633811709486412
 20
-0.0051782244283244
 10
2.633744126455804
 20
-0.0069078713295062
 10
2.632457085200712
 20
-0.0210093403951063
 10
2.629937649463975
 20
-0.0344591858301126
 10
2.626353001565564
 20
-0.0468164995896989
 10
2.62195112037901
 20
-0.0577111016105557
 10
2.617051903512064
 20
-0.0668567305512449
 10
2.612030270397139
 20
-0.0740786630823041
 10
2.607302302522005
 20
-0.0793264401162641
 10
2.603274546602997
 20
-0.0827167028901617
 10
2.600276078910207
 20
-0.0845439794051056
 10
2.598486547230859
 20
-0.0852526369531494
 10
2.597772726470331
 20
-0.0853838792383364
 10
2.596912601440728
 20
-0.0852451821162713
 10
2.595082423555933
 20
-0.0845105905629787
 10
2.592068163122173
 20
-0.0826568875981266
 10
2.590932408547481
 20
-0.0817966350487285
  0
LWPOLYLINE
  5
167
330
12E
100
AcDbEntity
  8
AM_9
100
AcDbPolyline
 90
       17
 70
     0
 43
0.0
 10
2.590448340243119
 20
0.0814053024720794
 10
2.592320296144882
 20
0.0828365771741881
 10
2.595263478273733
 20
0.0845992331036952
 10
2.596994912508678
 20
0.0852676157496571
 10
2.597671422282104
 20
0.0853845258914779
 10
2.598641212623767
 20
0.0852079437751865
 10
2.600597974717909
 20
0.0843811252312937
 10
2.603716282663254
 20
0.0823942880297338
 10
2.607706309461359
 20
0.0789317953189419
 10
2.612638557427084
 20
0.0733000068874838
 10
2.617705805914692
 20
0.0657712929850955
 10
2.622551260607693
 20
0.0564056231153005
 10
2.626838449310202
 20
0.0453845513350961
 10
2.630281121352331
 20
0.03297968966841
 10
2.632655323563573
 20
0.0195270651629413
 10
2.633803205319926
 20
0.0054263963462575
 10
2.633898287522236
 20
0.0000000000000002
  0
LWPOLYLINE
  5
168
330
12E
100
AcDbEntity
  8
AM_9
100
AcDbPolyline
 90
        4
 70
     0
 43
0.0
 10
2.581127813622448
 20
0.0710464559025002
 10
2.583631772049896
 20
0.0743742059296401
 10
2.58833507124516
 20
0.0795289955356291
 10
2.590448340243119
 20
0.0814053024720794
  0
ELLIPSE
  5
169
330
12E
100
AcDbEntity
  8
AM_9
100
AcDbEllipse
 10
2.633037075554938
 20
0.0000000000000003
 30
0.0
 11
6.258280025835751E-18
 21
0.1022054690412454
 31
0.0
210
0.0
220
0.0
230
1.0
 40
0.7071067811865466
 41
2.503474204137928
 42
6.950514337446569
  0
ELLIPSE
  5
16A
330
12E
100
AcDbEntity
  8
AM_9
100
AcDbEllipse
 10
2.647926237570938
 20
-0.0000000000000002
 30
0.0
 11
6.365617546288540E-18
 21
0.1039584237793384
 31
0.0
210
0.0
220
0.0
230
1.0
 40
0.707106781186524
 41
3.694304707716649
 42
5.730473253052732
  0
ELLIPSE
  5
16B
330
12E
100
AcDbEntity
  8
AM_9
100
AcDbEllipse
 10
2.69216915216094
 20
0.0000000000000039
 30
0.0
 11
4.354225479598105E-18
 21
0.07110989850509855
 31
0.0
210
0.0
220
0.0
230
1.0
 40
0.7071067811865727
 41
4.71238898038469
 42
5.36594130817874
  0
LINE
  5
16C
330
12E
100
AcDbEntity
  8
AM_9
100
AcDbLine
 10
2.245482965867254
 20
-1.2800001
 30
0.0
 11
-2.25
 21
-1.2800001
 31
0.0
  0
LINE
  5
16D
330
12E
100
AcDbEntity
  8
AM_9
100
AcDbLine
 10
2.7559
 20
-1.302197406593407
 30
0.0
 11
2.7559
 21
1.302197406593407
 31
0.0
  0
LINE
  5
16E
330
12E
100
AcDbEntity
  8
AM_9
100
AcDbLine
 10
-2.7559
 20
1.302197406593407
 30
0.0
 11
-2.7559
 21
-1.302197406593407
 31
0.0
  0
LWPOLYLINE
  5
16F
330
12E
100
AcDbEntity
  8
AM_9
100
AcDbPolyline
 90
       11
 70
     0
 43
0.0
 10
2.507378008223604
 20
0.0000000000000001
 10
2.506300237654227
 20
0.0184998560670249
 10
2.503123512719073
 20
0.0364781039376389
 10
2.497901544688621
 20
0.0534132961818372
 10
2.49079625118481
 20
0.0688434476953943
 10
2.481964866284913
 20
0.0823110683630959
 10
2.471664404380587
 20
0.0934590140950067
 10
2.460148283730974
 20
0.1019376527172229
 10
2.447746239588844
 20
0.1075421129672939
 10
2.434794038431344
 20
0.1100708891944216
 10
2.430687109350271
 20
0.1102359994830375
  0
ELLIPSE
  5
170
330
12E
100
AcDbEntity
  8
AM_9
100
AcDbEllipse
 10
2.444598992671754
 20
-0.0000000000000001
 30
0.0
 11
6.750008227540370E-18
 21
0.1102359999999998
 31
0.0
210
0.0
220
0.0
230
1.0
 40
0.7071067811865456
 41
0.0
 42
6.283185307179586
  0
LINE
  5
171
330
12E
100
AcDbEntity
  8
AM_7
100
AcDbLine
 10
-5.5984375
 20
-1.093750000000001
 30
0.0
 11
-5.4015625
 21
-1.093750000000001
 31
0.0
  0
LINE
  5
172
330
12E
100
AcDbEntity
  8
AM_7
100
AcDbLine
 10
-5.5
 20
-1.192187500000001
 30
0.0
 11
-5.5
 21
-0.9953125000000007
 31
0.0
  0
LINE
  5
173
330
12E
100
AcDbEntity
  8
AM_7
100
AcDbLine
 10
5.4015625
 20
-1.09375
 30
0.0
 11
5.5984375
 21
-1.09375
 31
0.0
  0
LINE
  5
174
330
12E
100
AcDbEntity
  8
AM_7
100
AcDbLine
 10
5.5
 20
-1.1921875
 30
0.0
 11
5.5
 21
-0.9953124999999996
 31
0.0
  0
LINE
  5
175
330
12E
100
AcDbEntity
  8
AM_7
100
AcDbLine
 10
0.0
 20
1.65
 30
0.0
 11
0.0
 21
-1.99765625
 31
0.0
  0
LINE
  5
176
330
12E
100
AcDbEntity
  8
AM_7
100
AcDbLine
 10
3.7578125
 20
0.0000000000000001
 30
0.0
 11
5.2421875
 21
0.0000000000000002
 31
0.0
  0
LINE
  5
177
330
12E
100
AcDbEntity
  8
AM_7
100
AcDbLine
 10
4.25
 20
-0.4921875000000004
 30
0.0
 11
4.25
 21
0.4921875000000006
 31
0.0
  0
LINE
  5
178
330
12E
100
AcDbEntity
  8
AM_7
100
AcDbLine
 10
-5.2421875
 20
0.0
 30
0.0
 11
-3.7578125
 21
0.0000000000000001
 31
0.0
  0
LINE
  5
179
330
12E
100
AcDbEntity
  8
AM_7
100
AcDbLine
 10
-4.75
 20
-0.4921875
 30
0.0
 11
-4.75
 21
0.4921875
 31
0.0
  0
LINE
  5
17A
330
12E
100
AcDbEntity
  8
AM_7
100
AcDbLine
 10
-4.25
 20
-0.4921875000000003
 30
0.0
 11
-4.25
 21
0.4921875000000007
 31
0.0
  0
LINE
  5
17B
330
12E
100
AcDbEntity
  8
AM_7
100
AcDbLine
 10
4.75
 20
-0.4921874999999998
 30
0.0
 11
4.75
 21
0.4921875000000002
 31
0.0
  0
LINE
  5
17C
330
12E
100
AcDbEntity
  8
AM_4
100
AcDbLine
 10
5.5725
 20
1.5
 30
0.0
 11
2.35
 21
1.5
 31
0.0
  0
LINE
  5
17D
330
12E
100
AcDbEntity
  8
AM_4
100
AcDbLine
 10
5.875
 20
-1.197499999999999
 30
0.0
 11
5.875
 21
1.1975
 31
0.0
  0
LINE
  5
17E
330
12E
100
AcDbEntity
  8
AM_4
100
AcDbLine
 10
5.875
 20
1.1975
 30
0.0
 11
5.5725
 21
1.5
 31
0.0
  0
LINE
  5
17F
330
12E
100
AcDbEntity
  8
AM_4
100
AcDbLine
 10
-2.349999999999999
 20
1.5
 30
0.0
 11
-5.5725
 21
1.5
 31
0.0
  0
LINE
  5
180
330
12E
100
AcDbEntity
  8
AM_4
100
AcDbLine
 10
-5.875
 20
1.197499999999999
 30
0.0
 11
-5.875
 21
-1.1975
 31
0.0
  0
LINE
  5
181
330
12E
100
AcDbEntity
  8
AM_4
100
AcDbLine
 10
-5.5725
 20
1.5
 30
0.0
 11
-5.875
 21
1.197499999999999
 31
0.0
  0
LWPOLYLINE
  5
182
330
12E
100
AcDbEntity
  8
AM_4
100
AcDbPolyline
 90
        8
 70
     0
 43
0.0
 10
-5.815944900000002
 20
0.3597033085252159
 10
-5.833357307291459
 20
0.3032522790321584
 10
-5.847818188870122
 20
0.2458052566279387
 10
-5.859609142864279
 20
0.1854522851625141
 10
-5.868073128952235
 20
0.1246494216390988
 10
-5.873229367712106
 20
0.0630934823025564
 10
-5.87499925186984
 20
0.0012974175504656
 10
-5.875
 20
-0.0000000000000006
  0
LINE
  5
183
330
12E
100
AcDbEntity
  8
AM_4
100
AcDbLine
 10
-5.875
 20
-1.197500000000001
 30
0.0
 11
-5.5725
 21
-1.5
 31
0.0
  0
LINE
  5
184
330
12E
100
AcDbEntity
  8
AM_4
100
AcDbLine
 10
-2.35
 20
-1.5
 30
0.0
 11
-5.5725
 21
-1.5
 31
0.0
  0
CIRCLE
  5
185
330
12E
100
AcDbEntity
  8
AM_4
100
AcDbCircle
 10
-5.5
 20
-1.093750000000001
 30
0.0
 40
0.09375
  0
LINE
  5
186
330
12E
100
AcDbEntity
  8
AM_4
100
AcDbLine
 10
-4.25
 20
0.4687500000000003
 30
0.0
 11
-4.749999999999999
 21
0.4687500000000002
 31
0.0
  0
ARC
  5
187
330
12E
100
AcDbEntity
  8
AM_4
100
AcDbCircle
 10
-4.25
 20
0.0000000000000002
 30
0.0
 40
0.4687500000000001
100
AcDbArc
 50
270.0
 51
90.0
  0
LINE
  5
188
330
12E
100
AcDbEntity
  8
AM_4
100
AcDbLine
 10
-4.749999999999999
 20
-0.4687500000000002
 30
0.0
 11
-4.25
 21
-0.4687499999999999
 31
0.0
  0
ARC
  5
189
330
12E
100
AcDbEntity
  8
AM_4
100
AcDbCircle
 10
-4.75
 20
0.0000000000000001
 30
0.0
 40
0.4687500000000001
100
AcDbArc
 50
90.0
 51
270.0
  0
LINE
  5
18A
330
12E
100
AcDbEntity
  8
AM_4
100
AcDbLine
 10
-4.749999999999999
 20
1.125
 30
0.0
 11
-3.988740199999999
 21
1.125
 31
0.0
  0
ARC
  5
18B
330
12E
100
AcDbEntity
  8
AM_4
100
AcDbCircle
 10
-4.749999999999998
 20
-0.000000000000002
 30
0.0
 40
1.125000000000002
100
AcDbArc
 50
90.0
 51
161.3530233764905
  0
LINE
  5
18C
330
12E
100
AcDbEntity
  8
AM_4
100
AcDbLine
 10
-5.815944900000002
 20
-1.256555099999999
 30
0.0
 11
-5.815944900000002
 21
0.3597033085252156
 31
0.0
  0
ARC
  5
18D
330
12E
100
AcDbEntity
  8
AM_4
100
AcDbCircle
 10
-3.988740199999999
 20
1.203740199999999
 30
0.0
 40
0.0787401999999997
100
AcDbArc
 50
270.0
 51
0.0
  0
LWPOLYLINE
  5
18E
330
12E
100
AcDbEntity
  8
AM_4
100
AcDbPolyline
 90
        8
 70
     0
 43
0.0
 10
5.875
 20
0.0000000000000001
 10
5.87499925186984
 20
0.0012974175504424
 10
5.873280253415545
 20
0.0621797815294787
 10
5.868254791393293
 20
0.123009030261775
 10
5.859765079498569
 20
0.1845120962097516
 10
5.84781818887012
 20
0.2458052566279455
 10
5.833477265198784
 20
0.3028234069509239
 10
5.815944899999999
 20
0.3597033085252239
  0
LINE
  5
18F
330
12E
100
AcDbEntity
  8
AM_4
100
AcDbLine
 10
5.5725
 20
-1.5
 30
0.0
 11
5.875
 21
-1.1975
 31
0.0
  0
ARC
  5
190
330
12E
100
AcDbEntity
  8
AM_4
100
AcDbCircle
 10
4.750000000000004
 20
0.0000000000000056
 30
0.0
 40
1.124999999999994
100
AcDbArc
 50
18.64697662350962
 51
90.0
  0
CIRCLE
  5
191
330
12E
100
AcDbEntity
  8
AM_4
100
AcDbCircle
 10
5.5
 20
-1.09375
 30
0.0
 40
0.09375
  0
LINE
  5
192
330
12E
100
AcDbEntity
  8
AM_4
100
AcDbLine
 10
4.749999999999999
 20
0.4687500000000004
 30
0.0
 11
4.25
 21
0.4687500000000002
 31
0.0
  0
ARC
  5
193
330
12E
100
AcDbEntity
  8
AM_4
100
AcDbCircle
 10
4.75
 20
0.0000000000000001
 30
0.0
 40
0.46875
100
AcDbArc
 50
270.0
 51
90.0
  0
LINE
  5
194
330
12E
100
AcDbEntity
  8
AM_4
100
AcDbLine
 10
4.25
 20
-0.4687500000000002
 30
0.0
 11
4.75
 21
-0.4687499999999999
 31
0.0
  0
ARC
  5
195
330
12E
100
AcDbEntity
  8
AM_4
100
AcDbCircle
 10
4.25
 20
0.0
 30
0.0
 40
0.4687500000000002
100
AcDbArc
 50
90.0
 51
270.0
  0
ARC
  5
196
330
12E
100
AcDbEntity
  8
AM_4
100
AcDbCircle
 10
3.988740200000001
 20
1.2037402
 30
0.0
 40
0.0787402000000004
100
AcDbArc
 50
180.0
 51
270.0
  0
LINE
  5
197
330
12E
100
AcDbEntity
  8
AM_4
100
AcDbLine
 10
5.5725
 20
-1.5
 30
0.0
 11
2.349999999999999
 21
-1.5
 31
0.0
  0
LINE
  5
198
330
12E
100
AcDbEntity
  8
AM_4
100
AcDbLine
 10
5.815944899999999
 20
-1.2565551
 30
0.0
 11
5.815944899999999
 21
0.3597033085252234
 31
0.0
  0
LINE
  5
199
330
12E
100
AcDbEntity
  8
AM_4
100
AcDbLine
 10
3.9887402
 20
1.125
 30
0.0
 11
4.75
 21
1.125
 31
0.0
  0
LWPOLYLINE
  5
19A
330
12E
100
AcDbEntity
  8
AM_4
100
AcDbPolyline
 90
        8
 70
     0
 43
0.0
 10
-3.91
 20
-1.072392185723116
 10
-3.817828665185324
 20
-1.038678457158183
 10
-3.728946415180774
 20
-0.9970597583630757
 10
-3.644029697577456
 20
-0.9478528327656836
 10
-3.563724779870444
 20
-0.8914321747817562
 10
-3.488642830972927
 20
-0.8282271796862758
 10
-3.419355269851734
 20
-0.7587188756561385
 10
-3.380580570639674
 20
-0.7139571806843645
  0
LINE
  5
19B
330
12E
100
AcDbEntity
  8
AM_4
100
AcDbLine
 10
-3.910000000000001
 20
-1.5
 30
0.0
 11
-3.91
 21
-1.072392185723116
 31
0.0
  0
LWPOLYLINE
  5
19C
330
12E
100
AcDbEntity
  8
AM_4
100
AcDbPolyline
 90
        8
 70
     0
 43
0.0
 10
-3.380580570639674
 20
0.7139571806843639
 10
-3.446114442425862
 20
0.7870152541874379
 10
-3.51776636870456
 20
0.8540836663933422
 10
-3.594991035052172
 20
0.9146519861881754
 10
-3.677200715128262
 20
0.9682592520861476
 10
-3.763769743627892
 20
1.014497480424823
 10
-3.854039277972369
 20
1.053014770367138
 10
-3.91
 20
1.072392185723115
  0
LINE
  5
19D
330
12E
100
AcDbEntity
  8
AM_4
100
AcDbLine
 10
-3.91
 20
1.072392185723115
 30
0.0
 11
-3.910000000000003
 21
1.5
 31
0.0
  0
LWPOLYLINE
  5
19E
330
12E
100
AcDbEntity
  8
AM_4
100
AcDbPolyline
 90
        8
 70
     0
 43
0.0
 10
3.91
 20
1.072392185723115
 10
3.817828665185324
 20
1.038678457158182
 10
3.728946415180774
 20
0.9970597583630756
 10
3.644029697577456
 20
0.9478528327656836
 10
3.563724779870444
 20
0.8914321747817562
 10
3.488642830972927
 20
0.8282271796862758
 10
3.419355269851734
 20
0.7587188756561385
 10
3.380580570639674
 20
0.7139571806843645
  0
LINE
  5
19F
330
12E
100
AcDbEntity
  8
AM_4
100
AcDbLine
 10
3.910000000000001
 20
1.072392185723116
 30
0.0
 11
3.91
 21
1.5
 31
0.0
  0
LWPOLYLINE
  5
1A0
330
12E
100
AcDbEntity
  8
AM_4
100
AcDbPolyline
 90
        8
 70
     0
 43
0.0
 10
3.380580570639674
 20
-0.7139571806843642
 10
3.446114442425862
 20
-0.7870152541874381
 10
3.517766368704561
 20
-0.8540836663933429
 10
3.594991035052172
 20
-0.914651986188176
 10
3.677200715128263
 20
-0.9682592520861483
 10
3.763769743627893
 20
-1.014497480424823
 10
3.854039277972369
 20
-1.053014770367139
 10
3.91
 20
-1.072392185723115
  0
LINE
  5
1A1
330
12E
100
AcDbEntity
  8
AM_4
100
AcDbLine
 10
3.91
 20
-1.5
 30
0.0
 11
3.910000000000001
 21
-1.072392185723115
 31
0.0
  0
LINE
  5
1A2
330
12E
100
AcDbEntity
  8
AM_4
100
AcDbLine
 10
2.555954875679792
 20
0.1102359999999993
 30
0.0
 11
2.542035478692135
 21
0.1102359999999993
 31
0.0
  0
LINE
  5
1A3
330
12E
100
AcDbEntity
  8
AM_4
100
AcDbLine
 10
2.542035478692135
 20
-0.110235999999999
 30
0.0
 11
2.555954875679792
 21
-0.110235999999999
 31
0.0
  0
ELLIPSE
  5
1A4
330
12E
100
AcDbEntity
  8
AM_4
100
AcDbEllipse
 10
2.542035478692135
 20
0.0000000000000001
 30
0.0
 11
6.750008227540333E-18
 21
0.1102359999999992
 31
0.0
210
0.0
220
0.0
230
1.0
 40
0.7071067811865495
 41
0.0
 42
3.141592653589793
  0
ELLIPSE
  5
1A5
330
12E
100
AcDbEntity
  8
AM_4
100
AcDbEllipse
 10
2.555954875679793
 20
0.0000000000000001
 30
0.0
 11
6.750008227540334E-18
 21
0.1102359999999992
 31
0.0
210
0.0
220
0.0
230
1.0
 40
0.7071067811865454
 41
5.685682100197714
 42
10.02104779534923
  0
LINE
  5
1A6
330
12E
100
AcDbEntity
  8
AM_4
100
AcDbLine
 10
2.449214983932267
 20
0.1818428181342339
 30
0.0
 11
2.537419487431622
 21
0.1818428181342339
 31
0.0
  0
LWPOLYLINE
  5
1A7
330
12E
100
AcDbEntity
  8
AM_4
100
AcDbPolyline
 90
        5
 70
     0
 43
0.0
 10
2.449214983932267
 20
0.1818428181342339
 10
2.418402562490343
 20
0.1594311359735598
 10
2.389457290584058
 20
0.1368193539571328
 10
2.36254699137658
 20
0.1138715522972781
 10
2.337859454477618
 20
0.090921409067117
  0
LWPOLYLINE
  5
1A8
330
12E
100
AcDbEntity
  8
AM_4
100
AcDbPolyline
 90
        5
 70
     0
 43
0.0
 10
2.337859454477618
 20
-0.0909214090671165
 10
2.361944218606783
 20
-0.1133330912277905
 10
2.388386274815785
 20
-0.1359448732442176
 10
2.417686380393544
 20
-0.1588926749040721
 10
2.449214983932267
 20
-0.1818428181342335
  0
LINE
  5
1A9
330
12E
100
AcDbEntity
  8
AM_4
100
AcDbLine
 10
2.449214983932267
 20
-0.1818428181342335
 30
0.0
 11
2.537419487431622
 21
-0.1818428181342335
 31
0.0
  0
LINE
  5
1AA
330
12E
100
AcDbEntity
  8
AM_4
100
AcDbLine
 10
2.337859454477618
 20
0.090921409067117
 30
0.0
 11
2.426063957976973
 21
0.090921409067117
 31
0.0
  0
LWPOLYLINE
  5
1AB
330
12E
100
AcDbEntity
  8
AM_4
100
AcDbPolyline
 90
        5
 70
     0
 43
0.0
 10
2.337859454477618
 20
0.090921409067117
 10
2.334495625821239
 20
0.0460980447457689
 10
2.333244017972598
 20
0.0008744807129148
 10
2.334438921157738
 20
-0.0450211226067937
 10
2.337859454477618
 20
-0.0909214090671165
  0
LINE
  5
1AC
330
12E
100
AcDbEntity
  8
AM_4
100
AcDbLine
 10
2.337859454477618
 20
-0.0909214090671165
 30
0.0
 11
2.426063957976973
 21
-0.0909214090671167
 31
0.0
  0
LWPOLYLINE
  5
1AD
330
12E
100
AcDbEntity
  8
AM_4
100
AcDbPolyline
 90
        5
 70
     0
 43
0.0
 10
2.63348741101655
 20
-0.1053486758122224
 10
2.624690252757105
 20
-0.1133330912277909
 10
2.598248196548103
 20
-0.1359448732442178
 10
2.568948090970344
 20
-0.1588926749040721
 10
2.537419487431622
 20
-0.1818428181342335
  0
LWPOLYLINE
  5
1AE
330
12E
100
AcDbEntity
  8
AM_4
100
AcDbPolyline
 90
        5
 70
     0
 43
0.0
 10
2.537419487431622
 20
0.1818428181342339
 10
2.568231908873544
 20
0.1594311359735597
 10
2.597177180779829
 20
0.1368193539571328
 10
2.624087479987307
 20
0.1138715522972786
 10
2.63341093388827
 20
0.1054191009470249
  0
LWPOLYLINE
  5
1AF
330
12E
100
AcDbEntity
  8
AM_4
100
AcDbPolyline
 90
        5
 70
     0
 43
0.0
 10
2.426063957976973
 20
0.090921409067117
 10
2.456876379418897
 20
0.1133330912277914
 10
2.485821651325181
 20
0.1359448732442183
 10
2.512731950532659
 20
0.1588926749040727
 10
2.537419487431622
 20
0.1818428181342339
  0
LWPOLYLINE
  5
1B0
330
12E
100
AcDbEntity
  8
AM_4
100
AcDbPolyline
 90
        5
 70
     0
 43
0.0
 10
2.426063957976973
 20
-0.0909214090671167
 10
2.429427786633352
 20
-0.0460980447457686
 10
2.430679394481994
 20
-0.0008744807129144
 10
2.429484491296853
 20
0.0450211226067942
 10
2.426063957976973
 20
0.090921409067117
  0
LWPOLYLINE
  5
1B1
330
12E
100
AcDbEntity
  8
AM_4
100
AcDbPolyline
 90
        5
 70
     0
 43
0.0
 10
2.537419487431622
 20
-0.1818428181342335
 10
2.513334723302457
 20
-0.1594311359735597
 10
2.486892667093455
 20
-0.1368193539571329
 10
2.457592561515697
 20
-0.1138715522972786
 10
2.426063957976973
 20
-0.0909214090671167
  0
ELLIPSE
  5
1B2
330
12E
100
AcDbEntity
  8
AM_4
100
AcDbEllipse
 10
2.542035478692135
 20
-0.0000000000000007
 30
0.0
 11
9.642868896486319E-18
 21
0.157480000000001
 31
0.0
210
0.0
220
0.0
230
1.0
 40
0.7071067811865497
 41
5.438447250934521
 42
10.2708936825467
  0
LWPOLYLINE
  5
1B3
330
12E
100
AcDbEntity
  8
AM_4
100
AcDbPolyline
 90
        3
 70
     0
 43
0.0
 10
2.578571716245107
 20
0.0671775843362101
 10
2.578614298330229
 20
0.0672462884343798
 10
2.580020835099787
 20
0.0694329965329721
  0
ELLIPSE
  5
1B4
330
12E
100
AcDbEntity
  8
AM_4
100
AcDbEllipse
 10
2.633037075554936
 20
0.0000000000000003
 30
0.0
 11
6.258280025835684E-18
 21
0.1022054690412443
 31
0.0
210
0.0
220
0.0
230
1.0
 40
0.7071067811865369
 41
0.6673290302669717
 42
2.503474204137941
  0
LWPOLYLINE
  5
1B5
330
12E
100
AcDbEntity
  8
AM_4
100
AcDbPolyline
 90
       10
 70
     0
 43
0.0
 10
2.678183046559103
 20
0.0948346433106734
 10
2.673321700181604
 20
0.0977822018423499
 10
2.661217578269618
 20
0.1030608873889475
 10
2.648756826103344
 20
0.1057900452940067
 10
2.636300794065081
 20
0.1060030196729704
 10
2.62413170291499
 20
0.1038001423167795
 10
2.612501933912528
 20
0.0993090782555744
 10
2.601580863640942
 20
0.0926399023660601
 10
2.591538474188021
 20
0.0838901093153766
 10
2.588930040448827
 20
0.0811051799706903
  0
LINE
  5
1B6
330
12E
100
AcDbEntity
  8
AM_4
100
AcDbLine
 10
2.680350257057814
 20
0.0933491689002458
 30
0.0
 11
2.678183046559103
 21
0.0948346433106734
 31
0.0
  0
LWPOLYLINE
  5
1B7
330
12E
100
AcDbEntity
  8
AM_4
100
AcDbPolyline
 90
        3
 70
     0
 43
0.0
 10
2.689616194984247
 20
0.0856359954857957
 10
2.68466552401103
 20
0.0900479519375879
 10
2.680350257057814
 20
0.0933491689002458
  0
LWPOLYLINE
  5
1B8
330
12E
100
AcDbEntity
  8
AM_4
100
AcDbPolyline
 90
       11
 70
     0
 43
0.0
 10
2.590828161632597
 20
-0.0831553852787839
 10
2.592487481336691
 20
-0.0848453478579529
 10
2.603252154135492
 20
-0.0938343331429383
 10
2.614989220781328
 20
-0.100480251125964
 10
2.627303419958402
 20
-0.10461002651769
 10
2.63980226918684
 20
-0.1061926211594998
 10
2.652158882895929
 20
-0.1053001373920577
 10
2.664108835057765
 20
-0.1020484880700341
 10
2.675438372301401
 20
-0.0965619783884959
 10
2.685985406677573
 20
-0.088940550672006
 10
2.688143752286364
 20
-0.0870234838301132
  0
LINE
  5
1B9
330
12E
100
AcDbEntity
  8
AM_4
100
AcDbLine
 10
2.718567224258345
 20
0.060521907145155
 30
0.0
 11
2.686518642056834
 21
0.0884794128974533
 31
0.0
  0
LINE
  5
1BA
330
12E
100
AcDbEntity
  8
AM_4
100
AcDbLine
 10
2.686518642056834
 20
-0.088479412897453
 30
0.0
 11
2.718567224258345
 21
-0.0605219071451547
 31
0.0
  0
ELLIPSE
  5
1BB
330
12E
100
AcDbEntity
  8
AM_4
100
AcDbEllipse
 10
2.647926237570726
 20
-0.0000000000000603
 30
0.0
 11
6.365617546292536E-18
 21
0.1039584237794036
 31
0.0
210
0.0
220
0.0
230
1.0
 40
0.7071067811873917
 41
5.73047325305113
 42
9.977490014898448
  0
ELLIPSE
  5
1BC
330
12E
100
AcDbEntity
  8
AM_4
100
AcDbEllipse
 10
2.692169152160932
 20
0.0000000000000002
 30
0.0
 11
4.354225479598875E-18
 21
0.07110989850511112
 31
0.0
210
0.0
220
0.0
230
1.0
 40
0.7071067811865414
 41
5.730473253052716
 42
9.977490014896249
  0
ELLIPSE
  5
1BD
330
12E
100
AcDbEntity
  8
AM_4
100
AcDbEllipse
 10
2.692169152160956
 20
0.0000000000000259
 30
0.0
 11
4.354225479596776E-18
 21
0.07110989850507685
 31
0.0
210
0.0
220
0.0
230
1.0
 40
0.7071067811865013
 41
5.365941308178629
 42
5.730473253052899
  0
ELLIPSE
  5
1BE
330
12E
100
AcDbEntity
  8
AM_4
100
AcDbEllipse
 10
2.695148845556364
 20
0.0000000000000002
 30
0.0
 11
-1.178200542891313E-17
 21
-0.06413825024007586
 31
0.0
210
0.0
220
0.0
230
1.0
 40
0.7071067811865481
 41
0.0
 42
6.283185307179586
  0
ELLIPSE
  5
1BF
330
12E
100
AcDbEntity
  8
AM_4
100
AcDbEllipse
 10
2.692169152160936
 20
0.0000000000000003
 30
0.0
 11
4.354225479598913E-18
 21
0.07110989850511175
 31
0.0
210
0.0
220
0.0
230
1.0
 40
0.7071067811865039
 41
3.694304707716624
 42
4.71238898038469
  0
LWPOLYLINE
  5
1C0
330
12E
100
AcDbEntity
  8
AM_4
100
AcDbPolyline
 90
        5
 70
     0
 43
0.0
 10
2.742807684297364
 20
0.0000000000000002
 10
2.742552365229986
 20
0.0070861233536859
 10
2.740713396522584
 20
0.020111977143929
 10
2.737136875730334
 20
0.0325029297732269
 10
2.73251318188011
 20
0.042743650749926
  0
LINE
  5
1C1
330
12E
100
AcDbEntity
  8
AM_4
100
AcDbLine
 10
-2.349999999999999
 20
1.5
 30
0.0
 11
-2.349999999999998
 21
1.2800001
 31
0.0
  0
LINE
  5
1C2
330
12E
100
AcDbEntity
  8
AM_4
100
AcDbLine
 10
2.35
 20
1.2800001
 30
0.0
 11
2.35
 21
1.5
 31
0.0
  0
LINE
  5
1C3
330
12E
100
AcDbEntity
  8
AM_4
100
AcDbLine
 10
-2.349999999999998
 20
1.2800001
 30
0.0
 11
2.35
 21
1.2800001
 31
0.0
  0
LINE
  5
1C4
330
12E
100
AcDbEntity
  8
AM_4
100
AcDbLine
 10
2.349999999999999
 20
-1.5
 30
0.0
 11
2.349999999999997
 21
-1.2800001
 31
0.0
  0
LINE
  5
1C5
330
12E
100
AcDbEntity
  8
AM_4
100
AcDbLine
 10
-2.35
 20
-1.280000100000001
 30
0.0
 11
-2.35
 21
-1.5
 31
0.0
  0
LINE
  5
1C6
330
12E
100
AcDbEntity
  8
AM_4
100
AcDbLine
 10
-2.25
 20
-1.2800001
 30
0.0
 11
-2.35
 21
-1.280000100000001
 31
0.0
  0
LINE
  5
1C7
330
12E
100
AcDbEntity
  8
AM_4
100
AcDbLine
 10
2.349999999999997
 20
-1.2800001
 30
0.0
 11
2.245482965867254
 21
-1.2800001
 31
0.0
  0
LWPOLYLINE
  5
1C8
330
12E
100
AcDbEntity
  8
AM_4
100
AcDbPolyline
 90
       37
 70
     0
 43
0.0
 10
-2.7559
 20
1.302197406593407
 10
-2.745412968471042
 20
1.28108153918037
 10
-2.714031686526345
 20
1.260126376268456
 10
-2.661994984670045
 20
1.239491399300497
 10
-2.589698893623886
 20
1.21933365291096
 10
-2.497693630294305
 20
1.199806549721449
 10
-2.386679410289536
 20
1.181058702778023
 10
-2.257501118856034
 20
1.163232794516181
 10
-2.111141880791593
 20
1.146464490861374
 10
-1.948715578272009
 20
1.130881408729393
 10
-1.771458373535136
 20
1.116602144784585
 10
-1.580719300939851
 20
1.103735372847626
 10
-1.377950000000003
 20
1.092379016822124
 10
-1.164693667531197
 20
1.082619505434589
 10
-0.9425733129912146
 20
1.074531114459634
 10
-0.7132794063980413
 20
1.068175401436483
 10
-0.4785570128322981
 20
1.063600737178927
 10
-0.2401925114382762
 20
1.060841937644223
 10
-0.0000000000000052
 20
1.059919998962638
 10
0.2401925114382658
 20
1.060841937644223
 10
0.4785570128322877
 20
1.063600737178927
 10
0.7132794063980312
 20
1.068175401436483
 10
0.9425733129912046
 20
1.074531114459634
 10
1.164693667531188
 20
1.082619505434588
 10
1.377949999999994
 20
1.092379016822123
 10
1.580719300939842
 20
1.103735372847625
 10
1.771458373535128
 20
1.116602144784585
 10
1.948715578272002
 20
1.130881408729393
 10
2.111141880791587
 20
1.146464490861373
 10
2.257501118856028
 20
1.16323279451618
 10
2.38667941028953
 20
1.181058702778022
 10
2.4976936302943
 20
1.199806549721448
 10
2.589698893623882
 20
1.219333652910959
 10
2.661994984670041
 20
1.239491399300497
 10
2.714031686526343
 20
1.260126376268455
 10
2.745412968471041
 20
1.281081539180369
 10
2.7559
 20
1.302197406593406
  0
LWPOLYLINE
  5
1C9
330
12E
100
AcDbEntity
  8
AM_4
100
AcDbPolyline
 90
        8
 70
     0
 43
0.0
 10
2.7559
 20
1.302197406593407
 10
2.745412968471042
 20
1.323313274006444
 10
2.714031686526345
 20
1.344268436918358
 10
2.661994984670045
 20
1.364903413886317
 10
2.589698893623886
 20
1.385061160275854
 10
2.497693630294305
 20
1.404588263465365
 10
2.386679410289536
 20
1.423336110408791
 10
2.35
 20
1.42875702051864
  0
LWPOLYLINE
  5
1CA
330
12E
100
AcDbEntity
  8
AM_4
100
AcDbPolyline
 90
       37
 70
     0
 43
0.0
 10
2.7559
 20
-1.302197406593407
 10
2.745412968471041
 20
-1.28108153918037
 10
2.714031686526344
 20
-1.260126376268456
 10
2.661994984670044
 20
-1.239491399300497
 10
2.589698893623885
 20
-1.21933365291096
 10
2.497693630294304
 20
-1.199806549721448
 10
2.386679410289535
 20
-1.181058702778022
 10
2.257501118856034
 20
-1.16323279451618
 10
2.111141880791593
 20
-1.146464490861373
 10
1.948715578272009
 20
-1.130881408729393
 10
1.771458373535136
 20
-1.116602144784585
 10
1.580719300939851
 20
-1.103735372847625
 10
1.377950000000003
 20
-1.092379016822123
 10
1.164693667531197
 20
-1.082619505434588
 10
0.9425733129912146
 20
-1.074531114459633
 10
0.7132794063980415
 20
-1.068175401436483
 10
0.4785570128322983
 20
-1.063600737178926
 10
0.2401925114382764
 20
-1.060841937644222
 10
0.0000000000000056
 20
-1.059919998962637
 10
-0.2401925114382653
 20
-1.060841937644222
 10
-0.4785570128322874
 20
-1.063600737178926
 10
-0.7132794063980307
 20
-1.068175401436482
 10
-0.9425733129912042
 20
-1.074531114459633
 10
-1.164693667531187
 20
-1.082619505434588
 10
-1.377949999999994
 20
-1.092379016822122
 10
-1.580719300939842
 20
-1.103735372847624
 10
-1.771458373535127
 20
-1.116602144784584
 10
-1.948715578272001
 20
-1.130881408729392
 10
-2.111141880791586
 20
-1.146464490861373
 10
-2.257501118856028
 20
-1.16323279451618
 10
-2.38667941028953
 20
-1.181058702778021
 10
-2.4976936302943
 20
-1.199806549721447
 10
-2.589698893623882
 20
-1.219333652910959
 10
-2.661994984670041
 20
-1.239491399300496
 10
-2.714031686526342
 20
-1.260126376268454
 10
-2.745412968471041
 20
-1.281081539180369
 10
-2.7559
 20
-1.302197406593406
  0
LWPOLYLINE
  5
1CB
330
12E
100
AcDbEntity
  8
AM_4
100
AcDbPolyline
 90
        8
 70
     0
 43
0.0
 10
-2.7559
 20
-1.302197406593407
 10
-2.745412968471041
 20
-1.323313274006443
 10
-2.714031686526344
 20
-1.344268436918358
 10
-2.661994984670044
 20
-1.364903413886317
 10
-2.589698893623885
 20
-1.385061160275854
 10
-2.497693630294304
 20
-1.404588263465365
 10
-2.386679410289535
 20
-1.423336110408791
 10
-2.35
 20
-1.42875702051864
  0
LINE
  5
1CC
330
12E
100
AcDbEntity
  8
AM_4
100
AcDbLine
 10
-0.243339895183
 20
0.0218509000000002
 30
0.0
 11
-0.243339895183
 21
-0.0218508779411998
 31
0.0
  0
LINE
  5
1CD
330
12E
100
AcDbEntity
  8
AM_4
100
AcDbLine
 10
-0.2433398951830001
 20
-0.0218508779411999
 30
0.0
 11
-0.2464009204580001
 21
-0.0335047031319001
 31
0.0
  0
LINE
  5
1CE
330
12E
100
AcDbEntity
  8
AM_4
100
AcDbLine
 10
-0.3290446658729999
 20
-0.0509854606029997
 30
0.0
 11
-0.3290446658729999
 21
0.0509854000000003
 31
0.0
  0
LINE
  5
1CF
330
12E
100
AcDbEntity
  8
AM_4
100
AcDbLine
 10
-0.273948573129
 20
-0.0509854606029997
 30
0.0
 11
-0.3290446658729999
 21
-0.0509854606029997
 31
0.0
  0
LINE
  5
1D0
330
12E
100
AcDbEntity
  8
AM_4
100
AcDbLine
 10
-0.261705259431
 20
-0.0480720732029997
 30
0.0
 11
-0.2739485731290001
 21
-0.0509854606029997
 31
0.0
  0
LINE
  5
1D1
330
12E
100
AcDbEntity
  8
AM_4
100
AcDbLine
 10
-0.252522577307
 20
-0.0422449047019999
 30
0.0
 11
-0.261705259431
 21
-0.0480720732029999
 31
0.0
  0
LINE
  5
1D2
330
12E
100
AcDbEntity
  8
AM_4
100
AcDbLine
 10
-0.2464009204580001
 20
-0.0335047031319
 30
0.0
 11
-0.252522577307
 21
-0.0422449047019998
 31
0.0
  0
LINE
  5
1D3
330
12E
100
AcDbEntity
  8
AM_4
100
AcDbLine
 10
-0.2464009204579999
 20
0.0335047
 30
0.0
 11
-0.2433398951829998
 21
0.0218508999999998
 31
0.0
  0
LINE
  5
1D4
330
12E
100
AcDbEntity
  8
AM_4
100
AcDbLine
 10
-0.2525225773070003
 20
0.0422449000000007
 30
0.0
 11
-0.2464009204579998
 21
0.0335046999999998
 31
0.0
  0
LINE
  5
1D5
330
12E
100
AcDbEntity
  8
AM_4
100
AcDbLine
 10
-0.2617052594310004
 20
0.0480720000000004
 30
0.0
 11
-0.2525225773070004
 21
0.0422449000000004
 31
0.0
  0
LINE
  5
1D6
330
12E
100
AcDbEntity
  8
AM_4
100
AcDbLine
 10
-0.2739485731289997
 20
0.0509854000000003
 30
0.0
 11
-0.2617052594309996
 21
0.0480720000000003
 31
0.0
  0
LINE
  5
1D7
330
12E
100
AcDbEntity
  8
AM_4
100
AcDbLine
 10
-0.3290446658729999
 20
0.0509854000000003
 30
0.0
 11
-0.273948573129
 21
0.0509854000000002
 31
0.0
  0
LINE
  5
1D8
330
12E
100
AcDbEntity
  8
AM_4
100
AcDbLine
 10
-0.1821221455900014
 20
0.0218508999999944
 30
0.0
 11
-0.179061514016001
 21
0.033504699999996
 31
0.0
  0
LINE
  5
1D9
330
12E
100
AcDbEntity
  8
AM_4
100
AcDbLine
 10
-0.18212214559
 20
-0.0218508779411996
 30
0.0
 11
-0.18212214559
 21
0.0218509000000002
 31
0.0
  0
LINE
  5
1DA
330
12E
100
AcDbEntity
  8
AM_4
100
AcDbLine
 10
-0.1790615140159997
 20
-0.0335047031319009
 30
0.0
 11
-0.1821221455900002
 21
-0.0218508779411992
 31
0.0
  0
LINE
  5
1DB
330
12E
100
AcDbEntity
  8
AM_4
100
AcDbLine
 10
-0.1729394634659989
 20
-0.0422449047020015
 30
0.0
 11
-0.1790615140159997
 21
-0.0335047031319002
 31
0.0
  0
LINE
  5
1DC
330
12E
100
AcDbEntity
  8
AM_4
100
AcDbLine
 10
-0.1637571750429998
 20
-0.0480720732030003
 30
0.0
 11
-0.1729394634659989
 21
-0.0422449047020009
 31
0.0
  0
LINE
  5
1DD
330
12E
100
AcDbEntity
  8
AM_4
100
AcDbLine
 10
-0.1515134676440009
 20
-0.0509854606029993
 30
0.0
 11
-0.1637571750429998
 21
-0.0480720732029996
 31
0.0
  0
LINE
  5
1DE
330
12E
100
AcDbEntity
  8
AM_4
100
AcDbLine
 10
-0.127026446547
 20
-0.0509854606029997
 30
0.0
 11
-0.151513467644
 21
-0.0509854606029998
 31
0.0
  0
LINE
  5
1DF
330
12E
100
AcDbEntity
  8
AM_4
100
AcDbLine
 10
-0.1147831328490004
 20
-0.0480720732029998
 30
0.0
 11
-0.1270264465469998
 21
-0.0509854606029996
 31
0.0
  0
LINE
  5
1E0
330
12E
100
AcDbEntity
  8
AM_4
100
AcDbLine
 10
-0.1056004507249998
 20
-0.0422449047019996
 30
0.0
 11
-0.1147831328489996
 21
-0.0480720732029995
 31
0.0
  0
LINE
  5
1E1
330
12E
100
AcDbEntity
  8
AM_4
100
AcDbLine
 10
-0.0994784001749996
 20
-0.0335047031318994
 30
0.0
 11
-0.1056004507249998
 21
-0.0422449047019997
 31
0.0
  0
LINE
  5
1E2
330
12E
100
AcDbEntity
  8
AM_4
100
AcDbLine
 10
-0.0964177686009998
 20
-0.0218508779411992
 30
0.0
 11
-0.0994784001750003
 21
-0.0335047031319013
 31
0.0
  0
LINE
  5
1E3
330
12E
100
AcDbEntity
  8
AM_4
100
AcDbLine
 10
-0.096417768601
 20
0.0218509000000002
 30
0.0
 11
-0.096417768601
 21
-0.0218508779411998
 31
0.0
  0
LINE
  5
1E4
330
12E
100
AcDbEntity
  8
AM_4
100
AcDbLine
 10
-0.099478400175
 20
0.0335047000000005
 30
0.0
 11
-0.0964177686010002
 21
0.0218509000000013
 31
0.0
  0
LINE
  5
1E5
330
12E
100
AcDbEntity
  8
AM_4
100
AcDbLine
 10
-0.1056004507250002
 20
0.0422449000000004
 30
0.0
 11
-0.099478400175
 21
0.0335047000000001
 31
0.0
  0
LINE
  5
1E6
330
12E
100
AcDbEntity
  8
AM_4
100
AcDbLine
 10
-0.1147831328490001
 20
0.048072
 30
0.0
 11
-0.1056004507250002
 21
0.0422449000000001
 31
0.0
  0
LINE
  5
1E7
330
12E
100
AcDbEntity
  8
AM_4
100
AcDbLine
 10
-0.1270264465470002
 20
0.0509854000000003
 30
0.0
 11
-0.1147831328490001
 21
0.0480720000000003
 31
0.0
  0
LINE
  5
1E8
330
12E
100
AcDbEntity
  8
AM_4
100
AcDbLine
 10
-0.151513467644
 20
0.0509854000000003
 30
0.0
 11
-0.127026446547
 21
0.0509854000000002
 31
0.0
  0
LINE
  5
1E9
330
12E
100
AcDbEntity
  8
AM_4
100
AcDbLine
 10
-0.1637571750430011
 20
0.0480719999999999
 30
0.0
 11
-0.1515134676440021
 21
0.0509853999999996
 31
0.0
  0
LINE
  5
1EA
330
12E
100
AcDbEntity
  8
AM_4
100
AcDbLine
 10
-0.1729394634660001
 20
0.0422449000000002
 30
0.0
 11
-0.1637571750430011
 21
0.0480719999999996
 31
0.0
  0
LINE
  5
1EB
330
12E
100
AcDbEntity
  8
AM_4
100
AcDbLine
 10
-0.179061514016001
 20
0.0335046999999987
 30
0.0
 11
-0.1729394634660001
 21
0.0422449
 31
0.0
  0
LINE
  5
1EC
330
12E
100
AcDbEntity
  8
AM_4
100
AcDbLine
 10
3.380580570639674
 20
1.24743143503673
 30
0.0
 11
3.91
 21
1.5
 31
0.0
  0
LWPOLYLINE
  5
1ED
330
12E
100
AcDbEntity
  8
AM_4
100
AcDbPolyline
 90
        8
 70
     0
 43
0.0
 10
-2.35
 20
1.42875702051864
 10
-2.46652805719575
 20
1.410269585168241
 10
-2.564284346545881
 20
1.390959655283123
 10
-2.642524883661575
 20
1.370974191089365
 10
-2.700654210812456
 20
1.350465294037034
 10
-2.738229928719455
 20
1.32958904921631
 10
-2.754966063480464
 20
1.3085043374557
 10
-2.7559
 20
1.302197406593407
  0
LINE
  5
1EE
330
12E
100
AcDbEntity
  8
AM_4
100
AcDbLine
 10
-3.910000000000003
 20
1.5
 30
0.0
 11
-3.380580570639674
 21
1.24743143503673
 31
0.0
  0
LINE
  5
1EF
330
12E
100
AcDbEntity
  8
AM_4
100
AcDbLine
 10
0.0198957
 20
-0.0509854606029997
 30
0.0
 11
-0.0352000977482
 21
-0.0509854606029997
 31
0.0
  0
LINE
  5
1F0
330
12E
100
AcDbEntity
  8
AM_4
100
AcDbLine
 10
0.0321392
 20
-0.0480720732029999
 30
0.0
 11
0.0198956999999998
 21
-0.0509854606029999
 31
0.0
  0
LINE
  5
1F1
330
12E
100
AcDbEntity
  8
AM_4
100
AcDbLine
 10
0.0413217000000003
 20
-0.0422449047019995
 30
0.0
 11
0.0321392
 21
-0.0480720732029997
 31
0.0
  0
LINE
  5
1F2
330
12E
100
AcDbEntity
  8
AM_4
100
AcDbLine
 10
0.0474437000000003
 20
-0.0335047031318995
 30
0.0
 11
0.0413217000000003
 21
-0.0422449047019994
 31
0.0
  0
LINE
  5
1F3
330
12E
100
AcDbEntity
  8
AM_4
100
AcDbLine
 10
0.0505042999999999
 20
-0.0218508779412002
 30
0.0
 11
0.0474437000000002
 21
-0.0335047031318987
 31
0.0
  0
LINE
  5
1F4
330
12E
100
AcDbEntity
  8
AM_4
100
AcDbLine
 10
0.0505043
 20
0.0218509000000002
 30
0.0
 11
0.0505043
 21
-0.0218508779411998
 31
0.0
  0
LINE
  5
1F5
330
12E
100
AcDbEntity
  8
AM_4
100
AcDbLine
 10
0.0474436999999998
 20
0.0335047000000008
 30
0.0
 11
0.0505043000000002
 21
0.0218508999999994
 31
0.0
  0
LINE
  5
1F6
330
12E
100
AcDbEntity
  8
AM_4
100
AcDbLine
 10
0.0413216999999999
 20
0.0422449000000003
 30
0.0
 11
0.0474436999999998
 21
0.0335047000000004
 31
0.0
  0
LINE
  5
1F7
330
12E
100
AcDbEntity
  8
AM_4
100
AcDbLine
 10
0.0321392000000004
 20
0.0480720000000001
 30
0.0
 11
0.0413216999999999
 21
0.0422449000000004
 31
0.0
  0
LINE
  5
1F8
330
12E
100
AcDbEntity
  8
AM_4
100
AcDbLine
 10
0.0198957000000002
 20
0.0509854000000004
 30
0.0
 11
0.0321392000000004
 21
0.0480720000000003
 31
0.0
  0
LINE
  5
1F9
330
12E
100
AcDbEntity
  8
AM_4
100
AcDbLine
 10
-0.0352000977482
 20
0.0509854000000003
 30
0.0
 11
0.0198957
 21
0.0509854000000002
 31
0.0
  0
LINE
  5
1FA
330
12E
100
AcDbEntity
  8
AM_4
100
AcDbLine
 10
-0.0352000977482
 20
-0.0509854606029997
 30
0.0
 11
-0.0352000977482
 21
0.0509854000000003
 31
0.0
  0
LINE
  5
1FB
330
12E
100
AcDbEntity
  8
AM_4
100
AcDbLine
 10
3.91
 20
-1.5
 30
0.0
 11
3.380580570639674
 21
-1.24743143503673
 31
0.0
  0
LINE
  5
1FC
330
12E
100
AcDbEntity
  8
AM_4
100
AcDbLine
 10
-3.380580570639675
 20
-1.24743143503673
 30
0.0
 11
-3.910000000000001
 21
-1.5
 31
0.0
  0
LWPOLYLINE
  5
1FD
330
12E
100
AcDbEntity
  8
AM_4
100
AcDbPolyline
 90
        8
 70
     0
 43
0.0
 10
2.349999999999997
 20
-1.42875702051864
 10
2.466528057195749
 20
-1.410269585168241
 10
2.56428434654588
 20
-1.390959655283123
 10
2.642524883661574
 20
-1.370974191089364
 10
2.700654210812454
 20
-1.350465294037034
 10
2.738229928719454
 20
-1.32958904921631
 10
2.754966063480463
 20
-1.3085043374557
 10
2.7559
 20
-1.302197406593407
  0
LINE
  5
1FE
330
12E
100
AcDbEntity
  8
AM_4
100
AcDbLine
 10
0.347409
 20
-0.0684661787039998
 30
0.0
 11
0.237218
 21
-0.0684661787039999
 31
0.0
  0
LINE
  5
1FF
330
12E
100
AcDbEntity
  8
AM_4
100
AcDbLine
 10
0.237218
 20
-0.0684661787039999
 30
0.0
 11
0.237218
 21
0.0684661000000002
 31
0.0
  0
LINE
  5
200
330
12E
100
AcDbEntity
  8
AM_4
100
AcDbLine
 10
0.237218
 20
0.0684661000000002
 30
0.0
 11
0.347409
 21
0.0684661000000002
 31
0.0
  0
LINE
  5
201
330
12E
100
AcDbEntity
  8
AM_4
100
AcDbLine
 10
0.347409
 20
0.0684661000000002
 30
0.0
 11
0.347409
 21
0.0509854000000002
 31
0.0
  0
LINE
  5
202
330
12E
100
AcDbEntity
  8
AM_4
100
AcDbLine
 10
0.347409
 20
0.0509854000000002
 30
0.0
 11
0.255583
 21
0.0509854000000003
 31
0.0
  0
LINE
  5
203
330
12E
100
AcDbEntity
  8
AM_4
100
AcDbLine
 10
0.255583
 20
0.0509854000000003
 30
0.0
 11
0.255583
 21
0.0131105000000002
 31
0.0
  0
LINE
  5
204
330
12E
100
AcDbEntity
  8
AM_4
100
AcDbLine
 10
0.255583
 20
0.0131105000000002
 30
0.0
 11
0.335166
 21
0.0131105000000002
 31
0.0
  0
LINE
  5
205
330
12E
100
AcDbEntity
  8
AM_4
100
AcDbLine
 10
0.335166
 20
0.0131105000000002
 30
0.0
 11
0.335166
 21
-0.0043701598401998
 31
0.0
  0
LINE
  5
206
330
12E
100
AcDbEntity
  8
AM_4
100
AcDbLine
 10
0.335166
 20
-0.0043701598401998
 30
0.0
 11
0.255583
 21
-0.0043701598401997
 31
0.0
  0
LINE
  5
207
330
12E
100
AcDbEntity
  8
AM_4
100
AcDbLine
 10
0.255583
 20
-0.0043701598401997
 30
0.0
 11
0.255583
 21
-0.0509854606029998
 31
0.0
  0
LINE
  5
208
330
12E
100
AcDbEntity
  8
AM_4
100
AcDbLine
 10
0.255583
 20
-0.0509854606029998
 30
0.0
 11
0.347409
 21
-0.0509854606029997
 31
0.0
  0
LINE
  5
209
330
12E
100
AcDbEntity
  8
AM_4
100
AcDbLine
 10
0.347409
 20
-0.0509854606029997
 30
0.0
 11
0.347409
 21
-0.0684661787039998
 31
0.0
  0
LINE
  5
20A
330
12E
100
AcDbEntity
  8
AM_4
100
AcDbLine
 10
0.0933567
 20
-0.0218508779411998
 30
0.0
 11
0.0933567
 21
0.0218509000000002
 31
0.0
  0
LINE
  5
20B
330
12E
100
AcDbEntity
  8
AM_4
100
AcDbLine
 10
0.0933566999999985
 20
0.0218508999999929
 30
0.0
 11
0.0964177
 21
0.0364181000000001
 31
0.0
  0
LINE
  5
20C
330
12E
100
AcDbEntity
  8
AM_4
100
AcDbLine
 10
0.0964177
 20
0.0364181000000003
 30
0.0
 11
0.102539000000001
 21
0.0480720000000021
 31
0.0
  0
LINE
  5
20D
330
12E
100
AcDbEntity
  8
AM_4
100
AcDbLine
 10
0.102539000000001
 20
0.0480720000000013
 30
0.0
 11
0.114782999999999
 21
0.0597255999999994
 31
0.0
  0
LINE
  5
20E
330
12E
100
AcDbEntity
  8
AM_4
100
AcDbLine
 10
0.114782999999999
 20
0.0597255999999997
 30
0.0
 11
0.1270259999999979
 21
0.0655527999999991
 31
0.0
  0
LINE
  5
20F
330
12E
100
AcDbEntity
  8
AM_4
100
AcDbLine
 10
0.1270259999999979
 20
0.0655527999999997
 30
0.0
 11
0.1423309999999993
 21
0.0684661
 31
0.0
  0
LINE
  5
210
330
12E
100
AcDbEntity
  8
AM_4
100
AcDbLine
 10
0.142331
 20
0.0684661000000002
 30
0.0
 11
0.169879
 21
0.0684661000000002
 31
0.0
  0
LINE
  5
211
330
12E
100
AcDbEntity
  8
AM_4
100
AcDbLine
 10
0.1698790000000001
 20
0.0684661000000003
 30
0.0
 11
0.1851830000000002
 21
0.0655528000000003
 31
0.0
  0
LINE
  5
212
330
12E
100
AcDbEntity
  8
AM_4
100
AcDbLine
 10
0.1851830000000002
 20
0.0655528000000003
 30
0.0
 11
0.1974270000000003
 21
0.0597256000000003
 31
0.0
  0
LINE
  5
213
330
12E
100
AcDbEntity
  8
AM_4
100
AcDbLine
 10
0.1974270000000003
 20
0.0597255999999999
 30
0.0
 11
0.2096700000000003
 21
0.0480719999999999
 31
0.0
  0
LINE
  5
214
330
12E
100
AcDbEntity
  8
AM_4
100
AcDbLine
 10
0.2096699999999996
 20
0.0480720000000016
 30
0.0
 11
0.2127309999999999
 21
0.0335047000000001
 31
0.0
  0
LINE
  5
215
330
12E
100
AcDbEntity
  8
AM_4
100
AcDbLine
 10
0.212731
 20
0.0335047000000002
 30
0.0
 11
0.194366
 21
0.0335047000000001
 31
0.0
  0
LINE
  5
216
330
12E
100
AcDbEntity
  8
AM_4
100
AcDbLine
 10
0.1943660000000013
 20
0.0335046999999964
 30
0.0
 11
0.1913049999999996
 21
0.0422449000000015
 31
0.0
  0
LINE
  5
217
330
12E
100
AcDbEntity
  8
AM_4
100
AcDbLine
 10
0.1913049999999996
 20
0.0422449000000008
 30
0.0
 11
0.1821220000000004
 21
0.0480720000000003
 31
0.0
  0
LINE
  5
218
330
12E
100
AcDbEntity
  8
AM_4
100
AcDbLine
 10
0.1821220000000004
 20
0.0480720000000002
 30
0.0
 11
0.1698790000000024
 21
0.0509853999999998
 31
0.0
  0
LINE
  5
219
330
12E
100
AcDbEntity
  8
AM_4
100
AcDbLine
 10
0.169879
 20
0.0509854000000002
 30
0.0
 11
0.142331
 21
0.0509854000000003
 31
0.0
  0
LINE
  5
21A
330
12E
100
AcDbEntity
  8
AM_4
100
AcDbLine
 10
0.1423310000000001
 20
0.0509854000000002
 30
0.0
 11
0.1300870000000002
 21
0.0480720000000002
 31
0.0
  0
LINE
  5
21B
330
12E
100
AcDbEntity
  8
AM_4
100
AcDbLine
 10
0.1300870000000001
 20
0.0480720000000001
 30
0.0
 11
0.1209050000000002
 21
0.0422449000000001
 31
0.0
  0
LINE
  5
21C
330
12E
100
AcDbEntity
  8
AM_4
100
AcDbLine
 10
0.1209050000000002
 20
0.0422449000000006
 30
0.0
 11
0.1147829999999998
 21
0.0335047
 31
0.0
  0
LINE
  5
21D
330
12E
100
AcDbEntity
  8
AM_4
100
AcDbLine
 10
0.1147829999999999
 20
0.0335046999999996
 30
0.0
 11
0.1117219999999998
 21
0.0218508999999993
 31
0.0
  0
LINE
  5
21E
330
12E
100
AcDbEntity
  8
AM_4
100
AcDbLine
 10
0.111722
 20
0.0218509000000002
 30
0.0
 11
0.111722
 21
-0.0218508779411998
 31
0.0
  0
LINE
  5
21F
330
12E
100
AcDbEntity
  8
AM_4
100
AcDbLine
 10
0.1117220000000002
 20
-0.0218508779412004
 30
0.0
 11
0.1147830000000002
 21
-0.0335047031319006
 31
0.0
  0
LINE
  5
220
330
12E
100
AcDbEntity
  8
AM_4
100
AcDbLine
 10
0.1147830000000002
 20
-0.0335047031319002
 30
0.0
 11
0.1209049999999998
 21
-0.0422449047019997
 31
0.0
  0
LINE
  5
221
330
12E
100
AcDbEntity
  8
AM_4
100
AcDbLine
 10
0.1209049999999998
 20
-0.0422449047019998
 30
0.0
 11
0.1300869999999998
 21
-0.0480720732029997
 31
0.0
  0
LINE
  5
222
330
12E
100
AcDbEntity
  8
AM_4
100
AcDbLine
 10
0.1300869999999998
 20
-0.0480720732029994
 30
0.0
 11
0.1423310000000005
 21
-0.0509854606029996
 31
0.0
  0
LINE
  5
223
330
12E
100
AcDbEntity
  8
AM_4
100
AcDbLine
 10
0.142331
 20
-0.0509854606029998
 30
0.0
 11
0.169879
 21
-0.0509854606029997
 31
0.0
  0
LINE
  5
224
330
12E
100
AcDbEntity
  8
AM_4
100
AcDbLine
 10
0.1698789999999981
 20
-0.0509854606030001
 30
0.0
 11
0.1821219999999991
 21
-0.0480720732029999
 31
0.0
  0
LINE
  5
225
330
12E
100
AcDbEntity
  8
AM_4
100
AcDbLine
 10
0.1821219999999991
 20
-0.0480720732030004
 30
0.0
 11
0.1913049999999983
 21
-0.0422449047020009
 31
0.0
  0
LINE
  5
226
330
12E
100
AcDbEntity
  8
AM_4
100
AcDbLine
 10
0.1913049999999983
 20
-0.0422449047020045
 30
0.0
 11
0.1943660000000001
 21
-0.0335047031318994
 31
0.0
  0
LINE
  5
227
330
12E
100
AcDbEntity
  8
AM_4
100
AcDbLine
 10
0.194366
 20
-0.0335047031318998
 30
0.0
 11
0.194366
 21
-0.0101970921205998
 31
0.0
  0
LINE
  5
228
330
12E
100
AcDbEntity
  8
AM_4
100
AcDbLine
 10
0.194366
 20
-0.0101970921205998
 30
0.0
 11
0.166818
 21
-0.0101970921205997
 31
0.0
  0
LINE
  5
229
330
12E
100
AcDbEntity
  8
AM_4
100
AcDbLine
 10
0.166818
 20
-0.0101970921205997
 30
0.0
 11
0.166818
 21
0.0072836200000002
 31
0.0
  0
LINE
  5
22A
330
12E
100
AcDbEntity
  8
AM_4
100
AcDbLine
 10
0.166818
 20
0.0072836200000002
 30
0.0
 11
0.212731
 21
0.0072836200000002
 31
0.0
  0
LINE
  5
22B
330
12E
100
AcDbEntity
  8
AM_4
100
AcDbLine
 10
0.212731
 20
0.0072836200000002
 30
0.0
 11
0.212731
 21
-0.0364181299019998
 31
0.0
  0
LINE
  5
22C
330
12E
100
AcDbEntity
  8
AM_4
100
AcDbLine
 10
0.2127310000000003
 20
-0.0364181299019988
 30
0.0
 11
0.20967
 21
-0.048072073203
 31
0.0
  0
LINE
  5
22D
330
12E
100
AcDbEntity
  8
AM_4
100
AcDbLine
 10
0.20967
 20
-0.0480720732029996
 30
0.0
 11
0.1974269999999999
 21
-0.0597256228029996
 31
0.0
  0
LINE
  5
22E
330
12E
100
AcDbEntity
  8
AM_4
100
AcDbLine
 10
0.197427
 20
-0.0597256228030001
 30
0.0
 11
0.1851829999999999
 21
-0.0655527913040001
 31
0.0
  0
LINE
  5
22F
330
12E
100
AcDbEntity
  8
AM_4
100
AcDbLine
 10
0.185183
 20
-0.065552791304
 30
0.0
 11
0.1698790000000005
 21
-0.0684661787039999
 31
0.0
  0
LINE
  5
230
330
12E
100
AcDbEntity
  8
AM_4
100
AcDbLine
 10
0.169879
 20
-0.0684661787039998
 30
0.0
 11
0.142331
 21
-0.0684661787039998
 31
0.0
  0
LINE
  5
231
330
12E
100
AcDbEntity
  8
AM_4
100
AcDbLine
 10
0.1423310000000006
 20
-0.0684661787040001
 30
0.0
 11
0.1270259999999992
 21
-0.0655527913039998
 31
0.0
  0
LINE
  5
232
330
12E
100
AcDbEntity
  8
AM_4
100
AcDbLine
 10
0.1270259999999991
 20
-0.0655527913039995
 30
0.0
 11
0.1147830000000003
 21
-0.059725622803
 31
0.0
  0
LINE
  5
233
330
12E
100
AcDbEntity
  8
AM_4
100
AcDbLine
 10
0.1147830000000002
 20
-0.0597256228030002
 30
0.0
 11
0.1025390000000023
 21
-0.0480720732030022
 31
0.0
  0
LINE
  5
234
330
12E
100
AcDbEntity
  8
AM_4
100
AcDbLine
 10
0.1025390000000023
 20
-0.0480720732030042
 30
0.0
 11
0.0964177000000013
 21
-0.0364181299020023
 31
0.0
  0
LINE
  5
235
330
12E
100
AcDbEntity
  8
AM_4
100
AcDbLine
 10
0.0964177000000013
 20
-0.036418129902006
 30
0.0
 11
0.0933566999999998
 21
-0.0218508779411988
 31
0.0
  0
LINE
  5
236
330
12E
100
AcDbEntity
  8
AM_4
100
AcDbLine
 10
0.0198957
 20
-0.0684661787039998
 30
0.0
 11
-0.053565383256
 21
-0.0684661787039998
 31
0.0
  0
LINE
  5
237
330
12E
100
AcDbEntity
  8
AM_4
100
AcDbLine
 10
-0.053565383256
 20
-0.0684661787039998
 30
0.0
 11
-0.053565383256
 21
0.0684661000000002
 31
0.0
  0
LINE
  5
238
330
12E
100
AcDbEntity
  8
AM_4
100
AcDbLine
 10
-0.053565383256
 20
0.0684661000000002
 30
0.0
 11
0.0198957
 21
0.0684661000000002
 31
0.0
  0
LINE
  5
239
330
12E
100
AcDbEntity
  8
AM_4
100
AcDbLine
 10
0.0198957000000002
 20
0.0684661000000004
 30
0.0
 11
0.0352001000000004
 21
0.0655528000000003
 31
0.0
  0
LINE
  5
23A
330
12E
100
AcDbEntity
  8
AM_4
100
AcDbLine
 10
0.0352000999999996
 20
0.0655528000000002
 30
0.0
 11
0.0474436999999998
 21
0.0597256000000001
 31
0.0
  0
LINE
  5
23B
330
12E
100
AcDbEntity
  8
AM_4
100
AcDbLine
 10
0.0474436999999998
 20
0.0597256000000005
 30
0.0
 11
0.059687
 21
0.0480720000000004
 31
0.0
  0
LINE
  5
23C
330
12E
100
AcDbEntity
  8
AM_4
100
AcDbLine
 10
0.0596869999999999
 20
0.0480720000000003
 30
0.0
 11
0.0658090999999997
 21
0.0364181000000008
 31
0.0
  0
LINE
  5
23D
330
12E
100
AcDbEntity
  8
AM_4
100
AcDbLine
 10
0.0658090999999997
 20
0.0364181000000018
 30
0.0
 11
0.0688696999999997
 21
0.0218509000000017
 31
0.0
  0
LINE
  5
23E
330
12E
100
AcDbEntity
  8
AM_4
100
AcDbLine
 10
0.0688697
 20
0.0218509000000002
 30
0.0
 11
0.0688697
 21
-0.0218508779411998
 31
0.0
  0
LINE
  5
23F
330
12E
100
AcDbEntity
  8
AM_4
100
AcDbLine
 10
0.0688697000000002
 20
-0.0218508779411989
 30
0.0
 11
0.0658091000000001
 21
-0.0364181299019989
 31
0.0
  0
LINE
  5
240
330
12E
100
AcDbEntity
  8
AM_4
100
AcDbLine
 10
0.0658091000000001
 20
-0.0364181299019995
 30
0.0
 11
0.0596870000000004
 21
-0.0480720732029991
 31
0.0
  0
LINE
  5
241
330
12E
100
AcDbEntity
  8
AM_4
100
AcDbLine
 10
0.0596869999999996
 20
-0.048072073203
 30
0.0
 11
0.0474437000000002
 21
-0.0597256228029994
 31
0.0
  0
LINE
  5
242
330
12E
100
AcDbEntity
  8
AM_4
100
AcDbLine
 10
0.0474437000000002
 20
-0.0597256228029998
 30
0.0
 11
0.0352001
 21
-0.065552791304
 31
0.0
  0
LINE
  5
243
330
12E
100
AcDbEntity
  8
AM_4
100
AcDbLine
 10
0.0352001
 20
-0.0655527913040001
 30
0.0
 11
0.0198956999999998
 21
-0.0684661787040002
 31
0.0
  0
LINE
  5
244
330
12E
100
AcDbEntity
  8
AM_4
100
AcDbLine
 10
-0.200487509838
 20
-0.0218508779411998
 30
0.0
 11
-0.200487509838
 21
0.0218509000000002
 31
0.0
  0
LINE
  5
245
330
12E
100
AcDbEntity
  8
AM_4
100
AcDbLine
 10
-0.2004875098380016
 20
0.0218508999999924
 30
0.0
 11
-0.1974268782640009
 21
0.0364180999999959
 31
0.0
  0
LINE
  5
246
330
12E
100
AcDbEntity
  8
AM_4
100
AcDbLine
 10
-0.1974268782640009
 20
0.0364180999999985
 30
0.0
 11
-0.1913048277140014
 21
0.0480719999999976
 31
0.0
  0
LINE
  5
247
330
12E
100
AcDbEntity
  8
AM_4
100
AcDbLine
 10
-0.1913048277140014
 20
0.048071999999999
 30
0.0
 11
-0.179061514016001
 21
0.0597255999999993
 31
0.0
  0
LINE
  5
248
330
12E
100
AcDbEntity
  8
AM_4
100
AcDbLine
 10
-0.179061514016001
 20
0.0597255999999995
 30
0.0
 11
-0.1668178066170011
 21
0.0655527999999995
 31
0.0
  0
LINE
  5
249
330
12E
100
AcDbEntity
  8
AM_4
100
AcDbLine
 10
-0.1668178066170012
 20
0.0655528000000001
 30
0.0
 11
-0.1515134676440021
 21
0.0684660999999999
 31
0.0
  0
LINE
  5
24A
330
12E
100
AcDbEntity
  8
AM_4
100
AcDbLine
 10
-0.151513467644
 20
0.0684661000000002
 30
0.0
 11
-0.127026446547
 21
0.0684661000000002
 31
0.0
  0
LINE
  5
24B
330
12E
100
AcDbEntity
  8
AM_4
100
AcDbLine
 10
-0.1270264465470002
 20
0.0684661000000003
 30
0.0
 11
-0.1117221075739996
 21
0.0655528000000001
 31
0.0
  0
LINE
  5
24C
330
12E
100
AcDbEntity
  8
AM_4
100
AcDbLine
 10
-0.1117221075739996
 20
0.0655528000000001
 30
0.0
 11
-0.099478400175
 21
0.0597256000000003
 31
0.0
  0
LINE
  5
24D
330
12E
100
AcDbEntity
  8
AM_4
100
AcDbLine
 10
-0.099478400175
 20
0.0597256000000004
 30
0.0
 11
-0.087235086477
 21
0.0480720000000004
 31
0.0
  0
LINE
  5
24E
330
12E
100
AcDbEntity
  8
AM_4
100
AcDbLine
 10
-0.087235086477
 20
0.048072
 30
0.0
 11
-0.0811134296280004
 21
0.0364181000000008
 31
0.0
  0
LINE
  5
24F
330
12E
100
AcDbEntity
  8
AM_4
100
AcDbLine
 10
-0.0811134296279996
 20
0.0364180999999987
 30
0.0
 11
-0.0780524043529999
 21
0.0218509
 31
0.0
  0
LINE
  5
250
330
12E
100
AcDbEntity
  8
AM_4
100
AcDbLine
 10
-0.078052404353
 20
0.0218509000000002
 30
0.0
 11
-0.078052404353
 21
-0.0218508779411998
 31
0.0
  0
LINE
  5
251
330
12E
100
AcDbEntity
  8
AM_4
100
AcDbLine
 10
-0.0780524043530002
 20
-0.0218508779412008
 30
0.0
 11
-0.081113429628
 21
-0.0364181299019994
 31
0.0
  0
LINE
  5
252
330
12E
100
AcDbEntity
  8
AM_4
100
AcDbLine
 10
-0.081113429628
 20
-0.0364181299019996
 30
0.0
 11
-0.0872350864770003
 21
-0.0480720732030002
 31
0.0
  0
LINE
  5
253
330
12E
100
AcDbEntity
  8
AM_4
100
AcDbLine
 10
-0.0872350864769996
 20
-0.0480720732029996
 30
0.0
 11
-0.0994784001749996
 21
-0.0597256228029996
 31
0.0
  0
LINE
  5
254
330
12E
100
AcDbEntity
  8
AM_4
100
AcDbLine
 10
-0.0994784001749996
 20
-0.0597256228029998
 30
0.0
 11
-0.111722107574
 21
-0.065552791304
 31
0.0
  0
LINE
  5
255
330
12E
100
AcDbEntity
  8
AM_4
100
AcDbLine
 10
-0.111722107574
 20
-0.0655527913039998
 30
0.0
 11
-0.1270264465469998
 21
-0.0684661787039998
 31
0.0
  0
LINE
  5
256
330
12E
100
AcDbEntity
  8
AM_4
100
AcDbLine
 10
-0.127026446547
 20
-0.0684661787039998
 30
0.0
 11
-0.151513467644
 21
-0.0684661787039998
 31
0.0
  0
LINE
  5
257
330
12E
100
AcDbEntity
  8
AM_4
100
AcDbLine
 10
-0.1515134676440009
 20
-0.0684661787039999
 30
0.0
 11
-0.1668178066169999
 21
-0.0655527913040001
 31
0.0
  0
LINE
  5
258
330
12E
100
AcDbEntity
  8
AM_4
100
AcDbLine
 10
-0.1668178066169999
 20
-0.0655527913039998
 30
0.0
 11
-0.1790615140159997
 21
-0.0597256228029998
 31
0.0
  0
LINE
  5
259
330
12E
100
AcDbEntity
  8
AM_4
100
AcDbLine
 10
-0.1790615140159998
 20
-0.0597256228029998
 30
0.0
 11
-0.1913048277140002
 21
-0.0480720732029994
 31
0.0
  0
LINE
  5
25A
330
12E
100
AcDbEntity
  8
AM_4
100
AcDbLine
 10
-0.1913048277140001
 20
-0.0480720732029993
 30
0.0
 11
-0.1974268782639997
 21
-0.0364181299020001
 31
0.0
  0
LINE
  5
25B
330
12E
100
AcDbEntity
  8
AM_4
100
AcDbLine
 10
-0.1974268782639997
 20
-0.036418129902001
 30
0.0
 11
-0.2004875098379975
 21
-0.0218508779412122
 31
0.0
  0
LINE
  5
25C
330
12E
100
AcDbEntity
  8
AM_4
100
AcDbLine
 10
-0.3474096364199999
 20
-0.0684661787039998
 30
0.0
 11
-0.3474096364199999
 21
0.0684661000000002
 31
0.0
  0
LINE
  5
25D
330
12E
100
AcDbEntity
  8
AM_4
100
AcDbLine
 10
-0.3474096364199999
 20
0.0684661000000002
 30
0.0
 11
-0.273948573129
 21
0.0684661000000002
 31
0.0
  0
LINE
  5
25E
330
12E
100
AcDbEntity
  8
AM_4
100
AcDbLine
 10
-0.2739485731289997
 20
0.0684661000000003
 30
0.0
 11
-0.2586442341559996
 21
0.0655528000000003
 31
0.0
  0
LINE
  5
25F
330
12E
100
AcDbEntity
  8
AM_4
100
AcDbLine
 10
-0.2586442341559997
 20
0.0655528000000002
 30
0.0
 11
-0.2464009204579998
 21
0.0597256000000002
 31
0.0
  0
LINE
  5
260
330
12E
100
AcDbEntity
  8
AM_4
100
AcDbLine
 10
-0.2464009204579998
 20
0.0597256
 30
0.0
 11
-0.2341572130589999
 21
0.0480720000000001
 31
0.0
  0
LINE
  5
261
330
12E
100
AcDbEntity
  8
AM_4
100
AcDbLine
 10
-0.234157213059
 20
0.0480720000000001
 30
0.0
 11
-0.22803555621
 21
0.0364181000000003
 31
0.0
  0
LINE
  5
262
330
12E
100
AcDbEntity
  8
AM_4
100
AcDbLine
 10
-0.22803555621
 20
0.0364181000000003
 30
0.0
 11
-0.2249745309350001
 21
0.0218509000000007
 31
0.0
  0
LINE
  5
263
330
12E
100
AcDbEntity
  8
AM_4
100
AcDbLine
 10
-0.224974530935
 20
0.0218509000000002
 30
0.0
 11
-0.224974530935
 21
-0.0218508779411998
 31
0.0
  0
LINE
  5
264
330
12E
100
AcDbEntity
  8
AM_4
100
AcDbLine
 10
-0.2249745309349997
 20
-0.0218508779411988
 30
0.0
 11
-0.2280355562100004
 21
-0.036418129902002
 31
0.0
  0
LINE
  5
265
330
12E
100
AcDbEntity
  8
AM_4
100
AcDbLine
 10
-0.2280355562100004
 20
-0.0364181299020005
 30
0.0
 11
-0.2341572130590003
 21
-0.0480720732030003
 31
0.0
  0
LINE
  5
266
330
12E
100
AcDbEntity
  8
AM_4
100
AcDbLine
 10
-0.2341572130590003
 20
-0.0480720732030001
 30
0.0
 11
-0.2464009204580001
 21
-0.0597256228029999
 31
0.0
  0
LINE
  5
267
330
12E
100
AcDbEntity
  8
AM_4
100
AcDbLine
 10
-0.2464009204580002
 20
-0.0597256228030001
 30
0.0
 11
-0.258644234156
 21
-0.065552791304
 31
0.0
  0
LINE
  5
268
330
12E
100
AcDbEntity
  8
AM_4
100
AcDbLine
 10
-0.258644234156
 20
-0.0655527913039999
 30
0.0
 11
-0.2739485731290001
 21
-0.0684661787039999
 31
0.0
  0
LINE
  5
269
330
12E
100
AcDbEntity
  8
AM_4
100
AcDbLine
 10
-0.273948573129
 20
-0.0684661787039998
 30
0.0
 11
-0.3474096364199999
 21
-0.0684661787039998
 31
0.0
  0
LWPOLYLINE
  5
26A
330
12E
100
AcDbEntity
  8
AM_4
100
AcDbPolyline
 90
       33
 70
     0
 43
0.0
 10
-3.380580570639673
 20
-0.7139571806843636
 10
-3.362427186878902
 20
-0.6914379550053203
 10
-3.341925089751424
 20
-0.6645874950806742
 10
-3.319463239938647
 20
-0.6329117892394278
 10
-3.29543059812198
 20
-0.5959168258105835
 10
-3.27021612498283
 20
-0.5531085931231436
 10
-3.244208781202606
 20
-0.5039930795061106
 10
-3.223293460449866
 20
-0.4599034170106938
 10
-3.202703906299955
 20
-0.4108635823648865
 10
-3.183079784464994
 20
-0.3568000191742572
 10
-3.169215406642353
 20
-0.3122071374189417
 10
-3.156554605431445
 20
-0.2643867304305828
 10
-3.145526102626251
 20
-0.2137859066378135
 10
-3.136558620020754
 20
-0.1608517744692666
 10
-3.130325993084157
 20
-0.1090572057875889
 10
-3.12641031792445
 20
-0.0557605062565605
 10
-3.125001639363334
 20
-0.0019205636710879
 10
-3.126230248110355
 20
0.0519971935006621
 10
-3.129977940084423
 20
0.1054186268003363
 10
-3.136061757969161
 20
0.1573740542187489
 10
-3.144286463083278
 20
0.2073534352915007
 10
-3.154346947881712
 20
0.2552305066120517
 10
-3.16588356938327
 20
0.3005271449750295
 10
-3.18064121671163
 20
0.3494253149310897
 10
-3.19658962725307
 20
0.3949093476978204
 10
-3.213311473624332
 20
0.4369242060869161
 10
-3.230389428442162
 20
0.4754148529100713
 10
-3.256990072085376
 20
0.5288482932016197
 10
-3.283161030003954
 20
0.5753783005328192
 10
-3.308288806119231
 20
0.6155652027106181
 10
-3.331759904352545
 20
0.6499693275419643
 10
-3.357815533761527
 20
0.6853105931328591
 10
-3.380580570639673
 20
0.713957180684363
  0
LINE
  5
26B
330
12E
100
AcDbEntity
  8
AM_4
100
AcDbLine
 10
-3.380580570639675
 20
-1.24743143503673
 30
0.0
 11
-3.380580570639673
 21
-0.7139571806843636
 31
0.0
  0
LWPOLYLINE
  5
26C
330
12E
100
AcDbEntity
  8
AM_4
100
AcDbPolyline
 90
       33
 70
     0
 43
0.0
 10
3.380580570639673
 20
-1.24743143503673
 10
3.313421752972955
 20
-1.221737629514655
 10
3.221045795067357
 20
-1.196656171479091
 10
3.10415573374067
 20
-1.172377945970287
 10
2.963641172939737
 20
-1.149087724943958
 10
2.800571513317267
 20
-1.126962761045135
 10
2.616187813447138
 20
-1.106171438608507
 10
2.411893344619284
 20
-1.086871992151959
 10
2.189242911097858
 20
-1.069211302116351
 10
1.949931017121966
 20
-1.053323777016669
 10
1.695778970705236
 20
-1.039330330512072
 10
1.428721022382101
 20
-1.027337461179935
 10
1.150789644393299
 20
-1.017436441997366
 10
0.8641000623448776
 20
-1.009702625698746
 10
0.5708341570641289
 20
-1.004194871295911
 10
0.2732238591690343
 20
-1.00095509612554
 10
-0.0264658372714133
 20
-1.00000795683291
 10
-0.325954112709716
 20
-1.001360661719936
 10
-0.6229616805338233
 20
-1.005002915885642
 10
-0.9152281338145211
 20
-1.010906999576574
 10
-1.200529148367034
 20
-1.019027979150861
 10
-1.476693411201154
 20
-1.029304049050361
 10
-1.741619145524173
 20
-1.041657002178278
 10
-1.993290106531361
 20
-1.055992825102391
 10
-2.229790926246372
 20
-1.072202413554042
 10
-2.449321690628075
 20
-1.090162402777496
 10
-2.650211638003227
 20
-1.109736106410225
 10
-2.830931874571634
 20
-1.130774556748659
 10
-2.990107010211151
 20
-1.153117638482357
 10
-3.126525626026984
 20
-1.176595307268206
 10
-3.239149493980962
 20
-1.201028883870541
 10
-3.327121478433806
 20
-1.226232414018021
 10
-3.380580570639673
 20
-1.24743143503673
  0
LINE
  5
26D
330
12E
100
AcDbEntity
  8
AM_4
100
AcDbLine
 10
3.380580570639674
 20
-1.24743143503673
 30
0.0
 11
3.380580570639674
 21
-0.7139571806843636
 31
0.0
  0
LWPOLYLINE
  5
26E
330
12E
100
AcDbEntity
  8
AM_4
100
AcDbPolyline
 90
       33
 70
     0
 43
0.0
 10
3.380580570639674
 20
0.7139571806843648
 10
3.362427186878902
 20
0.6914379550053213
 10
3.341925089751425
 20
0.6645874950806752
 10
3.319463239938648
 20
0.6329117892394289
 10
3.295430598121981
 20
0.5959168258105848
 10
3.270216124982831
 20
0.553108593123145
 10
3.244208781202607
 20
0.503993079506112
 10
3.223293460449866
 20
0.459903417010695
 10
3.202703906299956
 20
0.4108635823648876
 10
3.183079784464995
 20
0.3568000191742582
 10
3.169215406642354
 20
0.3122071374189425
 10
3.156554605431445
 20
0.2643867304305834
 10
3.145526102626251
 20
0.2137859066378138
 10
3.136558620020754
 20
0.1608517744692667
 10
3.130325993084157
 20
0.1090572057875889
 10
3.12641031792445
 20
0.0557605062565604
 10
3.125001639363334
 20
0.0019205636710877
 10
3.126230248110355
 20
-0.0519971935006622
 10
3.129977940084423
 20
-0.1054186268003365
 10
3.136061757969161
 20
-0.157374054218749
 10
3.144286463083278
 20
-0.2073534352915009
 10
3.154346947881712
 20
-0.2552305066120517
 10
3.165883569383271
 20
-0.3005271449750296
 10
3.18064121671163
 20
-0.3494253149310899
 10
3.19658962725307
 20
-0.3949093476978207
 10
3.213311473624333
 20
-0.4369242060869165
 10
3.230389428442163
 20
-0.4754148529100717
 10
3.256990072085377
 20
-0.5288482932016205
 10
3.283161030003954
 20
-0.5753783005328206
 10
3.308288806119233
 20
-0.6155652027106197
 10
3.331759904352546
 20
-0.649969327541966
 10
3.357815533761527
 20
-0.6853105931328601
 10
3.380580570639674
 20
-0.7139571806843636
  0
LINE
  5
26F
330
12E
100
AcDbEntity
  8
AM_4
100
AcDbLine
 10
3.380580570639674
 20
0.7139571806843648
 30
0.0
 11
3.380580570639674
 21
1.24743143503673
 31
0.0
  0
LWPOLYLINE
  5
270
330
12E
100
AcDbEntity
  8
AM_4
100
AcDbPolyline
 90
       33
 70
     0
 43
0.0
 10
-3.380580570639673
 20
1.247431435036731
 10
-3.313421752972955
 20
1.221737629514656
 10
-3.221045795067357
 20
1.196656171479092
 10
-3.10415573374067
 20
1.172377945970288
 10
-2.963641172939738
 20
1.149087724943959
 10
-2.800571513317268
 20
1.126962761045136
 10
-2.616187813447138
 20
1.106171438608508
 10
-2.411893344619284
 20
1.08687199215196
 10
-2.189242911097859
 20
1.069211302116351
 10
-1.949931017121966
 20
1.05332377701667
 10
-1.695778970705236
 20
1.039330330512073
 10
-1.428721022382101
 20
1.027337461179936
 10
-1.150789644393299
 20
1.017436441997367
 10
-0.8641000623448776
 20
1.009702625698746
 10
-0.5708341570641289
 20
1.004194871295911
 10
-0.2732238591690345
 20
1.000955096125541
 10
0.0264658372714133
 20
1.000007956832911
 10
0.3259541127097161
 20
1.001360661719937
 10
0.6229616805338235
 20
1.005002915885643
 10
0.9152281338145214
 20
1.010906999576575
 10
1.200529148367034
 20
1.019027979150862
 10
1.476693411201155
 20
1.029304049050362
 10
1.741619145524174
 20
1.041657002178279
 10
1.993290106531362
 20
1.055992825102392
 10
2.229790926246373
 20
1.072202413554043
 10
2.449321690628077
 20
1.090162402777497
 10
2.650211638003229
 20
1.109736106410226
 10
2.830931874571637
 20
1.130774556748659
 10
2.990107010211152
 20
1.153117638482358
 10
3.126525626026985
 20
1.176595307268207
 10
3.239149493980964
 20
1.201028883870541
 10
3.327121478433809
 20
1.226232414018022
 10
3.380580570639674
 20
1.24743143503673
  0
LINE
  5
271
330
12E
100
AcDbEntity
  8
AM_4
100
AcDbLine
 10
-3.380580570639673
 20
0.7139571806843636
 30
0.0
 11
-3.380580570639674
 21
1.24743143503673
 31
0.0
  0
ENDBLK
  5
131
330
12E
100
AcDbEntity
  8
0
100
AcDbBlockEnd
  0
ENDSEC
  0
SECTION
  2
ENTITIES
  0
INSERT
  5
6F
330
1F
100
AcDbEntity
  8
0
100
AcDbBlockReference
  2
1_129242_4
 10
0.0
 20
0.0
 30
0.0
  0
POINT
  5
273
330
1F
100
AcDbEntity
  8
ConnectionPoints
100
AcDbPoint
 10
0.0
 20
0.0
 30
0.0
  0
POINT
  5
274
330
1F
100
AcDbEntity
  8
ConnectionPoints
100
AcDbPoint
 10
0.0
 20
0.90625
 30
-0.0000000000000001
  0
POINT
  5
275
330
1F
100
AcDbEntity
  8
ConnectionPoints
100
AcDbPoint
 10
0.0
 20
0.0
 30
0.0
  0
POINT
  5
276
330
1F
100
AcDbEntity
  8
ConnectionPoints
100
AcDbPoint
 10
0.0
 20
0.0
 30
0.0
  0
ENDSEC
  0
SECTION
  2
OBJECTS
  0
DICTIONARY
  5
C
330
0
100
AcDbDictionary
281
     1
  3
ACAD_DETAILVIEWSTYLE
350
27E
  3
ACAD_GROUP
350
D
  3
ACAD_LAYOUT
350
1A
  3
ACAD_MATERIAL
350
43
  3
ACAD_MLEADERSTYLE
350
6B
  3
ACAD_MLINESTYLE
350
17
  3
ACAD_PLOTSETTINGS
350
19
  3
ACAD_PLOTSTYLENAME
350
E
  3
ACAD_SCALELIST
350
47
  3
ACAD_SECTIONVIEWSTYLE
350
27F
  3
ACAD_TABLESTYLE
350
69
  3
ACAD_VISUALSTYLE
350
2A
  3
ACDB_RECOMPOSE_DATA
350
27B
  3
AcDbVariableDictionary
350
277
  0
SUN
  5
6D
330
29
100
AcDbSun
 90
        1
290
     0
 63
     7
421
 16777215
 40
1.0
291
     1
 91
  2455826
 92
 54000000
292
     0
 70
     2
 71
   256
280
     1
  0
DICTIONARY
  5
27E
102
{ACAD_REACTORS
330
C
102
}
330
C
100
AcDbDictionary
281
     1
  0
DICTIONARY
  5
D
102
{ACAD_REACTORS
330
C
102
}
330
C
100
AcDbDictionary
281
     1
  0
DICTIONARY
  5
1A
102
{ACAD_REACTORS
330
C
102
}
330
C
100
AcDbDictionary
281
     1
  3
Layout1
350
1E
  3
Layout2
350
26
  3
Model
350
22
  0
DICTIONARY
  5
43
102
{ACAD_REACTORS
330
C
102
}
330
C
100
AcDbDictionary
281
     1
  3
ByBlock
350
45
  3
ByLayer
350
44
  3
Global
350
46
  0
DICTIONARY
  5
6B
102
{ACAD_REACTORS
330
C
102
}
330
C
100
AcDbDictionary
281
     1
  3
Standard
350
6C
  0
DICTIONARY
  5
17
102
{ACAD_REACTORS
330
C
102
}
330
C
100
AcDbDictionary
281
     1
  3
Standard
350
18
  0
DICTIONARY
  5
19
102
{ACAD_REACTORS
330
C
102
}
330
C
100
AcDbDictionary
281
     1
  0
ACDBDICTIONARYWDFLT
  5
E
102
{ACAD_REACTORS
330
C
102
}
330
C
100
AcDbDictionary
281
     1
  3
Normal
350
F
100
AcDbDictionaryWithDefault
340
F
  0
DICTIONARY
  5
47
102
{ACAD_REACTORS
330
C
102
}
330
C
100
AcDbDictionary
281
     1
  3
A0
350
48
  3
A1
350
49
  3
A2
350
4A
  3
A3
350
4B
  3
A4
350
4C
  3
A5
350
4D
  3
A6
350
4E
  3
A7
350
4F
  3
A8
350
50
  3
A9
350
51
  3
B0
350
52
  3
B1
350
53
  3
B2
350
54
  3
B3
350
55
  3
B4
350
56
  3
B5
350
57
  3
B6
350
58
  3
B7
350
59
  3
B8
350
5A
  3
B9
350
5B
  3
C0
350
5C
  3
C1
350
5D
  3
C2
350
5E
  3
C3
350
5F
  3
C4
350
60
  3
C5
350
61
  3
C6
350
62
  3
C7
350
63
  3
C8
350
64
  3
C9
350
65
  3
D0
350
66
  3
D1
350
67
  3
D2
350
68
  0
DICTIONARY
  5
27F
102
{ACAD_REACTORS
330
C
102
}
330
C
100
AcDbDictionary
281
     1
  0
DICTIONARY
  5
69
102
{ACAD_REACTORS
330
C
102
}
330
C
100
AcDbDictionary
281
     1
  3
Standard
350
6A
  0
DICTIONARY
  5
2A
102
{ACAD_REACTORS
330
C
102
}
330
C
100
AcDbDictionary
281
     1
  3
2dWireframe
350
2F
  3
Basic
350
32
  3
Brighten
350
36
  3
ColorChange
350
3A
  3
Conceptual
350
34
  3
Dim
350
35
  3
EdgeColorOff
350
3D
  3
Facepattern
350
39
  3
Flat
350
2B
  3
FlatWithEdges
350
2C
  3
Gouraud
350
2D
  3
GouraudWithEdges
350
2E
  3
Hidden
350
31
  3
JitterOff
350
3B
  3
Linepattern
350
38
  3
OverhangOff
350
3C
  3
Realistic
350
33
  3
Shaded
350
42
  3
Shaded with edges
350
41
  3
Shades of Gray
350
3E
  3
Sketchy
350
3F
  3
Thicken
350
37
  3
Wireframe
350
30
  3
X-Ray
350
40
  0
XRECORD
  5
27B
102
{ACAD_REACTORS
330
C
102
}
330
C
100
AcDbXrecord
280
     1
 90
        1
330
6A
  0
DICTIONARY
  5
277
102
{ACAD_REACTORS
330
C
102
}
330
C
100
AcDbDictionary
281
     1
  3
CANNOSCALE
350
278
  3
CMLEADERSTYLE
350
27D
  3
CTABLESTYLE
350
27C
  0
LAYOUT
  5
1E
102
{ACAD_REACTORS
330
1A
102
}
330
1A
100
AcDbPlotSettings
  1

  2
none_device
  4

  6

 40
0.0
 41
0.0
 42
0.0
 43
0.0
 44
0.0
 45
0.0
 46
0.0
 47
0.0
 48
0.0
 49
0.0
140
0.0
141
0.0
142
1.0
143
1.0
 70
   688
 72
     0
 73
     0
 74
     5
  7

 75
    16
 76
     0
 77
     2
 78
   300
147
1.0
148
0.0
149
0.0
100
AcDbLayout
  1
Layout1
 70
     1
 71
     1
 10
0.0
 20
0.0
 11
12.0
 21
9.0
 12
0.0
 22
0.0
 32
0.0
 14
1.000000000000000E+20
 24
1.000000000000000E+20
 34
1.000000000000000E+20
 15
-1.000000000000000E+20
 25
-1.000000000000000E+20
 35
-1.000000000000000E+20
146
0.0
 13
0.0
 23
0.0
 33
0.0
 16
1.0
 26
0.0
 36
0.0
 17
0.0
 27
1.0
 37
0.0
 76
     0
330
1B
  0
LAYOUT
  5
26
102
{ACAD_REACTORS
330
1A
102
}
330
1A
100
AcDbPlotSettings
  1

  2
none_device
  4

  6

 40
0.0
 41
0.0
 42
0.0
 43
0.0
 44
0.0
 45
0.0
 46
0.0
 47
0.0
 48
0.0
 49
0.0
140
0.0
141
0.0
142
1.0
143
1.0
 70
   688
 72
     0
 73
     0
 74
     5
  7

 75
    16
 76
     0
 77
     2
 78
   300
147
1.0
148
0.0
149
0.0
100
AcDbLayout
  1
Layout2
 70
     1
 71
     2
 10
0.0
 20
0.0
 11
0.0
 21
0.0
 12
0.0
 22
0.0
 32
0.0
 14
0.0
 24
0.0
 34
0.0
 15
0.0
 25
0.0
 35
0.0
146
0.0
 13
0.0
 23
0.0
 33
0.0
 16
1.0
 26
0.0
 36
0.0
 17
0.0
 27
1.0
 37
0.0
 76
     0
330
23
  0
LAYOUT
  5
22
102
{ACAD_REACTORS
330
1A
102
}
330
1A
100
AcDbPlotSettings
  1

  2
none_device
  4
Letter_(8.50_x_11.00_Inches)
  6

 40
6.35
 41
6.35
 42
6.35000508
 43
6.35000508
 44
215.9
 45
279.4
 46
0.0
 47
0.0
 48
0.0
 49
0.0
140
0.0
141
0.0
142
1.0
143
1.0
 70
  1712
 72
     0
 73
     0
 74
     0
  7

 75
     0
 76
     0
 77
     2
 78
   300
147
1.0
148
0.0
149
0.0
100
AcDbLayout
  1
Model
 70
     1
 71
     0
 10
0.0
 20
0.0
 11
12.0
 21
9.0
 12
0.0
 22
0.0
 32
0.0
 14
1.000000000000000E+20
 24
1.000000000000000E+20
 34
1.000000000000000E+20
 15
-1.000000000000000E+20
 25
-1.000000000000000E+20
 35
-1.000000000000000E+20
146
0.0
 13
0.0
 23
0.0
 33
0.0
 16
1.0
 26
0.0
 36
0.0
 17
0.0
 27
1.0
 37
0.0
 76
     0
330
1F
331
29
  0
MATERIAL
  5
45
102
{ACAD_REACTORS
330
43
102
}
330
43
100
AcDbMaterial
  1
ByBlock
 72
     1
 94
      127
  0
MATERIAL
  5
44
102
{ACAD_REACTORS
330
43
102
}
330
43
100
AcDbMaterial
  1
ByLayer
 72
     1
 94
      127
  0
MATERIAL
  5
46
102
{ACAD_REACTORS
330
43
102
}
330
43
100
AcDbMaterial
  1
Global
 72
     1
 94
      127
  0
MLEADERSTYLE
  5
6C
102
{ACAD_REACTORS
330
6B
102
}
330
6B
100
AcDbMLeaderStyle
179
     2
170
     2
171
     1
172
     0
 90
        2
 40
0.0
 41
0.0
173
     1
 91
-1056964608
340
14
 92
       -2
290
     1
 42
0.09
291
     1
 43
0.36
  3
Standard
341
0
 44
0.18
300

342
11
174
     1
178
     6
175
     1
176
     0
 93
-1056964608
 45
0.18
292
     0
297
     0
 46
0.18
343
0
 94
-1056964608
 47
1.0
 49
1.0
140
1.0
293
     1
141
0.0
294
     1
177
     0
142
1.0
295
     0
296
     0
143
0.125
271
     0
272
     9
273
     9
298
     0
  0
MLINESTYLE
  5
18
102
{ACAD_REACTORS
330
17
102
}
330
17
100
AcDbMlineStyle
  2
Standard
 70
     0
  3

 62
   256
 51
90.0
 52
90.0
 71
     2
 49
0.5
 62
   256
  6
BYLAYER
 49
-0.5
 62
   256
  6
BYLAYER
  0
ACDBPLACEHOLDER
  5
F
102
{ACAD_REACTORS
330
E
102
}
330
E
  0
SCALE
  5
48
102
{ACAD_REACTORS
330
47
102
}
330
47
100
AcDbScale
 70
     0
300
1:1
140
1.0
141
1.0
290
     1
  0
SCALE
  5
49
102
{ACAD_REACTORS
330
47
102
}
330
47
100
AcDbScale
 70
     0
300
1:2
140
1.0
141
2.0
290
     0
  0
SCALE
  5
4A
102
{ACAD_REACTORS
330
47
102
}
330
47
100
AcDbScale
 70
     0
300
1:4
140
1.0
141
4.0
290
     0
  0
SCALE
  5
4B
102
{ACAD_REACTORS
330
47
102
}
330
47
100
AcDbScale
 70
     0
300
1:5
140
1.0
141
5.0
290
     0
  0
SCALE
  5
4C
102
{ACAD_REACTORS
330
47
102
}
330
47
100
AcDbScale
 70
     0
300
1:8
140
1.0
141
8.0
290
     0
  0
SCALE
  5
4D
102
{ACAD_REACTORS
330
47
102
}
330
47
100
AcDbScale
 70
     0
300
1:10
140
1.0
141
10.0
290
     0
  0
SCALE
  5
4E
102
{ACAD_REACTORS
330
47
102
}
330
47
100
AcDbScale
 70
     0
300
1:16
140
1.0
141
16.0
290
     0
  0
SCALE
  5
4F
102
{ACAD_REACTORS
330
47
102
}
330
47
100
AcDbScale
 70
     0
300
1:20
140
1.0
141
20.0
290
     0
  0
SCALE
  5
50
102
{ACAD_REACTORS
330
47
102
}
330
47
100
AcDbScale
 70
     0
300
1:30
140
1.0
141
30.0
290
     0
  0
SCALE
  5
51
102
{ACAD_REACTORS
330
47
102
}
330
47
100
AcDbScale
 70
     0
300
1:40
140
1.0
141
40.0
290
     0
  0
SCALE
  5
52
102
{ACAD_REACTORS
330
47
102
}
330
47
100
AcDbScale
 70
     0
300
1:50
140
1.0
141
50.0
290
     0
  0
SCALE
  5
53
102
{ACAD_REACTORS
330
47
102
}
330
47
100
AcDbScale
 70
     0
300
1:100
140
1.0
141
100.0
290
     0
  0
SCALE
  5
54
102
{ACAD_REACTORS
330
47
102
}
330
47
100
AcDbScale
 70
     0
300
2:1
140
2.0
141
1.0
290
     0
  0
SCALE
  5
55
102
{ACAD_REACTORS
330
47
102
}
330
47
100
AcDbScale
 70
     0
300
4:1
140
4.0
141
1.0
290
     0
  0
SCALE
  5
56
102
{ACAD_REACTORS
330
47
102
}
330
47
100
AcDbScale
 70
     0
300
8:1
140
8.0
141
1.0
290
     0
  0
SCALE
  5
57
102
{ACAD_REACTORS
330
47
102
}
330
47
100
AcDbScale
 70
     0
300
10:1
140
10.0
141
1.0
290
     0
  0
SCALE
  5
58
102
{ACAD_REACTORS
330
47
102
}
330
47
100
AcDbScale
 70
     0
300
100:1
140
100.0
141
1.0
290
     0
  0
SCALE
  5
59
102
{ACAD_REACTORS
330
47
102
}
330
47
100
AcDbScale
 70
     0
300
1/128" = 1'-0"
140
0.0078125
141
12.0
290
     0
  0
SCALE
  5
5A
102
{ACAD_REACTORS
330
47
102
}
330
47
100
AcDbScale
 70
     0
300
1/64" = 1'-0"
140
0.015625
141
12.0
290
     0
  0
SCALE
  5
5B
102
{ACAD_REACTORS
330
47
102
}
330
47
100
AcDbScale
 70
     0
300
1/32" = 1'-0"
140
0.03125
141
12.0
290
     0
  0
SCALE
  5
5C
102
{ACAD_REACTORS
330
47
102
}
330
47
100
AcDbScale
 70
     0
300
1/16" = 1'-0"
140
0.0625
141
12.0
290
     0
  0
SCALE
  5
5D
102
{ACAD_REACTORS
330
47
102
}
330
47
100
AcDbScale
 70
     0
300
3/32" = 1'-0"
140
0.09375
141
12.0
290
     0
  0
SCALE
  5
5E
102
{ACAD_REACTORS
330
47
102
}
330
47
100
AcDbScale
 70
     0
300
1/8" = 1'-0"
140
0.125
141
12.0
290
     0
  0
SCALE
  5
5F
102
{ACAD_REACTORS
330
47
102
}
330
47
100
AcDbScale
 70
     0
300
3/16" = 1'-0"
140
0.1875
141
12.0
290
     0
  0
SCALE
  5
60
102
{ACAD_REACTORS
330
47
102
}
330
47
100
AcDbScale
 70
     0
300
1/4" = 1'-0"
140
0.25
141
12.0
290
     0
  0
SCALE
  5
61
102
{ACAD_REACTORS
330
47
102
}
330
47
100
AcDbScale
 70
     0
300
3/8" = 1'-0"
140
0.375
141
12.0
290
     0
  0
SCALE
  5
62
102
{ACAD_REACTORS
330
47
102
}
330
47
100
AcDbScale
 70
     0
300
1/2" = 1'-0"
140
0.5
141
12.0
290
     0
  0
SCALE
  5
63
102
{ACAD_REACTORS
330
47
102
}
330
47
100
AcDbScale
 70
     0
300
3/4" = 1'-0"
140
0.75
141
12.0
290
     0
  0
SCALE
  5
64
102
{ACAD_REACTORS
330
47
102
}
330
47
100
AcDbScale
 70
     0
300
1" = 1'-0"
140
1.0
141
12.0
290
     0
  0
SCALE
  5
65
102
{ACAD_REACTORS
330
47
102
}
330
47
100
AcDbScale
 70
     0
300
1-1/2" = 1'-0"
140
1.5
141
12.0
290
     0
  0
SCALE
  5
66
102
{ACAD_REACTORS
330
47
102
}
330
47
100
AcDbScale
 70
     0
300
3" = 1'-0"
140
3.0
141
12.0
290
     0
  0
SCALE
  5
67
102
{ACAD_REACTORS
330
47
102
}
330
47
100
AcDbScale
 70
     0
300
6" = 1'-0"
140
6.0
141
12.0
290
     0
  0
SCALE
  5
68
102
{ACAD_REACTORS
330
47
102
}
330
47
100
AcDbScale
 70
     0
300
1'-0" = 1'-0"
140
12.0
141
12.0
290
     0
  0
TABLESTYLE
  5
6A
102
{ACAD_REACTORS
330
69
102
}
102
{ACAD_XDICTIONARY
360
279
102
}
330
69
100
AcDbTableStyle
  3
Standard
 70
     0
 71
     0
 40
0.06
 41
0.06
280
     0
281
     0
  7
Standard
140
0.18
170
     2
 62
     0
 63
   257
283
     0
 90
        4
 91
        0
  1

274
    -2
284
     1
 64
     0
275
    -2
285
     1
 65
     0
276
    -2
286
     1
 66
     0
277
    -2
287
     1
 67
     0
278
    -2
288
     1
 68
     0
279
    -2
289
     1
 69
     0
  7
Standard
140
0.25
170
     5
 62
     0
 63
   257
283
     0
 90
        4
 91
        0
  1

274
    -2
284
     1
 64
     0
275
    -2
285
     1
 65
     0
276
    -2
286
     1
 66
     0
277
    -2
287
     1
 67
     0
278
    -2
288
     1
 68
     0
279
    -2
289
     1
 69
     0
  7
Standard
140
0.18
170
     5
 62
     0
 63
   257
283
     0
 90
        4
 91
        0
  1

274
    -2
284
     1
 64
     0
275
    -2
285
     1
 65
     0
276
    -2
286
     1
 66
     0
277
    -2
287
     1
 67
     0
278
    -2
288
     1
 68
     0
279
    -2
289
     1
 69
     0
  0
VISUALSTYLE
  5
2F
102
{ACAD_REACTORS
330
2A
102
}
330
2A
100
AcDbVisualStyle
  2
2dWireframe
 70
     4
177
     3
291
     0
 70
    58
 90
        0
176
     1
 90
        2
176
     1
 90
        0
176
     1
 90
        0
176
     1
 40
0.6
176
     1
 40
30.0
176
     1
 62
     7
420
 16777215
176
     1
 90
        1
176
     1
 90
        4
176
     1
 62
     7
176
     1
 62
   257
176
     1
 90
        1
176
     1
 90
        1
176
     1
 40
1.0
176
     1
 90
        0
176
     1
 62
   257
176
     1
 40
1.0
176
     1
 90
        1
176
     1
 90
        6
176
     1
 90
        2
176
     1
 62
     7
176
     1
 90
        5
176
     1
 90
        0
176
     1
 90
        0
176
     1
290
     0
176
     1
 90
        1
176
     1
 40
0.0
176
     1
 90
        0
176
     1
290
     1
176
     1
290
     1
176
     1
290
     0
176
     1
290
     0
176
     1
290
     0
176
     1
290
     0
176
     1
290
     0
176
     1
290
     0
176
     1
290
     0
176
     1
 90
       50
176
     1
 40
0.0
176
     1
 40
1.0
176
     1
 90
        0
176
     1
 62
    18
420
        0
176
     1
 90
       50
176
     1
 90
        3
176
     1
 62
     5
420
      255
176
     1
290
     0
176
     1
 90
       50
176
     1
 90
       50
176
     1
 90
       50
176
     1
290
     0
176
     1
 90
       50
176
     1
 62
   256
176
     0
 40
1.0
176
     0
 90
        2
176
     1
  1
strokes_ogs.tif
176
     1
290
     0
176
     1
 40
1.0
176
     1
 40
1.0
176
     1
  0
VISUALSTYLE
  5
32
102
{ACAD_REACTORS
330
2A
102
}
330
2A
100
AcDbVisualStyle
  2
Basic
 70
     7
177
     3
291
     1
 70
    58
 90
        1
176
     1
 90
        0
176
     1
 90
        1
176
     1
 90
        0
176
     1
 40
0.6
176
     1
 40
30.0
176
     1
 62
     7
420
 16777215
176
     1
 90
        0
176
     1
 90
        4
176
     1
 62
     7
176
     1
 62
   257
176
     1
 90
        1
176
     1
 90
        1
176
     1
 40
1.0
176
     1
 90
        8
176
     1
 62
     7
176
     1
 40
1.0
176
     1
 90
        1
176
     1
 90
        6
176
     1
 90
        2
176
     1
 62
     7
176
     1
 90
        5
176
     1
 90
        0
176
     1
 90
        0
176
     1
290
     0
176
     1
 90
        1
176
     1
 40
0.0
176
     1
 90
        0
176
     1
290
     0
176
     1
290
     1
176
     1
290
     1
176
     1
290
     0
176
     1
290
     0
176
     1
290
     0
176
     1
290
     0
176
     1
290
     0
176
     1
290
     0
176
     1
 90
       50
176
     1
 40
0.0
176
     1
 40
1.0
176
     1
 90
        0
176
     1
 62
    18
420
        0
176
     1
 90
       50
176
     1
 90
        3
176
     1
 62
     5
420
      255
176
     1
290
     0
176
     1
 90
       50
176
     1
 90
       50
176
     1
 90
       50
176
     1
290
     0
176
     1
 90
       50
176
     1
 62
   256
176
     0
 40
1.0
176
     0
 90
        2
176
     1
  1
strokes_ogs.tif
176
     1
290
     0
176
     1
 40
1.0
176
     1
 40
1.0
176
     1
  0
VISUALSTYLE
  5
36
102
{ACAD_REACTORS
330
2A
102
}
330
2A
100
AcDbVisualStyle
  2
Brighten
 70
    12
177
     3
291
     1
 70
    58
 90
        2
176
     1
 90
        2
176
     1
 90
        0
176
     1
 90
        0
176
     1
 40
0.6
176
     1
 40
30.0
176
     1
 62
     7
420
 16777215
176
     1
 90
        1
176
     1
 90
        4
176
     1
 62
     7
176
     1
 62
   257
176
     1
 90
        1
176
     1
 90
        1
176
     1
 40
1.0
176
     1
 90
        8
176
     1
 62
     7
176
     1
 40
1.0
176
     1
 90
        1
176
     1
 90
        6
176
     1
 90
        2
176
     1
 62
     7
176
     1
 90
        5
176
     1
 90
        0
176
     1
 90
        0
176
     1
290
     0
176
     1
 90
        1
176
     1
 40
50.0
176
     1
 90
        0
176
     1
290
     0
176
     1
290
     1
176
     1
290
     1
176
     1
290
     0
176
     1
290
     0
176
     1
290
     0
176
     1
290
     0
176
     1
290
     0
176
     1
290
     0
176
     1
 90
       50
176
     1
 40
0.0
176
     1
 40
1.0
176
     1
 90
        0
176
     1
 62
    18
420
        0
176
     1
 90
       50
176
     1
 90
        3
176
     1
 62
     5
420
      255
176
     1
290
     0
176
     1
 90
       50
176
     1
 90
       50
176
     1
 90
       50
176
     1
290
     0
176
     1
 90
       50
176
     1
 62
   256
176
     0
 40
1.0
176
     0
 90
        2
176
     1
  1
strokes_ogs.tif
176
     1
290
     0
176
     1
 40
1.0
176
     1
 40
1.0
176
     1
  0
VISUALSTYLE
  5
3A
102
{ACAD_REACTORS
330
2A
102
}
330
2A
100
AcDbVisualStyle
  2
ColorChange
 70
    16
177
     3
291
     1
 70
    58
 90
        2
176
     1
 90
        2
176
     1
 90
        3
176
     1
 90
        0
176
     1
 40
0.6
176
     1
 40
30.0
176
     1
 62
     8
420
  8421504
176
     1
 90
        1
176
     1
 90
        4
176
     1
 62
     7
176
     1
 62
   257
176
     1
 90
        1
176
     1
 90
        1
176
     1
 40
1.0
176
     1
 90
        8
176
     1
 62
     8
420
  8421504
176
     1
 40
1.0
176
     1
 90
        1
176
     1
 90
        6
176
     1
 90
        2
176
     1
 62
     7
176
     1
 90
        5
176
     1
 90
        0
176
     1
 90
        0
176
     1
290
     0
176
     1
 90
        1
176
     1
 40
0.0
176
     1
 90
        0
176
     1
290
     0
176
     1
290
     1
176
     1
290
     1
176
     1
290
     0
176
     1
290
     0
176
     1
290
     0
176
     1
290
     0
176
     1
290
     0
176
     1
290
     0
176
     1
 90
       50
176
     1
 40
0.0
176
     1
 40
1.0
176
     1
 90
        0
176
     1
 62
    18
420
        0
176
     1
 90
       50
176
     1
 90
        3
176
     1
 62
     5
420
      255
176
     1
290
     0
176
     1
 90
       50
176
     1
 90
       50
176
     1
 90
       50
176
     1
290
     0
176
     1
 90
       50
176
     1
 62
   256
176
     0
 40
1.0
176
     0
 90
        2
176
     1
  1
strokes_ogs.tif
176
     1
290
     0
176
     1
 40
1.0
176
     1
 40
1.0
176
     1
  0
VISUALSTYLE
  5
34
102
{ACAD_REACTORS
330
2A
102
}
330
2A
100
AcDbVisualStyle
  2
Conceptual
 70
     9
177
     3
291
     0
 70
    58
 90
        3
176
     1
 90
        2
176
     1
 90
        0
176
     1
 90
        0
176
     1
 40
0.6
176
     1
 40
30.0
176
     1
 62
     7
420
 16777215
176
     1
 90
        2
176
     1
 90
        2
176
     1
 62
     7
176
     1
 62
   257
176
     1
 90
        1
176
     1
 90
        1
176
     1
 40
179.0
176
     1
 90
        8
176
     1
 62
     7
176
     1
 40
1.0
176
     1
 90
        1
176
     1
 90
        6
176
     1
 90
        2
176
     1
 62
     7
176
     1
 90
        3
176
     1
 90
        0
176
     1
 90
        0
176
     1
290
     0
176
     1
 90
        1
176
     1
 40
0.0
176
     1
 90
        0
176
     1
290
     0
176
     1
290
     1
176
     1
290
     1
176
     1
290
     0
176
     1
290
     0
176
     1
290
     0
176
     1
290
     0
176
     1
290
     0
176
     1
290
     0
176
     1
 90
       50
176
     1
 40
0.0
176
     1
 40
1.0
176
     1
 90
        0
176
     1
 62
    18
420
        0
176
     1
 90
       50
176
     1
 90
        3
176
     1
 62
     5
420
      255
176
     1
290
     0
176
     1
 90
       50
176
     1
 90
       50
176
     1
 90
       50
176
     1
290
     0
176
     1
 90
       50
176
     1
 62
   256
176
     0
 40
1.0
176
     0
 90
        2
176
     1
  1
strokes_ogs.tif
176
     1
290
     0
176
     1
 40
1.0
176
     1
 40
1.0
176
     1
  0
VISUALSTYLE
  5
35
102
{ACAD_REACTORS
330
2A
102
}
330
2A
100
AcDbVisualStyle
  2
Dim
 70
    11
177
     3
291
     1
 70
    58
 90
        2
176
     1
 90
        2
176
     1
 90
        0
176
     1
 90
        0
176
     1
 40
0.6
176
     1
 40
30.0
176
     1
 62
     7
420
 16777215
176
     1
 90
        1
176
     1
 90
        4
176
     1
 62
     7
176
     1
 62
   257
176
     1
 90
        1
176
     1
 90
        1
176
     1
 40
1.0
176
     1
 90
        8
176
     1
 62
     7
176
     1
 40
1.0
176
     1
 90
        1
176
     1
 90
        6
176
     1
 90
        2
176
     1
 62
     7
176
     1
 90
        5
176
     1
 90
        0
176
     1
 90
        0
176
     1
290
     0
176
     1
 90
        1
176
     1
 40
-50.0
176
     1
 90
        0
176
     1
290
     0
176
     1
290
     1
176
     1
290
     1
176
     1
290
     0
176
     1
290
     0
176
     1
290
     0
176
     1
290
     0
176
     1
290
     0
176
     1
290
     0
176
     1
 90
       50
176
     1
 40
0.0
176
     1
 40
1.0
176
     1
 90
        0
176
     1
 62
    18
420
        0
176
     1
 90
       50
176
     1
 90
        3
176
     1
 62
     5
420
      255
176
     1
290
     0
176
     1
 90
       50
176
     1
 90
       50
176
     1
 90
       50
176
     1
290
     0
176
     1
 90
       50
176
     1
 62
   256
176
     0
 40
1.0
176
     0
 90
        2
176
     1
  1
strokes_ogs.tif
176
     1
290
     0
176
     1
 40
1.0
176
     1
 40
1.0
176
     1
  0
VISUALSTYLE
  5
3D
102
{ACAD_REACTORS
330
2A
102
}
330
2A
100
AcDbVisualStyle
  2
EdgeColorOff
 70
    22
177
     3
291
     1
 70
    58
 90
        2
176
     0
 90
        2
176
     0
 90
        0
176
     0
 90
        0
176
     0
 40
0.6
176
     0
 40
30.0
176
     0
 62
     7
420
 16777215
176
     0
 90
        1
176
     0
 90
        4
176
     0
 62
     7
176
     0
 62
   257
176
     0
 90
        1
176
     0
 90
        1
176
     0
 40
1.0
176
     0
 90
        8
176
     2
 62
     7
176
     0
 40
1.0
176
     0
 90
        1
176
     0
 90
        6
176
     0
 90
        2
176
     0
 62
     7
176
     0
 90
        5
176
     0
 90
        0
176
     0
 90
        0
176
     0
290
     0
176
     0
 90
        1
176
     0
 40
0.0
176
     0
 90
        0
176
     0
290
     0
176
     0
290
     1
176
     0
290
     1
176
     0
290
     0
176
     0
290
     0
176
     0
290
     0
176
     0
290
     0
176
     0
290
     0
176
     0
290
     0
176
     0
 90
       50
176
     0
 40
0.0
176
     0
 40
1.0
176
     0
 90
        0
176
     0
 62
    18
420
        0
176
     0
 90
       50
176
     0
 90
        3
176
     0
 62
     5
420
      255
176
     0
290
     0
176
     0
 90
       50
176
     0
 90
       50
176
     0
 90
       50
176
     0
290
     0
176
     0
 90
       50
176
     0
 62
   256
176
     0
 40
1.0
176
     0
 90
        2
176
     0
  1
strokes_ogs.tif
176
     0
290
     0
176
     0
 40
1.0
176
     0
 40
1.0
176
     0
  0
VISUALSTYLE
  5
39
102
{ACAD_REACTORS
330
2A
102
}
330
2A
100
AcDbVisualStyle
  2
Facepattern
 70
    15
177
     3
291
     1
 70
    58
 90
        2
176
     1
 90
        2
176
     1
 90
        0
176
     1
 90
        0
176
     1
 40
0.6
176
     1
 40
30.0
176
     1
 62
     7
420
 16777215
176
     1
 90
        1
176
     1
 90
        4
176
     1
 62
     7
176
     1
 62
   257
176
     1
 90
        1
176
     1
 90
        1
176
     1
 40
1.0
176
     1
 90
        8
176
     1
 62
     7
176
     1
 40
1.0
176
     1
 90
        1
176
     1
 90
        6
176
     1
 90
        2
176
     1
 62
     7
176
     1
 90
        5
176
     1
 90
        0
176
     1
 90
        0
176
     1
290
     0
176
     1
 90
        1
176
     1
 40
0.0
176
     1
 90
        0
176
     1
290
     0
176
     1
290
     1
176
     1
290
     1
176
     1
290
     0
176
     1
290
     0
176
     1
290
     0
176
     1
290
     0
176
     1
290
     0
176
     1
290
     0
176
     1
 90
       50
176
     1
 40
0.0
176
     1
 40
1.0
176
     1
 90
        0
176
     1
 62
    18
420
        0
176
     1
 90
       50
176
     1
 90
        3
176
     1
 62
     5
420
      255
176
     1
290
     0
176
     1
 90
       50
176
     1
 90
       50
176
     1
 90
       50
176
     1
290
     0
176
     1
 90
       50
176
     1
 62
   256
176
     0
 40
1.0
176
     0
 90
        2
176
     1
  1
strokes_ogs.tif
176
     1
290
     0
176
     1
 40
1.0
176
     1
 40
1.0
176
     1
  0
VISUALSTYLE
  5
2B
102
{ACAD_REACTORS
330
2A
102
}
330
2A
100
AcDbVisualStyle
  2
Flat
 70
     0
177
     3
291
     1
 70
    58
 90
        2
176
     1
 90
        1
176
     1
 90
        1
176
     1
 90
        2
176
     1
 40
0.6
176
     1
 40
30.0
176
     1
 62
     7
420
 16777215
176
     1
 90
        0
176
     1
 90
        0
176
     1
 62
     7
176
     1
 62
   257
176
     1
 90
        1
176
     1
 90
        1
176
     1
 40
1.0
176
     1
 90
        8
176
     1
 62
     7
176
     1
 40
1.0
176
     1
 90
        1
176
     1
 90
        6
176
     1
 90
        2
176
     1
 62
     7
176
     1
 90
        5
176
     1
 90
        0
176
     1
 90
        0
176
     1
290
     0
176
     1
 90
       13
176
     1
 40
0.0
176
     1
 90
        0
176
     1
290
     0
176
     1
290
     1
176
     1
290
     1
176
     1
290
     0
176
     1
290
     0
176
     1
290
     0
176
     1
290
     0
176
     1
290
     0
176
     1
290
     0
176
     1
 90
       50
176
     1
 40
0.0
176
     1
 40
1.0
176
     1
 90
        0
176
     1
 62
    18
420
        0
176
     1
 90
       50
176
     1
 90
        3
176
     1
 62
     5
420
      255
176
     1
290
     0
176
     1
 90
       50
176
     1
 90
       50
176
     1
 90
       50
176
     1
290
     0
176
     1
 90
       50
176
     1
 62
   256
176
     0
 40
1.0
176
     0
 90
        2
176
     1
  1
strokes_ogs.tif
176
     1
290
     0
176
     1
 40
1.0
176
     1
 40
1.0
176
     1
  0
VISUALSTYLE
  5
2C
102
{ACAD_REACTORS
330
2A
102
}
330
2A
100
AcDbVisualStyle
  2
FlatWithEdges
 70
     1
177
     3
291
     1
 70
    58
 90
        2
176
     1
 90
        1
176
     1
 90
        1
176
     1
 90
        2
176
     1
 40
0.6
176
     1
 40
30.0
176
     1
 62
     7
420
 16777215
176
     1
 90
        1
176
     1
 90
        0
176
     1
 62
     7
176
     1
 62
   257
176
     1
 90
        1
176
     1
 90
        1
176
     1
 40
1.0
176
     1
 90
        0
176
     1
 62
   257
176
     1
 40
1.0
176
     1
 90
        1
176
     1
 90
        6
176
     1
 90
        2
176
     1
 62
     7
176
     1
 90
        5
176
     1
 90
        0
176
     1
 90
        0
176
     1
290
     0
176
     1
 90
       13
176
     1
 40
0.0
176
     1
 90
        0
176
     1
290
     0
176
     1
290
     1
176
     1
290
     1
176
     1
290
     0
176
     1
290
     0
176
     1
290
     0
176
     1
290
     0
176
     1
290
     0
176
     1
290
     0
176
     1
 90
       50
176
     1
 40
0.0
176
     1
 40
1.0
176
     1
 90
        0
176
     1
 62
    18
420
        0
176
     1
 90
       50
176
     1
 90
        3
176
     1
 62
     5
420
      255
176
     1
290
     0
176
     1
 90
       50
176
     1
 90
       50
176
     1
 90
       50
176
     1
290
     0
176
     1
 90
       50
176
     1
 62
   256
176
     0
 40
1.0
176
     0
 90
        2
176
     1
  1
strokes_ogs.tif
176
     1
290
     0
176
     1
 40
1.0
176
     1
 40
1.0
176
     1
  0
VISUALSTYLE
  5
2D
102
{ACAD_REACTORS
330
2A
102
}
330
2A
100
AcDbVisualStyle
  2
Gouraud
 70
     2
177
     3
291
     1
 70
    58
 90
        2
176
     1
 90
        2
176
     1
 90
        1
176
     1
 90
        2
176
     1
 40
0.6
176
     1
 40
30.0
176
     1
 62
     7
420
 16777215
176
     1
 90
        0
176
     1
 90
        0
176
     1
 62
     7
176
     1
 62
   257
176
     1
 90
        1
176
     1
 90
        1
176
     1
 40
1.0
176
     1
 90
        0
176
     1
 62
     7
176
     1
 40
1.0
176
     1
 90
        1
176
     1
 90
        6
176
     1
 90
        2
176
     1
 62
     7
176
     1
 90
        5
176
     1
 90
        0
176
     1
 90
        0
176
     1
290
     0
176
     1
 90
       13
176
     1
 40
0.0
176
     1
 90
        0
176
     1
290
     0
176
     1
290
     1
176
     1
290
     1
176
     1
290
     0
176
     1
290
     0
176
     1
290
     0
176
     1
290
     0
176
     1
290
     0
176
     1
290
     0
176
     1
 90
       50
176
     1
 40
0.0
176
     1
 40
1.0
176
     1
 90
        0
176
     1
 62
    18
420
        0
176
     1
 90
       50
176
     1
 90
        3
176
     1
 62
     5
420
      255
176
     1
290
     0
176
     1
 90
       50
176
     1
 90
       50
176
     1
 90
       50
176
     1
290
     0
176
     1
 90
       50
176
     1
 62
   256
176
     0
 40
1.0
176
     0
 90
        2
176
     1
  1
strokes_ogs.tif
176
     1
290
     0
176
     1
 40
1.0
176
     1
 40
1.0
176
     1
  0
VISUALSTYLE
  5
2E
102
{ACAD_REACTORS
330
2A
102
}
330
2A
100
AcDbVisualStyle
  2
GouraudWithEdges
 70
     3
177
     3
291
     1
 70
    58
 90
        2
176
     1
 90
        2
176
     1
 90
        1
176
     1
 90
        2
176
     1
 40
0.6
176
     1
 40
30.0
176
     1
 62
     7
420
 16777215
176
     1
 90
        1
176
     1
 90
        0
176
     1
 62
     7
176
     1
 62
   257
176
     1
 90
        1
176
     1
 90
        1
176
     1
 40
1.0
176
     1
 90
        0
176
     1
 62
   257
176
     1
 40
1.0
176
     1
 90
        1
176
     1
 90
        6
176
     1
 90
        2
176
     1
 62
     7
176
     1
 90
        5
176
     1
 90
        0
176
     1
 90
        0
176
     1
290
     0
176
     1
 90
       13
176
     1
 40
0.0
176
     1
 90
        0
176
     1
290
     0
176
     1
290
     1
176
     1
290
     1
176
     1
290
     0
176
     1
290
     0
176
     1
290
     0
176
     1
290
     0
176
     1
290
     0
176
     1
290
     0
176
     1
 90
       50
176
     1
 40
0.0
176
     1
 40
1.0
176
     1
 90
        0
176
     1
 62
    18
420
        0
176
     1
 90
       50
176
     1
 90
        3
176
     1
 62
     5
420
      255
176
     1
290
     0
176
     1
 90
       50
176
     1
 90
       50
176
     1
 90
       50
176
     1
290
     0
176
     1
 90
       50
176
     1
 62
   256
176
     0
 40
1.0
176
     0
 90
        2
176
     1
  1
strokes_ogs.tif
176
     1
290
     0
176
     1
 40
1.0
176
     1
 40
1.0
176
     1
  0
VISUALSTYLE
  5
31
102
{ACAD_REACTORS
330
2A
102
}
330
2A
100
AcDbVisualStyle
  2
Hidden
 70
     6
177
     3
291
     0
 70
    58
 90
        1
176
     1
 90
        2
176
     1
 90
        2
176
     1
 90
        0
176
     1
 40
0.6
176
     1
 40
30.0
176
     1
 62
     7
420
 16777215
176
     1
 90
        2
176
     1
 90
        2
176
     1
 62
     7
176
     1
 62
   257
176
     1
 90
        2
176
     1
 90
        1
176
     1
 40
40.0
176
     1
 90
        0
176
     1
 62
   257
176
     1
 40
1.0
176
     1
 90
        1
176
     1
 90
        6
176
     1
 90
        2
176
     1
 62
     7
176
     1
 90
        3
176
     1
 90
        0
176
     1
 90
        0
176
     1
290
     0
176
     1
 90
        1
176
     1
 40
0.0
176
     1
 90
        0
176
     1
290
     0
176
     1
290
     1
176
     1
290
     1
176
     1
290
     0
176
     1
290
     0
176
     1
290
     0
176
     1
290
     0
176
     1
290
     0
176
     1
290
     0
176
     1
 90
       50
176
     1
 40
0.0
176
     1
 40
1.0
176
     1
 90
        0
176
     1
 62
    18
420
        0
176
     1
 90
       50
176
     1
 90
        3
176
     1
 62
     5
420
      255
176
     1
290
     0
176
     1
 90
       50
176
     1
 90
       50
176
     1
 90
       50
176
     1
290
     0
176
     1
 90
       50
176
     1
 62
   256
176
     0
 40
1.0
176
     0
 90
        2
176
     1
  1
strokes_ogs.tif
176
     1
290
     0
176
     1
 40
1.0
176
     1
 40
1.0
176
     1
  0
VISUALSTYLE
  5
3B
102
{ACAD_REACTORS
330
2A
102
}
330
2A
100
AcDbVisualStyle
  2
JitterOff
 70
    20
177
     3
291
     1
 70
    58
 90
        2
176
     0
 90
        2
176
     0
 90
        0
176
     0
 90
        0
176
     0
 40
0.6
176
     0
 40
30.0
176
     0
 62
     7
420
 16777215
176
     0
 90
        1
176
     0
 90
        4
176
     0
 62
     7
176
     0
 62
   257
176
     0
 90
        1
176
     0
 90
        1
176
     0
 40
1.0
176
     0
 90
       10
176
     2
 62
     7
176
     0
 40
1.0
176
     0
 90
        1
176
     0
 90
        6
176
     0
 90
        2
176
     0
 62
     7
176
     0
 90
        5
176
     0
 90
        0
176
     0
 90
        0
176
     0
290
     0
176
     0
 90
        1
176
     0
 40
0.0
176
     0
 90
        0
176
     0
290
     0
176
     0
290
     1
176
     0
290
     1
176
     0
290
     0
176
     0
290
     0
176
     0
290
     0
176
     0
290
     0
176
     0
290
     0
176
     0
290
     0
176
     0
 90
       50
176
     0
 40
0.0
176
     0
 40
1.0
176
     0
 90
        0
176
     0
 62
    18
420
        0
176
     0
 90
       50
176
     0
 90
        3
176
     0
 62
     5
420
      255
176
     0
290
     0
176
     0
 90
       50
176
     0
 90
       50
176
     0
 90
       50
176
     0
290
     0
176
     0
 90
       50
176
     0
 62
   256
176
     0
 40
1.0
176
     0
 90
        2
176
     0
  1
strokes_ogs.tif
176
     0
290
     0
176
     0
 40
1.0
176
     0
 40
1.0
176
     0
  0
VISUALSTYLE
  5
38
102
{ACAD_REACTORS
330
2A
102
}
330
2A
100
AcDbVisualStyle
  2
Linepattern
 70
    14
177
     3
291
     1
 70
    58
 90
        2
176
     1
 90
        2
176
     1
 90
        0
176
     1
 90
        0
176
     1
 40
0.6
176
     1
 40
30.0
176
     1
 62
     7
420
 16777215
176
     1
 90
        1
176
     1
 90
        4
176
     1
 62
     7
176
     1
 62
   257
176
     1
 90
        7
176
     1
 90
        7
176
     1
 40
1.0
176
     1
 90
        8
176
     1
 62
     7
176
     1
 40
1.0
176
     1
 90
        1
176
     1
 90
        6
176
     1
 90
        2
176
     1
 62
     7
176
     1
 90
        5
176
     1
 90
        0
176
     1
 90
        0
176
     1
290
     0
176
     1
 90
        1
176
     1
 40
0.0
176
     1
 90
        0
176
     1
290
     0
176
     1
290
     1
176
     1
290
     1
176
     1
290
     0
176
     1
290
     0
176
     1
290
     0
176
     1
290
     0
176
     1
290
     0
176
     1
290
     0
176
     1
 90
       50
176
     1
 40
0.0
176
     1
 40
1.0
176
     1
 90
        0
176
     1
 62
    18
420
        0
176
     1
 90
       50
176
     1
 90
        3
176
     1
 62
     5
420
      255
176
     1
290
     0
176
     1
 90
       50
176
     1
 90
       50
176
     1
 90
       50
176
     1
290
     0
176
     1
 90
       50
176
     1
 62
   256
176
     0
 40
1.0
176
     0
 90
        2
176
     1
  1
strokes_ogs.tif
176
     1
290
     0
176
     1
 40
1.0
176
     1
 40
1.0
176
     1
  0
VISUALSTYLE
  5
3C
102
{ACAD_REACTORS
330
2A
102
}
330
2A
100
AcDbVisualStyle
  2
OverhangOff
 70
    21
177
     3
291
     1
 70
    58
 90
        2
176
     0
 90
        2
176
     0
 90
        0
176
     0
 90
        0
176
     0
 40
0.6
176
     0
 40
30.0
176
     0
 62
     7
420
 16777215
176
     0
 90
        1
176
     0
 90
        4
176
     0
 62
     7
176
     0
 62
   257
176
     0
 90
        1
176
     0
 90
        1
176
     0
 40
1.0
176
     0
 90
        9
176
     2
 62
     7
176
     0
 40
1.0
176
     0
 90
        1
176
     0
 90
        6
176
     0
 90
        2
176
     0
 62
     7
176
     0
 90
        5
176
     0
 90
        0
176
     0
 90
        0
176
     0
290
     0
176
     0
 90
        1
176
     0
 40
0.0
176
     0
 90
        0
176
     0
290
     0
176
     0
290
     1
176
     0
290
     1
176
     0
290
     0
176
     0
290
     0
176
     0
290
     0
176
     0
290
     0
176
     0
290
     0
176
     0
290
     0
176
     0
 90
       50
176
     0
 40
0.0
176
     0
 40
1.0
176
     0
 90
        0
176
     0
 62
    18
420
        0
176
     0
 90
       50
176
     0
 90
        3
176
     0
 62
     5
420
      255
176
     0
290
     0
176
     0
 90
       50
176
     0
 90
       50
176
     0
 90
       50
176
     0
290
     0
176
     0
 90
       50
176
     0
 62
   256
176
     0
 40
1.0
176
     0
 90
        2
176
     0
  1
strokes_ogs.tif
176
     0
290
     0
176
     0
 40
1.0
176
     0
 40
1.0
176
     0
  0
VISUALSTYLE
  5
33
102
{ACAD_REACTORS
330
2A
102
}
330
2A
100
AcDbVisualStyle
  2
Realistic
 70
     8
177
     3
291
     0
 70
    58
 90
        2
176
     1
 90
        3
176
     1
 90
        0
176
     1
 90
        2
176
     1
 40
0.6
176
     1
 40
30.0
176
     1
 62
     7
420
 16777215
176
     1
 90
        0
176
     1
 90
        0
176
     1
 62
     7
176
     1
 62
   257
176
     1
 90
        1
176
     1
 90
        1
176
     1
 40
1.0
176
     1
 90
        8
176
     1
 62
   257
176
     1
 40
1.0
176
     1
 90
        1
176
     1
 90
        6
176
     1
 90
        2
176
     1
 62
     7
176
     1
 90
        3
176
     1
 90
        0
176
     1
 90
        0
176
     1
290
     0
176
     1
 90
       13
176
     1
 40
0.0
176
     1
 90
        0
176
     1
290
     0
176
     1
290
     1
176
     1
290
     1
176
     1
290
     0
176
     1
290
     0
176
     1
290
     0
176
     1
290
     0
176
     1
290
     0
176
     1
290
     0
176
     1
 90
       50
176
     1
 40
0.0
176
     1
 40
1.0
176
     1
 90
        0
176
     1
 62
    18
420
        0
176
     1
 90
       50
176
     1
 90
        3
176
     1
 62
     5
420
      255
176
     1
290
     0
176
     1
 90
       50
176
     1
 90
       50
176
     1
 90
       50
176
     1
290
     0
176
     1
 90
       50
176
     1
 62
   256
176
     0
 40
1.0
176
     0
 90
        2
176
     1
  1
strokes_ogs.tif
176
     1
290
     0
176
     1
 40
1.0
176
     1
 40
1.0
176
     1
  0
VISUALSTYLE
  5
42
102
{ACAD_REACTORS
330
2A
102
}
330
2A
100
AcDbVisualStyle
  2
Shaded
 70
    27
177
     3
291
     0
 70
    58
 90
        2
176
     1
 90
        2
176
     1
 90
        1
176
     1
 90
        2
176
     1
 40
0.6
176
     1
 40
30.0
176
     1
 62
     7
420
 16777215
176
     1
 90
        0
176
     1
 90
        4
176
     1
 62
     7
176
     1
 62
   257
176
     1
 90
        1
176
     1
 90
        1
176
     1
 40
1.0
176
     1
 90
        8
176
     1
 62
   257
176
     1
 40
1.0
176
     1
 90
        1
176
     1
 90
        6
176
     1
 90
        2
176
     1
 62
     8
420
  7895160
176
     1
 90
        3
176
     1
 90
        0
176
     1
 90
        0
176
     1
290
     0
176
     1
 90
        5
176
     1
 40
0.0
176
     1
 90
        0
176
     1
290
     0
176
     1
290
     1
176
     1
290
     1
176
     1
290
     0
176
     1
290
     0
176
     1
290
     0
176
     1
290
     0
176
     1
290
     0
176
     1
290
     0
176
     1
 90
       50
176
     1
 40
0.0
176
     1
 40
1.0
176
     1
 90
        0
176
     1
 62
    18
420
        0
176
     1
 90
       50
176
     1
 90
        3
176
     1
 62
     5
420
      255
176
     1
290
     0
176
     1
 90
       50
176
     1
 90
       50
176
     1
 90
       50
176
     1
290
     0
176
     1
 90
       50
176
     1
 62
   256
176
     0
 40
1.0
176
     0
 90
        2
176
     1
  1
strokes_ogs.tif
176
     1
290
     0
176
     1
 40
1.0
176
     1
 40
1.0
176
     1
  0
VISUALSTYLE
  5
41
102
{ACAD_REACTORS
330
2A
102
}
330
2A
100
AcDbVisualStyle
  2
Shaded with edges
 70
    26
177
     3
291
     0
 70
    58
 90
        2
176
     1
 90
        2
176
     1
 90
        1
176
     1
 90
        2
176
     1
 40
0.6
176
     1
 40
30.0
176
     1
 62
     7
420
 16777215
176
     1
 90
        1
176
     1
 90
       10
176
     1
 62
     7
176
     1
 62
   257
176
     1
 90
        2
176
     1
 90
        1
176
     1
 40
1.0
176
     1
 90
        8
176
     1
 62
   257
176
     1
 40
1.0
176
     1
 90
        1
176
     1
 90
        6
176
     1
 90
        2
176
     1
 62
     7
176
     1
 90
        3
176
     1
 90
        0
176
     1
 90
        0
176
     1
290
     0
176
     1
 90
        5
176
     1
 40
0.0
176
     1
 90
        0
176
     1
290
     0
176
     1
290
     1
176
     1
290
     1
176
     1
290
     0
176
     1
290
     0
176
     1
290
     0
176
     1
290
     0
176
     1
290
     0
176
     1
290
     0
176
     1
 90
       50
176
     1
 40
0.0
176
     1
 40
1.0
176
     1
 90
        0
176
     1
 62
    18
420
        0
176
     1
 90
       50
176
     1
 90
        3
176
     1
 62
     5
420
      255
176
     1
290
     0
176
     1
 90
       50
176
     1
 90
       50
176
     1
 90
       50
176
     1
290
     0
176
     1
 90
       50
176
     1
 62
   256
176
     0
 40
1.0
176
     0
 90
        2
176
     1
  1
strokes_ogs.tif
176
     1
290
     0
176
     1
 40
1.0
176
     1
 40
1.0
176
     1
  0
VISUALSTYLE
  5
3E
102
{ACAD_REACTORS
330
2A
102
}
330
2A
100
AcDbVisualStyle
  2
Shades of Gray
 70
    23
177
     3
291
     0
 70
    58
 90
        2
176
     1
 90
        2
176
     1
 90
        3
176
     1
 90
        0
176
     1
 40
0.6
176
     1
 40
30.0
176
     1
 62
     7
420
 16777215
176
     1
 90
        2
176
     1
 90
        2
176
     1
 62
     7
176
     1
 62
     7
176
     1
 90
        1
176
     1
 90
        1
176
     1
 40
40.0
176
     1
 90
        8
176
     1
 62
     7
176
     1
 40
1.0
176
     1
 90
        1
176
     1
 90
        6
176
     1
 90
        2
176
     1
 62
     7
176
     1
 90
        3
176
     1
 90
        0
176
     1
 90
        0
176
     1
290
     0
176
     1
 90
        1
176
     1
 40
0.0
176
     1
 90
        0
176
     1
290
     0
176
     1
290
     1
176
     1
290
     1
176
     1
290
     0
176
     1
290
     0
176
     1
290
     0
176
     1
290
     0
176
     1
290
     0
176
     1
290
     0
176
     1
 90
       50
176
     1
 40
0.0
176
     1
 40
1.0
176
     1
 90
        0
176
     1
 62
    18
420
        0
176
     1
 90
       50
176
     1
 90
        3
176
     1
 62
     5
420
      255
176
     1
290
     0
176
     1
 90
       50
176
     1
 90
       50
176
     1
 90
       50
176
     1
290
     0
176
     1
 90
       50
176
     1
 62
   256
176
     0
 40
1.0
176
     0
 90
        2
176
     1
  1
strokes_ogs.tif
176
     1
290
     0
176
     1
 40
1.0
176
     1
 40
1.0
176
     1
  0
VISUALSTYLE
  5
3F
102
{ACAD_REACTORS
330
2A
102
}
330
2A
100
AcDbVisualStyle
  2
Sketchy
 70
    24
177
     3
291
     0
 70
    58
 90
        1
176
     1
 90
        2
176
     1
 90
        2
176
     1
 90
        0
176
     1
 40
0.6
176
     1
 40
30.0
176
     1
 62
     7
420
 16777215
176
     1
 90
        2
176
     1
 90
        2
176
     1
 62
     7
176
     1
 62
     7
176
     1
 90
        1
176
     1
 90
        1
176
     1
 40
40.0
176
     1
 90
       11
176
     1
 62
     7
176
     1
 40
1.0
176
     1
 90
        1
176
     1
 90
        6
176
     1
 90
        2
176
     1
 62
     7
176
     1
 90
        6
176
     1
 90
        0
176
     1
 90
        0
176
     1
290
     0
176
     1
 90
        1
176
     1
 40
0.0
176
     1
 90
        0
176
     1
290
     0
176
     1
290
     1
176
     1
290
     1
176
     1
290
     0
176
     1
290
     0
176
     1
290
     0
176
     1
290
     0
176
     1
290
     0
176
     1
290
     0
176
     1
 90
       50
176
     1
 40
0.0
176
     1
 40
1.0
176
     1
 90
        0
176
     1
 62
    18
420
        0
176
     1
 90
       50
176
     1
 90
        3
176
     1
 62
     5
420
      255
176
     1
290
     0
176
     1
 90
       50
176
     1
 90
       50
176
     1
 90
       50
176
     1
290
     0
176
     1
 90
       50
176
     1
 62
   256
176
     0
 40
1.0
176
     0
 90
        2
176
     1
  1
strokes_ogs.tif
176
     1
290
     0
176
     1
 40
1.0
176
     1
 40
1.0
176
     1
  0
VISUALSTYLE
  5
37
102
{ACAD_REACTORS
330
2A
102
}
330
2A
100
AcDbVisualStyle
  2
Thicken
 70
    13
177
     3
291
     1
 70
    58
 90
        2
176
     1
 90
        2
176
     1
 90
        0
176
     1
 90
        0
176
     1
 40
0.6
176
     1
 40
30.0
176
     1
 62
     7
420
 16777215
176
     1
 90
        1
176
     1
 90
        4
176
     1
 62
     7
176
     1
 62
   257
176
     1
 90
        1
176
     1
 90
        1
176
     1
 40
1.0
176
     1
 90
       12
176
     1
 62
     7
176
     1
 40
1.0
176
     1
 90
        1
176
     1
 90
        6
176
     1
 90
        2
176
     1
 62
     7
176
     1
 90
        5
176
     1
 90
        0
176
     1
 90
        0
176
     1
290
     0
176
     1
 90
        1
176
     1
 40
0.0
176
     1
 90
        0
176
     1
290
     0
176
     1
290
     1
176
     1
290
     1
176
     1
290
     0
176
     1
290
     0
176
     1
290
     0
176
     1
290
     0
176
     1
290
     0
176
     1
290
     0
176
     1
 90
       50
176
     1
 40
0.0
176
     1
 40
1.0
176
     1
 90
        0
176
     1
 62
    18
420
        0
176
     1
 90
       50
176
     1
 90
        3
176
     1
 62
     5
420
      255
176
     1
290
     0
176
     1
 90
       50
176
     1
 90
       50
176
     1
 90
       50
176
     1
290
     0
176
     1
 90
       50
176
     1
 62
   256
176
     0
 40
1.0
176
     0
 90
        2
176
     1
  1
strokes_ogs.tif
176
     1
290
     0
176
     1
 40
1.0
176
     1
 40
1.0
176
     1
  0
VISUALSTYLE
  5
30
102
{ACAD_REACTORS
330
2A
102
}
330
2A
100
AcDbVisualStyle
  2
Wireframe
 70
     5
177
     3
291
     0
 70
    58
 90
        0
176
     1
 90
        2
176
     1
 90
        0
176
     1
 90
        0
176
     1
 40
0.6
176
     1
 40
30.0
176
     1
 62
     7
420
 16777215
176
     1
 90
        1
176
     1
 90
        4
176
     1
 62
     7
176
     1
 62
   257
176
     1
 90
        1
176
     1
 90
        1
176
     1
 40
1.0
176
     1
 90
        0
176
     1
 62
   257
176
     1
 40
1.0
176
     1
 90
        1
176
     1
 90
        6
176
     1
 90
        2
176
     1
 62
     7
176
     1
 90
        3
176
     1
 90
        0
176
     1
 90
        0
176
     1
290
     0
176
     1
 90
        1
176
     1
 40
0.0
176
     1
 90
        0
176
     1
290
     0
176
     1
290
     1
176
     1
290
     1
176
     1
290
     0
176
     1
290
     0
176
     1
290
     0
176
     1
290
     0
176
     1
290
     0
176
     1
290
     0
176
     1
 90
       50
176
     1
 40
0.0
176
     1
 40
1.0
176
     1
 90
        0
176
     1
 62
    18
420
        0
176
     1
 90
       50
176
     1
 90
        3
176
     1
 62
     5
420
      255
176
     1
290
     0
176
     1
 90
       50
176
     1
 90
       50
176
     1
 90
       50
176
     1
290
     0
176
     1
 90
       50
176
     1
 62
   256
176
     0
 40
1.0
176
     0
 90
        2
176
     1
  1
strokes_ogs.tif
176
     1
290
     0
176
     1
 40
1.0
176
     1
 40
1.0
176
     1
  0
VISUALSTYLE
  5
40
102
{ACAD_REACTORS
330
2A
102
}
330
2A
100
AcDbVisualStyle
  2
X-Ray
 70
    25
177
     3
291
     0
 70
    58
 90
        2
176
     1
 90
        2
176
     1
 90
        1
176
     1
 90
        1
176
     1
 40
0.5
176
     1
 40
30.0
176
     1
 62
     7
420
 16777215
176
     1
 90
        1
176
     1
 90
        0
176
     1
 62
     7
176
     1
 62
   257
176
     1
 90
        1
176
     1
 90
        1
176
     1
 40
1.0
176
     1
 90
        8
176
     1
 62
     7
176
     1
 40
1.0
176
     1
 90
        1
176
     1
 90
        6
176
     1
 90
        2
176
     1
 62
     7
176
     1
 90
        3
176
     1
 90
        0
176
     1
 90
        0
176
     1
290
     0
176
     1
 90
       13
176
     1
 40
0.0
176
     1
 90
        0
176
     1
290
     0
176
     1
290
     1
176
     1
290
     1
176
     1
290
     0
176
     1
290
     0
176
     1
290
     0
176
     1
290
     0
176
     1
290
     0
176
     1
290
     0
176
     1
 90
       50
176
     1
 40
0.0
176
     1
 40
1.0
176
     1
 90
        0
176
     1
 62
    18
420
        0
176
     1
 90
       50
176
     1
 90
        3
176
     1
 62
     5
420
      255
176
     1
290
     0
176
     1
 90
       50
176
     1
 90
       50
176
     1
 90
       50
176
     1
290
     0
176
     1
 90
       50
176
     1
 62
   256
176
     0
 40
1.0
176
     0
 90
        2
176
     1
  1
strokes_ogs.tif
176
     1
290
     0
176
     1
 40
1.0
176
     1
 40
1.0
176
     1
  0
DICTIONARYVAR
  5
278
102
{ACAD_REACTORS
330
277
102
}
330
277
100
DictionaryVariables
280
     0
  1
1:1
  0
DICTIONARYVAR
  5
27D
102
{ACAD_REACTORS
330
277
102
}
330
277
100
DictionaryVariables
280
     0
  1
Standard
  0
DICTIONARYVAR
  5
27C
102
{ACAD_REACTORS
330
277
102
}
330
277
100
DictionaryVariables
280
     0
  1
Standard
  0
DICTIONARY
  5
279
330
6A
100
AcDbDictionary
280
     1
281
     1
  3
ACAD_ROUNDTRIP_2008_TABLESTYLE_CELLSTYLEMAP
360
27A
  0
CELLSTYLEMAP
  5
27A
102
{ACAD_REACTORS
330
279
102
}
330
279
100
AcDbCellStyleMap
 90
        3
300
CELLSTYLE
  1
TABLEFORMAT_BEGIN
 90
        5
170
     1
 91
        0
 92
    32768
 62
   257
 93
        1
300
CONTENTFORMAT
  1
CONTENTFORMAT_BEGIN
 90
        0
 91
        0
 92
        4
 93
        0
300

 40
0.0
140
1.0
 94
        5
 62
     0
340
11
144
0.25
309
CONTENTFORMAT_END
171
     1
301
MARGIN
  1
CELLMARGIN_BEGIN
 40
0.06
 40
0.06
 40
0.06
 40
0.06
 40
0.06
 40
0.06
309
CELLMARGIN_END
 94
        6
 95
        1
302
GRIDFORMAT
  1
GRIDFORMAT_BEGIN
 90
        0
 91
        1
 62
     0
 92
       -2
340
14
 93
        0
 40
0.045
309
GRIDFORMAT_END
 95
        2
302
GRIDFORMAT
  1
GRIDFORMAT_BEGIN
 90
        0
 91
        1
 62
     0
 92
       -2
340
14
 93
        0
 40
0.045
309
GRIDFORMAT_END
 95
        4
302
GRIDFORMAT
  1
GRIDFORMAT_BEGIN
 90
        0
 91
        1
 62
     0
 92
       -2
340
14
 93
        0
 40
0.045
309
GRIDFORMAT_END
 95
        8
302
GRIDFORMAT
  1
GRIDFORMAT_BEGIN
 90
        0
 91
        1
 62
     0
 92
       -2
340
14
 93
        0
 40
0.045
309
GRIDFORMAT_END
 95
       16
302
GRIDFORMAT
  1
GRIDFORMAT_BEGIN
 90
        0
 91
        1
 62
     0
 92
       -2
340
14
 93
        0
 40
0.045
309
GRIDFORMAT_END
 95
       32
302
GRIDFORMAT
  1
GRIDFORMAT_BEGIN
 90
        0
 91
        1
 62
     0
 92
       -2
340
14
 93
        0
 40
0.045
309
GRIDFORMAT_END
309
TABLEFORMAT_END
  1
CELLSTYLE_BEGIN
 90
        1
 91
        1
300
_TITLE
309
CELLSTYLE_END
300
CELLSTYLE
  1
TABLEFORMAT_BEGIN
 90
        5
170
     1
 91
        0
 92
        0
 62
   257
 93
        1
300
CONTENTFORMAT
  1
CONTENTFORMAT_BEGIN
 90
        0
 91
        0
 92
        4
 93
        0
300

 40
0.0
140
1.0
 94
        5
 62
     0
340
11
144
0.18
309
CONTENTFORMAT_END
171
     1
301
MARGIN
  1
CELLMARGIN_BEGIN
 40
0.06
 40
0.06
 40
0.06
 40
0.06
 40
0.06
 40
0.06
309
CELLMARGIN_END
 94
        6
 95
        1
302
GRIDFORMAT
  1
GRIDFORMAT_BEGIN
 90
        0
 91
        1
 62
     0
 92
       -2
340
14
 93
        0
 40
0.045
309
GRIDFORMAT_END
 95
        2
302
GRIDFORMAT
  1
GRIDFORMAT_BEGIN
 90
        0
 91
        1
 62
     0
 92
       -2
340
14
 93
        0
 40
0.045
309
GRIDFORMAT_END
 95
        4
302
GRIDFORMAT
  1
GRIDFORMAT_BEGIN
 90
        0
 91
        1
 62
     0
 92
       -2
340
14
 93
        0
 40
0.045
309
GRIDFORMAT_END
 95
        8
302
GRIDFORMAT
  1
GRIDFORMAT_BEGIN
 90
        0
 91
        1
 62
     0
 92
       -2
340
14
 93
        0
 40
0.045
309
GRIDFORMAT_END
 95
       16
302
GRIDFORMAT
  1
GRIDFORMAT_BEGIN
 90
        0
 91
        1
 62
     0
 92
       -2
340
14
 93
        0
 40
0.045
309
GRIDFORMAT_END
 95
       32
302
GRIDFORMAT
  1
GRIDFORMAT_BEGIN
 90
        0
 91
        1
 62
     0
 92
       -2
340
14
 93
        0
 40
0.045
309
GRIDFORMAT_END
309
TABLEFORMAT_END
  1
CELLSTYLE_BEGIN
 90
        2
 91
        1
300
_HEADER
309
CELLSTYLE_END
300
CELLSTYLE
  1
TABLEFORMAT_BEGIN
 90
        5
170
     1
 91
        0
 92
        0
 62
   257
 93
        1
300
CONTENTFORMAT
  1
CONTENTFORMAT_BEGIN
 90
        0
 91
        0
 92
        4
 93
        0
300

 40
0.0
140
1.0
 94
        2
 62
     0
340
11
144
0.18
309
CONTENTFORMAT_END
171
     1
301
MARGIN
  1
CELLMARGIN_BEGIN
 40
0.06
 40
0.06
 40
0.06
 40
0.06
 40
0.06
 40
0.06
309
CELLMARGIN_END
 94
        6
 95
        1
302
GRIDFORMAT
  1
GRIDFORMAT_BEGIN
 90
        0
 91
        1
 62
     0
 92
       -2
340
14
 93
        0
 40
0.045
309
GRIDFORMAT_END
 95
        2
302
GRIDFORMAT
  1
GRIDFORMAT_BEGIN
 90
        0
 91
        1
 62
     0
 92
       -2
340
14
 93
        0
 40
0.045
309
GRIDFORMAT_END
 95
        4
302
GRIDFORMAT
  1
GRIDFORMAT_BEGIN
 90
        0
 91
        1
 62
     0
 92
       -2
340
14
 93
        0
 40
0.045
309
GRIDFORMAT_END
 95
        8
302
GRIDFORMAT
  1
GRIDFORMAT_BEGIN
 90
        0
 91
        1
 62
     0
 92
       -2
340
14
 93
        0
 40
0.045
309
GRIDFORMAT_END
 95
       16
302
GRIDFORMAT
  1
GRIDFORMAT_BEGIN
 90
        0
 91
        1
 62
     0
 92
       -2
340
14
 93
        0
 40
0.045
309
GRIDFORMAT_END
 95
       32
302
GRIDFORMAT
  1
GRIDFORMAT_BEGIN
 90
        0
 91
        1
 62
     0
 92
       -2
340
14
 93
        0
 40
0.045
309
GRIDFORMAT_END
309
TABLEFORMAT_END
  1
CELLSTYLE_BEGIN
 90
        3
 91
        2
300
_DATA
309
CELLSTYLE_END
  0
ENDSEC
  0
EOF