0
SECTION
  2
HEADER
  9
$ACADVER
  1
AC1027
  9
$ACADMAINTVER
 70
     8
  9
$DWGCODEPAGE
  3
ANSI_1252
  9
$REQUIREDVERSIONS
160
                 0
  9
$COMMENTS
  1
File was created by Cadenas
  9
$CUSTOMPROPERTYTAG
  1
NN
  9
$CUSTOMPROPERTY
  1
Grip Tight Medium Duty Air-Handling Two-Bolt Pillow Block Inch Bore
  9
$CUSTOMPROPERTYTAG
  1
NT
  9
$CUSTOMPROPERTY
  1
GTMAH Air Handling Medium Duty Pillow Blocks
  9
$CUSTOMPROPERTYTAG
  1
NB
  9
$CUSTOMPROPERTY
  1
129242
  9
$CUSTOMPROPERTYTAG
  1
NBSYN
  9
$CUSTOMPROPERTY
  1
$PN.$LUBE.
  9
$CUSTOMPROPERTYTAG
  1
LINA
  9
$CUSTOMPROPERTY
  1
129242
  9
$CUSTOMPROPERTYTAG
  1
SERIES
  9
$CUSTOMPROPERTY
  1
216
  9
$CUSTOMPROPERTYTAG
  1
SS
  9
$CUSTOMPROPERTY
  1
2-15/16
  9
$CUSTOMPROPERTYTAG
  1
PN
  9
$CUSTOMPROPERTY
  1
129242
  9
$CUSTOMPROPERTYTAG
  1
DESCRIPTION
  9
$CUSTOMPROPERTY
  1
P2B-GTMAH-215
  9
$CUSTOMPROPERTYTAG
  1
A
  9
$CUSTOMPROPERTY
  1
2-49/64
  9
$CUSTOMPROPERTYTAG
  1
B
  9
$CUSTOMPROPERTY
  1
11-3/4
  9
$CUSTOMPROPERTYTAG
  1
C
  9
$CUSTOMPROPERTY
  1
3
  9
$CUSTOMPROPERTYTAG
  1
DMIN
  9
$CUSTOMPROPERTY
  1
8-1/2
  9
$CUSTOMPROPERTYTAG
  1
DMAX
  9
$CUSTOMPROPERTY
  1
9-1/2
  9
$CUSTOMPROPERTYTAG
  1
F
  9
$CUSTOMPROPERTY
  1
7/8
  9
$CUSTOMPROPERTYTAG
  1
G
  9
$CUSTOMPROPERTY
  1
1-7/16
  9
$CUSTOMPROPERTYTAG
  1
H
  9
$CUSTOMPROPERTY
  1
1-1/4
  9
$CUSTOMPROPERTYTAG
  1
J
  9
$CUSTOMPROPERTY
  1
6-15/16
  9
$CUSTOMPROPERTYTAG
  1
L
  9
$CUSTOMPROPERTY
  1
4-1/2
  9
$CUSTOMPROPERTYTAG
  1
M
  9
$CUSTOMPROPERTY
  1
3-1/2
  9
$CUSTOMPROPERTYTAG
  1
R
  9
$CUSTOMPROPERTY
  1
29/32
  9
$CUSTOMPROPERTYTAG
  1
S
  9
$CUSTOMPROPERTY
  1
1-55/64
  9
$CUSTOMPROPERTYTAG
  1
U
  9
$CUSTOMPROPERTY
  1
5-1/2
  9
$CUSTOMPROPERTYTAG
  1
V
  9
$CUSTOMPROPERTY
  1
11
  9
$CUSTOMPROPERTYTAG
  1
W
  9
$CUSTOMPROPERTY
  1
1-3/32
  9
$CUSTOMPROPERTYTAG
  1
X
  9
$CUSTOMPROPERTY
  1
3/16
  9
$CUSTOMPROPERTYTAG
  1
Z
  9
$CUSTOMPROPERTY
  1
1-51/64
  9
$CUSTOMPROPERTYTAG
  1
COMPANY
  9
$CUSTOMPROPERTY
  1
baldor
  9
$INSBASE
 10
0.0
 20
0.0
 30
0.0
  9
$EXTMIN
 10
1.000000000000000E+20
 20
1.000000000000000E+20
 30
1.000000000000000E+20
  9
$EXTMAX
 10
-1.000000000000000E+20
 20
-1.000000000000000E+20
 30
-1.000000000000000E+20
  9
$LIMMIN
 10
0.0
 20
0.0
  9
$LIMMAX
 10
12.0
 20
9.0
  9
$ORTHOMODE
 70
     0
  9
$REGENMODE
 70
     1
  9
$FILLMODE
 70
     1
  9
$QTEXTMODE
 70
     0
  9
$MIRRTEXT
 70
     1
  9
$LTSCALE
 40
1.0
  9
$ATTMODE
 70
     1
  9
$TEXTSIZE
 40
0.2
  9
$TRACEWID
 40
0.05
  9
$TEXTSTYLE
  7
Standard
  9
$CLAYER
  8
0
  9
$CELTYPE
  6
ByLayer
  9
$CECOLOR
 62
   256
  9
$CELTSCALE
 40
1.0
  9
$DISPSILH
 70
     0
  9
$DIMSCALE
 40
1.0
  9
$DIMASZ
 40
0.18
  9
$DIMEXO
 40
0.0625
  9
$DIMDLI
 40
0.38
  9
$DIMRND
 40
0.0
  9
$DIMDLE
 40
0.0
  9
$DIMEXE
 40
0.18
  9
$DIMTP
 40
0.0
  9
$DIMTM
 40
0.0
  9
$DIMTXT
 40
0.18
  9
$DIMCEN
 40
0.09
  9
$DIMTSZ
 40
0.0
  9
$DIMTOL
 70
     0
  9
$DIMLIM
 70
     0
  9
$DIMTIH
 70
     1
  9
$DIMTOH
 70
     1
  9
$DIMSE1
 70
     0
  9
$DIMSE2
 70
     0
  9
$DIMTAD
 70
     0
  9
$DIMZIN
 70
     0
  9
$DIMBLK
  1

  9
$DIMASO
 70
     1
  9
$DIMSHO
 70
     1
  9
$DIMPOST
  1

  9
$DIMAPOST
  1

  9
$DIMALT
 70
     0
  9
$DIMALTD
 70
     2
  9
$DIMALTF
 40
25.4
  9
$DIMLFAC
 40
1.0
  9
$DIMTOFL
 70
     0
  9
$DIMTVP
 40
0.0
  9
$DIMTIX
 70
     0
  9
$DIMSOXD
 70
     0
  9
$DIMSAH
 70
     0
  9
$DIMBLK1
  1

  9
$DIMBLK2
  1

  9
$DIMSTYLE
  2
Standard
  9
$DIMCLRD
 70
     0
  9
$DIMCLRE
 70
     0
  9
$DIMCLRT
 70
     0
  9
$DIMTFAC
 40
1.0
  9
$DIMGAP
 40
0.09
  9
$DIMJUST
 70
     0
  9
$DIMSD1
 70
     0
  9
$DIMSD2
 70
     0
  9
$DIMTOLJ
 70
     1
  9
$DIMTZIN
 70
     0
  9
$DIMALTZ
 70
     0
  9
$DIMALTTZ
 70
     0
  9
$DIMUPT
 70
     0
  9
$DIMDEC
 70
     4
  9
$DIMTDEC
 70
     4
  9
$DIMALTU
 70
     2
  9
$DIMALTTD
 70
     2
  9
$DIMTXSTY
  7
Standard
  9
$DIMAUNIT
 70
     0
  9
$DIMADEC
 70
     0
  9
$DIMALTRND
 40
0.0
  9
$DIMAZIN
 70
     0
  9
$DIMDSEP
 70
    46
  9
$DIMATFIT
 70
     3
  9
$DIMFRAC
 70
     0
  9
$DIMLDRBLK
  1

  9
$DIMLUNIT
 70
     2
  9
$DIMLWD
 70
    -2
  9
$DIMLWE
 70
    -2
  9
$DIMTMOVE
 70
     0
  9
$DIMFXL
 40
1.0
  9
$DIMFXLON
 70
     0
  9
$DIMJOGANG
 40
0.7853981633974483
  9
$DIMTFILL
 70
     0
  9
$DIMTFILLCLR
 70
     0
  9
$DIMARCSYM
 70
     0
  9
$DIMLTYPE
  6

  9
$DIMLTEX1
  6

  9
$DIMLTEX2
  6

  9
$DIMTXTDIRECTION
 70
     0
  9
$LUNITS
 70
     2
  9
$LUPREC
 70
     4
  9
$SKETCHINC
 40
0.1
  9
$FILLETRAD
 40
0.5
  9
$AUNITS
 70
     0
  9
$AUPREC
 70
     0
  9
$MENU
  1
.
  9
$ELEVATION
 40
0.0
  9
$PELEVATION
 40
0.0
  9
$THICKNESS
 40
0.0
  9
$LIMCHECK
 70
     0
  9
$CHAMFERA
 40
0.0
  9
$CHAMFERB
 40
0.0
  9
$CHAMFERC
 40
0.0
  9
$CHAMFERD
 40
0.0
  9
$SKPOLY
 70
     0
  9
$TDCREATE
 40
2458168.993399803
  9
$TDUCREATE
 40
2458168.951733137
  9
$TDUPDATE
 40
2458168.993399988
  9
$TDUUPDATE
 40
2458168.951733322
  9
$TDINDWG
 40
0.0000000116
  9
$TDUSRTIMER
 40
0.0000000116
  9
$USRTIMER
 70
     1
  9
$ANGBASE
 50
0.0
  9
$ANGDIR
 70
     0
  9
$PDMODE
 70
     0
  9
$PDSIZE
 40
0.0
  9
$PLINEWID
 40
0.0
  9
$SPLFRAME
 70
     0
  9
$SPLINETYPE
 70
     6
  9
$SPLINESEGS
 70
     8
  9
$HANDSEED
  5
1B2
  9
$SURFTAB1
 70
     6
  9
$SURFTAB2
 70
     6
  9
$SURFTYPE
 70
     6
  9
$SURFU
 70
     6
  9
$SURFV
 70
     6
  9
$UCSBASE
  2

  9
$UCSNAME
  2

  9
$UCSORG
 10
0.0
 20
0.0
 30
0.0
  9
$UCSXDIR
 10
1.0
 20
0.0
 30
0.0
  9
$UCSYDIR
 10
0.0
 20
1.0
 30
0.0
  9
$UCSORTHOREF
  2

  9
$UCSORTHOVIEW
 70
     0
  9
$UCSORGTOP
 10
0.0
 20
0.0
 30
0.0
  9
$UCSORGBOTTOM
 10
0.0
 20
0.0
 30
0.0
  9
$UCSORGLEFT
 10
0.0
 20
0.0
 30
0.0
  9
$UCSORGRIGHT
 10
0.0
 20
0.0
 30
0.0
  9
$UCSORGFRONT
 10
0.0
 20
0.0
 30
0.0
  9
$UCSORGBACK
 10
0.0
 20
0.0
 30
0.0
  9
$PUCSBASE
  2

  9
$PUCSNAME
  2

  9
$PUCSORG
 10
0.0
 20
0.0
 30
0.0
  9
$PUCSXDIR
 10
1.0
 20
0.0
 30
0.0
  9
$PUCSYDIR
 10
0.0
 20
1.0
 30
0.0
  9
$PUCSORTHOREF
  2

  9
$PUCSORTHOVIEW
 70
     0
  9
$PUCSORGTOP
 10
0.0
 20
0.0
 30
0.0
  9
$PUCSORGBOTTOM
 10
0.0
 20
0.0
 30
0.0
  9
$PUCSORGLEFT
 10
0.0
 20
0.0
 30
0.0
  9
$PUCSORGRIGHT
 10
0.0
 20
0.0
 30
0.0
  9
$PUCSORGFRONT
 10
0.0
 20
0.0
 30
0.0
  9
$PUCSORGBACK
 10
0.0
 20
0.0
 30
0.0
  9
$USERI1
 70
     0
  9
$USERI2
 70
     0
  9
$USERI3
 70
     0
  9
$USERI4
 70
     0
  9
$USERI5
 70
     0
  9
$USERR1
 40
0.0
  9
$USERR2
 40
0.0
  9
$USERR3
 40
0.0
  9
$USERR4
 40
0.0
  9
$USERR5
 40
0.0
  9
$WORLDVIEW
 70
     1
  9
$SHADEDGE
 70
     3
  9
$SHADEDIF
 70
    70
  9
$TILEMODE
 70
     1
  9
$MAXACTVP
 70
    64
  9
$PINSBASE
 10
0.0
 20
0.0
 30
0.0
  9
$PLIMCHECK
 70
     0
  9
$PEXTMIN
 10
1.000000000000000E+20
 20
1.000000000000000E+20
 30
1.000000000000000E+20
  9
$PEXTMAX
 10
-1.000000000000000E+20
 20
-1.000000000000000E+20
 30
-1.000000000000000E+20
  9
$PLIMMIN
 10
0.0
 20
0.0
  9
$PLIMMAX
 10
12.0
 20
9.0
  9
$UNITMODE
 70
     0
  9
$VISRETAIN
 70
     1
  9
$PLINEGEN
 70
     0
  9
$PSLTSCALE
 70
     1
  9
$TREEDEPTH
 70
  3020
  9
$CMLSTYLE
  2
Standard
  9
$CMLJUST
 70
     0
  9
$CMLSCALE
 40
1.0
  9
$PROXYGRAPHICS
 70
     1
  9
$MEASUREMENT
 70
     0
  9
$CELWEIGHT
370
    -1
  9
$ENDCAPS
280
     0
  9
$JOINSTYLE
280
     0
  9
$LWDISPLAY
290
     0
  9
$INSUNITS
 70
     1
  9
$HYPERLINKBASE
  1

  9
$STYLESHEET
  1

  9
$XEDIT
290
     1
  9
$CEPSNTYPE
380
     0
  9
$PSTYLEMODE
290
     1
  9
$FINGERPRINTGUID
  2
{BCD2B572-9AAC-40D0-959D-2AA7E8F4F545}
  9
$VERSIONGUID
  2
{FAEB1C32-E019-11D5-929B-00C0DF256EC4}
  9
$EXTNAMES
290
     1
  9
$PSVPSCALE
 40
0.0
  9
$OLESTARTUP
290
     0
  9
$SORTENTS
280
   127
  9
$INDEXCTL
280
     0
  9
$HIDETEXT
280
     1
  9
$XCLIPFRAME
280
     2
  9
$HALOGAP
280
     0
  9
$OBSCOLOR
 70
   257
  9
$OBSLTYPE
280
     0
  9
$INTERSECTIONDISPLAY
280
     0
  9
$INTERSECTIONCOLOR
 70
   257
  9
$DIMASSOC
280
     2
  9
$PROJECTNAME
  1

  9
$CAMERADISPLAY
290
     0
  9
$LENSLENGTH
 40
50.0
  9
$CAMERAHEIGHT
 40
0.0
  9
$STEPSPERSEC
 40
2.0
  9
$STEPSIZE
 40
6.0
  9
$3DDWFPREC
 40
2.0
  9
$PSOLWIDTH
 40
0.25
  9
$PSOLHEIGHT
 40
4.0
  9
$LOFTANG1
 40
1.570796326794897
  9
$LOFTANG2
 40
1.570796326794897
  9
$LOFTMAG1
 40
0.0
  9
$LOFTMAG2
 40
0.0
  9
$LOFTPARAM
 70
     7
  9
$LOFTNORMALS
280
     1
  9
$LATITUDE
 40
37.795
  9
$LONGITUDE
 40
-122.394
  9
$NORTHDIRECTION
 40
0.0
  9
$TIMEZONE
 70
 -8000
  9
$LIGHTGLYPHDISPLAY
280
     1
  9
$TILEMODELIGHTSYNCH
280
     1
  9
$CMATERIAL
347
44
  9
$SOLIDHIST
280
     0
  9
$SHOWHIST
280
     1
  9
$DWFFRAME
280
     2
  9
$DGNFRAME
280
     2
  9
$REALWORLDSCALE
290
     1
  9
$INTERFERECOLOR
 62
   256
  9
$CSHADOW
280
     0
  9
$SHADOWPLANELOCATION
 40
0.0
  0
ENDSEC
  0
SECTION
  2
CLASSES
  0
CLASS
  1
ACDBDICTIONARYWDFLT
  2
AcDbDictionaryWithDefault
  3
ObjectDBX Classes
 90
        0
 91
        4
280
     0
281
     0
  0
CLASS
  1
VISUALSTYLE
  2
AcDbVisualStyle
  3
ObjectDBX Classes
 90
     4095
 91
        4
280
     0
281
     0
  0
CLASS
  1
MATERIAL
  2
AcDbMaterial
  3
ObjectDBX Classes
 90
     1153
 91
        4
280
     0
281
     0
  0
CLASS
  1
SCALE
  2
AcDbScale
  3
ObjectDBX Classes
 90
     1153
 91
        4
280
     0
281
     0
  0
CLASS
  1
TABLESTYLE
  2
AcDbTableStyle
  3
ObjectDBX Classes
 90
     4095
 91
        4
280
     0
281
     0
  0
CLASS
  1
MLEADERSTYLE
  2
AcDbMLeaderStyle
  3
ACDB_MLEADERSTYLE_CLASS
 90
     4095
 91
        4
280
     0
281
     0
  0
CLASS
  1
SUN
  2
AcDbSun
  3
SCENEOE
 90
     1153
 91
        4
280
     0
281
     0
  0
CLASS
  1
DICTIONARYVAR
  2
AcDbDictionaryVar
  3
ObjectDBX Classes
 90
        0
 91
        4
280
     0
281
     0
  0
CLASS
  1
CELLSTYLEMAP
  2
AcDbCellStyleMap
  3
ObjectDBX Classes
 90
     1152
 91
        4
280
     0
281
     0
  0
ENDSEC
  0
SECTION
  2
TABLES
  0
TABLE
  2
VPORT
  5
8
330
0
100
AcDbSymbolTable
 70
     1
  0
VPORT
  5
29
330
8
100
AcDbSymbolTableRecord
100
AcDbViewportTableRecord
  2
*Active
 70
     0
 10
0.0
 20
0.0
 11
1.0
 21
1.0
 12
0.0
 22
0.7671875000000004
 13
0.0
 23
0.0
 14
0.5
 24
0.5
 15
0.5
 25
0.5
 16
0.0
 26
0.0
 36
1.0
 17
0.0
 27
0.0
 37
0.0
 40
8.7050625
 41
1.376785060417429
 42
50.0
 43
0.0
 44
0.0
 50
0.0
 51
0.0
 71
     0
 72
   100
 73
     1
 74
     3
 75
     0
 76
     0
 77
     0
 78
     0
281
     0
 65
     1
110
0.0
120
0.0
130
0.0
111
1.0
121
0.0
131
0.0
112
0.0
122
1.0
132
0.0
 79
     0
146
0.0
348
2F
 60
     3
 61
     5
292
     1
282
     1
141
0.0
142
0.0
 63
   250
361
6D
  0
ENDTAB
  0
TABLE
  2
LTYPE
  5
5
330
0
100
AcDbSymbolTable
 70
     3
  0
LTYPE
  5
14
330
5
100
AcDbSymbolTableRecord
100
AcDbLinetypeTableRecord
  2
ByBlock
 70
     0
  3

 72
    65
 73
     0
 40
0.0
  0
LTYPE
  5
15
330
5
100
AcDbSymbolTableRecord
100
AcDbLinetypeTableRecord
  2
ByLayer
 70
     0
  3

 72
    65
 73
     0
 40
0.0
  0
LTYPE
  5
16
330
5
100
AcDbSymbolTableRecord
100
AcDbLinetypeTableRecord
  2
Continuous
 70
     0
  3
Solid line
 72
    65
 73
     0
 40
0.0
  0
LTYPE
  5
A5
330
5
100
AcDbSymbolTableRecord
100
AcDbLinetypeTableRecord
  2
Dashed
 70
     0
  3

 72
    65
 73
     2
 40
2.0
 49
1.0
 74
     0
 49
-1.0
 74
     0
  0
LTYPE
  5
AF
330
5
100
AcDbSymbolTableRecord
100
AcDbLinetypeTableRecord
  2
Center
 70
     0
  3

 72
    65
 73
     4
 40
1.5
 49
0.45
 74
     0
 49
-0.5
 74
     0
 49
0.05
 74
     0
 49
-0.5
 74
     0
  0
ENDTAB
  0
TABLE
  2
LAYER
  5
2
330
0
100
AcDbSymbolTable
 70
     7
  0
LAYER
  5
10
330
2
100
AcDbSymbolTableRecord
100
AcDbLayerTableRecord
  2
0
 70
     0
 62
     7
  6
Continuous
370
    -3
390
F
347
46
348
0
  0
LAYER
  5
72
330
2
100
AcDbSymbolTableRecord
100
AcDbLayerTableRecord
  2
AM_6
 70
     0
 62
    -2
  6
Continuous
370
    35
390
F
347
46
348
0
  0
LAYER
  5
A6
330
2
100
AcDbSymbolTableRecord
100
AcDbLayerTableRecord
  2
AM_9
 70
     0
 62
     6
  6
Dashed
370
    25
390
F
347
46
348
0
  0
LAYER
  5
B0
330
2
100
AcDbSymbolTableRecord
100
AcDbLayerTableRecord
  2
AM_7
 70
     0
 62
     7
  6
Center
370
    25
390
F
347
46
348
0
  0
LAYER
  5
B3
330
2
100
AcDbSymbolTableRecord
100
AcDbLayerTableRecord
  2
AM_4
 70
     0
 62
     3
  6
Continuous
370
    25
390
F
347
46
348
0
  0
LAYER
  5
DE
330
2
100
AcDbSymbolTableRecord
100
AcDbLayerTableRecord
  2
AM_5
 70
     0
 62
     3
  6
Continuous
370
    25
390
F
347
46
348
0
  0
LAYER
  5
1A4
330
2
100
AcDbSymbolTableRecord
100
AcDbLayerTableRecord
  2
ConnectionPoints
 70
     0
 62
     7
  6
Continuous
370
    50
390
F
347
46
348
0
  0
ENDTAB
  0
TABLE
  2
STYLE
  5
3
330
0
100
AcDbSymbolTable
 70
     1
  0
STYLE
  5
11
330
3
100
AcDbSymbolTableRecord
100
AcDbTextStyleTableRecord
  2
Standard
 70
     0
 40
0.0
 41
1.0
 50
0.0
 71
     0
 42
0.2
  3
txt
  4

  0
ENDTAB
  0
TABLE
  2
VIEW
  5
6
330
0
100
AcDbSymbolTable
 70
     0
  0
ENDTAB
  0
TABLE
  2
UCS
  5
7
330
0
100
AcDbSymbolTable
 70
     0
  0
ENDTAB
  0
TABLE
  2
APPID
  5
9
330
0
100
AcDbSymbolTable
 70
     1
  0
APPID
  5
12
330
9
100
AcDbSymbolTableRecord
100
AcDbRegAppTableRecord
  2
ACAD
 70
     0
  0
ENDTAB
  0
TABLE
  2
DIMSTYLE
  5
A
330
0
100
AcDbSymbolTable
 70
     1
100
AcDbDimStyleTable
  0
DIMSTYLE
105
27
330
A
100
AcDbSymbolTableRecord
100
AcDbDimStyleTableRecord
  2
Standard
 70
     0
178
     0
340
11
  0
ENDTAB
  0
TABLE
  2
BLOCK_RECORD
  5
1
330
0
100
AcDbSymbolTable
 70
     5
  0
BLOCK_RECORD
  5
1F
330
1
100
AcDbSymbolTableRecord
100
AcDbBlockTableRecord
  2
*Model_Space
340
22
 70
     0
280
     1
281
     0
  0
BLOCK_RECORD
  5
1B
330
1
100
AcDbSymbolTableRecord
100
AcDbBlockTableRecord
  2
*Paper_Space
340
1E
 70
     0
280
     1
281
     0
  0
BLOCK_RECORD
  5
23
330
1
100
AcDbSymbolTableRecord
100
AcDbBlockTableRecord
  2
*Paper_Space0
340
26
 70
     0
280
     1
281
     0
  0
BLOCK_RECORD
  5
6E
330
1
100
AcDbSymbolTableRecord
100
AcDbBlockTableRecord
  2
1_129242_0
340
0
102
{BLKREFS
331
6F
102
}
 70
     0
280
     1
281
     0
  0
BLOCK_RECORD
  5
8F
330
1
100
AcDbSymbolTableRecord
100
AcDbBlockTableRecord
  2
2_129528I_0_in_129242_0
340
0
102
{BLKREFS
331
90
102
}
 70
     0
280
     1
281
     0
  0
BLOCK_RECORD
  5
B9
330
1
100
AcDbSymbolTableRecord
100
AcDbBlockTableRecord
  2
3_129938_0_in_129242_0
340
0
102
{BLKREFS
331
BA
102
}
 70
     0
280
     1
281
     0
  0
BLOCK_RECORD
  5
F5
330
1
100
AcDbSymbolTableRecord
100
AcDbBlockTableRecord
  2
4_129455I_0_in_129242_0
340
0
102
{BLKREFS
331
F6
102
}
 70
     0
280
     1
281
     0
  0
ENDTAB
  0
ENDSEC
  0
SECTION
  2
BLOCKS
  0
BLOCK
  5
20
330
1F
100
AcDbEntity
  8
0
100
AcDbBlockBegin
  2
*Model_Space
 70
     0
 10
0.0
 20
0.0
 30
0.0
  3
*Model_Space
  1

  0
ENDBLK
  5
21
330
1F
100
AcDbEntity
  8
0
100
AcDbBlockEnd
  0
BLOCK
  5
1C
330
1B
100
AcDbEntity
 67
     1
  8
0
100
AcDbBlockBegin
  2
*Paper_Space
 70
     0
 10
0.0
 20
0.0
 30
0.0
  3
*Paper_Space
  1

  0
ENDBLK
  5
1D
330
1B
100
AcDbEntity
 67
     1
  8
0
100
AcDbBlockEnd
  0
BLOCK
  5
24
330
23
100
AcDbEntity
  8
0
100
AcDbBlockBegin
  2
*Paper_Space0
 70
     0
 10
0.0
 20
0.0
 30
0.0
  3
*Paper_Space0
  1

  0
ENDBLK
  5
25
330
23
100
AcDbEntity
  8
0
100
AcDbBlockEnd
  0
BLOCK
  5
70
330
6E
100
AcDbEntity
  8
0
100
AcDbBlockBegin
  2
1_129242_0
 70
     2
 10
0.0
 20
0.0
 30
0.0
  3
1_129242_0
  1

  0
ATTDEF
  5
73
330
6E
100
AcDbEntity
  8
AM_6
100
AcDbText
 10
10.875
 20
5.034375
 30
0.0
 40
0.5
  1
Grip Tight Medium Duty Air-Handling Two-Bolt Pillow Block Inch Bore
100
AcDbAttributeDefinition
  3

  2
NN
 70
     8
280
     0
  0
ATTDEF
  5
74
330
6E
100
AcDbEntity
  8
AM_6
100
AcDbText
 10
10.875
 20
4.534375
 30
0.0
 40
0.5
  1
GTMAH Air Handling Medium Duty Pillow Blocks
100
AcDbAttributeDefinition
  3

  2
NT
 70
     8
280
     0
  0
ATTDEF
  5
75
330
6E
100
AcDbEntity
  8
AM_6
100
AcDbText
 10
10.875
 20
4.034375
 30
0.0
 40
0.5
  1
129242
100
AcDbAttributeDefinition
  3

  2
NB
 70
     8
280
     0
  0
ATTDEF
  5
76
330
6E
100
AcDbEntity
  8
AM_6
100
AcDbText
 10
10.875
 20
3.534375
 30
0.0
 40
0.5
  1
$PN.$LUBE.
100
AcDbAttributeDefinition
  3

  2
NBSYN
 70
     8
280
     0
  0
ATTDEF
  5
77
330
6E
100
AcDbEntity
  8
AM_6
100
AcDbText
 10
10.875
 20
3.034375
 30
0.0
 40
0.5
  1
129242
100
AcDbAttributeDefinition
  3

  2
LINA
 70
     8
280
     0
  0
ATTDEF
  5
78
330
6E
100
AcDbEntity
  8
AM_6
100
AcDbText
 10
10.875
 20
2.534375
 30
0.0
 40
0.5
  1
216
100
AcDbAttributeDefinition
  3

  2
SERIES
 70
     8
280
     0
  0
ATTDEF
  5
79
330
6E
100
AcDbEntity
  8
AM_6
100
AcDbText
 10
10.875
 20
2.034375
 30
0.0
 40
0.5
  1
2-15/16
100
AcDbAttributeDefinition
  3

  2
SS
 70
     8
280
     0
  0
ATTDEF
  5
7A
330
6E
100
AcDbEntity
  8
AM_6
100
AcDbText
 10
10.875
 20
1.534375
 30
0.0
 40
0.5
  1
129242
100
AcDbAttributeDefinition
  3

  2
PN
 70
     8
280
     0
  0
ATTDEF
  5
7B
330
6E
100
AcDbEntity
  8
AM_6
100
AcDbText
 10
10.875
 20
1.034375
 30
0.0
 40
0.5
  1
P2B-GTMAH-215
100
AcDbAttributeDefinition
  3

  2
DESCRIPTION
 70
     8
280
     0
  0
ATTDEF
  5
7C
330
6E
100
AcDbEntity
  8
AM_6
100
AcDbText
 10
10.875
 20
0.5343749999999998
 30
0.0
 40
0.5
  1
2-49/64
100
AcDbAttributeDefinition
  3

  2
A
 70
     8
280
     0
  0
ATTDEF
  5
7D
330
6E
100
AcDbEntity
  8
AM_6
100
AcDbText
 10
10.875
 20
0.0343749999999998
 30
0.0
 40
0.5
  1
11-3/4
100
AcDbAttributeDefinition
  3

  2
B
 70
     8
280
     0
  0
ATTDEF
  5
7E
330
6E
100
AcDbEntity
  8
AM_6
100
AcDbText
 10
10.875
 20
-0.4656250000000002
 30
0.0
 40
0.5
  1
3
100
AcDbAttributeDefinition
  3

  2
C
 70
     8
280
     0
  0
ATTDEF
  5
7F
330
6E
100
AcDbEntity
  8
AM_6
100
AcDbText
 10
10.875
 20
-0.9656250000000002
 30
0.0
 40
0.5
  1
8-1/2
100
AcDbAttributeDefinition
  3

  2
DMIN
 70
     8
280
     0
  0
ATTDEF
  5
80
330
6E
100
AcDbEntity
  8
AM_6
100
AcDbText
 10
10.875
 20
-1.465625
 30
0.0
 40
0.5
  1
9-1/2
100
AcDbAttributeDefinition
  3

  2
DMAX
 70
     8
280
     0
  0
ATTDEF
  5
81
330
6E
100
AcDbEntity
  8
AM_6
100
AcDbText
 10
10.875
 20
-1.965625
 30
0.0
 40
0.5
  1
7/8
100
AcDbAttributeDefinition
  3

  2
F
 70
     8
280
     0
  0
ATTDEF
  5
82
330
6E
100
AcDbEntity
  8
AM_6
100
AcDbText
 10
10.875
 20
-2.465625
 30
0.0
 40
0.5
  1
1-7/16
100
AcDbAttributeDefinition
  3

  2
G
 70
     8
280
     0
  0
ATTDEF
  5
83
330
6E
100
AcDbEntity
  8
AM_6
100
AcDbText
 10
10.875
 20
-2.965625
 30
0.0
 40
0.5
  1
1-1/4
100
AcDbAttributeDefinition
  3

  2
H
 70
     8
280
     0
  0
ATTDEF
  5
84
330
6E
100
AcDbEntity
  8
AM_6
100
AcDbText
 10
10.875
 20
-3.465625
 30
0.0
 40
0.5
  1
6-15/16
100
AcDbAttributeDefinition
  3

  2
J
 70
     8
280
     0
  0
ATTDEF
  5
85
330
6E
100
AcDbEntity
  8
AM_6
100
AcDbText
 10
10.875
 20
-3.965625
 30
0.0
 40
0.5
  1
4-1/2
100
AcDbAttributeDefinition
  3

  2
L
 70
     8
280
     0
  0
ATTDEF
  5
86
330
6E
100
AcDbEntity
  8
AM_6
100
AcDbText
 10
10.875
 20
-4.465625
 30
0.0
 40
0.5
  1
3-1/2
100
AcDbAttributeDefinition
  3

  2
M
 70
     8
280
     0
  0
ATTDEF
  5
87
330
6E
100
AcDbEntity
  8
AM_6
100
AcDbText
 10
10.875
 20
-4.965625
 30
0.0
 40
0.5
  1
29/32
100
AcDbAttributeDefinition
  3

  2
R
 70
     8
280
     0
  0
ATTDEF
  5
88
330
6E
100
AcDbEntity
  8
AM_6
100
AcDbText
 10
10.875
 20
-5.465625
 30
0.0
 40
0.5
  1
1-55/64
100
AcDbAttributeDefinition
  3

  2
S
 70
     8
280
     0
  0
ATTDEF
  5
89
330
6E
100
AcDbEntity
  8
AM_6
100
AcDbText
 10
10.875
 20
-5.965625
 30
0.0
 40
0.5
  1
5-1/2
100
AcDbAttributeDefinition
  3

  2
U
 70
     8
280
     0
  0
ATTDEF
  5
8A
330
6E
100
AcDbEntity
  8
AM_6
100
AcDbText
 10
10.875
 20
-6.465625
 30
0.0
 40
0.5
  1
11
100
AcDbAttributeDefinition
  3

  2
V
 70
     8
280
     0
  0
ATTDEF
  5
8B
330
6E
100
AcDbEntity
  8
AM_6
100
AcDbText
 10
10.875
 20
-6.965625
 30
0.0
 40
0.5
  1
1-3/32
100
AcDbAttributeDefinition
  3

  2
W
 70
     8
280
     0
  0
ATTDEF
  5
8C
330
6E
100
AcDbEntity
  8
AM_6
100
AcDbText
 10
10.875
 20
-7.465625
 30
0.0
 40
0.5
  1
3/16
100
AcDbAttributeDefinition
  3

  2
X
 70
     8
280
     0
  0
ATTDEF
  5
8D
330
6E
100
AcDbEntity
  8
AM_6
100
AcDbText
 10
10.875
 20
-7.965625
 30
0.0
 40
0.5
  1
1-51/64
100
AcDbAttributeDefinition
  3

  2
Z
 70
     8
280
     0
  0
ATTDEF
  5
8E
330
6E
100
AcDbEntity
  8
AM_6
100
AcDbText
 10
10.875
 20
-8.465625
 30
0.0
 40
0.5
  1
baldor
100
AcDbAttributeDefinition
  3

  2
COMPANY
 70
     8
280
     0
  0
INSERT
  5
90
330
6E
100
AcDbEntity
  8
0
100
AcDbBlockReference
  2
2_129528I_0_in_129242_0
 10
0.0
 20
0.0
 30
0.0
  0
INSERT
  5
BA
330
6E
100
AcDbEntity
  8
0
100
AcDbBlockReference
  2
3_129938_0_in_129242_0
 10
0.0
 20
0.0
 30
0.0
  0
INSERT
  5
F6
330
6E
100
AcDbEntity
  8
0
100
AcDbBlockReference
  2
4_129455I_0_in_129242_0
 10
0.0
 20
0.0
 30
0.0
  0
ENDBLK
  5
71
330
6E
100
AcDbEntity
  8
0
100
AcDbBlockEnd
  0
BLOCK
  5
91
330
8F
100
AcDbEntity
  8
0
100
AcDbBlockBegin
  2
2_129528I_0_in_129242_0
 70
     2
 10
0.0
 20
0.0
 30
0.0
  3
2_129528I_0_in_129242_0
  1

  0
ATTDEF
  5
93
330
8F
100
AcDbEntity
  8
AM_6
100
AcDbText
 10
7.876752950967983
 20
2.876752950967983
 30
0.0
 40
0.5
  1
INS-GT B
100
AcDbAttributeDefinition
  3

  2
NN
 70
     8
280
     0
  0
ATTDEF
  5
94
330
8F
100
AcDbEntity
  8
AM_6
100
AcDbText
 10
7.876752950967983
 20
2.376752950967983
 30
0.0
 40
0.5
  1
GT Normal Duty Bearing Inserts
100
AcDbAttributeDefinition
  3

  2
NT
 70
     8
280
     0
  0
ATTDEF
  5
95
330
8F
100
AcDbEntity
  8
AM_6
100
AcDbText
 10
7.876752950967983
 20
1.876752950967983
 30
0.0
 40
0.5
  1
129528I
100
AcDbAttributeDefinition
  3

  2
NB
 70
     8
280
     0
  0
ATTDEF
  5
96
330
8F
100
AcDbEntity
  8
AM_6
100
AcDbText
 10
7.876752950967983
 20
1.376752950967983
 30
0.0
 40
0.5
  1
$PN.I
100
AcDbAttributeDefinition
  3

  2
NBSYN
 70
     8
280
     0
  0
ATTDEF
  5
97
330
8F
100
AcDbEntity
  8
AM_6
100
AcDbText
 10
7.876752950967983
 20
0.8767529509679828
 30
0.0
 40
0.5
  1
129528
100
AcDbAttributeDefinition
  3

  2
LINA
 70
     8
280
     0
  0
ATTDEF
  5
98
330
8F
100
AcDbEntity
  8
AM_6
100
AcDbText
 10
7.876752950967983
 20
0.3767529509679828
 30
0.0
 40
0.5
  1
216
100
AcDbAttributeDefinition
  3

  2
SERIES
 70
     8
280
     0
  0
ATTDEF
  5
99
330
8F
100
AcDbEntity
  8
AM_6
100
AcDbText
 10
7.876752950967983
 20
-0.1232470490320172
 30
0.0
 40
0.5
  1
129528
100
AcDbAttributeDefinition
  3

  2
PN
 70
     8
280
     0
  0
ATTDEF
  5
9A
330
8F
100
AcDbEntity
  8
AM_6
100
AcDbText
 10
7.876752950967983
 20
-0.6232470490320172
 30
0.0
 40
0.5
  1
INS-GT-16
100
AcDbAttributeDefinition
  3

  2
DESCRIPTION
 70
     8
280
     0
  0
ATTDEF
  5
9B
330
8F
100
AcDbEntity
  8
AM_6
100
AcDbText
 10
7.876752950967983
 20
-1.123247049032017
 30
0.0
 40
0.5
  1
2.70
100
AcDbAttributeDefinition
  3

  2
A
 70
     8
280
     0
  0
ATTDEF
  5
9C
330
8F
100
AcDbEntity
  8
AM_6
100
AcDbText
 10
7.876752950967983
 20
-1.623247049032017
 30
0.0
 40
0.5
  1
1.18
100
AcDbAttributeDefinition
  3

  2
C
 70
     8
280
     0
  0
ATTDEF
  5
9D
330
8F
100
AcDbEntity
  8
AM_6
100
AcDbText
 10
7.876752950967983
 20
-2.123247049032017
 30
0.0
 40
0.5
  1
5.5118
100
AcDbAttributeDefinition
  3

  2
D
 70
     8
280
     0
  0
ATTDEF
  5
9E
330
8F
100
AcDbEntity
  8
AM_6
100
AcDbText
 10
7.876752950967983
 20
-2.623247049032017
 30
0.0
 40
0.5
  1
0.29
100
AcDbAttributeDefinition
  3

  2
J
 70
     8
280
     0
  0
ATTDEF
  5
9F
330
8F
100
AcDbEntity
  8
AM_6
100
AcDbText
 10
7.876752950967983
 20
-3.123247049032017
 30
0.0
 40
0.5
  1
4.69
100
AcDbAttributeDefinition
  3

  2
L
 70
     8
280
     0
  0
ATTDEF
  5
A0
330
8F
100
AcDbEntity
  8
AM_6
100
AcDbText
 10
7.876752950967983
 20
-3.623247049032017
 30
0.0
 40
0.5
  1
#10 - 32 x 1/4
100
AcDbAttributeDefinition
  3

  2
N
 70
     8
280
     0
  0
ATTDEF
  5
A1
330
8F
100
AcDbEntity
  8
AM_6
100
AcDbText
 10
7.876752950967983
 20
-4.123247049032017
 30
0.0
 40
0.5
  1
0.89000
100
AcDbAttributeDefinition
  3

  2
W
 70
     8
280
     0
  0
ATTDEF
  5
A2
330
8F
100
AcDbEntity
  8
AM_6
100
AcDbText
 10
7.876752950967983
 20
-4.623247049032017
 30
0.0
 40
0.5
  1
1.78
100
AcDbAttributeDefinition
  3

  2
X
 70
     8
280
     0
  0
ATTDEF
  5
A3
330
8F
100
AcDbEntity
  8
AM_6
100
AcDbText
 10
7.876752950967983
 20
-5.123247049032017
 30
0.0
 40
0.5
  1
1.81
100
AcDbAttributeDefinition
  3

  2
Y
 70
     8
280
     0
  0
ATTDEF
  5
A4
330
8F
100
AcDbEntity
  8
AM_6
100
AcDbText
 10
7.876752950967983
 20
-5.623247049032017
 30
0.0
 40
0.5
  1
baldor
100
AcDbAttributeDefinition
  3

  2
COMPANY
 70
     8
280
     0
  0
CIRCLE
  5
A7
330
8F
100
AcDbEntity
  8
AM_9
100
AcDbCircle
 10
0.0
 20
0.0
 30
0.0
 40
1.800725420972052
  0
ARC
  5
A8
330
8F
100
AcDbEntity
  8
AM_9
100
AcDbCircle
 10
0.0000000000000004
 20
-0.0000000000000004
 30
0.0
 40
2.7559
100
AcDbArc
 50
211.4916840542063
 51
328.5083159457936
  0
CIRCLE
  5
A9
330
8F
100
AcDbEntity
  8
AM_9
100
AcDbCircle
 10
0.0
 20
0.0
 30
0.0
 40
2.6379
  0
CIRCLE
  5
AA
330
8F
100
AcDbEntity
  8
AM_9
100
AcDbCircle
 10
0.0
 20
0.0
 30
0.0
 40
2.700966191892709
  0
CIRCLE
  5
AB
330
8F
100
AcDbEntity
  8
AM_9
100
AcDbCircle
 10
0.0
 20
0.0
 30
0.0
 40
1.916944377444444
  0
CIRCLE
  5
AC
330
8F
100
AcDbEntity
  8
AM_9
100
AcDbCircle
 10
0.0
 20
0.0
 30
0.0
 40
2.084444444444445
  0
CIRCLE
  5
AD
330
8F
100
AcDbEntity
  8
AM_9
100
AcDbCircle
 10
0.0
 20
0.0
 30
0.0
 40
1.749444310444445
  0
CIRCLE
  5
AE
330
8F
100
AcDbEntity
  8
AM_9
100
AcDbCircle
 10
0.0
 20
0.0
 30
0.0
 40
2.037244444444445
  0
LINE
  5
B1
330
8F
100
AcDbEntity
  8
AM_7
100
AcDbLine
 10
-2.876752950967983
 20
0.0
 30
0.0
 11
2.876752950967983
 21
0.0
 31
0.0
  0
LINE
  5
B2
330
8F
100
AcDbEntity
  8
AM_7
100
AcDbLine
 10
0.0
 20
-2.876752950967983
 30
0.0
 11
0.0
 21
2.876752950967983
 31
0.0
  0
CIRCLE
  5
B4
330
8F
100
AcDbEntity
  8
AM_4
100
AcDbCircle
 10
0.0
 20
0.0
 30
0.0
 40
2.739764715207603
  0
CIRCLE
  5
B5
330
8F
100
AcDbEntity
  8
AM_4
100
AcDbCircle
 10
0.0
 20
0.0
 30
0.0
 40
2.728088832782929
  0
CIRCLE
  5
B6
330
8F
100
AcDbEntity
  8
AM_4
100
AcDbCircle
 10
0.0
 20
0.0
 30
0.0
 40
2.712431820475595
  0
CIRCLE
  5
B7
330
8F
100
AcDbEntity
  8
AM_4
100
AcDbCircle
 10
0.0
 20
0.0
 30
0.0
 40
2.650017797465125
  0
CIRCLE
  5
B8
330
8F
100
AcDbEntity
  8
AM_4
100
AcDbCircle
 10
0.0
 20
0.0
 30
0.0
 40
2.606075711389274
  0
ENDBLK
  5
92
330
8F
100
AcDbEntity
  8
0
100
AcDbBlockEnd
  0
BLOCK
  5
BB
330
B9
100
AcDbEntity
  8
0
100
AcDbBlockBegin
  2
3_129938_0_in_129242_0
 70
     2
 10
0.0
 20
0.0
 30
0.0
  3
3_129938_0_in_129242_0
  1

  0
ATTDEF
  5
BD
330
B9
100
AcDbEntity
  8
AM_6
100
AcDbText
 10
7.245482965867255
 20
2.248813693053686
 30
0.0
 40
0.5
  1
Grip Tight Normal Duty Adapter and Nut Inch Bore
100
AcDbAttributeDefinition
  3

  2
NN
 70
     8
280
     0
  0
ATTDEF
  5
BE
330
B9
100
AcDbEntity
  8
AM_6
100
AcDbText
 10
7.245482965867255
 20
1.748813693053686
 30
0.0
 40
0.5
  1
GT and GTM Adapter & Lock Nut Assemblies
100
AcDbAttributeDefinition
  3

  2
NT
 70
     8
280
     0
  0
ATTDEF
  5
BF
330
B9
100
AcDbEntity
  8
AM_6
100
AcDbText
 10
7.245482965867255
 20
1.248813693053686
 30
0.0
 40
0.5
  1
129938
100
AcDbAttributeDefinition
  3

  2
NB
 70
     8
280
     0
  0
ATTDEF
  5
C0
330
B9
100
AcDbEntity
  8
AM_6
100
AcDbText
 10
7.245482965867255
 20
0.7488136930536862
 30
0.0
 40
0.5
  1
$PN.
100
AcDbAttributeDefinition
  3

  2
NBSYN
 70
     8
280
     0
  0
ATTDEF
  5
C1
330
B9
100
AcDbEntity
  8
AM_6
100
AcDbText
 10
7.245482965867255
 20
0.2488136930536862
 30
0.0
 40
0.5
  1
129938
100
AcDbAttributeDefinition
  3

  2
LINA
 70
     8
280
     0
  0
ATTDEF
  5
C2
330
B9
100
AcDbEntity
  8
AM_6
100
AcDbText
 10
7.245482965867255
 20
-0.2511863069463138
 30
0.0
 40
0.5
  1
216
100
AcDbAttributeDefinition
  3

  2
SERIES
 70
     8
280
     0
  0
ATTDEF
  5
C3
330
B9
100
AcDbEntity
  8
AM_6
100
AcDbText
 10
7.245482965867255
 20
-0.7511863069463138
 30
0.0
 40
0.5
  1
2-15/16
100
AcDbAttributeDefinition
  3

  2
SS
 70
     8
280
     0
  0
ATTDEF
  5
C4
330
B9
100
AcDbEntity
  8
AM_6
100
AcDbText
 10
7.245482965867255
 20
-1.251186306946314
 30
0.0
 40
0.5
  1
129938
100
AcDbAttributeDefinition
  3

  2
PN
 70
     8
280
     0
  0
ATTDEF
  5
C5
330
B9
100
AcDbEntity
  8
AM_6
100
AcDbText
 10
7.245482965867255
 20
-1.751186306946314
 30
0.0
 40
0.5
  1
AN-GTM-16-215
100
AcDbAttributeDefinition
  3

  2
DESCRIPTION
 70
     8
280
     0
  0
ATTDEF
  5
C6
330
B9
100
AcDbEntity
  8
AM_6
100
AcDbText
 10
7.245482965867255
 20
-2.251186306946314
 30
0.0
 40
0.5
  1
2-49/64
100
AcDbAttributeDefinition
  3

  2
A
 70
     8
280
     0
  0
ATTDEF
  5
C7
330
B9
100
AcDbEntity
  8
AM_6
100
AcDbText
 10
7.245482965867255
 20
-2.751186306946314
 30
0.0
 40
0.5
  1
1.1810
100
AcDbAttributeDefinition
  3

  2
C
 70
     8
280
     0
  0
ATTDEF
  5
C8
330
B9
100
AcDbEntity
  8
AM_6
100
AcDbText
 10
7.245482965867255
 20
-3.251186306946314
 30
0.0
 40
0.5
  1
5.5118
100
AcDbAttributeDefinition
  3

  2
D
 70
     8
280
     0
  0
ATTDEF
  5
C9
330
B9
100
AcDbEntity
  8
AM_6
100
AcDbText
 10
7.245482965867255
 20
-3.751186306946314
 30
0.0
 40
0.5
  1
0.285
100
AcDbAttributeDefinition
  3

  2
J
 70
     8
280
     0
  0
ATTDEF
  5
CA
330
B9
100
AcDbEntity
  8
AM_6
100
AcDbText
 10
7.245482965867255
 20
-4.251186306946314
 30
0.0
 40
0.5
  1
4-1/2
100
AcDbAttributeDefinition
  3

  2
L
 70
     8
280
     0
  0
ATTDEF
  5
CB
330
B9
100
AcDbEntity
  8
AM_6
100
AcDbText
 10
7.245482965867255
 20
-4.751186306946314
 30
0.0
 40
0.5
  1
10 - 32 x 1/4
100
AcDbAttributeDefinition
  3

  2
N
 70
     8
280
     0
  0
ATTDEF
  5
CC
330
B9
100
AcDbEntity
  8
AM_6
100
AcDbText
 10
7.245482965867255
 20
-5.251186306946314
 30
0.0
 40
0.5
  1
29/32
100
AcDbAttributeDefinition
  3

  2
W
 70
     8
280
     0
  0
ATTDEF
  5
CD
330
B9
100
AcDbEntity
  8
AM_6
100
AcDbText
 10
7.245482965867255
 20
-5.751186306946314
 30
0.0
 40
0.5
  1
1-51/64
100
AcDbAttributeDefinition
  3

  2
X
 70
     8
280
     0
  0
ATTDEF
  5
CE
330
B9
100
AcDbEntity
  8
AM_6
100
AcDbText
 10
7.245482965867255
 20
-6.251186306946314
 30
0.0
 40
0.5
  1
1-55/64
100
AcDbAttributeDefinition
  3

  2
Y
 70
     8
280
     0
  0
ATTDEF
  5
CF
330
B9
100
AcDbEntity
  8
AM_6
100
AcDbText
 10
7.245482965867255
 20
-6.751186306946314
 30
0.0
 40
0.5
  1
baldor
100
AcDbAttributeDefinition
  3

  2
COMPANY
 70
     8
280
     0
  0
LINE
  5
D0
330
B9
100
AcDbEntity
  8
AM_9
100
AcDbLine
 10
0.05
 20
1.678575706380295
 30
0.0
 11
0.05
 21
1.733027841620076
 31
0.0
  0
LINE
  5
D1
330
B9
100
AcDbEntity
  8
AM_9
100
AcDbLine
 10
-0.05
 20
1.678575706380295
 30
0.0
 11
-0.05
 21
1.733027841620076
 31
0.0
  0
ARC
  5
D2
330
B9
100
AcDbEntity
  8
AM_9
100
AcDbCircle
 10
0.0
 20
0.0000000000000001
 30
0.0
 40
1.733748972553507
100
AcDbArc
 50
91.65259577828577
 51
88.34740422171423
  0
CIRCLE
  5
D3
330
B9
100
AcDbEntity
  8
AM_9
100
AcDbCircle
 10
0.0
 20
0.0
 30
0.0
 40
1.839285714285716
  0
CIRCLE
  5
D4
330
B9
100
AcDbEntity
  8
AM_9
100
AcDbCircle
 10
0.0
 20
0.0
 30
0.0
 40
2.0
  0
LINE
  5
D5
330
B9
100
AcDbEntity
  8
AM_9
100
AcDbLine
 10
-2.22745
 20
-0.0724499999999999
 30
0.0
 11
-1.71005
 21
-0.0724499999999999
 31
0.0
  0
LINE
  5
D6
330
B9
100
AcDbEntity
  8
AM_9
100
AcDbLine
 10
-1.71005
 20
0.0724499999999999
 30
0.0
 11
-2.22745
 21
0.0724499999999999
 31
0.0
  0
LINE
  5
D7
330
B9
100
AcDbEntity
  8
AM_9
100
AcDbLine
 10
-1.71005
 20
-0.0724499999999999
 30
0.0
 11
-1.6875
 21
-0.0950000000000002
 31
0.0
  0
LINE
  5
D8
330
B9
100
AcDbEntity
  8
AM_9
100
AcDbLine
 10
-1.6875
 20
0.0950000000000002
 30
0.0
 11
-1.71005
 21
0.0724499999999999
 31
0.0
  0
LINE
  5
D9
330
B9
100
AcDbEntity
  8
AM_9
100
AcDbLine
 10
-1.6875
 20
0.0950000000000002
 30
0.0
 11
-1.6875
 21
-0.0950000000000002
 31
0.0
  0
LINE
  5
DA
330
B9
100
AcDbEntity
  8
AM_9
100
AcDbLine
 10
-1.71005
 20
0.0724499999999999
 30
0.0
 11
-1.71005
 21
-0.0724499999999999
 31
0.0
  0
LINE
  5
DB
330
B9
100
AcDbEntity
  8
AM_9
100
AcDbLine
 10
-2.22745
 20
0.0724499999999999
 30
0.0
 11
-2.247424478931135
 21
0.0924244789311349
 31
0.0
  0
LINE
  5
DC
330
B9
100
AcDbEntity
  8
AM_9
100
AcDbLine
 10
-2.247661536365866
 20
-0.0926615363658664
 30
0.0
 11
-2.22745
 21
-0.0724499999999999
 31
0.0
  0
LINE
  5
DD
330
B9
100
AcDbEntity
  8
AM_9
100
AcDbLine
 10
-2.22745
 20
0.0724499999999999
 30
0.0
 11
-2.22745
 21
-0.0724499999999999
 31
0.0
  0
LINE
  5
DF
330
B9
100
AcDbEntity
  8
AM_5
100
AcDbLine
 10
-2.247993549812811
 20
-0.0950000000000002
 30
0.0
 11
-1.6875
 21
-0.0950000000000002
 31
0.0
  0
LINE
  5
E0
330
B9
100
AcDbEntity
  8
AM_5
100
AcDbLine
 10
-2.247993549812811
 20
0.0949999999999999
 30
0.0
 11
-1.6875
 21
0.0949999999999999
 31
0.0
  0
LINE
  5
E1
330
B9
100
AcDbEntity
  8
AM_4
100
AcDbLine
 10
-0.9265911894603371
 20
1.889903017990982
 30
0.0
 11
-0.9993328628943453
 21
2.015895292206268
 31
0.0
  0
LINE
  5
E2
330
B9
100
AcDbEntity
  8
AM_4
100
AcDbLine
 10
2.245482965867254
 20
0.1425
 30
0.0
 11
2.099999618999238
 21
0.1425
 31
0.0
  0
ARC
  5
E3
330
B9
100
AcDbEntity
  8
AM_4
100
AcDbCircle
 10
-0.0000000000000004
 20
-0.0000000000000004
 30
0.0
 40
2.25
100
AcDbArc
 50
3.631162966693041
 51
116.368837033307
  0
LINE
  5
E4
330
B9
100
AcDbEntity
  8
AM_4
100
AcDbLine
 10
-1.246150102972911
 20
1.873395292206267
 30
0.0
 11
-1.173408429538902
 21
1.747403017990982
 31
0.0
  0
LINE
  5
E5
330
B9
100
AcDbEntity
  8
AM_4
100
AcDbLine
 10
-1.173408429538901
 20
-1.747403017990982
 30
0.0
 11
-1.246150102972909
 21
-1.873395292206268
 31
0.0
  0
ARC
  5
E6
330
B9
100
AcDbEntity
  8
AM_4
100
AcDbCircle
 10
0.0000000000000007
 20
0.0
 30
0.0
 40
2.25
100
AcDbArc
 50
123.6311629666931
 51
236.3688370333069
  0
LINE
  5
E7
330
B9
100
AcDbEntity
  8
AM_4
100
AcDbLine
 10
2.099999618999238
 20
0.1425
 30
0.0
 11
2.099999618999238
 21
-0.1425
 31
0.0
  0
LINE
  5
E8
330
B9
100
AcDbEntity
  8
AM_4
100
AcDbLine
 10
-0.926591189460336
 20
-1.889903017990982
 30
0.0
 11
-1.173408429538901
 21
-1.747403017990982
 31
0.0
  0
LINE
  5
E9
330
B9
100
AcDbEntity
  8
AM_4
100
AcDbLine
 10
-0.05
 20
1.678571428571429
 30
0.0
 11
0.05
 21
1.678571428571429
 31
0.0
  0
LINE
  5
EA
330
B9
100
AcDbEntity
  8
AM_4
100
AcDbLine
 10
2.099999618999238
 20
-0.1425
 30
0.0
 11
2.245482965867254
 21
-0.1425
 31
0.0
  0
LINE
  5
EB
330
B9
100
AcDbEntity
  8
AM_4
100
AcDbLine
 10
-1.173408429538902
 20
1.747403017990982
 30
0.0
 11
-0.9265911894603371
 21
1.889903017990982
 31
0.0
  0
ARC
  5
EC
330
B9
100
AcDbEntity
  8
AM_4
100
AcDbCircle
 10
-0.0000000000000002
 20
0.0
 30
0.0
 40
2.20276
100
AcDbArc
 50
3.709144061691311
 51
116.2908559383086
  0
ARC
  5
ED
330
B9
100
AcDbEntity
  8
AM_4
100
AcDbCircle
 10
0.0000000000000011
 20
-0.0000000000000001
 30
0.0
 40
2.202760000000001
100
AcDbArc
 50
123.7091440616915
 51
236.2908559383086
  0
LINE
  5
EE
330
B9
100
AcDbEntity
  8
AM_4
100
AcDbLine
 10
-0.9993328628943441
 20
-2.015895292206268
 30
0.0
 11
-0.926591189460336
 21
-1.889903017990982
 31
0.0
  0
ARC
  5
EF
330
B9
100
AcDbEntity
  8
AM_4
100
AcDbCircle
 10
-0.0000000000000005
 20
0.0000000000000009
 30
0.0
 40
2.250000000000001
100
AcDbArc
 50
243.6311629666931
 51
356.3688370333069
  0
ARC
  5
F0
330
B9
100
AcDbEntity
  8
AM_4
100
AcDbCircle
 10
0.0000000000000005
 20
-0.0000000000000004
 30
0.0
 40
2.20276
100
AcDbArc
 50
243.7091440616914
 51
356.2908559383086
  0
ARC
  5
F1
330
B9
100
AcDbEntity
  8
AM_4
100
AcDbCircle
 10
0.0
 20
0.0
 30
0.0
 40
1.678571428571429
100
AcDbArc
 50
91.70693527888662
 51
88.29306472111335
  0
LINE
  5
F2
330
B9
100
AcDbEntity
  8
AM_4
100
AcDbLine
 10
0.05
 20
1.677826582462063
 30
0.0
 11
0.05
 21
1.467898689453737
 31
0.0
  0
ARC
  5
F3
330
B9
100
AcDbEntity
  8
AM_4
100
AcDbCircle
 10
0.0
 20
-0.0000000000000002
 30
0.0
 40
1.46875
100
AcDbArc
 50
91.95087155487666
 51
88.04912844512336
  0
LINE
  5
F4
330
B9
100
AcDbEntity
  8
AM_4
100
AcDbLine
 10
-0.05
 20
1.677826582462063
 30
0.0
 11
-0.05
 21
1.467898689453737
 31
0.0
  0
ENDBLK
  5
BC
330
B9
100
AcDbEntity
  8
0
100
AcDbBlockEnd
  0
BLOCK
  5
F7
330
F5
100
AcDbEntity
  8
0
100
AcDbBlockBegin
  2
4_129455I_0_in_129242_0
 70
     2
 10
0.0
 20
0.0
 30
0.0
  3
4_129455I_0_in_129242_0
  1

  0
ATTDEF
  5
F9
330
F5
100
AcDbEntity
  8
AM_6
100
AcDbText
 10
10.875
 20
5.034375
 30
0.0
 40
0.5
  1
GTAH-I
100
AcDbAttributeDefinition
  3

  2
NN
 70
     8
280
     0
  0
ATTDEF
  5
FA
330
F5
100
AcDbEntity
  8
AM_6
100
AcDbText
 10
10.875
 20
4.534375
 30
0.0
 40
0.5
  1
GTAH Air Handling Normal and Medium Duty Pillow Blocks
100
AcDbAttributeDefinition
  3

  2
NT
 70
     8
280
     0
  0
ATTDEF
  5
FB
330
F5
100
AcDbEntity
  8
AM_6
100
AcDbText
 10
10.875
 20
4.034375
 30
0.0
 40
0.5
  1
129455I
100
AcDbAttributeDefinition
  3

  2
NB
 70
     8
280
     0
  0
ATTDEF
  5
FC
330
F5
100
AcDbEntity
  8
AM_6
100
AcDbText
 10
10.875
 20
3.534375
 30
0.0
 40
0.5
  1
$PN.$LUBE.I
100
AcDbAttributeDefinition
  3

  2
NBSYN
 70
     8
280
     0
  0
ATTDEF
  5
FD
330
F5
100
AcDbEntity
  8
AM_6
100
AcDbText
 10
10.875
 20
3.034375
 30
0.0
 40
0.5
  1
129455
100
AcDbAttributeDefinition
  3

  2
LINA
 70
     8
280
     0
  0
ATTDEF
  5
FE
330
F5
100
AcDbEntity
  8
AM_6
100
AcDbText
 10
10.875
 20
2.534375
 30
0.0
 40
0.5
  1
216
100
AcDbAttributeDefinition
  3

  2
SERIES
 70
     8
280
     0
  0
ATTDEF
  5
FF
330
F5
100
AcDbEntity
  8
AM_6
100
AcDbText
 10
10.875
 20
2.034375
 30
0.0
 40
0.5
  1
129455
100
AcDbAttributeDefinition
  3

  2
PN
 70
     8
280
     0
  0
ATTDEF
  5
100
330
F5
100
AcDbEntity
  8
AM_6
100
AcDbText
 10
10.875
 20
1.534375
 30
0.0
 40
0.5
  1
P2B-GTAH-16
100
AcDbAttributeDefinition
  3

  2
DESCRIPTION
 70
     8
280
     0
  0
ATTDEF
  5
101
330
F5
100
AcDbEntity
  8
AM_6
100
AcDbText
 10
10.875
 20
1.034375
 30
0.0
 40
0.5
  1
2-49/64
100
AcDbAttributeDefinition
  3

  2
A
 70
     8
280
     0
  0
ATTDEF
  5
102
330
F5
100
AcDbEntity
  8
AM_6
100
AcDbText
 10
10.875
 20
0.5343749999999998
 30
0.0
 40
0.5
  1
11-3/4
100
AcDbAttributeDefinition
  3

  2
B
 70
     8
280
     0
  0
ATTDEF
  5
103
330
F5
100
AcDbEntity
  8
AM_6
100
AcDbText
 10
10.875
 20
0.0343749999999998
 30
0.0
 40
0.5
  1
3
100
AcDbAttributeDefinition
  3

  2
C
 70
     8
280
     0
  0
ATTDEF
  5
104
330
F5
100
AcDbEntity
  8
AM_6
100
AcDbText
 10
10.875
 20
-0.4656250000000002
 30
0.0
 40
0.5
  1
8-1/2
100
AcDbAttributeDefinition
  3

  2
DMIN
 70
     8
280
     0
  0
ATTDEF
  5
105
330
F5
100
AcDbEntity
  8
AM_6
100
AcDbText
 10
10.875
 20
-0.9656250000000002
 30
0.0
 40
0.5
  1
9-1/2
100
AcDbAttributeDefinition
  3

  2
DMAX
 70
     8
280
     0
  0
ATTDEF
  5
106
330
F5
100
AcDbEntity
  8
AM_6
100
AcDbText
 10
10.875
 20
-1.465625
 30
0.0
 40
0.5
  1
7/8
100
AcDbAttributeDefinition
  3

  2
F
 70
     8
280
     0
  0
ATTDEF
  5
107
330
F5
100
AcDbEntity
  8
AM_6
100
AcDbText
 10
10.875
 20
-1.965625
 30
0.0
 40
0.5
  1
1-7/16
100
AcDbAttributeDefinition
  3

  2
G
 70
     8
280
     0
  0
ATTDEF
  5
108
330
F5
100
AcDbEntity
  8
AM_6
100
AcDbText
 10
10.875
 20
-2.465625
 30
0.0
 40
0.5
  1
1-1/4
100
AcDbAttributeDefinition
  3

  2
H
 70
     8
280
     0
  0
ATTDEF
  5
109
330
F5
100
AcDbEntity
  8
AM_6
100
AcDbText
 10
10.875
 20
-2.965625
 30
0.0
 40
0.5
  1
6-15/16
100
AcDbAttributeDefinition
  3

  2
J
 70
     8
280
     0
  0
ATTDEF
  5
10A
330
F5
100
AcDbEntity
  8
AM_6
100
AcDbText
 10
10.875
 20
-3.465625
 30
0.0
 40
0.5
  1
4-1/2
100
AcDbAttributeDefinition
  3

  2
L
 70
     8
280
     0
  0
ATTDEF
  5
10B
330
F5
100
AcDbEntity
  8
AM_6
100
AcDbText
 10
10.875
 20
-3.965625
 30
0.0
 40
0.5
  1
3-1/2
100
AcDbAttributeDefinition
  3

  2
M
 70
     8
280
     0
  0
ATTDEF
  5
10C
330
F5
100
AcDbEntity
  8
AM_6
100
AcDbText
 10
10.875
 20
-4.465625
 30
0.0
 40
0.5
  1
29/32
100
AcDbAttributeDefinition
  3

  2
R
 70
     8
280
     0
  0
ATTDEF
  5
10D
330
F5
100
AcDbEntity
  8
AM_6
100
AcDbText
 10
10.875
 20
-4.965625
 30
0.0
 40
0.5
  1
1-55/64
100
AcDbAttributeDefinition
  3

  2
S
 70
     8
280
     0
  0
ATTDEF
  5
10E
330
F5
100
AcDbEntity
  8
AM_6
100
AcDbText
 10
10.875
 20
-5.465625
 30
0.0
 40
0.5
  1
5-1/2
100
AcDbAttributeDefinition
  3

  2
U
 70
     8
280
     0
  0
ATTDEF
  5
10F
330
F5
100
AcDbEntity
  8
AM_6
100
AcDbText
 10
10.875
 20
-5.965625
 30
0.0
 40
0.5
  1
11
100
AcDbAttributeDefinition
  3

  2
V
 70
     8
280
     0
  0
ATTDEF
  5
110
330
F5
100
AcDbEntity
  8
AM_6
100
AcDbText
 10
10.875
 20
-6.465625
 30
0.0
 40
0.5
  1
1-3/32
100
AcDbAttributeDefinition
  3

  2
W
 70
     8
280
     0
  0
ATTDEF
  5
111
330
F5
100
AcDbEntity
  8
AM_6
100
AcDbText
 10
10.875
 20
-6.965625
 30
0.0
 40
0.5
  1
3/16
100
AcDbAttributeDefinition
  3

  2
X
 70
     8
280
     0
  0
ATTDEF
  5
112
330
F5
100
AcDbEntity
  8
AM_6
100
AcDbText
 10
10.875
 20
-7.465625
 30
0.0
 40
0.5
  1
1-51/64
100
AcDbAttributeDefinition
  3

  2
Z
 70
     8
280
     0
  0
ATTDEF
  5
113
330
F5
100
AcDbEntity
  8
AM_6
100
AcDbText
 10
10.875
 20
-7.965625
 30
0.0
 40
0.5
  1
baldor
100
AcDbAttributeDefinition
  3

  2
COMPANY
 70
     8
280
     0
  0
LINE
  5
114
330
F5
100
AcDbEntity
  8
AM_9
100
AcDbLine
 10
3.9887402
 20
-2.25
 30
0.0
 11
3.9887402
 21
-2.66666625
 31
0.0
  0
LINE
  5
115
330
F5
100
AcDbEntity
  8
AM_9
100
AcDbLine
 10
3.91
 20
-2.25
 30
0.0
 11
3.91
 21
-2.66666625
 31
0.0
  0
LINE
  5
116
330
F5
100
AcDbEntity
  8
AM_9
100
AcDbLine
 10
-3.988740199999999
 20
-2.25
 30
0.0
 11
-3.988740199999999
 21
-2.66666625
 31
0.0
  0
LINE
  5
117
330
F5
100
AcDbEntity
  8
AM_9
100
AcDbLine
 10
-3.91
 20
-2.25
 30
0.0
 11
-3.91
 21
-2.66666625
 31
0.0
  0
LINE
  5
118
330
F5
100
AcDbEntity
  8
AM_9
100
AcDbLine
 10
5.875
 20
-2.66666625
 30
0.0
 11
3.91
 21
-2.66666625
 31
0.0
  0
LINE
  5
119
330
F5
100
AcDbEntity
  8
AM_9
100
AcDbLine
 10
-3.91
 20
-2.66666625
 30
0.0
 11
-5.875
 21
-2.66666625
 31
0.0
  0
LINE
  5
11A
330
F5
100
AcDbEntity
  8
AM_9
100
AcDbLine
 10
0.335166
 20
3.3587598
 30
0.0
 11
0.335166
 21
3.421121161614131
 31
0.0
  0
LINE
  5
11B
330
F5
100
AcDbEntity
  8
AM_9
100
AcDbLine
 10
0.166818
 20
3.3587598
 30
0.0
 11
0.166818
 21
3.433449869282501
 31
0.0
  0
LINE
  5
11C
330
F5
100
AcDbEntity
  8
AM_9
100
AcDbLine
 10
-0.200487509838
 20
3.3587598
 30
0.0
 11
-0.200487509838
 21
3.431648438928292
 31
0.0
  0
LINE
  5
11D
330
F5
100
AcDbEntity
  8
AM_9
100
AcDbLine
 10
-0.224974530935
 20
3.3587598
 30
0.0
 11
-0.224974530935
 21
3.430130130247335
 31
0.0
  0
LINE
  5
11E
330
F5
100
AcDbEntity
  8
AM_9
100
AcDbLine
 10
-0.078052404353
 20
3.3587598
 30
0.0
 11
-0.078052404353
 21
3.436613750798122
 31
0.0
  0
LINE
  5
11F
330
F5
100
AcDbEntity
  8
AM_9
100
AcDbLine
 10
0.0933567
 20
3.3587598
 30
0.0
 11
0.0933567
 21
3.436232060930276
 31
0.0
  0
LINE
  5
120
330
F5
100
AcDbEntity
  8
AM_9
100
AcDbLine
 10
0.0688697
 20
3.3587598
 30
0.0
 11
0.0688697
 21
3.436810034671967
 31
0.0
  0
LINE
  5
121
330
F5
100
AcDbEntity
  8
AM_9
100
AcDbLine
 10
0.111722
 20
3.3587598
 30
0.0
 11
0.111722
 21
3.435683984989891
 31
0.0
  0
LINE
  5
122
330
F5
100
AcDbEntity
  8
AM_9
100
AcDbLine
 10
-0.243339895183
 20
3.3587598
 30
0.0
 11
-0.243339895183
 21
3.428876192779837
 31
0.0
  0
LINE
  5
123
330
F5
100
AcDbEntity
  8
AM_9
100
AcDbLine
 10
-0.18212214559
 20
3.3587598
 30
0.0
 11
-0.18212214559
 21
3.432672104073693
 31
0.0
  0
LINE
  5
124
330
F5
100
AcDbEntity
  8
AM_9
100
AcDbLine
 10
0.0505043
 20
3.3587598
 30
0.0
 11
0.0505043
 21
3.437128971348256
 31
0.0
  0
LINE
  5
125
330
F5
100
AcDbEntity
  8
AM_9
100
AcDbLine
 10
-0.096417768601
 20
3.3587598
 30
0.0
 11
-0.096417768601
 21
3.436147532324248
 31
0.0
  0
LINE
  5
126
330
F5
100
AcDbEntity
  8
AM_9
100
AcDbLine
 10
0.0964177
 20
3.3587598
 30
0.0
 11
0.0964177
 21
3.436147534249182
 31
0.0
  0
LINE
  5
127
330
F5
100
AcDbEntity
  8
AM_9
100
AcDbLine
 10
-0.081113429628
 20
3.3587598
 30
0.0
 11
-0.081113429628
 21
3.436542864789264
 31
0.0
  0
LINE
  5
128
330
F5
100
AcDbEntity
  8
AM_9
100
AcDbLine
 10
0.212731
 20
3.3587598
 30
0.0
 11
0.212731
 21
3.430911215936521
 31
0.0
  0
LINE
  5
129
330
F5
100
AcDbEntity
  8
AM_9
100
AcDbLine
 10
0.0658091
 20
3.3587598
 30
0.0
 11
0.0658091
 21
3.436870002248734
 31
0.0
  0
LINE
  5
12A
330
F5
100
AcDbEntity
  8
AM_9
100
AcDbLine
 10
-0.22803555621
 20
3.3587598
 30
0.0
 11
-0.22803555621
 21
3.429927992699559
 31
0.0
  0
LINE
  5
12B
330
F5
100
AcDbEntity
  8
AM_9
100
AcDbLine
 10
-0.197426878264
 20
3.3587598
 30
0.0
 11
-0.197426878264
 21
3.431825881034606
 31
0.0
  0
LINE
  5
12C
330
F5
100
AcDbEntity
  8
AM_9
100
AcDbLine
 10
0.194366
 20
3.3587598
 30
0.0
 11
0.194366
 21
3.43200059849121
 31
0.0
  0
LINE
  5
12D
330
F5
100
AcDbEntity
  8
AM_9
100
AcDbLine
 10
0.0413217
 20
3.3587598
 30
0.0
 11
0.0413217
 21
3.437251629879479
 31
0.0
  0
LINE
  5
12E
330
F5
100
AcDbEntity
  8
AM_9
100
AcDbLine
 10
-0.191304827714
 20
3.3587598
 30
0.0
 11
-0.191304827714
 21
3.432172593692418
 31
0.0
  0
LINE
  5
12F
330
F5
100
AcDbEntity
  8
AM_9
100
AcDbLine
 10
0.20967
 20
3.3587598
 30
0.0
 11
0.20967
 21
3.431099640217406
 31
0.0
  0
LINE
  5
130
330
F5
100
AcDbEntity
  8
AM_9
100
AcDbLine
 10
-0.252522577307
 20
3.3587598
 30
0.0
 11
-0.252522577307
 21
3.428212157663268
 31
0.0
  0
LINE
  5
131
330
F5
100
AcDbEntity
  8
AM_9
100
AcDbLine
 10
-0.172939463466
 20
3.3587598
 30
0.0
 11
-0.172939463466
 21
3.433146980829122
 31
0.0
  0
LINE
  5
132
330
F5
100
AcDbEntity
  8
AM_9
100
AcDbLine
 10
0.102539
 20
3.3587598
 30
0.0
 11
0.102539
 21
3.435970314697003
 31
0.0
  0
LINE
  5
133
330
F5
100
AcDbEntity
  8
AM_9
100
AcDbLine
 10
-0.087235086477
 20
3.3587598
 30
0.0
 11
-0.087235086477
 21
3.436392918408397
 31
0.0
  0
LINE
  5
134
330
F5
100
AcDbEntity
  8
AM_9
100
AcDbLine
 10
-0.105600450725
 20
3.3587598
 30
0.0
 11
-0.105600450725
 21
3.435877587284899
 31
0.0
  0
LINE
  5
135
330
F5
100
AcDbEntity
  8
AM_9
100
AcDbLine
 10
0.191305
 20
3.3587598
 30
0.0
 11
0.191305
 21
3.432172584089418
 31
0.0
  0
LINE
  5
136
330
F5
100
AcDbEntity
  8
AM_9
100
AcDbLine
 10
0.120905
 20
3.3587598
 30
0.0
 11
0.120905
 21
3.435373084684548
 31
0.0
  0
LINE
  5
137
330
F5
100
AcDbEntity
  8
AM_9
100
AcDbLine
 10
0.059687
 20
3.3587598
 30
0.0
 11
0.059687
 21
3.436981773595988
 31
0.0
  0
LINE
  5
138
330
F5
100
AcDbEntity
  8
AM_9
100
AcDbLine
 10
-0.234157213059
 20
3.3587598
 30
0.0
 11
-0.234157213059
 21
3.429515512367959
 31
0.0
  0
LINE
  5
139
330
F5
100
AcDbEntity
  8
AM_9
100
AcDbLine
 10
-0.114783132849
 20
3.3587598
 30
0.0
 11
-0.114783132849
 21
3.435583077501313
 31
0.0
  0
LINE
  5
13A
330
F5
100
AcDbEntity
  8
AM_9
100
AcDbLine
 10
0.0321392
 20
3.3587598
 30
0.0
 11
0.0321392
 21
3.437349752618051
 31
0.0
  0
LINE
  5
13B
330
F5
100
AcDbEntity
  8
AM_9
100
AcDbLine
 10
-0.163757175043
 20
3.3587598
 30
0.0
 11
-0.163757175043
 21
3.433597215402813
 31
0.0
  0
LINE
  5
13C
330
F5
100
AcDbEntity
  8
AM_9
100
AcDbLine
 10
0.182122
 20
3.3587598
 30
0.0
 11
0.182122
 21
3.43267211179804
 31
0.0
  0
LINE
  5
13D
330
F5
100
AcDbEntity
  8
AM_9
100
AcDbLine
 10
0.255583
 20
3.3587598
 30
0.0
 11
0.255583
 21
3.427985352960397
 31
0.0
  0
LINE
  5
13E
330
F5
100
AcDbEntity
  8
AM_9
100
AcDbLine
 10
0.130087
 20
3.3587598
 30
0.0
 11
0.130087
 21
3.435037644980186
 31
0.0
  0
LINE
  5
13F
330
F5
100
AcDbEntity
  8
AM_9
100
AcDbLine
 10
-0.0352000977482
 20
3.3587598
 30
0.0
 11
-0.0352000977482
 21
3.437319770274296
 31
0.0
  0
LINE
  5
140
330
F5
100
AcDbEntity
  8
AM_9
100
AcDbLine
 10
-0.3290446658729999
 20
3.3587598
 30
0.0
 11
-0.3290446658729999
 21
3.421715338519635
 31
0.0
  0
LINE
  5
141
330
F5
100
AcDbEntity
  8
AM_9
100
AcDbLine
 10
-0.261705259431
 20
3.3587598
 30
0.0
 11
-0.261705259431
 21
3.427523392653386
 31
0.0
  0
LINE
  5
142
330
F5
100
AcDbEntity
  8
AM_9
100
AcDbLine
 10
-0.099478400175
 20
3.3587598
 30
0.0
 11
-0.099478400175
 21
3.436060287291048
 31
0.0
  0
LINE
  5
143
330
F5
100
AcDbEntity
  8
AM_9
100
AcDbLine
 10
0.0474437
 20
3.3587598
 30
0.0
 11
0.0474437
 21
3.437172580091132
 31
0.0
  0
LINE
  5
144
330
F5
100
AcDbEntity
  8
AM_9
100
AcDbLine
 10
-0.179061514016
 20
3.3587598
 30
0.0
 11
-0.179061514016
 21
3.432833119188627
 31
0.0
  0
LINE
  5
145
330
F5
100
AcDbEntity
  8
AM_9
100
AcDbLine
 10
0.114783
 20
3.3587598
 30
0.0
 11
0.114783
 21
3.435583081939807
 31
0.0
  0
LINE
  5
146
330
F5
100
AcDbEntity
  8
AM_9
100
AcDbLine
 10
0.197427
 20
3.3587598
 30
0.0
 11
0.197427
 21
3.431825874031347
 31
0.0
  0
LINE
  5
147
330
F5
100
AcDbEntity
  8
AM_9
100
AcDbLine
 10
-0.246400920458
 20
3.3587598
 30
0.0
 11
-0.246400920458
 21
3.42865758517783
 31
0.0
  0
LINE
  5
148
330
F5
100
AcDbEntity
  8
AM_9
100
AcDbLine
 10
0.127026
 20
3.3587598
 30
0.0
 11
0.127026
 21
3.435152201187602
 31
0.0
  0
LINE
  5
149
330
F5
100
AcDbEntity
  8
AM_9
100
AcDbLine
 10
-0.111722107574
 20
3.3587598
 30
0.0
 11
-0.111722107574
 21
3.435683981491784
 31
0.0
  0
LINE
  5
14A
330
F5
100
AcDbEntity
  8
AM_9
100
AcDbLine
 10
-0.258644234156
 20
3.3587598
 30
0.0
 11
-0.258644234156
 21
3.427755739567491
 31
0.0
  0
LINE
  5
14B
330
F5
100
AcDbEntity
  8
AM_9
100
AcDbLine
 10
0.185183
 20
3.3587598
 30
0.0
 11
0.185183
 21
3.432508340341074
 31
0.0
  0
LINE
  5
14C
330
F5
100
AcDbEntity
  8
AM_9
100
AcDbLine
 10
-0.166817806617
 20
3.3587598
 30
0.0
 11
-0.166817806617
 21
3.433449878678225
 31
0.0
  0
LINE
  5
14D
330
F5
100
AcDbEntity
  8
AM_9
100
AcDbLine
 10
0.0352001
 20
3.3587598
 30
0.0
 11
0.0352001
 21
3.437319770251236
 31
0.0
  0
LINE
  5
14E
330
F5
100
AcDbEntity
  8
AM_9
100
AcDbLine
 10
-0.3474096364199999
 20
3.3587598
 30
0.0
 11
-0.3474096364199999
 21
3.419899529887178
 31
0.0
  0
LINE
  5
14F
330
F5
100
AcDbEntity
  8
AM_9
100
AcDbLine
 10
0.237218
 20
3.3587598
 30
0.0
 11
0.237218
 21
3.429305158552679
 31
0.0
  0
LINE
  5
150
330
F5
100
AcDbEntity
  8
AM_9
100
AcDbLine
 10
-0.053565383256
 20
3.3587598
 30
0.0
 11
-0.053565383256
 21
3.43708262916629
 31
0.0
  0
LINE
  5
151
330
F5
100
AcDbEntity
  8
AM_9
100
AcDbLine
 10
-0.151513467644
 20
3.3587598
 30
0.0
 11
-0.151513467644
 21
3.434159273988687
 31
0.0
  0
LINE
  5
152
330
F5
100
AcDbEntity
  8
AM_9
100
AcDbLine
 10
-0.053565383256
 20
3.3587598
 30
0.0
 11
0.0688697
 21
3.3587598
 31
0.0
  0
LINE
  5
153
330
F5
100
AcDbEntity
  8
AM_9
100
AcDbLine
 10
0.0198957
 20
3.3587598
 30
0.0
 11
0.0198957
 21
3.437442422953661
 31
0.0
  0
LINE
  5
154
330
F5
100
AcDbEntity
  8
AM_9
100
AcDbLine
 10
0.237218
 20
3.3587598
 30
0.0
 11
0.347409
 21
3.3587598
 31
0.0
  0
LINE
  5
155
330
F5
100
AcDbEntity
  8
AM_9
100
AcDbLine
 10
-0.127026446547
 20
3.3587598
 30
0.0
 11
-0.127026446547
 21
3.435152184675035
 31
0.0
  0
LINE
  5
156
330
F5
100
AcDbEntity
  8
AM_9
100
AcDbLine
 10
0.142331
 20
3.3587598
 30
0.0
 11
0.142331
 21
3.434552101284681
 31
0.0
  0
LINE
  5
157
330
F5
100
AcDbEntity
  8
AM_9
100
AcDbLine
 10
-0.3474096364199999
 20
3.3587598
 30
0.0
 11
-0.224974530935
 21
3.3587598
 31
0.0
  0
LINE
  5
158
330
F5
100
AcDbEntity
  8
AM_9
100
AcDbLine
 10
-0.273948573129
 20
3.3587598
 30
0.0
 11
-0.273948573129
 21
3.426566565715687
 31
0.0
  0
LINE
  5
159
330
F5
100
AcDbEntity
  8
AM_9
100
AcDbLine
 10
0.0933567
 20
3.3587598
 30
0.0
 11
0.212731
 21
3.3587598
 31
0.0
  0
LINE
  5
15A
330
F5
100
AcDbEntity
  8
AM_9
100
AcDbLine
 10
0.169879
 20
3.3587598
 30
0.0
 11
0.169879
 21
3.433299779419068
 31
0.0
  0
LINE
  5
15B
330
F5
100
AcDbEntity
  8
AM_9
100
AcDbLine
 10
-0.200487509838
 20
3.3587598
 30
0.0
 11
-0.078052404353
 21
3.3587598
 31
0.0
  0
LINE
  5
15C
330
F5
100
AcDbEntity
  8
AM_9
100
AcDbLine
 10
0.347409
 20
3.3587598
 30
0.0
 11
0.347409
 21
3.419899594537685
 31
0.0
  0
LINE
  5
15D
330
F5
100
AcDbEntity
  8
AM_9
100
AcDbLine
 10
-4.25
 20
-2.25
 30
0.0
 11
-4.25
 21
-3.5
 31
0.0
  0
LINE
  5
15E
330
F5
100
AcDbEntity
  8
AM_9
100
AcDbLine
 10
-3.78125
 20
-3.5
 30
0.0
 11
-3.78125
 21
-2.25
 31
0.0
  0
LINE
  5
15F
330
F5
100
AcDbEntity
  8
AM_9
100
AcDbLine
 10
4.75
 20
-2.25
 30
0.0
 11
4.75
 21
-3.5
 31
0.0
  0
LINE
  5
160
330
F5
100
AcDbEntity
  8
AM_9
100
AcDbLine
 10
5.21875
 20
-3.5
 30
0.0
 11
5.21875
 21
-2.25
 31
0.0
  0
LINE
  5
161
330
F5
100
AcDbEntity
  8
AM_9
100
AcDbLine
 10
4.25
 20
-2.25
 30
0.0
 11
4.25
 21
-3.5
 31
0.0
  0
LINE
  5
162
330
F5
100
AcDbEntity
  8
AM_9
100
AcDbLine
 10
3.78125
 20
-2.25
 30
0.0
 11
3.78125
 21
-3.5
 31
0.0
  0
LINE
  5
163
330
F5
100
AcDbEntity
  8
AM_9
100
AcDbLine
 10
-4.749999999999999
 20
-2.25
 30
0.0
 11
-4.749999999999999
 21
-3.5
 31
0.0
  0
LINE
  5
164
330
F5
100
AcDbEntity
  8
AM_9
100
AcDbLine
 10
-5.21875
 20
-2.25
 30
0.0
 11
-5.21875
 21
-3.5
 31
0.0
  0
LINE
  5
165
330
F5
100
AcDbEntity
  8
AM_9
100
AcDbLine
 10
3.125
 20
1.431906187611385
 30
0.0
 11
3.125
 21
-2.25
 31
0.0
  0
LINE
  5
166
330
F5
100
AcDbEntity
  8
AM_9
100
AcDbLine
 10
-3.125
 20
-2.25
 30
0.0
 11
-3.125
 21
1.431906187611381
 31
0.0
  0
LINE
  5
167
330
F5
100
AcDbEntity
  8
AM_9
100
AcDbLine
 10
5.40625
 20
-2.25
 30
0.0
 11
5.40625
 21
-2.375
 31
0.0
  0
LINE
  5
168
330
F5
100
AcDbEntity
  8
AM_9
100
AcDbLine
 10
5.59375
 20
-2.375
 30
0.0
 11
5.59375
 21
-2.25
 31
0.0
  0
LINE
  5
169
330
F5
100
AcDbEntity
  8
AM_9
100
AcDbLine
 10
5.40625
 20
-2.375
 30
0.0
 11
5.59375
 21
-2.375
 31
0.0
  0
LINE
  5
16A
330
F5
100
AcDbEntity
  8
AM_9
100
AcDbLine
 10
-5.59375
 20
-2.25
 30
0.0
 11
-5.59375
 21
-2.375
 31
0.0
  0
LINE
  5
16B
330
F5
100
AcDbEntity
  8
AM_9
100
AcDbLine
 10
-5.40625
 20
-2.375
 30
0.0
 11
-5.40625
 21
-2.25
 31
0.0
  0
LINE
  5
16C
330
F5
100
AcDbEntity
  8
AM_9
100
AcDbLine
 10
-5.59375
 20
-2.375
 30
0.0
 11
-5.40625
 21
-2.375
 31
0.0
  0
LINE
  5
16D
330
F5
100
AcDbEntity
  8
AM_7
100
AcDbLine
 10
4.25
 20
-2.596875
 30
0.0
 11
4.25
 21
5.034375
 31
0.0
  0
LINE
  5
16E
330
F5
100
AcDbEntity
  8
AM_7
100
AcDbLine
 10
-4.25
 20
-2.596875
 30
0.0
 11
-4.25
 21
5.034375
 31
0.0
  0
LINE
  5
16F
330
F5
100
AcDbEntity
  8
AM_7
100
AcDbLine
 10
2.243803438243603
 20
2.243803438243602
 30
0.0
 11
2.741603443938654
 21
2.741603443938656
 31
0.0
  0
LINE
  5
170
330
F5
100
AcDbEntity
  8
AM_7
100
AcDbLine
 10
-5.5
 20
-2.3875
 30
0.0
 11
-5.5
 21
-2.1125
 31
0.0
  0
LINE
  5
171
330
F5
100
AcDbEntity
  8
AM_7
100
AcDbLine
 10
5.5
 20
-2.3875
 30
0.0
 11
5.5
 21
-2.1125
 31
0.0
  0
ARC
  5
172
330
F5
100
AcDbEntity
  8
AM_4
100
AcDbCircle
 10
0.000000000004838
 20
-0.000000000115925
 30
0.0
 40
3.437500000116029
100
AcDbArc
 50
92.11774158678692
 51
92.52622416250352
  0
LINE
  5
173
330
F5
100
AcDbEntity
  8
AM_4
100
AcDbLine
 10
-0.0964177686009998
 20
3.43614753232425
 30
0.0
 11
-0.1270264465469998
 21
3.435152184675035
 31
0.0
  0
LINE
  5
174
330
F5
100
AcDbEntity
  8
AM_4
100
AcDbLine
 10
2.740501437234562
 20
2.649796253878168
 30
0.0
 11
2.649796259341039
 21
2.74050143177169
 31
0.0
  0
ARC
  5
175
330
F5
100
AcDbEntity
  8
AM_4
100
AcDbCircle
 10
2.644228480940969
 20
2.734933664297367
 30
0.0
 40
0.0078740199999976
100
AcDbArc
 50
45.00000000000229
 51
107.3006441304311
  0
ARC
  5
176
330
F5
100
AcDbEntity
  8
AM_4
100
AcDbCircle
 10
2.734933664297366
 20
2.644228480940971
 30
0.0
 40
0.0078740199999973
100
AcDbArc
 50
342.6993558695546
 51
45.00000000000458
  0
LINE
  5
177
330
F5
100
AcDbEntity
  8
AM_4
100
AcDbLine
 10
2.742451443603384
 20
2.641886860718482
 30
0.0
 11
2.641886860718481
 21
2.742451443603384
 31
0.0
  0
LINE
  5
178
330
F5
100
AcDbEntity
  8
AM_4
100
AcDbLine
 10
2.641886860718481
 20
2.742451443603384
 30
0.0
 11
2.574416531155102
 21
2.721435943986771
 31
0.0
  0
LINE
  5
179
330
F5
100
AcDbEntity
  8
AM_4
100
AcDbLine
 10
2.721435943986771
 20
2.574416531155103
 30
0.0
 11
2.742451443603384
 21
2.641886860718482
 31
0.0
  0
LINE
  5
17A
330
F5
100
AcDbEntity
  8
AM_4
100
AcDbLine
 10
2.721435943986771
 20
2.574416531155103
 30
0.0
 11
2.574416531155103
 21
2.721435943986771
 31
0.0
  0
ARC
  5
17B
330
F5
100
AcDbEntity
  8
AM_4
100
AcDbCircle
 10
2.580270566842038
 20
2.702641543459591
 30
0.0
 40
0.0196849999999986
100
AcDbArc
 50
107.3006441304145
 51
172.2171820744064
  0
ARC
  5
17C
330
F5
100
AcDbEntity
  8
AM_4
100
AcDbCircle
 10
2.70264154345959
 20
2.580270566842042
 30
0.0
 40
0.0196850000000013
100
AcDbArc
 50
277.7828179255991
 51
342.6993558695813
  0
LINE
  5
17D
330
F5
100
AcDbEntity
  8
AM_4
100
AcDbLine
 10
2.705307255788354
 20
2.560766895321522
 30
0.0
 11
2.560766895321521
 21
2.705307255788356
 31
0.0
  0
ARC
  5
17E
330
F5
100
AcDbEntity
  8
AM_4
100
AcDbCircle
 10
2.478934051845546
 20
2.716491940018625
 30
0.0
 40
0.0825936524963888
100
AcDbArc
 50
269.3563657692234
 51
352.2171966097837
  0
ARC
  5
17F
330
F5
100
AcDbEntity
  8
AM_4
100
AcDbCircle
 10
2.716491940018622
 20
2.478934051845549
 30
0.0
 40
0.0825936524963867
100
AcDbArc
 50
97.78280339021576
 51
180.6436342307789
  0
LINE
  5
180
330
F5
100
AcDbEntity
  8
AM_4
100
AcDbLine
 10
2.633903498810672
 20
2.478006252548913
 30
0.0
 11
2.478006252548912
 21
2.633903498810672
 31
0.0
  0
LINE
  5
181
330
F5
100
AcDbEntity
  8
AM_4
100
AcDbLine
 10
2.478006252548912
 20
2.633903498810672
 30
0.0
 11
2.464086855561255
 21
2.619984101823016
 31
0.0
  0
LINE
  5
182
330
F5
100
AcDbEntity
  8
AM_4
100
AcDbLine
 10
2.619984101823015
 20
2.464086855561256
 30
0.0
 11
2.633903498810672
 21
2.478006252548913
 31
0.0
  0
LINE
  5
183
330
F5
100
AcDbEntity
  8
AM_4
100
AcDbLine
 10
2.366650369540873
 20
2.522547615802634
 30
0.0
 11
2.351510933646756
 21
2.507408179908517
 31
0.0
  0
LINE
  5
184
330
F5
100
AcDbEntity
  8
AM_4
100
AcDbLine
 10
2.507378008223604
 20
2.351480761961843
 30
0.0
 11
2.522547615802634
 21
2.366650369540873
 31
0.0
  0
LINE
  5
185
330
F5
100
AcDbEntity
  8
AM_4
100
AcDbLine
 10
2.555954168573012
 20
2.333243816770496
 30
0.0
 11
2.333243816770495
 21
2.555954168573011
 31
0.0
  0
LWPOLYLINE
  5
186
330
F5
100
AcDbEntity
  8
AM_4
100
AcDbPolyline
 90
        3
 70
     0
 43
0.0
 10
2.449214983932267
 20
2.449214983932268
 10
2.499741804270433
 20
2.389457290584061
 10
2.560570513386915
 20
2.33785945447762
  0
LWPOLYLINE
  5
187
330
F5
100
AcDbEntity
  8
AM_4
100
AcDbPolyline
 90
        3
 70
     0
 43
0.0
 10
2.648775016886269
 20
2.426063957976975
 10
2.598248196548103
 20
2.485821651325182
 10
2.537419487431622
 20
2.537419487431622
  0
LINE
  5
188
330
F5
100
AcDbEntity
  8
AM_4
100
AcDbLine
 10
2.333243557961807
 20
2.555954616871104
 30
0.0
 11
2.430679854492784
 21
2.653390913402081
 31
0.0
  0
LINE
  5
189
330
F5
100
AcDbEntity
  8
AM_4
100
AcDbLine
 10
2.653390654593393
 20
2.430680302790877
 30
0.0
 11
2.430680302790877
 21
2.653390654593393
 31
0.0
  0
LINE
  5
18A
330
F5
100
AcDbEntity
  8
AM_4
100
AcDbLine
 10
2.653390913402081
 20
2.430679854492786
 30
0.0
 11
2.555954616871103
 21
2.333243557961808
 31
0.0
  0
LWPOLYLINE
  5
18B
330
F5
100
AcDbEntity
  8
AM_4
100
AcDbPolyline
 90
        3
 70
     0
 43
0.0
 10
2.537419487431622
 20
2.537419487431622
 10
2.486892667093455
 20
2.597177180779829
 10
2.426063957976973
 20
2.648775016886269
  0
LWPOLYLINE
  5
18C
330
F5
100
AcDbEntity
  8
AM_4
100
AcDbPolyline
 90
        3
 70
     0
 43
0.0
 10
2.337859454477618
 20
2.560570513386916
 10
2.388386274815785
 20
2.500812820038707
 10
2.449214983932267
 20
2.449214983932268
  0
LINE
  5
18D
330
F5
100
AcDbEntity
  8
AM_4
100
AcDbLine
 10
2.449214983932267
 20
2.449214983932268
 30
0.0
 11
2.537419487431622
 21
2.537419487431622
 31
0.0
  0
ARC
  5
18E
330
F5
100
AcDbEntity
  8
AM_4
100
AcDbCircle
 10
2.302694900000001
 20
-3.14238885
 30
0.0
 40
0.0590551000000001
100
AcDbArc
 50
0.0
 51
90.0
  0
ARC
  5
18F
330
F5
100
AcDbEntity
  8
AM_4
100
AcDbCircle
 10
-2.302694900000002
 20
-3.142388849999997
 30
0.0
 40
0.0590550999999975
100
AcDbArc
 50
90.0
 51
179.9999991462263
  0
ARC
  5
190
330
F5
100
AcDbEntity
  8
AM_4
100
AcDbCircle
 10
0.0000000000000002
 20
-0.0000000000000009
 30
0.0
 40
2.755899999999999
100
AcDbArc
 50
211.4916840542063
 51
328.5083159457936
  0
LINE
  5
191
330
F5
100
AcDbEntity
  8
AM_4
100
AcDbLine
 10
2.302694900000001
 20
-3.08333375
 30
0.0
 11
-2.3026949
 21
-3.08333375
 31
0.0
  0
LINE
  5
192
330
F5
100
AcDbEntity
  8
AM_4
100
AcDbLine
 10
-5.815944900000002
 20
-2.25
 30
0.0
 11
-2.35
 21
-2.249999999999988
 31
0.0
  0
LINE
  5
193
330
F5
100
AcDbEntity
  8
AM_4
100
AcDbLine
 10
-5.875
 20
-3.5
 30
0.0
 11
-2.36175
 21
-3.5
 31
0.0
  0
LWPOLYLINE
  5
194
330
F5
100
AcDbEntity
  8
AM_4
100
AcDbPolyline
 90
       19
 70
     0
 43
0.0
 10
-5.875
 20
-2.3090551
 10
-5.874775277515277
 20
-2.303908108896463
 10
-5.874102820334911
 20
-2.298800289503061
 10
-5.872987746264083
 20
-2.293770515409566
 10
-5.871438541689773
 20
-2.288857066233888
 10
-5.869466996994228
 20
-2.284097336291077
 10
-5.867088116823029
 20
-2.27952755
 10
-5.86432000589069
 20
-2.275182486193645
 10
-5.861183731192835
 20
-2.271095213431201
 10
-5.857703161673649
 20
-2.26729683832635
 10
-5.853904786568799
 20
-2.263816268807164
 10
-5.849817513806354
 20
-2.260679994109309
 10
-5.84547245
 20
-2.257911883176969
 10
-5.840902663708922
 20
-2.255533003005772
 10
-5.836142933766111
 20
-2.253561458310226
 10
-5.831229484590433
 20
-2.252012253735916
 10
-5.826199710496938
 20
-2.250897179665088
 10
-5.821091891103537
 20
-2.250224722484722
 10
-5.815944900000002
 20
-2.25
  0
LINE
  5
195
330
F5
100
AcDbEntity
  8
AM_4
100
AcDbLine
 10
-5.875
 20
-3.5
 30
0.0
 11
-5.875
 21
-2.3090551
 31
0.0
  0
LINE
  5
196
330
F5
100
AcDbEntity
  8
AM_4
100
AcDbLine
 10
-2.36175
 20
-3.5
 30
0.0
 11
-2.36175
 21
-3.14238885
 31
0.0
  0
LINE
  5
197
330
F5
100
AcDbEntity
  8
AM_4
100
AcDbLine
 10
-2.35
 20
-1.439612729174064
 30
0.0
 11
-2.35
 21
-3.107037296285912
 31
0.0
  0
LINE
  5
198
330
F5
100
AcDbEntity
  8
AM_4
100
AcDbLine
 10
-5.5725
 20
-3.5
 30
0.0
 11
-5.5725
 21
-2.25
 31
0.0
  0
LINE
  5
199
330
F5
100
AcDbEntity
  8
AM_4
100
AcDbLine
 10
3.91
 20
-2.249999999999999
 30
0.0
 11
3.380580570639674
 21
0.6229616805338339
 31
0.0
  0
LWPOLYLINE
  5
19A
330
F5
100
AcDbEntity
  8
AM_4
100
AcDbPolyline
 90
       33
 70
     0
 43
0.0
 10
3.380580570639673
 20
0.6229616805338342
 10
3.313421752972955
 20
0.9152281338145317
 10
3.221045795067357
 20
1.200529148367045
 10
3.10415573374067
 20
1.476693411201164
 10
2.963641172939737
 20
1.741619145524184
 10
2.800571513317267
 20
1.993290106531372
 10
2.616187813447138
 20
2.229790926246382
 10
2.411893344619284
 20
2.449321690628086
 10
2.189242911097858
 20
2.650211638003236
 10
1.949931017121966
 20
2.830931874571643
 10
1.695778970705236
 20
2.990107010211159
 10
1.428721022382101
 20
3.126525626026991
 10
1.150789644393299
 20
3.23914949398097
 10
0.8641000623448776
 20
3.327121478433813
 10
0.5708341570641289
 20
3.3897720594649
 10
0.2732238591690343
 20
3.426624428323128
 10
-0.0264658372714133
 20
3.437398116229418
 10
-0.325954112709716
 20
3.422011128913471
 10
-0.6229616805338233
 20
3.38058057063968
 10
-0.9152281338145211
 20
3.313421752972962
 10
-1.200529148367034
 20
3.221045795067364
 10
-1.476693411201154
 20
3.104155733740677
 10
-1.741619145524173
 20
2.963641172939746
 10
-1.993290106531361
 20
2.800571513317275
 10
-2.229790926246372
 20
2.616187813447146
 10
-2.449321690628075
 20
2.411893344619292
 10
-2.650211638003227
 20
2.189242911097867
 10
-2.830931874571634
 20
1.949931017121974
 10
-2.990107010211151
 20
1.695778970705245
 10
-3.126525626026984
 20
1.428721022382111
 10
-3.239149493980962
 20
1.150789644393308
 10
-3.327121478433806
 20
0.8641000623448871
 10
-3.380580570639673
 20
0.6229616805338327
  0
LINE
  5
19B
330
F5
100
AcDbEntity
  8
AM_4
100
AcDbLine
 10
-3.380580570639675
 20
0.6229616805338318
 30
0.0
 11
-3.910000000000001
 21
-2.25
 31
0.0
  0
LWPOLYLINE
  5
19C
330
F5
100
AcDbEntity
  8
AM_4
100
AcDbPolyline
 90
       50
 70
     0
 43
0.0
 10
2.349999999999997
 20
-1.439612729174069
 10
2.466528057195749
 20
-1.229318572651599
 10
2.56428434654588
 20
-1.009668559508402
 10
2.642524883661574
 20
-0.7823343589728007
 10
2.700654210812454
 20
-0.5490461215790151
 10
2.738229928719454
 20
-0.3115793116769009
 10
2.754966063480463
 20
-0.0717411950761934
 10
2.750735243004395
 20
0.168642915337562
 10
2.725569666389712
 20
0.4077435513362222
 10
2.679660858869842
 20
0.643741012706926
 10
2.613358214190508
 20
0.8748392162694791
 10
2.527166335512351
 20
1.09927936515386
 10
2.421741195076191
 20
1.315353334306392
 10
2.297885141858187
 20
1.521416670352793
 10
2.156540795209658
 20
1.715901106881308
 10
1.998783870954649
 20
1.897326499897039
 10
1.825814994542976
 20
2.064312092611491
 10
1.638950563565596
 20
2.215587023835448
 10
1.439612729174073
 20
2.349999999999996
 10
1.229318572651603
 20
2.466528057195747
 10
1.009668559508406
 20
2.564284346545878
 10
0.7823343589728055
 20
2.642524883661573
 10
0.5490461215790201
 20
2.700654210812454
 10
0.311579311676906
 20
2.738229928719454
 10
0.0717411950761984
 20
2.754966063480463
 10
-0.168642915337557
 20
2.750735243004396
 10
-0.4077435513362171
 20
2.725569666389713
 10
-0.643741012706921
 20
2.679660858869844
 10
-0.8748392162694743
 20
2.61335821419051
 10
-1.099279365153855
 20
2.527166335512354
 10
-1.315353334306387
 20
2.421741195076194
 10
-1.521416670352789
 20
2.29788514185819
 10
-1.715901106881303
 20
2.156540795209661
 10
-1.897326499897035
 20
1.998783870954653
 10
-2.064312092611487
 20
1.82581499454298
 10
-2.215587023835444
 20
1.6389505635656
 10
-2.349999999999993
 20
1.439612729174077
 10
-2.466528057195744
 20
1.229318572651608
 10
-2.564284346545876
 20
1.009668559508411
 10
-2.642524883661572
 20
0.7823343589728102
 10
-2.700654210812452
 20
0.5490461215790251
 10
-2.738229928719453
 20
0.3115793116769111
 10
-2.754966063480463
 20
0.0717411950762035
 10
-2.750735243004395
 20
-0.168642915337552
 10
-2.725569666389713
 20
-0.4077435513362123
 10
-2.679660858869845
 20
-0.6437410127069162
 10
-2.613358214190512
 20
-0.8748392162694697
 10
-2.527166335512355
 20
-1.099279365153851
 10
-2.421741195076196
 20
-1.315353334306383
 10
-2.350000000000001
 20
-1.439612729174064
  0
LINE
  5
19D
330
F5
100
AcDbEntity
  8
AM_4
100
AcDbLine
 10
2.349999999999999
 20
-1.439612729174067
 30
0.0
 11
2.349999999999999
 21
-3.107037296285911
 31
0.0
  0
LINE
  5
19E
330
F5
100
AcDbEntity
  8
AM_4
100
AcDbLine
 10
2.361750000000001
 20
-3.14238885
 30
0.0
 11
2.36175
 21
-3.5
 31
0.0
  0
LINE
  5
19F
330
F5
100
AcDbEntity
  8
AM_4
100
AcDbLine
 10
2.36175
 20
-3.5
 30
0.0
 11
5.875
 21
-3.5
 31
0.0
  0
LWPOLYLINE
  5
1A0
330
F5
100
AcDbEntity
  8
AM_4
100
AcDbPolyline
 90
       19
 70
     0
 43
0.0
 10
5.815944899999999
 20
-2.249999999999999
 10
5.821091891103537
 20
-2.250224722484721
 10
5.826199710496938
 20
-2.250897179665088
 10
5.831229484590433
 20
-2.252012253735916
 10
5.836142933766111
 20
-2.253561458310225
 10
5.840902663708922
 20
-2.255533003005771
 10
5.84547245
 20
-2.257911883176969
 10
5.849817513806354
 20
-2.260679994109308
 10
5.853904786568799
 20
-2.263816268807164
 10
5.857703161673649
 20
-2.26729683832635
 10
5.861183731192835
 20
-2.2710952134312
 10
5.864320005890691
 20
-2.275182486193644
 10
5.86708811682303
 20
-2.279527549999999
 10
5.869466996994228
 20
-2.284097336291076
 10
5.871438541689774
 20
-2.288857066233888
 10
5.872987746264083
 20
-2.293770515409566
 10
5.874102820334911
 20
-2.298800289503061
 10
5.874775277515278
 20
-2.303908108896462
 10
5.875
 20
-2.3090551
  0
LINE
  5
1A1
330
F5
100
AcDbEntity
  8
AM_4
100
AcDbLine
 10
2.349999999999999
 20
-2.25
 30
0.0
 11
5.815944899999999
 21
-2.25
 31
0.0
  0
LINE
  5
1A2
330
F5
100
AcDbEntity
  8
AM_4
100
AcDbLine
 10
5.5725
 20
-2.25
 30
0.0
 11
5.572499999999997
 21
-3.5
 31
0.0
  0
LINE
  5
1A3
330
F5
100
AcDbEntity
  8
AM_4
100
AcDbLine
 10
5.875
 20
-2.3090551
 30
0.0
 11
5.875
 21
-3.5
 31
0.0
  0
ENDBLK
  5
F8
330
F5
100
AcDbEntity
  8
0
100
AcDbBlockEnd
  0
ENDSEC
  0
SECTION
  2
ENTITIES
  0
INSERT
  5
6F
330
1F
100
AcDbEntity
  8
0
100
AcDbBlockReference
  2
1_129242_0
 10
0.0
 20
0.0
 30
0.0
  0
POINT
  5
1A5
330
1F
100
AcDbEntity
  8
ConnectionPoints
100
AcDbPoint
 10
0.0
 20
0.0
 30
0.0
  0
POINT
  5
1A6
330
1F
100
AcDbEntity
  8
ConnectionPoints
100
AcDbPoint
 10
0.0
 20
0.0
 30
-0.90625
  0
POINT
  5
1A7
330
1F
100
AcDbEntity
  8
ConnectionPoints
100
AcDbPoint
 10
0.0
 20
0.0
 30
0.0
  0
POINT
  5
1A8
330
1F
100
AcDbEntity
  8
ConnectionPoints
100
AcDbPoint
 10
0.0
 20
0.0
 30
0.0
  0
ENDSEC
  0
SECTION
  2
OBJECTS
  0
DICTIONARY
  5
C
330
0
100
AcDbDictionary
281
     1
  3
ACAD_DETAILVIEWSTYLE
350
1B0
  3
ACAD_GROUP
350
D
  3
ACAD_LAYOUT
350
1A
  3
ACAD_MATERIAL
350
43
  3
ACAD_MLEADERSTYLE
350
6B
  3
ACAD_MLINESTYLE
350
17
  3
ACAD_PLOTSETTINGS
350
19
  3
ACAD_PLOTSTYLENAME
350
E
  3
ACAD_SCALELIST
350
47
  3
ACAD_SECTIONVIEWSTYLE
350
1B1
  3
ACAD_TABLESTYLE
350
69
  3
ACAD_VISUALSTYLE
350
2A
  3
ACDB_RECOMPOSE_DATA
350
1AD
  3
AcDbVariableDictionary
350
1A9
  0
SUN
  5
6D
330
29
100
AcDbSun
 90
        1
290
     0
 63
     7
421
 16777215
 40
1.0
291
     1
 91
  2455826
 92
 54000000
292
     0
 70
     2
 71
   256
280
     1
  0
DICTIONARY
  5
1B0
102
{ACAD_REACTORS
330
C
102
}
330
C
100
AcDbDictionary
281
     1
  0
DICTIONARY
  5
D
102
{ACAD_REACTORS
330
C
102
}
330
C
100
AcDbDictionary
281
     1
  0
DICTIONARY
  5
1A
102
{ACAD_REACTORS
330
C
102
}
330
C
100
AcDbDictionary
281
     1
  3
Layout1
350
1E
  3
Layout2
350
26
  3
Model
350
22
  0
DICTIONARY
  5
43
102
{ACAD_REACTORS
330
C
102
}
330
C
100
AcDbDictionary
281
     1
  3
ByBlock
350
45
  3
ByLayer
350
44
  3
Global
350
46
  0
DICTIONARY
  5
6B
102
{ACAD_REACTORS
330
C
102
}
330
C
100
AcDbDictionary
281
     1
  3
Standard
350
6C
  0
DICTIONARY
  5
17
102
{ACAD_REACTORS
330
C
102
}
330
C
100
AcDbDictionary
281
     1
  3
Standard
350
18
  0
DICTIONARY
  5
19
102
{ACAD_REACTORS
330
C
102
}
330
C
100
AcDbDictionary
281
     1
  0
ACDBDICTIONARYWDFLT
  5
E
102
{ACAD_REACTORS
330
C
102
}
330
C
100
AcDbDictionary
281
     1
  3
Normal
350
F
100
AcDbDictionaryWithDefault
340
F
  0
DICTIONARY
  5
47
102
{ACAD_REACTORS
330
C
102
}
330
C
100
AcDbDictionary
281
     1
  3
A0
350
48
  3
A1
350
49
  3
A2
350
4A
  3
A3
350
4B
  3
A4
350
4C
  3
A5
350
4D
  3
A6
350
4E
  3
A7
350
4F
  3
A8
350
50
  3
A9
350
51
  3
B0
350
52
  3
B1
350
53
  3
B2
350
54
  3
B3
350
55
  3
B4
350
56
  3
B5
350
57
  3
B6
350
58
  3
B7
350
59
  3
B8
350
5A
  3
B9
350
5B
  3
C0
350
5C
  3
C1
350
5D
  3
C2
350
5E
  3
C3
350
5F
  3
C4
350
60
  3
C5
350
61
  3
C6
350
62
  3
C7
350
63
  3
C8
350
64
  3
C9
350
65
  3
D0
350
66
  3
D1
350
67
  3
D2
350
68
  0
DICTIONARY
  5
1B1
102
{ACAD_REACTORS
330
C
102
}
330
C
100
AcDbDictionary
281
     1
  0
DICTIONARY
  5
69
102
{ACAD_REACTORS
330
C
102
}
330
C
100
AcDbDictionary
281
     1
  3
Standard
350
6A
  0
DICTIONARY
  5
2A
102
{ACAD_REACTORS
330
C
102
}
330
C
100
AcDbDictionary
281
     1
  3
2dWireframe
350
2F
  3
Basic
350
32
  3
Brighten
350
36
  3
ColorChange
350
3A
  3
Conceptual
350
34
  3
Dim
350
35
  3
EdgeColorOff
350
3D
  3
Facepattern
350
39
  3
Flat
350
2B
  3
FlatWithEdges
350
2C
  3
Gouraud
350
2D
  3
GouraudWithEdges
350
2E
  3
Hidden
350
31
  3
JitterOff
350
3B
  3
Linepattern
350
38
  3
OverhangOff
350
3C
  3
Realistic
350
33
  3
Shaded
350
42
  3
Shaded with edges
350
41
  3
Shades of Gray
350
3E
  3
Sketchy
350
3F
  3
Thicken
350
37
  3
Wireframe
350
30
  3
X-Ray
350
40
  0
XRECORD
  5
1AD
102
{ACAD_REACTORS
330
C
102
}
330
C
100
AcDbXrecord
280
     1
 90
        1
330
6A
  0
DICTIONARY
  5
1A9
102
{ACAD_REACTORS
330
C
102
}
330
C
100
AcDbDictionary
281
     1
  3
CANNOSCALE
350
1AA
  3
CMLEADERSTYLE
350
1AF
  3
CTABLESTYLE
350
1AE
  0
LAYOUT
  5
1E
102
{ACAD_REACTORS
330
1A
102
}
330
1A
100
AcDbPlotSettings
  1

  2
none_device
  4

  6

 40
0.0
 41
0.0
 42
0.0
 43
0.0
 44
0.0
 45
0.0
 46
0.0
 47
0.0
 48
0.0
 49
0.0
140
0.0
141
0.0
142
1.0
143
1.0
 70
   688
 72
     0
 73
     0
 74
     5
  7

 75
    16
 76
     0
 77
     2
 78
   300
147
1.0
148
0.0
149
0.0
100
AcDbLayout
  1
Layout1
 70
     1
 71
     1
 10
0.0
 20
0.0
 11
12.0
 21
9.0
 12
0.0
 22
0.0
 32
0.0
 14
1.000000000000000E+20
 24
1.000000000000000E+20
 34
1.000000000000000E+20
 15
-1.000000000000000E+20
 25
-1.000000000000000E+20
 35
-1.000000000000000E+20
146
0.0
 13
0.0
 23
0.0
 33
0.0
 16
1.0
 26
0.0
 36
0.0
 17
0.0
 27
1.0
 37
0.0
 76
     0
330
1B
  0
LAYOUT
  5
26
102
{ACAD_REACTORS
330
1A
102
}
330
1A
100
AcDbPlotSettings
  1

  2
none_device
  4

  6

 40
0.0
 41
0.0
 42
0.0
 43
0.0
 44
0.0
 45
0.0
 46
0.0
 47
0.0
 48
0.0
 49
0.0
140
0.0
141
0.0
142
1.0
143
1.0
 70
   688
 72
     0
 73
     0
 74
     5
  7

 75
    16
 76
     0
 77
     2
 78
   300
147
1.0
148
0.0
149
0.0
100
AcDbLayout
  1
Layout2
 70
     1
 71
     2
 10
0.0
 20
0.0
 11
0.0
 21
0.0
 12
0.0
 22
0.0
 32
0.0
 14
0.0
 24
0.0
 34
0.0
 15
0.0
 25
0.0
 35
0.0
146
0.0
 13
0.0
 23
0.0
 33
0.0
 16
1.0
 26
0.0
 36
0.0
 17
0.0
 27
1.0
 37
0.0
 76
     0
330
23
  0
LAYOUT
  5
22
102
{ACAD_REACTORS
330
1A
102
}
330
1A
100
AcDbPlotSettings
  1

  2
none_device
  4
Letter_(8.50_x_11.00_Inches)
  6

 40
6.35
 41
6.35
 42
6.35000508
 43
6.35000508
 44
215.9
 45
279.4
 46
0.0
 47
0.0
 48
0.0
 49
0.0
140
0.0
141
0.0
142
1.0
143
1.0
 70
  1712
 72
     0
 73
     0
 74
     0
  7

 75
     0
 76
     0
 77
     2
 78
   300
147
1.0
148
0.0
149
0.0
100
AcDbLayout
  1
Model
 70
     1
 71
     0
 10
0.0
 20
0.0
 11
12.0
 21
9.0
 12
0.0
 22
0.0
 32
0.0
 14
1.000000000000000E+20
 24
1.000000000000000E+20
 34
1.000000000000000E+20
 15
-1.000000000000000E+20
 25
-1.000000000000000E+20
 35
-1.000000000000000E+20
146
0.0
 13
0.0
 23
0.0
 33
0.0
 16
1.0
 26
0.0
 36
0.0
 17
0.0
 27
1.0
 37
0.0
 76
     0
330
1F
331
29
  0
MATERIAL
  5
45
102
{ACAD_REACTORS
330
43
102
}
330
43
100
AcDbMaterial
  1
ByBlock
 72
     1
 94
      127
  0
MATERIAL
  5
44
102
{ACAD_REACTORS
330
43
102
}
330
43
100
AcDbMaterial
  1
ByLayer
 72
     1
 94
      127
  0
MATERIAL
  5
46
102
{ACAD_REACTORS
330
43
102
}
330
43
100
AcDbMaterial
  1
Global
 72
     1
 94
      127
  0
MLEADERSTYLE
  5
6C
102
{ACAD_REACTORS
330
6B
102
}
330
6B
100
AcDbMLeaderStyle
179
     2
170
     2
171
     1
172
     0
 90
        2
 40
0.0
 41
0.0
173
     1
 91
-1056964608
340
14
 92
       -2
290
     1
 42
0.09
291
     1
 43
0.36
  3
Standard
341
0
 44
0.18
300

342
11
174
     1
178
     6
175
     1
176
     0
 93
-1056964608
 45
0.18
292
     0
297
     0
 46
0.18
343
0
 94
-1056964608
 47
1.0
 49
1.0
140
1.0
293
     1
141
0.0
294
     1
177
     0
142
1.0
295
     0
296
     0
143
0.125
271
     0
272
     9
273
     9
298
     0
  0
MLINESTYLE
  5
18
102
{ACAD_REACTORS
330
17
102
}
330
17
100
AcDbMlineStyle
  2
Standard
 70
     0
  3

 62
   256
 51
90.0
 52
90.0
 71
     2
 49
0.5
 62
   256
  6
BYLAYER
 49
-0.5
 62
   256
  6
BYLAYER
  0
ACDBPLACEHOLDER
  5
F
102
{ACAD_REACTORS
330
E
102
}
330
E
  0
SCALE
  5
48
102
{ACAD_REACTORS
330
47
102
}
330
47
100
AcDbScale
 70
     0
300
1:1
140
1.0
141
1.0
290
     1
  0
SCALE
  5
49
102
{ACAD_REACTORS
330
47
102
}
330
47
100
AcDbScale
 70
     0
300
1:2
140
1.0
141
2.0
290
     0
  0
SCALE
  5
4A
102
{ACAD_REACTORS
330
47
102
}
330
47
100
AcDbScale
 70
     0
300
1:4
140
1.0
141
4.0
290
     0
  0
SCALE
  5
4B
102
{ACAD_REACTORS
330
47
102
}
330
47
100
AcDbScale
 70
     0
300
1:5
140
1.0
141
5.0
290
     0
  0
SCALE
  5
4C
102
{ACAD_REACTORS
330
47
102
}
330
47
100
AcDbScale
 70
     0
300
1:8
140
1.0
141
8.0
290
     0
  0
SCALE
  5
4D
102
{ACAD_REACTORS
330
47
102
}
330
47
100
AcDbScale
 70
     0
300
1:10
140
1.0
141
10.0
290
     0
  0
SCALE
  5
4E
102
{ACAD_REACTORS
330
47
102
}
330
47
100
AcDbScale
 70
     0
300
1:16
140
1.0
141
16.0
290
     0
  0
SCALE
  5
4F
102
{ACAD_REACTORS
330
47
102
}
330
47
100
AcDbScale
 70
     0
300
1:20
140
1.0
141
20.0
290
     0
  0
SCALE
  5
50
102
{ACAD_REACTORS
330
47
102
}
330
47
100
AcDbScale
 70
     0
300
1:30
140
1.0
141
30.0
290
     0
  0
SCALE
  5
51
102
{ACAD_REACTORS
330
47
102
}
330
47
100
AcDbScale
 70
     0
300
1:40
140
1.0
141
40.0
290
     0
  0
SCALE
  5
52
102
{ACAD_REACTORS
330
47
102
}
330
47
100
AcDbScale
 70
     0
300
1:50
140
1.0
141
50.0
290
     0
  0
SCALE
  5
53
102
{ACAD_REACTORS
330
47
102
}
330
47
100
AcDbScale
 70
     0
300
1:100
140
1.0
141
100.0
290
     0
  0
SCALE
  5
54
102
{ACAD_REACTORS
330
47
102
}
330
47
100
AcDbScale
 70
     0
300
2:1
140
2.0
141
1.0
290
     0
  0
SCALE
  5
55
102
{ACAD_REACTORS
330
47
102
}
330
47
100
AcDbScale
 70
     0
300
4:1
140
4.0
141
1.0
290
     0
  0
SCALE
  5
56
102
{ACAD_REACTORS
330
47
102
}
330
47
100
AcDbScale
 70
     0
300
8:1
140
8.0
141
1.0
290
     0
  0
SCALE
  5
57
102
{ACAD_REACTORS
330
47
102
}
330
47
100
AcDbScale
 70
     0
300
10:1
140
10.0
141
1.0
290
     0
  0
SCALE
  5
58
102
{ACAD_REACTORS
330
47
102
}
330
47
100
AcDbScale
 70
     0
300
100:1
140
100.0
141
1.0
290
     0
  0
SCALE
  5
59
102
{ACAD_REACTORS
330
47
102
}
330
47
100
AcDbScale
 70
     0
300
1/128" = 1'-0"
140
0.0078125
141
12.0
290
     0
  0
SCALE
  5
5A
102
{ACAD_REACTORS
330
47
102
}
330
47
100
AcDbScale
 70
     0
300
1/64" = 1'-0"
140
0.015625
141
12.0
290
     0
  0
SCALE
  5
5B
102
{ACAD_REACTORS
330
47
102
}
330
47
100
AcDbScale
 70
     0
300
1/32" = 1'-0"
140
0.03125
141
12.0
290
     0
  0
SCALE
  5
5C
102
{ACAD_REACTORS
330
47
102
}
330
47
100
AcDbScale
 70
     0
300
1/16" = 1'-0"
140
0.0625
141
12.0
290
     0
  0
SCALE
  5
5D
102
{ACAD_REACTORS
330
47
102
}
330
47
100
AcDbScale
 70
     0
300
3/32" = 1'-0"
140
0.09375
141
12.0
290
     0
  0
SCALE
  5
5E
102
{ACAD_REACTORS
330
47
102
}
330
47
100
AcDbScale
 70
     0
300
1/8" = 1'-0"
140
0.125
141
12.0
290
     0
  0
SCALE
  5
5F
102
{ACAD_REACTORS
330
47
102
}
330
47
100
AcDbScale
 70
     0
300
3/16" = 1'-0"
140
0.1875
141
12.0
290
     0
  0
SCALE
  5
60
102
{ACAD_REACTORS
330
47
102
}
330
47
100
AcDbScale
 70
     0
300
1/4" = 1'-0"
140
0.25
141
12.0
290
     0
  0
SCALE
  5
61
102
{ACAD_REACTORS
330
47
102
}
330
47
100
AcDbScale
 70
     0
300
3/8" = 1'-0"
140
0.375
141
12.0
290
     0
  0
SCALE
  5
62
102
{ACAD_REACTORS
330
47
102
}
330
47
100
AcDbScale
 70
     0
300
1/2" = 1'-0"
140
0.5
141
12.0
290
     0
  0
SCALE
  5
63
102
{ACAD_REACTORS
330
47
102
}
330
47
100
AcDbScale
 70
     0
300
3/4" = 1'-0"
140
0.75
141
12.0
290
     0
  0
SCALE
  5
64
102
{ACAD_REACTORS
330
47
102
}
330
47
100
AcDbScale
 70
     0
300
1" = 1'-0"
140
1.0
141
12.0
290
     0
  0
SCALE
  5
65
102
{ACAD_REACTORS
330
47
102
}
330
47
100
AcDbScale
 70
     0
300
1-1/2" = 1'-0"
140
1.5
141
12.0
290
     0
  0
SCALE
  5
66
102
{ACAD_REACTORS
330
47
102
}
330
47
100
AcDbScale
 70
     0
300
3" = 1'-0"
140
3.0
141
12.0
290
     0
  0
SCALE
  5
67
102
{ACAD_REACTORS
330
47
102
}
330
47
100
AcDbScale
 70
     0
300
6" = 1'-0"
140
6.0
141
12.0
290
     0
  0
SCALE
  5
68
102
{ACAD_REACTORS
330
47
102
}
330
47
100
AcDbScale
 70
     0
300
1'-0" = 1'-0"
140
12.0
141
12.0
290
     0
  0
TABLESTYLE
  5
6A
102
{ACAD_REACTORS
330
69
102
}
102
{ACAD_XDICTIONARY
360
1AB
102
}
330
69
100
AcDbTableStyle
  3
Standard
 70
     0
 71
     0
 40
0.06
 41
0.06
280
     0
281
     0
  7
Standard
140
0.18
170
     2
 62
     0
 63
   257
283
     0
 90
        4
 91
        0
  1

274
    -2
284
     1
 64
     0
275
    -2
285
     1
 65
     0
276
    -2
286
     1
 66
     0
277
    -2
287
     1
 67
     0
278
    -2
288
     1
 68
     0
279
    -2
289
     1
 69
     0
  7
Standard
140
0.25
170
     5
 62
     0
 63
   257
283
     0
 90
        4
 91
        0
  1

274
    -2
284
     1
 64
     0
275
    -2
285
     1
 65
     0
276
    -2
286
     1
 66
     0
277
    -2
287
     1
 67
     0
278
    -2
288
     1
 68
     0
279
    -2
289
     1
 69
     0
  7
Standard
140
0.18
170
     5
 62
     0
 63
   257
283
     0
 90
        4
 91
        0
  1

274
    -2
284
     1
 64
     0
275
    -2
285
     1
 65
     0
276
    -2
286
     1
 66
     0
277
    -2
287
     1
 67
     0
278
    -2
288
     1
 68
     0
279
    -2
289
     1
 69
     0
  0
VISUALSTYLE
  5
2F
102
{ACAD_REACTORS
330
2A
102
}
330
2A
100
AcDbVisualStyle
  2
2dWireframe
 70
     4
177
     3
291
     0
 70
    58
 90
        0
176
     1
 90
        2
176
     1
 90
        0
176
     1
 90
        0
176
     1
 40
0.6
176
     1
 40
30.0
176
     1
 62
     7
420
 16777215
176
     1
 90
        1
176
     1
 90
        4
176
     1
 62
     7
176
     1
 62
   257
176
     1
 90
        1
176
     1
 90
        1
176
     1
 40
1.0
176
     1
 90
        0
176
     1
 62
   257
176
     1
 40
1.0
176
     1
 90
        1
176
     1
 90
        6
176
     1
 90
        2
176
     1
 62
     7
176
     1
 90
        5
176
     1
 90
        0
176
     1
 90
        0
176
     1
290
     0
176
     1
 90
        1
176
     1
 40
0.0
176
     1
 90
        0
176
     1
290
     1
176
     1
290
     1
176
     1
290
     0
176
     1
290
     0
176
     1
290
     0
176
     1
290
     0
176
     1
290
     0
176
     1
290
     0
176
     1
290
     0
176
     1
 90
       50
176
     1
 40
0.0
176
     1
 40
1.0
176
     1
 90
        0
176
     1
 62
    18
420
        0
176
     1
 90
       50
176
     1
 90
        3
176
     1
 62
     5
420
      255
176
     1
290
     0
176
     1
 90
       50
176
     1
 90
       50
176
     1
 90
       50
176
     1
290
     0
176
     1
 90
       50
176
     1
 62
   256
176
     0
 40
1.0
176
     0
 90
        2
176
     1
  1
strokes_ogs.tif
176
     1
290
     0
176
     1
 40
1.0
176
     1
 40
1.0
176
     1
  0
VISUALSTYLE
  5
32
102
{ACAD_REACTORS
330
2A
102
}
330
2A
100
AcDbVisualStyle
  2
Basic
 70
     7
177
     3
291
     1
 70
    58
 90
        1
176
     1
 90
        0
176
     1
 90
        1
176
     1
 90
        0
176
     1
 40
0.6
176
     1
 40
30.0
176
     1
 62
     7
420
 16777215
176
     1
 90
        0
176
     1
 90
        4
176
     1
 62
     7
176
     1
 62
   257
176
     1
 90
        1
176
     1
 90
        1
176
     1
 40
1.0
176
     1
 90
        8
176
     1
 62
     7
176
     1
 40
1.0
176
     1
 90
        1
176
     1
 90
        6
176
     1
 90
        2
176
     1
 62
     7
176
     1
 90
        5
176
     1
 90
        0
176
     1
 90
        0
176
     1
290
     0
176
     1
 90
        1
176
     1
 40
0.0
176
     1
 90
        0
176
     1
290
     0
176
     1
290
     1
176
     1
290
     1
176
     1
290
     0
176
     1
290
     0
176
     1
290
     0
176
     1
290
     0
176
     1
290
     0
176
     1
290
     0
176
     1
 90
       50
176
     1
 40
0.0
176
     1
 40
1.0
176
     1
 90
        0
176
     1
 62
    18
420
        0
176
     1
 90
       50
176
     1
 90
        3
176
     1
 62
     5
420
      255
176
     1
290
     0
176
     1
 90
       50
176
     1
 90
       50
176
     1
 90
       50
176
     1
290
     0
176
     1
 90
       50
176
     1
 62
   256
176
     0
 40
1.0
176
     0
 90
        2
176
     1
  1
strokes_ogs.tif
176
     1
290
     0
176
     1
 40
1.0
176
     1
 40
1.0
176
     1
  0
VISUALSTYLE
  5
36
102
{ACAD_REACTORS
330
2A
102
}
330
2A
100
AcDbVisualStyle
  2
Brighten
 70
    12
177
     3
291
     1
 70
    58
 90
        2
176
     1
 90
        2
176
     1
 90
        0
176
     1
 90
        0
176
     1
 40
0.6
176
     1
 40
30.0
176
     1
 62
     7
420
 16777215
176
     1
 90
        1
176
     1
 90
        4
176
     1
 62
     7
176
     1
 62
   257
176
     1
 90
        1
176
     1
 90
        1
176
     1
 40
1.0
176
     1
 90
        8
176
     1
 62
     7
176
     1
 40
1.0
176
     1
 90
        1
176
     1
 90
        6
176
     1
 90
        2
176
     1
 62
     7
176
     1
 90
        5
176
     1
 90
        0
176
     1
 90
        0
176
     1
290
     0
176
     1
 90
        1
176
     1
 40
50.0
176
     1
 90
        0
176
     1
290
     0
176
     1
290
     1
176
     1
290
     1
176
     1
290
     0
176
     1
290
     0
176
     1
290
     0
176
     1
290
     0
176
     1
290
     0
176
     1
290
     0
176
     1
 90
       50
176
     1
 40
0.0
176
     1
 40
1.0
176
     1
 90
        0
176
     1
 62
    18
420
        0
176
     1
 90
       50
176
     1
 90
        3
176
     1
 62
     5
420
      255
176
     1
290
     0
176
     1
 90
       50
176
     1
 90
       50
176
     1
 90
       50
176
     1
290
     0
176
     1
 90
       50
176
     1
 62
   256
176
     0
 40
1.0
176
     0
 90
        2
176
     1
  1
strokes_ogs.tif
176
     1
290
     0
176
     1
 40
1.0
176
     1
 40
1.0
176
     1
  0
VISUALSTYLE
  5
3A
102
{ACAD_REACTORS
330
2A
102
}
330
2A
100
AcDbVisualStyle
  2
ColorChange
 70
    16
177
     3
291
     1
 70
    58
 90
        2
176
     1
 90
        2
176
     1
 90
        3
176
     1
 90
        0
176
     1
 40
0.6
176
     1
 40
30.0
176
     1
 62
     8
420
  8421504
176
     1
 90
        1
176
     1
 90
        4
176
     1
 62
     7
176
     1
 62
   257
176
     1
 90
        1
176
     1
 90
        1
176
     1
 40
1.0
176
     1
 90
        8
176
     1
 62
     8
420
  8421504
176
     1
 40
1.0
176
     1
 90
        1
176
     1
 90
        6
176
     1
 90
        2
176
     1
 62
     7
176
     1
 90
        5
176
     1
 90
        0
176
     1
 90
        0
176
     1
290
     0
176
     1
 90
        1
176
     1
 40
0.0
176
     1
 90
        0
176
     1
290
     0
176
     1
290
     1
176
     1
290
     1
176
     1
290
     0
176
     1
290
     0
176
     1
290
     0
176
     1
290
     0
176
     1
290
     0
176
     1
290
     0
176
     1
 90
       50
176
     1
 40
0.0
176
     1
 40
1.0
176
     1
 90
        0
176
     1
 62
    18
420
        0
176
     1
 90
       50
176
     1
 90
        3
176
     1
 62
     5
420
      255
176
     1
290
     0
176
     1
 90
       50
176
     1
 90
       50
176
     1
 90
       50
176
     1
290
     0
176
     1
 90
       50
176
     1
 62
   256
176
     0
 40
1.0
176
     0
 90
        2
176
     1
  1
strokes_ogs.tif
176
     1
290
     0
176
     1
 40
1.0
176
     1
 40
1.0
176
     1
  0
VISUALSTYLE
  5
34
102
{ACAD_REACTORS
330
2A
102
}
330
2A
100
AcDbVisualStyle
  2
Conceptual
 70
     9
177
     3
291
     0
 70
    58
 90
        3
176
     1
 90
        2
176
     1
 90
        0
176
     1
 90
        0
176
     1
 40
0.6
176
     1
 40
30.0
176
     1
 62
     7
420
 16777215
176
     1
 90
        2
176
     1
 90
        2
176
     1
 62
     7
176
     1
 62
   257
176
     1
 90
        1
176
     1
 90
        1
176
     1
 40
179.0
176
     1
 90
        8
176
     1
 62
     7
176
     1
 40
1.0
176
     1
 90
        1
176
     1
 90
        6
176
     1
 90
        2
176
     1
 62
     7
176
     1
 90
        3
176
     1
 90
        0
176
     1
 90
        0
176
     1
290
     0
176
     1
 90
        1
176
     1
 40
0.0
176
     1
 90
        0
176
     1
290
     0
176
     1
290
     1
176
     1
290
     1
176
     1
290
     0
176
     1
290
     0
176
     1
290
     0
176
     1
290
     0
176
     1
290
     0
176
     1
290
     0
176
     1
 90
       50
176
     1
 40
0.0
176
     1
 40
1.0
176
     1
 90
        0
176
     1
 62
    18
420
        0
176
     1
 90
       50
176
     1
 90
        3
176
     1
 62
     5
420
      255
176
     1
290
     0
176
     1
 90
       50
176
     1
 90
       50
176
     1
 90
       50
176
     1
290
     0
176
     1
 90
       50
176
     1
 62
   256
176
     0
 40
1.0
176
     0
 90
        2
176
     1
  1
strokes_ogs.tif
176
     1
290
     0
176
     1
 40
1.0
176
     1
 40
1.0
176
     1
  0
VISUALSTYLE
  5
35
102
{ACAD_REACTORS
330
2A
102
}
330
2A
100
AcDbVisualStyle
  2
Dim
 70
    11
177
     3
291
     1
 70
    58
 90
        2
176
     1
 90
        2
176
     1
 90
        0
176
     1
 90
        0
176
     1
 40
0.6
176
     1
 40
30.0
176
     1
 62
     7
420
 16777215
176
     1
 90
        1
176
     1
 90
        4
176
     1
 62
     7
176
     1
 62
   257
176
     1
 90
        1
176
     1
 90
        1
176
     1
 40
1.0
176
     1
 90
        8
176
     1
 62
     7
176
     1
 40
1.0
176
     1
 90
        1
176
     1
 90
        6
176
     1
 90
        2
176
     1
 62
     7
176
     1
 90
        5
176
     1
 90
        0
176
     1
 90
        0
176
     1
290
     0
176
     1
 90
        1
176
     1
 40
-50.0
176
     1
 90
        0
176
     1
290
     0
176
     1
290
     1
176
     1
290
     1
176
     1
290
     0
176
     1
290
     0
176
     1
290
     0
176
     1
290
     0
176
     1
290
     0
176
     1
290
     0
176
     1
 90
       50
176
     1
 40
0.0
176
     1
 40
1.0
176
     1
 90
        0
176
     1
 62
    18
420
        0
176
     1
 90
       50
176
     1
 90
        3
176
     1
 62
     5
420
      255
176
     1
290
     0
176
     1
 90
       50
176
     1
 90
       50
176
     1
 90
       50
176
     1
290
     0
176
     1
 90
       50
176
     1
 62
   256
176
     0
 40
1.0
176
     0
 90
        2
176
     1
  1
strokes_ogs.tif
176
     1
290
     0
176
     1
 40
1.0
176
     1
 40
1.0
176
     1
  0
VISUALSTYLE
  5
3D
102
{ACAD_REACTORS
330
2A
102
}
330
2A
100
AcDbVisualStyle
  2
EdgeColorOff
 70
    22
177
     3
291
     1
 70
    58
 90
        2
176
     0
 90
        2
176
     0
 90
        0
176
     0
 90
        0
176
     0
 40
0.6
176
     0
 40
30.0
176
     0
 62
     7
420
 16777215
176
     0
 90
        1
176
     0
 90
        4
176
     0
 62
     7
176
     0
 62
   257
176
     0
 90
        1
176
     0
 90
        1
176
     0
 40
1.0
176
     0
 90
        8
176
     2
 62
     7
176
     0
 40
1.0
176
     0
 90
        1
176
     0
 90
        6
176
     0
 90
        2
176
     0
 62
     7
176
     0
 90
        5
176
     0
 90
        0
176
     0
 90
        0
176
     0
290
     0
176
     0
 90
        1
176
     0
 40
0.0
176
     0
 90
        0
176
     0
290
     0
176
     0
290
     1
176
     0
290
     1
176
     0
290
     0
176
     0
290
     0
176
     0
290
     0
176
     0
290
     0
176
     0
290
     0
176
     0
290
     0
176
     0
 90
       50
176
     0
 40
0.0
176
     0
 40
1.0
176
     0
 90
        0
176
     0
 62
    18
420
        0
176
     0
 90
       50
176
     0
 90
        3
176
     0
 62
     5
420
      255
176
     0
290
     0
176
     0
 90
       50
176
     0
 90
       50
176
     0
 90
       50
176
     0
290
     0
176
     0
 90
       50
176
     0
 62
   256
176
     0
 40
1.0
176
     0
 90
        2
176
     0
  1
strokes_ogs.tif
176
     0
290
     0
176
     0
 40
1.0
176
     0
 40
1.0
176
     0
  0
VISUALSTYLE
  5
39
102
{ACAD_REACTORS
330
2A
102
}
330
2A
100
AcDbVisualStyle
  2
Facepattern
 70
    15
177
     3
291
     1
 70
    58
 90
        2
176
     1
 90
        2
176
     1
 90
        0
176
     1
 90
        0
176
     1
 40
0.6
176
     1
 40
30.0
176
     1
 62
     7
420
 16777215
176
     1
 90
        1
176
     1
 90
        4
176
     1
 62
     7
176
     1
 62
   257
176
     1
 90
        1
176
     1
 90
        1
176
     1
 40
1.0
176
     1
 90
        8
176
     1
 62
     7
176
     1
 40
1.0
176
     1
 90
        1
176
     1
 90
        6
176
     1
 90
        2
176
     1
 62
     7
176
     1
 90
        5
176
     1
 90
        0
176
     1
 90
        0
176
     1
290
     0
176
     1
 90
        1
176
     1
 40
0.0
176
     1
 90
        0
176
     1
290
     0
176
     1
290
     1
176
     1
290
     1
176
     1
290
     0
176
     1
290
     0
176
     1
290
     0
176
     1
290
     0
176
     1
290
     0
176
     1
290
     0
176
     1
 90
       50
176
     1
 40
0.0
176
     1
 40
1.0
176
     1
 90
        0
176
     1
 62
    18
420
        0
176
     1
 90
       50
176
     1
 90
        3
176
     1
 62
     5
420
      255
176
     1
290
     0
176
     1
 90
       50
176
     1
 90
       50
176
     1
 90
       50
176
     1
290
     0
176
     1
 90
       50
176
     1
 62
   256
176
     0
 40
1.0
176
     0
 90
        2
176
     1
  1
strokes_ogs.tif
176
     1
290
     0
176
     1
 40
1.0
176
     1
 40
1.0
176
     1
  0
VISUALSTYLE
  5
2B
102
{ACAD_REACTORS
330
2A
102
}
330
2A
100
AcDbVisualStyle
  2
Flat
 70
     0
177
     3
291
     1
 70
    58
 90
        2
176
     1
 90
        1
176
     1
 90
        1
176
     1
 90
        2
176
     1
 40
0.6
176
     1
 40
30.0
176
     1
 62
     7
420
 16777215
176
     1
 90
        0
176
     1
 90
        0
176
     1
 62
     7
176
     1
 62
   257
176
     1
 90
        1
176
     1
 90
        1
176
     1
 40
1.0
176
     1
 90
        8
176
     1
 62
     7
176
     1
 40
1.0
176
     1
 90
        1
176
     1
 90
        6
176
     1
 90
        2
176
     1
 62
     7
176
     1
 90
        5
176
     1
 90
        0
176
     1
 90
        0
176
     1
290
     0
176
     1
 90
       13
176
     1
 40
0.0
176
     1
 90
        0
176
     1
290
     0
176
     1
290
     1
176
     1
290
     1
176
     1
290
     0
176
     1
290
     0
176
     1
290
     0
176
     1
290
     0
176
     1
290
     0
176
     1
290
     0
176
     1
 90
       50
176
     1
 40
0.0
176
     1
 40
1.0
176
     1
 90
        0
176
     1
 62
    18
420
        0
176
     1
 90
       50
176
     1
 90
        3
176
     1
 62
     5
420
      255
176
     1
290
     0
176
     1
 90
       50
176
     1
 90
       50
176
     1
 90
       50
176
     1
290
     0
176
     1
 90
       50
176
     1
 62
   256
176
     0
 40
1.0
176
     0
 90
        2
176
     1
  1
strokes_ogs.tif
176
     1
290
     0
176
     1
 40
1.0
176
     1
 40
1.0
176
     1
  0
VISUALSTYLE
  5
2C
102
{ACAD_REACTORS
330
2A
102
}
330
2A
100
AcDbVisualStyle
  2
FlatWithEdges
 70
     1
177
     3
291
     1
 70
    58
 90
        2
176
     1
 90
        1
176
     1
 90
        1
176
     1
 90
        2
176
     1
 40
0.6
176
     1
 40
30.0
176
     1
 62
     7
420
 16777215
176
     1
 90
        1
176
     1
 90
        0
176
     1
 62
     7
176
     1
 62
   257
176
     1
 90
        1
176
     1
 90
        1
176
     1
 40
1.0
176
     1
 90
        0
176
     1
 62
   257
176
     1
 40
1.0
176
     1
 90
        1
176
     1
 90
        6
176
     1
 90
        2
176
     1
 62
     7
176
     1
 90
        5
176
     1
 90
        0
176
     1
 90
        0
176
     1
290
     0
176
     1
 90
       13
176
     1
 40
0.0
176
     1
 90
        0
176
     1
290
     0
176
     1
290
     1
176
     1
290
     1
176
     1
290
     0
176
     1
290
     0
176
     1
290
     0
176
     1
290
     0
176
     1
290
     0
176
     1
290
     0
176
     1
 90
       50
176
     1
 40
0.0
176
     1
 40
1.0
176
     1
 90
        0
176
     1
 62
    18
420
        0
176
     1
 90
       50
176
     1
 90
        3
176
     1
 62
     5
420
      255
176
     1
290
     0
176
     1
 90
       50
176
     1
 90
       50
176
     1
 90
       50
176
     1
290
     0
176
     1
 90
       50
176
     1
 62
   256
176
     0
 40
1.0
176
     0
 90
        2
176
     1
  1
strokes_ogs.tif
176
     1
290
     0
176
     1
 40
1.0
176
     1
 40
1.0
176
     1
  0
VISUALSTYLE
  5
2D
102
{ACAD_REACTORS
330
2A
102
}
330
2A
100
AcDbVisualStyle
  2
Gouraud
 70
     2
177
     3
291
     1
 70
    58
 90
        2
176
     1
 90
        2
176
     1
 90
        1
176
     1
 90
        2
176
     1
 40
0.6
176
     1
 40
30.0
176
     1
 62
     7
420
 16777215
176
     1
 90
        0
176
     1
 90
        0
176
     1
 62
     7
176
     1
 62
   257
176
     1
 90
        1
176
     1
 90
        1
176
     1
 40
1.0
176
     1
 90
        0
176
     1
 62
     7
176
     1
 40
1.0
176
     1
 90
        1
176
     1
 90
        6
176
     1
 90
        2
176
     1
 62
     7
176
     1
 90
        5
176
     1
 90
        0
176
     1
 90
        0
176
     1
290
     0
176
     1
 90
       13
176
     1
 40
0.0
176
     1
 90
        0
176
     1
290
     0
176
     1
290
     1
176
     1
290
     1
176
     1
290
     0
176
     1
290
     0
176
     1
290
     0
176
     1
290
     0
176
     1
290
     0
176
     1
290
     0
176
     1
 90
       50
176
     1
 40
0.0
176
     1
 40
1.0
176
     1
 90
        0
176
     1
 62
    18
420
        0
176
     1
 90
       50
176
     1
 90
        3
176
     1
 62
     5
420
      255
176
     1
290
     0
176
     1
 90
       50
176
     1
 90
       50
176
     1
 90
       50
176
     1
290
     0
176
     1
 90
       50
176
     1
 62
   256
176
     0
 40
1.0
176
     0
 90
        2
176
     1
  1
strokes_ogs.tif
176
     1
290
     0
176
     1
 40
1.0
176
     1
 40
1.0
176
     1
  0
VISUALSTYLE
  5
2E
102
{ACAD_REACTORS
330
2A
102
}
330
2A
100
AcDbVisualStyle
  2
GouraudWithEdges
 70
     3
177
     3
291
     1
 70
    58
 90
        2
176
     1
 90
        2
176
     1
 90
        1
176
     1
 90
        2
176
     1
 40
0.6
176
     1
 40
30.0
176
     1
 62
     7
420
 16777215
176
     1
 90
        1
176
     1
 90
        0
176
     1
 62
     7
176
     1
 62
   257
176
     1
 90
        1
176
     1
 90
        1
176
     1
 40
1.0
176
     1
 90
        0
176
     1
 62
   257
176
     1
 40
1.0
176
     1
 90
        1
176
     1
 90
        6
176
     1
 90
        2
176
     1
 62
     7
176
     1
 90
        5
176
     1
 90
        0
176
     1
 90
        0
176
     1
290
     0
176
     1
 90
       13
176
     1
 40
0.0
176
     1
 90
        0
176
     1
290
     0
176
     1
290
     1
176
     1
290
     1
176
     1
290
     0
176
     1
290
     0
176
     1
290
     0
176
     1
290
     0
176
     1
290
     0
176
     1
290
     0
176
     1
 90
       50
176
     1
 40
0.0
176
     1
 40
1.0
176
     1
 90
        0
176
     1
 62
    18
420
        0
176
     1
 90
       50
176
     1
 90
        3
176
     1
 62
     5
420
      255
176
     1
290
     0
176
     1
 90
       50
176
     1
 90
       50
176
     1
 90
       50
176
     1
290
     0
176
     1
 90
       50
176
     1
 62
   256
176
     0
 40
1.0
176
     0
 90
        2
176
     1
  1
strokes_ogs.tif
176
     1
290
     0
176
     1
 40
1.0
176
     1
 40
1.0
176
     1
  0
VISUALSTYLE
  5
31
102
{ACAD_REACTORS
330
2A
102
}
330
2A
100
AcDbVisualStyle
  2
Hidden
 70
     6
177
     3
291
     0
 70
    58
 90
        1
176
     1
 90
        2
176
     1
 90
        2
176
     1
 90
        0
176
     1
 40
0.6
176
     1
 40
30.0
176
     1
 62
     7
420
 16777215
176
     1
 90
        2
176
     1
 90
        2
176
     1
 62
     7
176
     1
 62
   257
176
     1
 90
        2
176
     1
 90
        1
176
     1
 40
40.0
176
     1
 90
        0
176
     1
 62
   257
176
     1
 40
1.0
176
     1
 90
        1
176
     1
 90
        6
176
     1
 90
        2
176
     1
 62
     7
176
     1
 90
        3
176
     1
 90
        0
176
     1
 90
        0
176
     1
290
     0
176
     1
 90
        1
176
     1
 40
0.0
176
     1
 90
        0
176
     1
290
     0
176
     1
290
     1
176
     1
290
     1
176
     1
290
     0
176
     1
290
     0
176
     1
290
     0
176
     1
290
     0
176
     1
290
     0
176
     1
290
     0
176
     1
 90
       50
176
     1
 40
0.0
176
     1
 40
1.0
176
     1
 90
        0
176
     1
 62
    18
420
        0
176
     1
 90
       50
176
     1
 90
        3
176
     1
 62
     5
420
      255
176
     1
290
     0
176
     1
 90
       50
176
     1
 90
       50
176
     1
 90
       50
176
     1
290
     0
176
     1
 90
       50
176
     1
 62
   256
176
     0
 40
1.0
176
     0
 90
        2
176
     1
  1
strokes_ogs.tif
176
     1
290
     0
176
     1
 40
1.0
176
     1
 40
1.0
176
     1
  0
VISUALSTYLE
  5
3B
102
{ACAD_REACTORS
330
2A
102
}
330
2A
100
AcDbVisualStyle
  2
JitterOff
 70
    20
177
     3
291
     1
 70
    58
 90
        2
176
     0
 90
        2
176
     0
 90
        0
176
     0
 90
        0
176
     0
 40
0.6
176
     0
 40
30.0
176
     0
 62
     7
420
 16777215
176
     0
 90
        1
176
     0
 90
        4
176
     0
 62
     7
176
     0
 62
   257
176
     0
 90
        1
176
     0
 90
        1
176
     0
 40
1.0
176
     0
 90
       10
176
     2
 62
     7
176
     0
 40
1.0
176
     0
 90
        1
176
     0
 90
        6
176
     0
 90
        2
176
     0
 62
     7
176
     0
 90
        5
176
     0
 90
        0
176
     0
 90
        0
176
     0
290
     0
176
     0
 90
        1
176
     0
 40
0.0
176
     0
 90
        0
176
     0
290
     0
176
     0
290
     1
176
     0
290
     1
176
     0
290
     0
176
     0
290
     0
176
     0
290
     0
176
     0
290
     0
176
     0
290
     0
176
     0
290
     0
176
     0
 90
       50
176
     0
 40
0.0
176
     0
 40
1.0
176
     0
 90
        0
176
     0
 62
    18
420
        0
176
     0
 90
       50
176
     0
 90
        3
176
     0
 62
     5
420
      255
176
     0
290
     0
176
     0
 90
       50
176
     0
 90
       50
176
     0
 90
       50
176
     0
290
     0
176
     0
 90
       50
176
     0
 62
   256
176
     0
 40
1.0
176
     0
 90
        2
176
     0
  1
strokes_ogs.tif
176
     0
290
     0
176
     0
 40
1.0
176
     0
 40
1.0
176
     0
  0
VISUALSTYLE
  5
38
102
{ACAD_REACTORS
330
2A
102
}
330
2A
100
AcDbVisualStyle
  2
Linepattern
 70
    14
177
     3
291
     1
 70
    58
 90
        2
176
     1
 90
        2
176
     1
 90
        0
176
     1
 90
        0
176
     1
 40
0.6
176
     1
 40
30.0
176
     1
 62
     7
420
 16777215
176
     1
 90
        1
176
     1
 90
        4
176
     1
 62
     7
176
     1
 62
   257
176
     1
 90
        7
176
     1
 90
        7
176
     1
 40
1.0
176
     1
 90
        8
176
     1
 62
     7
176
     1
 40
1.0
176
     1
 90
        1
176
     1
 90
        6
176
     1
 90
        2
176
     1
 62
     7
176
     1
 90
        5
176
     1
 90
        0
176
     1
 90
        0
176
     1
290
     0
176
     1
 90
        1
176
     1
 40
0.0
176
     1
 90
        0
176
     1
290
     0
176
     1
290
     1
176
     1
290
     1
176
     1
290
     0
176
     1
290
     0
176
     1
290
     0
176
     1
290
     0
176
     1
290
     0
176
     1
290
     0
176
     1
 90
       50
176
     1
 40
0.0
176
     1
 40
1.0
176
     1
 90
        0
176
     1
 62
    18
420
        0
176
     1
 90
       50
176
     1
 90
        3
176
     1
 62
     5
420
      255
176
     1
290
     0
176
     1
 90
       50
176
     1
 90
       50
176
     1
 90
       50
176
     1
290
     0
176
     1
 90
       50
176
     1
 62
   256
176
     0
 40
1.0
176
     0
 90
        2
176
     1
  1
strokes_ogs.tif
176
     1
290
     0
176
     1
 40
1.0
176
     1
 40
1.0
176
     1
  0
VISUALSTYLE
  5
3C
102
{ACAD_REACTORS
330
2A
102
}
330
2A
100
AcDbVisualStyle
  2
OverhangOff
 70
    21
177
     3
291
     1
 70
    58
 90
        2
176
     0
 90
        2
176
     0
 90
        0
176
     0
 90
        0
176
     0
 40
0.6
176
     0
 40
30.0
176
     0
 62
     7
420
 16777215
176
     0
 90
        1
176
     0
 90
        4
176
     0
 62
     7
176
     0
 62
   257
176
     0
 90
        1
176
     0
 90
        1
176
     0
 40
1.0
176
     0
 90
        9
176
     2
 62
     7
176
     0
 40
1.0
176
     0
 90
        1
176
     0
 90
        6
176
     0
 90
        2
176
     0
 62
     7
176
     0
 90
        5
176
     0
 90
        0
176
     0
 90
        0
176
     0
290
     0
176
     0
 90
        1
176
     0
 40
0.0
176
     0
 90
        0
176
     0
290
     0
176
     0
290
     1
176
     0
290
     1
176
     0
290
     0
176
     0
290
     0
176
     0
290
     0
176
     0
290
     0
176
     0
290
     0
176
     0
290
     0
176
     0
 90
       50
176
     0
 40
0.0
176
     0
 40
1.0
176
     0
 90
        0
176
     0
 62
    18
420
        0
176
     0
 90
       50
176
     0
 90
        3
176
     0
 62
     5
420
      255
176
     0
290
     0
176
     0
 90
       50
176
     0
 90
       50
176
     0
 90
       50
176
     0
290
     0
176
     0
 90
       50
176
     0
 62
   256
176
     0
 40
1.0
176
     0
 90
        2
176
     0
  1
strokes_ogs.tif
176
     0
290
     0
176
     0
 40
1.0
176
     0
 40
1.0
176
     0
  0
VISUALSTYLE
  5
33
102
{ACAD_REACTORS
330
2A
102
}
330
2A
100
AcDbVisualStyle
  2
Realistic
 70
     8
177
     3
291
     0
 70
    58
 90
        2
176
     1
 90
        3
176
     1
 90
        0
176
     1
 90
        2
176
     1
 40
0.6
176
     1
 40
30.0
176
     1
 62
     7
420
 16777215
176
     1
 90
        0
176
     1
 90
        0
176
     1
 62
     7
176
     1
 62
   257
176
     1
 90
        1
176
     1
 90
        1
176
     1
 40
1.0
176
     1
 90
        8
176
     1
 62
   257
176
     1
 40
1.0
176
     1
 90
        1
176
     1
 90
        6
176
     1
 90
        2
176
     1
 62
     7
176
     1
 90
        3
176
     1
 90
        0
176
     1
 90
        0
176
     1
290
     0
176
     1
 90
       13
176
     1
 40
0.0
176
     1
 90
        0
176
     1
290
     0
176
     1
290
     1
176
     1
290
     1
176
     1
290
     0
176
     1
290
     0
176
     1
290
     0
176
     1
290
     0
176
     1
290
     0
176
     1
290
     0
176
     1
 90
       50
176
     1
 40
0.0
176
     1
 40
1.0
176
     1
 90
        0
176
     1
 62
    18
420
        0
176
     1
 90
       50
176
     1
 90
        3
176
     1
 62
     5
420
      255
176
     1
290
     0
176
     1
 90
       50
176
     1
 90
       50
176
     1
 90
       50
176
     1
290
     0
176
     1
 90
       50
176
     1
 62
   256
176
     0
 40
1.0
176
     0
 90
        2
176
     1
  1
strokes_ogs.tif
176
     1
290
     0
176
     1
 40
1.0
176
     1
 40
1.0
176
     1
  0
VISUALSTYLE
  5
42
102
{ACAD_REACTORS
330
2A
102
}
330
2A
100
AcDbVisualStyle
  2
Shaded
 70
    27
177
     3
291
     0
 70
    58
 90
        2
176
     1
 90
        2
176
     1
 90
        1
176
     1
 90
        2
176
     1
 40
0.6
176
     1
 40
30.0
176
     1
 62
     7
420
 16777215
176
     1
 90
        0
176
     1
 90
        4
176
     1
 62
     7
176
     1
 62
   257
176
     1
 90
        1
176
     1
 90
        1
176
     1
 40
1.0
176
     1
 90
        8
176
     1
 62
   257
176
     1
 40
1.0
176
     1
 90
        1
176
     1
 90
        6
176
     1
 90
        2
176
     1
 62
     8
420
  7895160
176
     1
 90
        3
176
     1
 90
        0
176
     1
 90
        0
176
     1
290
     0
176
     1
 90
        5
176
     1
 40
0.0
176
     1
 90
        0
176
     1
290
     0
176
     1
290
     1
176
     1
290
     1
176
     1
290
     0
176
     1
290
     0
176
     1
290
     0
176
     1
290
     0
176
     1
290
     0
176
     1
290
     0
176
     1
 90
       50
176
     1
 40
0.0
176
     1
 40
1.0
176
     1
 90
        0
176
     1
 62
    18
420
        0
176
     1
 90
       50
176
     1
 90
        3
176
     1
 62
     5
420
      255
176
     1
290
     0
176
     1
 90
       50
176
     1
 90
       50
176
     1
 90
       50
176
     1
290
     0
176
     1
 90
       50
176
     1
 62
   256
176
     0
 40
1.0
176
     0
 90
        2
176
     1
  1
strokes_ogs.tif
176
     1
290
     0
176
     1
 40
1.0
176
     1
 40
1.0
176
     1
  0
VISUALSTYLE
  5
41
102
{ACAD_REACTORS
330
2A
102
}
330
2A
100
AcDbVisualStyle
  2
Shaded with edges
 70
    26
177
     3
291
     0
 70
    58
 90
        2
176
     1
 90
        2
176
     1
 90
        1
176
     1
 90
        2
176
     1
 40
0.6
176
     1
 40
30.0
176
     1
 62
     7
420
 16777215
176
     1
 90
        1
176
     1
 90
       10
176
     1
 62
     7
176
     1
 62
   257
176
     1
 90
        2
176
     1
 90
        1
176
     1
 40
1.0
176
     1
 90
        8
176
     1
 62
   257
176
     1
 40
1.0
176
     1
 90
        1
176
     1
 90
        6
176
     1
 90
        2
176
     1
 62
     7
176
     1
 90
        3
176
     1
 90
        0
176
     1
 90
        0
176
     1
290
     0
176
     1
 90
        5
176
     1
 40
0.0
176
     1
 90
        0
176
     1
290
     0
176
     1
290
     1
176
     1
290
     1
176
     1
290
     0
176
     1
290
     0
176
     1
290
     0
176
     1
290
     0
176
     1
290
     0
176
     1
290
     0
176
     1
 90
       50
176
     1
 40
0.0
176
     1
 40
1.0
176
     1
 90
        0
176
     1
 62
    18
420
        0
176
     1
 90
       50
176
     1
 90
        3
176
     1
 62
     5
420
      255
176
     1
290
     0
176
     1
 90
       50
176
     1
 90
       50
176
     1
 90
       50
176
     1
290
     0
176
     1
 90
       50
176
     1
 62
   256
176
     0
 40
1.0
176
     0
 90
        2
176
     1
  1
strokes_ogs.tif
176
     1
290
     0
176
     1
 40
1.0
176
     1
 40
1.0
176
     1
  0
VISUALSTYLE
  5
3E
102
{ACAD_REACTORS
330
2A
102
}
330
2A
100
AcDbVisualStyle
  2
Shades of Gray
 70
    23
177
     3
291
     0
 70
    58
 90
        2
176
     1
 90
        2
176
     1
 90
        3
176
     1
 90
        0
176
     1
 40
0.6
176
     1
 40
30.0
176
     1
 62
     7
420
 16777215
176
     1
 90
        2
176
     1
 90
        2
176
     1
 62
     7
176
     1
 62
     7
176
     1
 90
        1
176
     1
 90
        1
176
     1
 40
40.0
176
     1
 90
        8
176
     1
 62
     7
176
     1
 40
1.0
176
     1
 90
        1
176
     1
 90
        6
176
     1
 90
        2
176
     1
 62
     7
176
     1
 90
        3
176
     1
 90
        0
176
     1
 90
        0
176
     1
290
     0
176
     1
 90
        1
176
     1
 40
0.0
176
     1
 90
        0
176
     1
290
     0
176
     1
290
     1
176
     1
290
     1
176
     1
290
     0
176
     1
290
     0
176
     1
290
     0
176
     1
290
     0
176
     1
290
     0
176
     1
290
     0
176
     1
 90
       50
176
     1
 40
0.0
176
     1
 40
1.0
176
     1
 90
        0
176
     1
 62
    18
420
        0
176
     1
 90
       50
176
     1
 90
        3
176
     1
 62
     5
420
      255
176
     1
290
     0
176
     1
 90
       50
176
     1
 90
       50
176
     1
 90
       50
176
     1
290
     0
176
     1
 90
       50
176
     1
 62
   256
176
     0
 40
1.0
176
     0
 90
        2
176
     1
  1
strokes_ogs.tif
176
     1
290
     0
176
     1
 40
1.0
176
     1
 40
1.0
176
     1
  0
VISUALSTYLE
  5
3F
102
{ACAD_REACTORS
330
2A
102
}
330
2A
100
AcDbVisualStyle
  2
Sketchy
 70
    24
177
     3
291
     0
 70
    58
 90
        1
176
     1
 90
        2
176
     1
 90
        2
176
     1
 90
        0
176
     1
 40
0.6
176
     1
 40
30.0
176
     1
 62
     7
420
 16777215
176
     1
 90
        2
176
     1
 90
        2
176
     1
 62
     7
176
     1
 62
     7
176
     1
 90
        1
176
     1
 90
        1
176
     1
 40
40.0
176
     1
 90
       11
176
     1
 62
     7
176
     1
 40
1.0
176
     1
 90
        1
176
     1
 90
        6
176
     1
 90
        2
176
     1
 62
     7
176
     1
 90
        6
176
     1
 90
        0
176
     1
 90
        0
176
     1
290
     0
176
     1
 90
        1
176
     1
 40
0.0
176
     1
 90
        0
176
     1
290
     0
176
     1
290
     1
176
     1
290
     1
176
     1
290
     0
176
     1
290
     0
176
     1
290
     0
176
     1
290
     0
176
     1
290
     0
176
     1
290
     0
176
     1
 90
       50
176
     1
 40
0.0
176
     1
 40
1.0
176
     1
 90
        0
176
     1
 62
    18
420
        0
176
     1
 90
       50
176
     1
 90
        3
176
     1
 62
     5
420
      255
176
     1
290
     0
176
     1
 90
       50
176
     1
 90
       50
176
     1
 90
       50
176
     1
290
     0
176
     1
 90
       50
176
     1
 62
   256
176
     0
 40
1.0
176
     0
 90
        2
176
     1
  1
strokes_ogs.tif
176
     1
290
     0
176
     1
 40
1.0
176
     1
 40
1.0
176
     1
  0
VISUALSTYLE
  5
37
102
{ACAD_REACTORS
330
2A
102
}
330
2A
100
AcDbVisualStyle
  2
Thicken
 70
    13
177
     3
291
     1
 70
    58
 90
        2
176
     1
 90
        2
176
     1
 90
        0
176
     1
 90
        0
176
     1
 40
0.6
176
     1
 40
30.0
176
     1
 62
     7
420
 16777215
176
     1
 90
        1
176
     1
 90
        4
176
     1
 62
     7
176
     1
 62
   257
176
     1
 90
        1
176
     1
 90
        1
176
     1
 40
1.0
176
     1
 90
       12
176
     1
 62
     7
176
     1
 40
1.0
176
     1
 90
        1
176
     1
 90
        6
176
     1
 90
        2
176
     1
 62
     7
176
     1
 90
        5
176
     1
 90
        0
176
     1
 90
        0
176
     1
290
     0
176
     1
 90
        1
176
     1
 40
0.0
176
     1
 90
        0
176
     1
290
     0
176
     1
290
     1
176
     1
290
     1
176
     1
290
     0
176
     1
290
     0
176
     1
290
     0
176
     1
290
     0
176
     1
290
     0
176
     1
290
     0
176
     1
 90
       50
176
     1
 40
0.0
176
     1
 40
1.0
176
     1
 90
        0
176
     1
 62
    18
420
        0
176
     1
 90
       50
176
     1
 90
        3
176
     1
 62
     5
420
      255
176
     1
290
     0
176
     1
 90
       50
176
     1
 90
       50
176
     1
 90
       50
176
     1
290
     0
176
     1
 90
       50
176
     1
 62
   256
176
     0
 40
1.0
176
     0
 90
        2
176
     1
  1
strokes_ogs.tif
176
     1
290
     0
176
     1
 40
1.0
176
     1
 40
1.0
176
     1
  0
VISUALSTYLE
  5
30
102
{ACAD_REACTORS
330
2A
102
}
330
2A
100
AcDbVisualStyle
  2
Wireframe
 70
     5
177
     3
291
     0
 70
    58
 90
        0
176
     1
 90
        2
176
     1
 90
        0
176
     1
 90
        0
176
     1
 40
0.6
176
     1
 40
30.0
176
     1
 62
     7
420
 16777215
176
     1
 90
        1
176
     1
 90
        4
176
     1
 62
     7
176
     1
 62
   257
176
     1
 90
        1
176
     1
 90
        1
176
     1
 40
1.0
176
     1
 90
        0
176
     1
 62
   257
176
     1
 40
1.0
176
     1
 90
        1
176
     1
 90
        6
176
     1
 90
        2
176
     1
 62
     7
176
     1
 90
        3
176
     1
 90
        0
176
     1
 90
        0
176
     1
290
     0
176
     1
 90
        1
176
     1
 40
0.0
176
     1
 90
        0
176
     1
290
     0
176
     1
290
     1
176
     1
290
     1
176
     1
290
     0
176
     1
290
     0
176
     1
290
     0
176
     1
290
     0
176
     1
290
     0
176
     1
290
     0
176
     1
 90
       50
176
     1
 40
0.0
176
     1
 40
1.0
176
     1
 90
        0
176
     1
 62
    18
420
        0
176
     1
 90
       50
176
     1
 90
        3
176
     1
 62
     5
420
      255
176
     1
290
     0
176
     1
 90
       50
176
     1
 90
       50
176
     1
 90
       50
176
     1
290
     0
176
     1
 90
       50
176
     1
 62
   256
176
     0
 40
1.0
176
     0
 90
        2
176
     1
  1
strokes_ogs.tif
176
     1
290
     0
176
     1
 40
1.0
176
     1
 40
1.0
176
     1
  0
VISUALSTYLE
  5
40
102
{ACAD_REACTORS
330
2A
102
}
330
2A
100
AcDbVisualStyle
  2
X-Ray
 70
    25
177
     3
291
     0
 70
    58
 90
        2
176
     1
 90
        2
176
     1
 90
        1
176
     1
 90
        1
176
     1
 40
0.5
176
     1
 40
30.0
176
     1
 62
     7
420
 16777215
176
     1
 90
        1
176
     1
 90
        0
176
     1
 62
     7
176
     1
 62
   257
176
     1
 90
        1
176
     1
 90
        1
176
     1
 40
1.0
176
     1
 90
        8
176
     1
 62
     7
176
     1
 40
1.0
176
     1
 90
        1
176
     1
 90
        6
176
     1
 90
        2
176
     1
 62
     7
176
     1
 90
        3
176
     1
 90
        0
176
     1
 90
        0
176
     1
290
     0
176
     1
 90
       13
176
     1
 40
0.0
176
     1
 90
        0
176
     1
290
     0
176
     1
290
     1
176
     1
290
     1
176
     1
290
     0
176
     1
290
     0
176
     1
290
     0
176
     1
290
     0
176
     1
290
     0
176
     1
290
     0
176
     1
 90
       50
176
     1
 40
0.0
176
     1
 40
1.0
176
     1
 90
        0
176
     1
 62
    18
420
        0
176
     1
 90
       50
176
     1
 90
        3
176
     1
 62
     5
420
      255
176
     1
290
     0
176
     1
 90
       50
176
     1
 90
       50
176
     1
 90
       50
176
     1
290
     0
176
     1
 90
       50
176
     1
 62
   256
176
     0
 40
1.0
176
     0
 90
        2
176
     1
  1
strokes_ogs.tif
176
     1
290
     0
176
     1
 40
1.0
176
     1
 40
1.0
176
     1
  0
DICTIONARYVAR
  5
1AA
102
{ACAD_REACTORS
330
1A9
102
}
330
1A9
100
DictionaryVariables
280
     0
  1
1:1
  0
DICTIONARYVAR
  5
1AF
102
{ACAD_REACTORS
330
1A9
102
}
330
1A9
100
DictionaryVariables
280
     0
  1
Standard
  0
DICTIONARYVAR
  5
1AE
102
{ACAD_REACTORS
330
1A9
102
}
330
1A9
100
DictionaryVariables
280
     0
  1
Standard
  0
DICTIONARY
  5
1AB
330
6A
100
AcDbDictionary
280
     1
281
     1
  3
ACAD_ROUNDTRIP_2008_TABLESTYLE_CELLSTYLEMAP
360
1AC
  0
CELLSTYLEMAP
  5
1AC
102
{ACAD_REACTORS
330
1AB
102
}
330
1AB
100
AcDbCellStyleMap
 90
        3
300
CELLSTYLE
  1
TABLEFORMAT_BEGIN
 90
        5
170
     1
 91
        0
 92
    32768
 62
   257
 93
        1
300
CONTENTFORMAT
  1
CONTENTFORMAT_BEGIN
 90
        0
 91
        0
 92
        4
 93
        0
300

 40
0.0
140
1.0
 94
        5
 62
     0
340
11
144
0.25
309
CONTENTFORMAT_END
171
     1
301
MARGIN
  1
CELLMARGIN_BEGIN
 40
0.06
 40
0.06
 40
0.06
 40
0.06
 40
0.06
 40
0.06
309
CELLMARGIN_END
 94
        6
 95
        1
302
GRIDFORMAT
  1
GRIDFORMAT_BEGIN
 90
        0
 91
        1
 62
     0
 92
       -2
340
14
 93
        0
 40
0.045
309
GRIDFORMAT_END
 95
        2
302
GRIDFORMAT
  1
GRIDFORMAT_BEGIN
 90
        0
 91
        1
 62
     0
 92
       -2
340
14
 93
        0
 40
0.045
309
GRIDFORMAT_END
 95
        4
302
GRIDFORMAT
  1
GRIDFORMAT_BEGIN
 90
        0
 91
        1
 62
     0
 92
       -2
340
14
 93
        0
 40
0.045
309
GRIDFORMAT_END
 95
        8
302
GRIDFORMAT
  1
GRIDFORMAT_BEGIN
 90
        0
 91
        1
 62
     0
 92
       -2
340
14
 93
        0
 40
0.045
309
GRIDFORMAT_END
 95
       16
302
GRIDFORMAT
  1
GRIDFORMAT_BEGIN
 90
        0
 91
        1
 62
     0
 92
       -2
340
14
 93
        0
 40
0.045
309
GRIDFORMAT_END
 95
       32
302
GRIDFORMAT
  1
GRIDFORMAT_BEGIN
 90
        0
 91
        1
 62
     0
 92
       -2
340
14
 93
        0
 40
0.045
309
GRIDFORMAT_END
309
TABLEFORMAT_END
  1
CELLSTYLE_BEGIN
 90
        1
 91
        1
300
_TITLE
309
CELLSTYLE_END
300
CELLSTYLE
  1
TABLEFORMAT_BEGIN
 90
        5
170
     1
 91
        0
 92
        0
 62
   257
 93
        1
300
CONTENTFORMAT
  1
CONTENTFORMAT_BEGIN
 90
        0
 91
        0
 92
        4
 93
        0
300

 40
0.0
140
1.0
 94
        5
 62
     0
340
11
144
0.18
309
CONTENTFORMAT_END
171
     1
301
MARGIN
  1
CELLMARGIN_BEGIN
 40
0.06
 40
0.06
 40
0.06
 40
0.06
 40
0.06
 40
0.06
309
CELLMARGIN_END
 94
        6
 95
        1
302
GRIDFORMAT
  1
GRIDFORMAT_BEGIN
 90
        0
 91
        1
 62
     0
 92
       -2
340
14
 93
        0
 40
0.045
309
GRIDFORMAT_END
 95
        2
302
GRIDFORMAT
  1
GRIDFORMAT_BEGIN
 90
        0
 91
        1
 62
     0
 92
       -2
340
14
 93
        0
 40
0.045
309
GRIDFORMAT_END
 95
        4
302
GRIDFORMAT
  1
GRIDFORMAT_BEGIN
 90
        0
 91
        1
 62
     0
 92
       -2
340
14
 93
        0
 40
0.045
309
GRIDFORMAT_END
 95
        8
302
GRIDFORMAT
  1
GRIDFORMAT_BEGIN
 90
        0
 91
        1
 62
     0
 92
       -2
340
14
 93
        0
 40
0.045
309
GRIDFORMAT_END
 95
       16
302
GRIDFORMAT
  1
GRIDFORMAT_BEGIN
 90
        0
 91
        1
 62
     0
 92
       -2
340
14
 93
        0
 40
0.045
309
GRIDFORMAT_END
 95
       32
302
GRIDFORMAT
  1
GRIDFORMAT_BEGIN
 90
        0
 91
        1
 62
     0
 92
       -2
340
14
 93
        0
 40
0.045
309
GRIDFORMAT_END
309
TABLEFORMAT_END
  1
CELLSTYLE_BEGIN
 90
        2
 91
        1
300
_HEADER
309
CELLSTYLE_END
300
CELLSTYLE
  1
TABLEFORMAT_BEGIN
 90
        5
170
     1
 91
        0
 92
        0
 62
   257
 93
        1
300
CONTENTFORMAT
  1
CONTENTFORMAT_BEGIN
 90
        0
 91
        0
 92
        4
 93
        0
300

 40
0.0
140
1.0
 94
        2
 62
     0
340
11
144
0.18
309
CONTENTFORMAT_END
171
     1
301
MARGIN
  1
CELLMARGIN_BEGIN
 40
0.06
 40
0.06
 40
0.06
 40
0.06
 40
0.06
 40
0.06
309
CELLMARGIN_END
 94
        6
 95
        1
302
GRIDFORMAT
  1
GRIDFORMAT_BEGIN
 90
        0
 91
        1
 62
     0
 92
       -2
340
14
 93
        0
 40
0.045
309
GRIDFORMAT_END
 95
        2
302
GRIDFORMAT
  1
GRIDFORMAT_BEGIN
 90
        0
 91
        1
 62
     0
 92
       -2
340
14
 93
        0
 40
0.045
309
GRIDFORMAT_END
 95
        4
302
GRIDFORMAT
  1
GRIDFORMAT_BEGIN
 90
        0
 91
        1
 62
     0
 92
       -2
340
14
 93
        0
 40
0.045
309
GRIDFORMAT_END
 95
        8
302
GRIDFORMAT
  1
GRIDFORMAT_BEGIN
 90
        0
 91
        1
 62
     0
 92
       -2
340
14
 93
        0
 40
0.045
309
GRIDFORMAT_END
 95
       16
302
GRIDFORMAT
  1
GRIDFORMAT_BEGIN
 90
        0
 91
        1
 62
     0
 92
       -2
340
14
 93
        0
 40
0.045
309
GRIDFORMAT_END
 95
       32
302
GRIDFORMAT
  1
GRIDFORMAT_BEGIN
 90
        0
 91
        1
 62
     0
 92
       -2
340
14
 93
        0
 40
0.045
309
GRIDFORMAT_END
309
TABLEFORMAT_END
  1
CELLSTYLE_BEGIN
 90
        3
 91
        2
300
_DATA
309
CELLSTYLE_END
  0
ENDSEC
  0
EOF