0
SECTION
  2
HEADER
  9
$ACADVER
  1
AC1027
  9
$ACADMAINTVER
 70
     8
  9
$DWGCODEPAGE
  3
ANSI_1252
  9
$REQUIREDVERSIONS
160
                 0
  9
$COMMENTS
  1
File was created by Cadenas
  9
$CUSTOMPROPERTYTAG
  1
NN
  9
$CUSTOMPROPERTY
  1
Grip Tight Medium Duty Air-Handling Two-Bolt Pillow Block Inch Bore
  9
$CUSTOMPROPERTYTAG
  1
NT
  9
$CUSTOMPROPERTY
  1
GTMAH Air Handling Medium Duty Pillow Blocks
  9
$CUSTOMPROPERTYTAG
  1
NB
  9
$CUSTOMPROPERTY
  1
129238
  9
$CUSTOMPROPERTYTAG
  1
NBSYN
  9
$CUSTOMPROPERTY
  1
$PN.$LUBE.
  9
$CUSTOMPROPERTYTAG
  1
LINA
  9
$CUSTOMPROPERTY
  1
129238
  9
$CUSTOMPROPERTYTAG
  1
SERIES
  9
$CUSTOMPROPERTY
  1
211
  9
$CUSTOMPROPERTYTAG
  1
SS
  9
$CUSTOMPROPERTY
  1
1-15/16
  9
$CUSTOMPROPERTYTAG
  1
PN
  9
$CUSTOMPROPERTY
  1
129238
  9
$CUSTOMPROPERTYTAG
  1
DESCRIPTION
  9
$CUSTOMPROPERTY
  1
P2B-GTMAH-115
  9
$CUSTOMPROPERTYTAG
  1
A
  9
$CUSTOMPROPERTY
  1
1-59/64
  9
$CUSTOMPROPERTYTAG
  1
B
  9
$CUSTOMPROPERTY
  1
8-7/8
  9
$CUSTOMPROPERTYTAG
  1
C
  9
$CUSTOMPROPERTY
  1
2-5/16
  9
$CUSTOMPROPERTYTAG
  1
DMIN
  9
$CUSTOMPROPERTY
  1
6-3/8
  9
$CUSTOMPROPERTYTAG
  1
DMAX
  9
$CUSTOMPROPERTY
  1
7-7/16
  9
$CUSTOMPROPERTYTAG
  1
F
  9
$CUSTOMPROPERTY
  1
5/8
  9
$CUSTOMPROPERTYTAG
  1
G
  9
$CUSTOMPROPERTY
  1
1-7/32
  9
$CUSTOMPROPERTYTAG
  1
H
  9
$CUSTOMPROPERTY
  1
7/8
  9
$CUSTOMPROPERTYTAG
  1
J
  9
$CUSTOMPROPERTY
  1
4-15/16
  9
$CUSTOMPROPERTYTAG
  1
L
  9
$CUSTOMPROPERTY
  1
3-1/4
  9
$CUSTOMPROPERTYTAG
  1
M
  9
$CUSTOMPROPERTY
  1
2-1/2
  9
$CUSTOMPROPERTYTAG
  1
R
  9
$CUSTOMPROPERTY
  1
45/64
  9
$CUSTOMPROPERTYTAG
  1
S
  9
$CUSTOMPROPERTY
  1
1-7/32
  9
$CUSTOMPROPERTYTAG
  1
U
  9
$CUSTOMPROPERTY
  1
3-15/16
  9
$CUSTOMPROPERTYTAG
  1
V
  9
$CUSTOMPROPERTY
  1
7-7/8
  9
$CUSTOMPROPERTYTAG
  1
W
  9
$CUSTOMPROPERTY
  1
13/16
  9
$CUSTOMPROPERTYTAG
  1
X
  9
$CUSTOMPROPERTY
  1
3/16
  9
$CUSTOMPROPERTYTAG
  1
Z
  9
$CUSTOMPROPERTY
  1
1-3/16
  9
$CUSTOMPROPERTYTAG
  1
COMPANY
  9
$CUSTOMPROPERTY
  1
baldor
  9
$INSBASE
 10
0.0
 20
0.0
 30
0.0
  9
$EXTMIN
 10
1.000000000000000E+20
 20
1.000000000000000E+20
 30
1.000000000000000E+20
  9
$EXTMAX
 10
-1.000000000000000E+20
 20
-1.000000000000000E+20
 30
-1.000000000000000E+20
  9
$LIMMIN
 10
0.0
 20
0.0
  9
$LIMMAX
 10
12.0
 20
9.0
  9
$ORTHOMODE
 70
     0
  9
$REGENMODE
 70
     1
  9
$FILLMODE
 70
     1
  9
$QTEXTMODE
 70
     0
  9
$MIRRTEXT
 70
     1
  9
$LTSCALE
 40
1.0
  9
$ATTMODE
 70
     1
  9
$TEXTSIZE
 40
0.2
  9
$TRACEWID
 40
0.05
  9
$TEXTSTYLE
  7
Standard
  9
$CLAYER
  8
0
  9
$CELTYPE
  6
ByLayer
  9
$CECOLOR
 62
   256
  9
$CELTSCALE
 40
1.0
  9
$DISPSILH
 70
     0
  9
$DIMSCALE
 40
1.0
  9
$DIMASZ
 40
0.18
  9
$DIMEXO
 40
0.0625
  9
$DIMDLI
 40
0.38
  9
$DIMRND
 40
0.0
  9
$DIMDLE
 40
0.0
  9
$DIMEXE
 40
0.18
  9
$DIMTP
 40
0.0
  9
$DIMTM
 40
0.0
  9
$DIMTXT
 40
0.18
  9
$DIMCEN
 40
0.09
  9
$DIMTSZ
 40
0.0
  9
$DIMTOL
 70
     0
  9
$DIMLIM
 70
     0
  9
$DIMTIH
 70
     1
  9
$DIMTOH
 70
     1
  9
$DIMSE1
 70
     0
  9
$DIMSE2
 70
     0
  9
$DIMTAD
 70
     0
  9
$DIMZIN
 70
     0
  9
$DIMBLK
  1

  9
$DIMASO
 70
     1
  9
$DIMSHO
 70
     1
  9
$DIMPOST
  1

  9
$DIMAPOST
  1

  9
$DIMALT
 70
     0
  9
$DIMALTD
 70
     2
  9
$DIMALTF
 40
25.4
  9
$DIMLFAC
 40
1.0
  9
$DIMTOFL
 70
     0
  9
$DIMTVP
 40
0.0
  9
$DIMTIX
 70
     0
  9
$DIMSOXD
 70
     0
  9
$DIMSAH
 70
     0
  9
$DIMBLK1
  1

  9
$DIMBLK2
  1

  9
$DIMSTYLE
  2
Standard
  9
$DIMCLRD
 70
     0
  9
$DIMCLRE
 70
     0
  9
$DIMCLRT
 70
     0
  9
$DIMTFAC
 40
1.0
  9
$DIMGAP
 40
0.09
  9
$DIMJUST
 70
     0
  9
$DIMSD1
 70
     0
  9
$DIMSD2
 70
     0
  9
$DIMTOLJ
 70
     1
  9
$DIMTZIN
 70
     0
  9
$DIMALTZ
 70
     0
  9
$DIMALTTZ
 70
     0
  9
$DIMUPT
 70
     0
  9
$DIMDEC
 70
     4
  9
$DIMTDEC
 70
     4
  9
$DIMALTU
 70
     2
  9
$DIMALTTD
 70
     2
  9
$DIMTXSTY
  7
Standard
  9
$DIMAUNIT
 70
     0
  9
$DIMADEC
 70
     0
  9
$DIMALTRND
 40
0.0
  9
$DIMAZIN
 70
     0
  9
$DIMDSEP
 70
    46
  9
$DIMATFIT
 70
     3
  9
$DIMFRAC
 70
     0
  9
$DIMLDRBLK
  1

  9
$DIMLUNIT
 70
     2
  9
$DIMLWD
 70
    -2
  9
$DIMLWE
 70
    -2
  9
$DIMTMOVE
 70
     0
  9
$DIMFXL
 40
1.0
  9
$DIMFXLON
 70
     0
  9
$DIMJOGANG
 40
0.7853981633974483
  9
$DIMTFILL
 70
     0
  9
$DIMTFILLCLR
 70
     0
  9
$DIMARCSYM
 70
     0
  9
$DIMLTYPE
  6

  9
$DIMLTEX1
  6

  9
$DIMLTEX2
  6

  9
$DIMTXTDIRECTION
 70
     0
  9
$LUNITS
 70
     2
  9
$LUPREC
 70
     4
  9
$SKETCHINC
 40
0.1
  9
$FILLETRAD
 40
0.5
  9
$AUNITS
 70
     0
  9
$AUPREC
 70
     0
  9
$MENU
  1
.
  9
$ELEVATION
 40
0.0
  9
$PELEVATION
 40
0.0
  9
$THICKNESS
 40
0.0
  9
$LIMCHECK
 70
     0
  9
$CHAMFERA
 40
0.0
  9
$CHAMFERB
 40
0.0
  9
$CHAMFERC
 40
0.0
  9
$CHAMFERD
 40
0.0
  9
$SKPOLY
 70
     0
  9
$TDCREATE
 40
2458168.993410556
  9
$TDUCREATE
 40
2458168.951743889
  9
$TDUPDATE
 40
2458168.993410741
  9
$TDUUPDATE
 40
2458168.951744074
  9
$TDINDWG
 40
0.0000000116
  9
$TDUSRTIMER
 40
0.0000000116
  9
$USRTIMER
 70
     1
  9
$ANGBASE
 50
0.0
  9
$ANGDIR
 70
     0
  9
$PDMODE
 70
     0
  9
$PDSIZE
 40
0.0
  9
$PLINEWID
 40
0.0
  9
$SPLFRAME
 70
     0
  9
$SPLINETYPE
 70
     6
  9
$SPLINESEGS
 70
     8
  9
$HANDSEED
  5
26B
  9
$SURFTAB1
 70
     6
  9
$SURFTAB2
 70
     6
  9
$SURFTYPE
 70
     6
  9
$SURFU
 70
     6
  9
$SURFV
 70
     6
  9
$UCSBASE
  2

  9
$UCSNAME
  2

  9
$UCSORG
 10
0.0
 20
0.0
 30
0.0
  9
$UCSXDIR
 10
1.0
 20
0.0
 30
0.0
  9
$UCSYDIR
 10
0.0
 20
1.0
 30
0.0
  9
$UCSORTHOREF
  2

  9
$UCSORTHOVIEW
 70
     0
  9
$UCSORGTOP
 10
0.0
 20
0.0
 30
0.0
  9
$UCSORGBOTTOM
 10
0.0
 20
0.0
 30
0.0
  9
$UCSORGLEFT
 10
0.0
 20
0.0
 30
0.0
  9
$UCSORGRIGHT
 10
0.0
 20
0.0
 30
0.0
  9
$UCSORGFRONT
 10
0.0
 20
0.0
 30
0.0
  9
$UCSORGBACK
 10
0.0
 20
0.0
 30
0.0
  9
$PUCSBASE
  2

  9
$PUCSNAME
  2

  9
$PUCSORG
 10
0.0
 20
0.0
 30
0.0
  9
$PUCSXDIR
 10
1.0
 20
0.0
 30
0.0
  9
$PUCSYDIR
 10
0.0
 20
1.0
 30
0.0
  9
$PUCSORTHOREF
  2

  9
$PUCSORTHOVIEW
 70
     0
  9
$PUCSORGTOP
 10
0.0
 20
0.0
 30
0.0
  9
$PUCSORGBOTTOM
 10
0.0
 20
0.0
 30
0.0
  9
$PUCSORGLEFT
 10
0.0
 20
0.0
 30
0.0
  9
$PUCSORGRIGHT
 10
0.0
 20
0.0
 30
0.0
  9
$PUCSORGFRONT
 10
0.0
 20
0.0
 30
0.0
  9
$PUCSORGBACK
 10
0.0
 20
0.0
 30
0.0
  9
$USERI1
 70
     0
  9
$USERI2
 70
     0
  9
$USERI3
 70
     0
  9
$USERI4
 70
     0
  9
$USERI5
 70
     0
  9
$USERR1
 40
0.0
  9
$USERR2
 40
0.0
  9
$USERR3
 40
0.0
  9
$USERR4
 40
0.0
  9
$USERR5
 40
0.0
  9
$WORLDVIEW
 70
     1
  9
$SHADEDGE
 70
     3
  9
$SHADEDIF
 70
    70
  9
$TILEMODE
 70
     1
  9
$MAXACTVP
 70
    64
  9
$PINSBASE
 10
0.0
 20
0.0
 30
0.0
  9
$PLIMCHECK
 70
     0
  9
$PEXTMIN
 10
1.000000000000000E+20
 20
1.000000000000000E+20
 30
1.000000000000000E+20
  9
$PEXTMAX
 10
-1.000000000000000E+20
 20
-1.000000000000000E+20
 30
-1.000000000000000E+20
  9
$PLIMMIN
 10
0.0
 20
0.0
  9
$PLIMMAX
 10
12.0
 20
9.0
  9
$UNITMODE
 70
     0
  9
$VISRETAIN
 70
     1
  9
$PLINEGEN
 70
     0
  9
$PSLTSCALE
 70
     1
  9
$TREEDEPTH
 70
  3020
  9
$CMLSTYLE
  2
Standard
  9
$CMLJUST
 70
     0
  9
$CMLSCALE
 40
1.0
  9
$PROXYGRAPHICS
 70
     1
  9
$MEASUREMENT
 70
     0
  9
$CELWEIGHT
370
    -1
  9
$ENDCAPS
280
     0
  9
$JOINSTYLE
280
     0
  9
$LWDISPLAY
290
     0
  9
$INSUNITS
 70
     1
  9
$HYPERLINKBASE
  1

  9
$STYLESHEET
  1

  9
$XEDIT
290
     1
  9
$CEPSNTYPE
380
     0
  9
$PSTYLEMODE
290
     1
  9
$FINGERPRINTGUID
  2
{99AF564B-2F64-494A-8D7E-009515946B9A}
  9
$VERSIONGUID
  2
{FAEB1C32-E019-11D5-929B-00C0DF256EC4}
  9
$EXTNAMES
290
     1
  9
$PSVPSCALE
 40
0.0
  9
$OLESTARTUP
290
     0
  9
$SORTENTS
280
   127
  9
$INDEXCTL
280
     0
  9
$HIDETEXT
280
     1
  9
$XCLIPFRAME
280
     2
  9
$HALOGAP
280
     0
  9
$OBSCOLOR
 70
   257
  9
$OBSLTYPE
280
     0
  9
$INTERSECTIONDISPLAY
280
     0
  9
$INTERSECTIONCOLOR
 70
   257
  9
$DIMASSOC
280
     2
  9
$PROJECTNAME
  1

  9
$CAMERADISPLAY
290
     0
  9
$LENSLENGTH
 40
50.0
  9
$CAMERAHEIGHT
 40
0.0
  9
$STEPSPERSEC
 40
2.0
  9
$STEPSIZE
 40
6.0
  9
$3DDWFPREC
 40
2.0
  9
$PSOLWIDTH
 40
0.25
  9
$PSOLHEIGHT
 40
4.0
  9
$LOFTANG1
 40
1.570796326794897
  9
$LOFTANG2
 40
1.570796326794897
  9
$LOFTMAG1
 40
0.0
  9
$LOFTMAG2
 40
0.0
  9
$LOFTPARAM
 70
     7
  9
$LOFTNORMALS
280
     1
  9
$LATITUDE
 40
37.795
  9
$LONGITUDE
 40
-122.394
  9
$NORTHDIRECTION
 40
0.0
  9
$TIMEZONE
 70
 -8000
  9
$LIGHTGLYPHDISPLAY
280
     1
  9
$TILEMODELIGHTSYNCH
280
     1
  9
$CMATERIAL
347
44
  9
$SOLIDHIST
280
     0
  9
$SHOWHIST
280
     1
  9
$DWFFRAME
280
     2
  9
$DGNFRAME
280
     2
  9
$REALWORLDSCALE
290
     1
  9
$INTERFERECOLOR
 62
   256
  9
$CSHADOW
280
     0
  9
$SHADOWPLANELOCATION
 40
0.0
  0
ENDSEC
  0
SECTION
  2
CLASSES
  0
CLASS
  1
ACDBDICTIONARYWDFLT
  2
AcDbDictionaryWithDefault
  3
ObjectDBX Classes
 90
        0
 91
        4
280
     0
281
     0
  0
CLASS
  1
VISUALSTYLE
  2
AcDbVisualStyle
  3
ObjectDBX Classes
 90
     4095
 91
        4
280
     0
281
     0
  0
CLASS
  1
MATERIAL
  2
AcDbMaterial
  3
ObjectDBX Classes
 90
     1153
 91
        4
280
     0
281
     0
  0
CLASS
  1
SCALE
  2
AcDbScale
  3
ObjectDBX Classes
 90
     1153
 91
        4
280
     0
281
     0
  0
CLASS
  1
TABLESTYLE
  2
AcDbTableStyle
  3
ObjectDBX Classes
 90
     4095
 91
        4
280
     0
281
     0
  0
CLASS
  1
MLEADERSTYLE
  2
AcDbMLeaderStyle
  3
ACDB_MLEADERSTYLE_CLASS
 90
     4095
 91
        4
280
     0
281
     0
  0
CLASS
  1
SUN
  2
AcDbSun
  3
SCENEOE
 90
     1153
 91
        4
280
     0
281
     0
  0
CLASS
  1
DICTIONARYVAR
  2
AcDbDictionaryVar
  3
ObjectDBX Classes
 90
        0
 91
        4
280
     0
281
     0
  0
CLASS
  1
CELLSTYLEMAP
  2
AcDbCellStyleMap
  3
ObjectDBX Classes
 90
     1152
 91
        4
280
     0
281
     0
  0
ENDSEC
  0
SECTION
  2
TABLES
  0
TABLE
  2
VPORT
  5
8
330
0
100
AcDbSymbolTable
 70
     1
  0
VPORT
  5
29
330
8
100
AcDbSymbolTableRecord
100
AcDbViewportTableRecord
  2
*Active
 70
     0
 10
0.0
 20
0.0
 11
1.0
 21
1.0
 12
-0.0050781250000007
 22
0.4624999999999995
 13
0.0
 23
0.0
 14
0.5
 24
0.5
 15
0.5
 25
0.5
 16
0.0
 26
0.0
 36
1.0
 17
0.0
 27
0.0
 37
0.0
 40
6.043499999999999
 41
0.4310390295358646
 42
50.0
 43
0.0
 44
0.0
 50
0.0
 51
0.0
 71
     0
 72
   100
 73
     1
 74
     3
 75
     0
 76
     0
 77
     0
 78
     0
281
     0
 65
     1
110
0.0
120
0.0
130
0.0
111
1.0
121
0.0
131
0.0
112
0.0
122
1.0
132
0.0
 79
     0
146
0.0
348
2F
 60
     3
 61
     5
292
     1
282
     1
141
0.0
142
0.0
 63
   250
361
6D
  0
ENDTAB
  0
TABLE
  2
LTYPE
  5
5
330
0
100
AcDbSymbolTable
 70
     3
  0
LTYPE
  5
14
330
5
100
AcDbSymbolTableRecord
100
AcDbLinetypeTableRecord
  2
ByBlock
 70
     0
  3

 72
    65
 73
     0
 40
0.0
  0
LTYPE
  5
15
330
5
100
AcDbSymbolTableRecord
100
AcDbLinetypeTableRecord
  2
ByLayer
 70
     0
  3

 72
    65
 73
     0
 40
0.0
  0
LTYPE
  5
16
330
5
100
AcDbSymbolTableRecord
100
AcDbLinetypeTableRecord
  2
Continuous
 70
     0
  3
Solid line
 72
    65
 73
     0
 40
0.0
  0
LTYPE
  5
A5
330
5
100
AcDbSymbolTableRecord
100
AcDbLinetypeTableRecord
  2
Dashed
 70
     0
  3

 72
    65
 73
     2
 40
2.0
 49
1.0
 74
     0
 49
-1.0
 74
     0
  0
LTYPE
  5
121
330
5
100
AcDbSymbolTableRecord
100
AcDbLinetypeTableRecord
  2
Center
 70
     0
  3

 72
    65
 73
     4
 40
1.5
 49
0.45
 74
     0
 49
-0.5
 74
     0
 49
0.05
 74
     0
 49
-0.5
 74
     0
  0
ENDTAB
  0
TABLE
  2
LAYER
  5
2
330
0
100
AcDbSymbolTable
 70
     7
  0
LAYER
  5
10
330
2
100
AcDbSymbolTableRecord
100
AcDbLayerTableRecord
  2
0
 70
     0
 62
     7
  6
Continuous
370
    -3
390
F
347
46
348
0
  0
LAYER
  5
72
330
2
100
AcDbSymbolTableRecord
100
AcDbLayerTableRecord
  2
AM_6
 70
     0
 62
    -2
  6
Continuous
370
    35
390
F
347
46
348
0
  0
LAYER
  5
A6
330
2
100
AcDbSymbolTableRecord
100
AcDbLayerTableRecord
  2
AM_9
 70
     0
 62
     6
  6
Dashed
370
    25
390
F
347
46
348
0
  0
LAYER
  5
122
330
2
100
AcDbSymbolTableRecord
100
AcDbLayerTableRecord
  2
AM_7
 70
     0
 62
     7
  6
Center
370
    25
390
F
347
46
348
0
  0
LAYER
  5
124
330
2
100
AcDbSymbolTableRecord
100
AcDbLayerTableRecord
  2
AM_4
 70
     0
 62
     7
  6
Continuous
370
    50
390
F
347
46
348
0
  0
LAYER
  5
12D
330
2
100
AcDbSymbolTableRecord
100
AcDbLayerTableRecord
  2
AM_5
 70
     0
 62
     3
  6
Continuous
370
    25
390
F
347
46
348
0
  0
LAYER
  5
25D
330
2
100
AcDbSymbolTableRecord
100
AcDbLayerTableRecord
  2
ConnectionPoints
 70
     0
 62
     7
  6
Continuous
370
    50
390
F
347
46
348
0
  0
ENDTAB
  0
TABLE
  2
STYLE
  5
3
330
0
100
AcDbSymbolTable
 70
     1
  0
STYLE
  5
11
330
3
100
AcDbSymbolTableRecord
100
AcDbTextStyleTableRecord
  2
Standard
 70
     0
 40
0.0
 41
1.0
 50
0.0
 71
     0
 42
0.2
  3
txt
  4

  0
ENDTAB
  0
TABLE
  2
VIEW
  5
6
330
0
100
AcDbSymbolTable
 70
     0
  0
ENDTAB
  0
TABLE
  2
UCS
  5
7
330
0
100
AcDbSymbolTable
 70
     0
  0
ENDTAB
  0
TABLE
  2
APPID
  5
9
330
0
100
AcDbSymbolTable
 70
     1
  0
APPID
  5
12
330
9
100
AcDbSymbolTableRecord
100
AcDbRegAppTableRecord
  2
ACAD
 70
     0
  0
ENDTAB
  0
TABLE
  2
DIMSTYLE
  5
A
330
0
100
AcDbSymbolTable
 70
     1
100
AcDbDimStyleTable
  0
DIMSTYLE
105
27
330
A
100
AcDbSymbolTableRecord
100
AcDbDimStyleTableRecord
  2
Standard
 70
     0
178
     0
340
11
  0
ENDTAB
  0
TABLE
  2
BLOCK_RECORD
  5
1
330
0
100
AcDbSymbolTable
 70
     5
  0
BLOCK_RECORD
  5
1F
330
1
100
AcDbSymbolTableRecord
100
AcDbBlockTableRecord
  2
*Model_Space
340
22
 70
     0
280
     1
281
     0
  0
BLOCK_RECORD
  5
1B
330
1
100
AcDbSymbolTableRecord
100
AcDbBlockTableRecord
  2
*Paper_Space
340
1E
 70
     0
280
     1
281
     0
  0
BLOCK_RECORD
  5
23
330
1
100
AcDbSymbolTableRecord
100
AcDbBlockTableRecord
  2
*Paper_Space0
340
26
 70
     0
280
     1
281
     0
  0
BLOCK_RECORD
  5
6E
330
1
100
AcDbSymbolTableRecord
100
AcDbBlockTableRecord
  2
1_129238_2
340
0
102
{BLKREFS
331
6F
102
}
 70
     0
280
     1
281
     0
  0
BLOCK_RECORD
  5
8F
330
1
100
AcDbSymbolTableRecord
100
AcDbBlockTableRecord
  2
2_129524I_0_in_129238_2
340
0
102
{BLKREFS
331
90
102
}
 70
     0
280
     1
281
     0
  0
BLOCK_RECORD
  5
D5
330
1
100
AcDbSymbolTableRecord
100
AcDbBlockTableRecord
  2
3_129931_0_in_129238_2
340
0
102
{BLKREFS
331
D6
102
}
 70
     0
280
     1
281
     0
  0
BLOCK_RECORD
  5
12F
330
1
100
AcDbSymbolTableRecord
100
AcDbBlockTableRecord
  2
4_129448I_0_in_129238_2
340
0
102
{BLKREFS
331
130
102
}
 70
     0
280
     1
281
     0
  0
ENDTAB
  0
ENDSEC
  0
SECTION
  2
BLOCKS
  0
BLOCK
  5
20
330
1F
100
AcDbEntity
  8
0
100
AcDbBlockBegin
  2
*Model_Space
 70
     0
 10
0.0
 20
0.0
 30
0.0
  3
*Model_Space
  1

  0
ENDBLK
  5
21
330
1F
100
AcDbEntity
  8
0
100
AcDbBlockEnd
  0
BLOCK
  5
1C
330
1B
100
AcDbEntity
 67
     1
  8
0
100
AcDbBlockBegin
  2
*Paper_Space
 70
     0
 10
0.0
 20
0.0
 30
0.0
  3
*Paper_Space
  1

  0
ENDBLK
  5
1D
330
1B
100
AcDbEntity
 67
     1
  8
0
100
AcDbBlockEnd
  0
BLOCK
  5
24
330
23
100
AcDbEntity
  8
0
100
AcDbBlockBegin
  2
*Paper_Space0
 70
     0
 10
0.0
 20
0.0
 30
0.0
  3
*Paper_Space0
  1

  0
ENDBLK
  5
25
330
23
100
AcDbEntity
  8
0
100
AcDbBlockEnd
  0
BLOCK
  5
70
330
6E
100
AcDbEntity
  8
0
100
AcDbBlockBegin
  2
1_129238_2
 70
     2
 10
0.0
 20
0.0
 30
0.0
  3
1_129238_2
  1

  0
ATTDEF
  5
73
330
6E
100
AcDbEntity
  8
AM_6
100
AcDbText
 10
6.271875
 20
3.424999999999999
 30
0.0
 40
0.5
  1
Grip Tight Medium Duty Air-Handling Two-Bolt Pillow Block Inch Bore
100
AcDbAttributeDefinition
  3

  2
NN
 70
     8
280
     0
  0
ATTDEF
  5
74
330
6E
100
AcDbEntity
  8
AM_6
100
AcDbText
 10
6.271875
 20
2.924999999999999
 30
0.0
 40
0.5
  1
GTMAH Air Handling Medium Duty Pillow Blocks
100
AcDbAttributeDefinition
  3

  2
NT
 70
     8
280
     0
  0
ATTDEF
  5
75
330
6E
100
AcDbEntity
  8
AM_6
100
AcDbText
 10
6.271875
 20
2.424999999999999
 30
0.0
 40
0.5
  1
129238
100
AcDbAttributeDefinition
  3

  2
NB
 70
     8
280
     0
  0
ATTDEF
  5
76
330
6E
100
AcDbEntity
  8
AM_6
100
AcDbText
 10
6.271875
 20
1.924999999999999
 30
0.0
 40
0.5
  1
$PN.$LUBE.
100
AcDbAttributeDefinition
  3

  2
NBSYN
 70
     8
280
     0
  0
ATTDEF
  5
77
330
6E
100
AcDbEntity
  8
AM_6
100
AcDbText
 10
6.271875
 20
1.424999999999999
 30
0.0
 40
0.5
  1
129238
100
AcDbAttributeDefinition
  3

  2
LINA
 70
     8
280
     0
  0
ATTDEF
  5
78
330
6E
100
AcDbEntity
  8
AM_6
100
AcDbText
 10
6.271875
 20
0.9249999999999989
 30
0.0
 40
0.5
  1
211
100
AcDbAttributeDefinition
  3

  2
SERIES
 70
     8
280
     0
  0
ATTDEF
  5
79
330
6E
100
AcDbEntity
  8
AM_6
100
AcDbText
 10
6.271875
 20
0.4249999999999989
 30
0.0
 40
0.5
  1
1-15/16
100
AcDbAttributeDefinition
  3

  2
SS
 70
     8
280
     0
  0
ATTDEF
  5
7A
330
6E
100
AcDbEntity
  8
AM_6
100
AcDbText
 10
6.271875
 20
-0.0750000000000011
 30
0.0
 40
0.5
  1
129238
100
AcDbAttributeDefinition
  3

  2
PN
 70
     8
280
     0
  0
ATTDEF
  5
7B
330
6E
100
AcDbEntity
  8
AM_6
100
AcDbText
 10
6.271875
 20
-0.5750000000000011
 30
0.0
 40
0.5
  1
P2B-GTMAH-115
100
AcDbAttributeDefinition
  3

  2
DESCRIPTION
 70
     8
280
     0
  0
ATTDEF
  5
7C
330
6E
100
AcDbEntity
  8
AM_6
100
AcDbText
 10
6.271875
 20
-1.075000000000001
 30
0.0
 40
0.5
  1
1-59/64
100
AcDbAttributeDefinition
  3

  2
A
 70
     8
280
     0
  0
ATTDEF
  5
7D
330
6E
100
AcDbEntity
  8
AM_6
100
AcDbText
 10
6.271875
 20
-1.575000000000001
 30
0.0
 40
0.5
  1
8-7/8
100
AcDbAttributeDefinition
  3

  2
B
 70
     8
280
     0
  0
ATTDEF
  5
7E
330
6E
100
AcDbEntity
  8
AM_6
100
AcDbText
 10
6.271875
 20
-2.075000000000001
 30
0.0
 40
0.5
  1
2-5/16
100
AcDbAttributeDefinition
  3

  2
C
 70
     8
280
     0
  0
ATTDEF
  5
7F
330
6E
100
AcDbEntity
  8
AM_6
100
AcDbText
 10
6.271875
 20
-2.575000000000001
 30
0.0
 40
0.5
  1
6-3/8
100
AcDbAttributeDefinition
  3

  2
DMIN
 70
     8
280
     0
  0
ATTDEF
  5
80
330
6E
100
AcDbEntity
  8
AM_6
100
AcDbText
 10
6.271875
 20
-3.075000000000001
 30
0.0
 40
0.5
  1
7-7/16
100
AcDbAttributeDefinition
  3

  2
DMAX
 70
     8
280
     0
  0
ATTDEF
  5
81
330
6E
100
AcDbEntity
  8
AM_6
100
AcDbText
 10
6.271875
 20
-3.575000000000001
 30
0.0
 40
0.5
  1
5/8
100
AcDbAttributeDefinition
  3

  2
F
 70
     8
280
     0
  0
ATTDEF
  5
82
330
6E
100
AcDbEntity
  8
AM_6
100
AcDbText
 10
6.271875
 20
-4.075000000000001
 30
0.0
 40
0.5
  1
1-7/32
100
AcDbAttributeDefinition
  3

  2
G
 70
     8
280
     0
  0
ATTDEF
  5
83
330
6E
100
AcDbEntity
  8
AM_6
100
AcDbText
 10
6.271875
 20
-4.575000000000001
 30
0.0
 40
0.5
  1
7/8
100
AcDbAttributeDefinition
  3

  2
H
 70
     8
280
     0
  0
ATTDEF
  5
84
330
6E
100
AcDbEntity
  8
AM_6
100
AcDbText
 10
6.271875
 20
-5.075000000000001
 30
0.0
 40
0.5
  1
4-15/16
100
AcDbAttributeDefinition
  3

  2
J
 70
     8
280
     0
  0
ATTDEF
  5
85
330
6E
100
AcDbEntity
  8
AM_6
100
AcDbText
 10
6.271875
 20
-5.575000000000001
 30
0.0
 40
0.5
  1
3-1/4
100
AcDbAttributeDefinition
  3

  2
L
 70
     8
280
     0
  0
ATTDEF
  5
86
330
6E
100
AcDbEntity
  8
AM_6
100
AcDbText
 10
6.271875
 20
-6.075000000000001
 30
0.0
 40
0.5
  1
2-1/2
100
AcDbAttributeDefinition
  3

  2
M
 70
     8
280
     0
  0
ATTDEF
  5
87
330
6E
100
AcDbEntity
  8
AM_6
100
AcDbText
 10
6.271875
 20
-6.575000000000001
 30
0.0
 40
0.5
  1
45/64
100
AcDbAttributeDefinition
  3

  2
R
 70
     8
280
     0
  0
ATTDEF
  5
88
330
6E
100
AcDbEntity
  8
AM_6
100
AcDbText
 10
6.271875
 20
-7.075000000000001
 30
0.0
 40
0.5
  1
1-7/32
100
AcDbAttributeDefinition
  3

  2
S
 70
     8
280
     0
  0
ATTDEF
  5
89
330
6E
100
AcDbEntity
  8
AM_6
100
AcDbText
 10
6.271875
 20
-7.575000000000001
 30
0.0
 40
0.5
  1
3-15/16
100
AcDbAttributeDefinition
  3

  2
U
 70
     8
280
     0
  0
ATTDEF
  5
8A
330
6E
100
AcDbEntity
  8
AM_6
100
AcDbText
 10
6.271875
 20
-8.075000000000001
 30
0.0
 40
0.5
  1
7-7/8
100
AcDbAttributeDefinition
  3

  2
V
 70
     8
280
     0
  0
ATTDEF
  5
8B
330
6E
100
AcDbEntity
  8
AM_6
100
AcDbText
 10
6.271875
 20
-8.575000000000001
 30
0.0
 40
0.5
  1
13/16
100
AcDbAttributeDefinition
  3

  2
W
 70
     8
280
     0
  0
ATTDEF
  5
8C
330
6E
100
AcDbEntity
  8
AM_6
100
AcDbText
 10
6.271875
 20
-9.075000000000001
 30
0.0
 40
0.5
  1
3/16
100
AcDbAttributeDefinition
  3

  2
X
 70
     8
280
     0
  0
ATTDEF
  5
8D
330
6E
100
AcDbEntity
  8
AM_6
100
AcDbText
 10
6.271875
 20
-9.575000000000001
 30
0.0
 40
0.5
  1
1-3/16
100
AcDbAttributeDefinition
  3

  2
Z
 70
     8
280
     0
  0
ATTDEF
  5
8E
330
6E
100
AcDbEntity
  8
AM_6
100
AcDbText
 10
6.271875
 20
-10.075
 30
0.0
 40
0.5
  1
baldor
100
AcDbAttributeDefinition
  3

  2
COMPANY
 70
     8
280
     0
  0
INSERT
  5
90
330
6E
100
AcDbEntity
  8
0
100
AcDbBlockReference
  2
2_129524I_0_in_129238_2
 10
0.0
 20
0.0
 30
0.0
  0
INSERT
  5
D6
330
6E
100
AcDbEntity
  8
0
100
AcDbBlockReference
  2
3_129931_0_in_129238_2
 10
0.0
 20
0.0
 30
0.0
  0
INSERT
  5
130
330
6E
100
AcDbEntity
  8
0
100
AcDbBlockReference
  2
4_129448I_0_in_129238_2
 10
0.0
 20
0.0
 30
0.0
  0
ENDBLK
  5
71
330
6E
100
AcDbEntity
  8
0
100
AcDbBlockEnd
  0
BLOCK
  5
91
330
8F
100
AcDbEntity
  8
0
100
AcDbBlockBegin
  2
2_129524I_0_in_129238_2
 70
     2
 10
0.0
 20
0.0
 30
0.0
  3
2_129524I_0_in_129238_2
  1

  0
ATTDEF
  5
93
330
8F
100
AcDbEntity
  8
AM_6
100
AcDbText
 10
5.603
 20
1.968362852357559
 30
0.0
 40
0.5
  1
INS-GT B
100
AcDbAttributeDefinition
  3

  2
NN
 70
     8
280
     0
  0
ATTDEF
  5
94
330
8F
100
AcDbEntity
  8
AM_6
100
AcDbText
 10
5.603
 20
1.468362852357559
 30
0.0
 40
0.5
  1
GT Normal Duty Bearing Inserts
100
AcDbAttributeDefinition
  3

  2
NT
 70
     8
280
     0
  0
ATTDEF
  5
95
330
8F
100
AcDbEntity
  8
AM_6
100
AcDbText
 10
5.603
 20
0.9683628523575587
 30
0.0
 40
0.5
  1
129524I
100
AcDbAttributeDefinition
  3

  2
NB
 70
     8
280
     0
  0
ATTDEF
  5
96
330
8F
100
AcDbEntity
  8
AM_6
100
AcDbText
 10
5.603
 20
0.4683628523575587
 30
0.0
 40
0.5
  1
$PN.I
100
AcDbAttributeDefinition
  3

  2
NBSYN
 70
     8
280
     0
  0
ATTDEF
  5
97
330
8F
100
AcDbEntity
  8
AM_6
100
AcDbText
 10
5.603
 20
-0.0316371476424413
 30
0.0
 40
0.5
  1
129524
100
AcDbAttributeDefinition
  3

  2
LINA
 70
     8
280
     0
  0
ATTDEF
  5
98
330
8F
100
AcDbEntity
  8
AM_6
100
AcDbText
 10
5.603
 20
-0.5316371476424413
 30
0.0
 40
0.5
  1
211
100
AcDbAttributeDefinition
  3

  2
SERIES
 70
     8
280
     0
  0
ATTDEF
  5
99
330
8F
100
AcDbEntity
  8
AM_6
100
AcDbText
 10
5.603
 20
-1.031637147642441
 30
0.0
 40
0.5
  1
129524
100
AcDbAttributeDefinition
  3

  2
PN
 70
     8
280
     0
  0
ATTDEF
  5
9A
330
8F
100
AcDbEntity
  8
AM_6
100
AcDbText
 10
5.603
 20
-1.531637147642441
 30
0.0
 40
0.5
  1
INS-GT-11
100
AcDbAttributeDefinition
  3

  2
DESCRIPTION
 70
     8
280
     0
  0
ATTDEF
  5
9B
330
8F
100
AcDbEntity
  8
AM_6
100
AcDbText
 10
5.603
 20
-2.031637147642441
 30
0.0
 40
0.5
  1
1.93
100
AcDbAttributeDefinition
  3

  2
A
 70
     8
280
     0
  0
ATTDEF
  5
9C
330
8F
100
AcDbEntity
  8
AM_6
100
AcDbText
 10
5.603
 20
-2.531637147642441
 30
0.0
 40
0.5
  1
0.87
100
AcDbAttributeDefinition
  3

  2
C
 70
     8
280
     0
  0
ATTDEF
  5
9D
330
8F
100
AcDbEntity
  8
AM_6
100
AcDbText
 10
5.603
 20
-3.031637147642441
 30
0.0
 40
0.5
  1
3.9370
100
AcDbAttributeDefinition
  3

  2
D
 70
     8
280
     0
  0
ATTDEF
  5
9E
330
8F
100
AcDbEntity
  8
AM_6
100
AcDbText
 10
5.603
 20
-3.531637147642441
 30
0.0
 40
0.5
  1
0.25
100
AcDbAttributeDefinition
  3

  2
J
 70
     8
280
     0
  0
ATTDEF
  5
9F
330
8F
100
AcDbEntity
  8
AM_6
100
AcDbText
 10
5.603
 20
-4.031637147642441
 30
0.0
 40
0.5
  1
3.43
100
AcDbAttributeDefinition
  3

  2
L
 70
     8
280
     0
  0
ATTDEF
  5
A0
330
8F
100
AcDbEntity
  8
AM_6
100
AcDbText
 10
5.603
 20
-4.531637147642441
 30
0.0
 40
0.5
  1
#10 - 32 x 1/4
100
AcDbAttributeDefinition
  3

  2
N
 70
     8
280
     0
  0
ATTDEF
  5
A1
330
8F
100
AcDbEntity
  8
AM_6
100
AcDbText
 10
5.603
 20
-5.031637147642441
 30
0.0
 40
0.5
  1
0.67000
100
AcDbAttributeDefinition
  3

  2
W
 70
     8
280
     0
  0
ATTDEF
  5
A2
330
8F
100
AcDbEntity
  8
AM_6
100
AcDbText
 10
5.603
 20
-5.531637147642441
 30
0.0
 40
0.5
  1
1.32
100
AcDbAttributeDefinition
  3

  2
X
 70
     8
280
     0
  0
ATTDEF
  5
A3
330
8F
100
AcDbEntity
  8
AM_6
100
AcDbText
 10
5.603
 20
-6.031637147642441
 30
0.0
 40
0.5
  1
1.26
100
AcDbAttributeDefinition
  3

  2
Y
 70
     8
280
     0
  0
ATTDEF
  5
A4
330
8F
100
AcDbEntity
  8
AM_6
100
AcDbText
 10
5.603
 20
-6.531637147642441
 30
0.0
 40
0.5
  1
baldor
100
AcDbAttributeDefinition
  3

  2
COMPANY
 70
     8
280
     0
  0
LINE
  5
A7
330
8F
100
AcDbEntity
  8
AM_9
100
AcDbLine
 10
-0.9899991617983235
 20
-1.279444346444444
 30
0.0
 11
-0.4949991617983232
 21
-1.279444346444444
 31
0.0
  0
LINE
  5
A8
330
8F
100
AcDbEntity
  8
AM_9
100
AcDbLine
 10
-0.4949991617983232
 20
1.279444346444444
 30
0.0
 11
-0.9899991617983235
 21
1.279444346444444
 31
0.0
  0
LINE
  5
A9
330
8F
100
AcDbEntity
  8
AM_9
100
AcDbLine
 10
-0.4949991617983232
 20
1.279444346444444
 30
0.0
 11
-0.4949991617983232
 21
-1.279444346444444
 31
0.0
  0
LINE
  5
AA
330
8F
100
AcDbEntity
  8
AM_9
100
AcDbLine
 10
-0.4949991617983232
 20
-1.279444346444444
 30
0.0
 11
0.6030000000000002
 21
-1.317787322075736
 31
0.0
  0
LINE
  5
AB
330
8F
100
AcDbEntity
  8
AM_9
100
AcDbLine
 10
0.6030000000000002
 20
1.317787322075736
 30
0.0
 11
-0.4949991617983232
 21
1.279444346444444
 31
0.0
  0
LINE
  5
AC
330
8F
100
AcDbEntity
  8
AM_9
100
AcDbLine
 10
-0.8249991617983236
 20
-1.401944395444444
 30
0.0
 11
-0.6599991617983235
 21
-1.401944395444444
 31
0.0
  0
LINE
  5
AD
330
8F
100
AcDbEntity
  8
AM_9
100
AcDbLine
 10
-0.6599991617983235
 20
1.401944395444444
 30
0.0
 11
-0.8249991617983236
 21
1.401944395444444
 31
0.0
  0
LINE
  5
AE
330
8F
100
AcDbEntity
  8
AM_9
100
AcDbLine
 10
-0.8249991617983236
 20
1.524444444444444
 30
0.0
 11
-0.8249991617983236
 21
-1.524444444444444
 31
0.0
  0
LINE
  5
AF
330
8F
100
AcDbEntity
  8
AM_9
100
AcDbLine
 10
-0.9551991617983236
 20
-1.524444444444444
 30
0.0
 11
-0.8249991617983236
 21
-1.524444444444444
 31
0.0
  0
LINE
  5
B0
330
8F
100
AcDbEntity
  8
AM_9
100
AcDbLine
 10
-0.8249991617983236
 20
1.524444444444444
 30
0.0
 11
-0.9551991617983236
 21
1.524444444444444
 31
0.0
  0
LINE
  5
B1
330
8F
100
AcDbEntity
  8
AM_9
100
AcDbLine
 10
0.603
 20
1.489644444444445
 30
0.0
 11
0.603
 21
-1.489644444444445
 31
0.0
  0
LINE
  5
B2
330
8F
100
AcDbEntity
  8
AM_9
100
AcDbLine
 10
0.603
 20
1.489644444444445
 30
0.0
 11
0.5682
 21
1.524444444444444
 31
0.0
  0
LINE
  5
B3
330
8F
100
AcDbEntity
  8
AM_9
100
AcDbLine
 10
0.5682
 20
-1.524444444444444
 30
0.0
 11
0.603
 21
-1.489644444444445
 31
0.0
  0
LINE
  5
B4
330
8F
100
AcDbEntity
  8
AM_9
100
AcDbLine
 10
-0.9899991617983234
 20
0.1273701952232265
 30
0.0
 11
-0.9899991617983235
 21
-1.489644444444445
 31
0.0
  0
LINE
  5
B5
330
8F
100
AcDbEntity
  8
AM_9
100
AcDbLine
 10
-0.9899991617983235
 20
1.489644444444445
 30
0.0
 11
-0.9899991617983234
 21
0.1335000000000001
 31
0.0
  0
LINE
  5
B6
330
8F
100
AcDbEntity
  8
AM_9
100
AcDbLine
 10
-0.9551991617983236
 20
1.524444444444444
 30
0.0
 11
-0.9551991617983236
 21
-1.524444444444444
 31
0.0
  0
LINE
  5
B7
330
8F
100
AcDbEntity
  8
AM_9
100
AcDbLine
 10
-0.9899991617983235
 20
-1.489644444444445
 30
0.0
 11
-0.9551991617983236
 21
-1.524444444444444
 31
0.0
  0
LINE
  5
B8
330
8F
100
AcDbEntity
  8
AM_9
100
AcDbLine
 10
-0.9551991617983236
 20
1.524444444444444
 30
0.0
 11
-0.9899991617983235
 21
1.489644444444445
 31
0.0
  0
LINE
  5
B9
330
8F
100
AcDbEntity
  8
AM_9
100
AcDbLine
 10
0.5682
 20
1.524444444444444
 30
0.0
 11
0.5682
 21
-1.524444444444444
 31
0.0
  0
LINE
  5
BA
330
8F
100
AcDbEntity
  8
AM_9
100
AcDbLine
 10
0.435
 20
-1.524444444444444
 30
0.0
 11
0.5682
 21
-1.524444444444444
 31
0.0
  0
LINE
  5
BB
330
8F
100
AcDbEntity
  8
AM_9
100
AcDbLine
 10
0.5682
 20
1.524444444444444
 30
0.0
 11
0.435
 21
1.524444444444444
 31
0.0
  0
LINE
  5
BC
330
8F
100
AcDbEntity
  8
AM_9
100
AcDbLine
 10
-0.6599991617983235
 20
1.524444444444444
 30
0.0
 11
-0.6599991617983235
 21
-1.524444444444444
 31
0.0
  0
LINE
  5
BD
330
8F
100
AcDbEntity
  8
AM_9
100
AcDbLine
 10
-0.6599991617983235
 20
-1.524444444444444
 30
0.0
 11
-0.435
 21
-1.524444444444444
 31
0.0
  0
LINE
  5
BE
330
8F
100
AcDbEntity
  8
AM_9
100
AcDbLine
 10
-0.435
 20
1.524444444444444
 30
0.0
 11
-0.6599991617983235
 21
1.524444444444444
 31
0.0
  0
LINE
  5
BF
330
8F
100
AcDbEntity
  8
AM_9
100
AcDbLine
 10
-0.3000000000000001
 20
-1.8815
 30
0.0
 11
-0.2
 21
-1.8815
 31
0.0
  0
LINE
  5
C0
330
8F
100
AcDbEntity
  8
AM_9
100
AcDbLine
 10
-0.2
 20
1.8815
 30
0.0
 11
-0.3000000000000001
 21
1.8815
 31
0.0
  0
LINE
  5
C1
330
8F
100
AcDbEntity
  8
AM_9
100
AcDbLine
 10
-0.4349999999999997
 20
1.858036329583617
 30
0.0
 11
-0.4349999999999997
 21
-1.858036329583311
 31
0.0
  0
ARC
  5
C2
330
8F
100
AcDbEntity
  8
AM_9
100
AcDbCircle
 10
-0.4002000000000005
 20
-1.858036329583617
 30
0.0
 40
0.0347999999999992
100
AcDbArc
 50
180.0
 51
248.5875329531165
  0
ARC
  5
C3
330
8F
100
AcDbEntity
  8
AM_9
100
AcDbCircle
 10
-0.4002000000000005
 20
1.858036329583617
 30
0.0
 40
0.0347999999999993
100
AcDbArc
 50
111.4124670468834
 51
180.0
  0
LINE
  5
C4
330
8F
100
AcDbEntity
  8
AM_9
100
AcDbLine
 10
0.435
 20
1.858036329583617
 30
0.0
 11
0.435
 21
-1.858036329583311
 31
0.0
  0
ARC
  5
C5
330
8F
100
AcDbEntity
  8
AM_9
100
AcDbCircle
 10
0.4001999999999993
 20
-1.858036329583617
 30
0.0
 40
0.0348000000000007
100
AcDbArc
 50
291.4124594571506
 51
0.0
  0
ARC
  5
C6
330
8F
100
AcDbEntity
  8
AM_9
100
AcDbCircle
 10
0.4001999999999993
 20
1.858036329583617
 30
0.0
 40
0.0348000000000007
100
AcDbArc
 50
0.0
 51
68.58754054284945
  0
LINE
  5
C7
330
8F
100
AcDbEntity
  8
AM_9
100
AcDbLine
 10
-0.4129047619047618
 20
1.890434308300557
 30
0.0
 11
-0.4129047619047618
 21
-1.890434308300557
 31
0.0
  0
ARC
  5
C8
330
8F
100
AcDbEntity
  8
AM_9
100
AcDbCircle
 10
-0.0000000000000198
 20
-0.8375000000000514
 30
0.0
 40
1.130999999999945
100
AcDbArc
 50
248.5875329531159
 51
254.0344016634143
  0
ARC
  5
C9
330
8F
100
AcDbEntity
  8
AM_9
100
AcDbCircle
 10
0.0000000000000009
 20
0.8374999999999901
 30
0.0
 40
1.13100000000001
100
AcDbArc
 50
105.9655983365859
 51
111.4124670468839
  0
LINE
  5
CA
330
8F
100
AcDbEntity
  8
AM_9
100
AcDbLine
 10
-0.3110930219747757
 20
1.924873961284066
 30
0.0
 11
-0.3110930219747757
 21
-1.924873961284066
 31
0.0
  0
LINE
  5
CB
330
8F
100
AcDbEntity
  8
AM_9
100
AcDbLine
 10
-0.3000000000000001
 20
1.916509545833585
 30
0.0
 11
-0.3000000000000001
 21
-1.916509545829897
 31
0.0
  0
ARC
  5
CC
330
8F
100
AcDbEntity
  8
AM_9
100
AcDbCircle
 10
-0.3087000000000003
 20
-1.916509545833585
 30
0.0
 40
0.0087000000000001
100
AcDbArc
 50
254.0344103709567
 51
0.0
  0
ARC
  5
CD
330
8F
100
AcDbEntity
  8
AM_9
100
AcDbCircle
 10
-0.3087000000000003
 20
1.916509545833585
 30
0.0
 40
0.0087000000000002
100
AcDbArc
 50
0.0
 51
105.9655896290433
  0
LINE
  5
CE
330
8F
100
AcDbEntity
  8
AM_9
100
AcDbLine
 10
-0.2
 20
1.943375942409455
 30
0.0
 11
-0.2
 21
-1.943375942409016
 31
0.0
  0
ARC
  5
CF
330
8F
100
AcDbEntity
  8
AM_9
100
AcDbCircle
 10
-0.1912999999999994
 20
-1.943375942409454
 30
0.0
 40
0.0087000000000006
100
AcDbArc
 50
180.0
 51
260.1858105424271
  0
ARC
  5
D0
330
8F
100
AcDbEntity
  8
AM_9
100
AcDbCircle
 10
-0.1912999999999994
 20
1.943375942409454
 30
0.0
 40
0.0087000000000007
100
AcDbArc
 50
99.81418945757288
 51
180.0
  0
LINE
  5
D1
330
8F
100
AcDbEntity
  8
AM_9
100
AcDbLine
 10
-0.192782945736434
 20
1.951948624133559
 30
0.0
 11
-0.192782945736434
 21
-1.951948624133559
 31
0.0
  0
LINE
  5
D2
330
8F
100
AcDbEntity
  8
AM_9
100
AcDbLine
 10
0.4129047576131359
 20
1.890434309983504
 30
0.0
 11
0.412904757613136
 21
-1.890434309983504
 31
0.0
  0
ARC
  5
D3
330
8F
100
AcDbEntity
  8
AM_9
100
AcDbCircle
 10
-0.0000000000000004
 20
-0.8374999999999939
 30
0.0
 40
1.131000000000006
100
AcDbArc
 50
260.1858105424294
 51
291.4124668133537
  0
ARC
  5
D4
330
8F
100
AcDbEntity
  8
AM_9
100
AcDbCircle
 10
-0.0000000000000002
 20
0.8374999999999957
 30
0.0
 40
1.131000000000004
100
AcDbArc
 50
68.58753318664631
 51
99.81418945757062
  0
ENDBLK
  5
92
330
8F
100
AcDbEntity
  8
0
100
AcDbBlockEnd
  0
BLOCK
  5
D7
330
D5
100
AcDbEntity
  8
0
100
AcDbBlockBegin
  2
3_129931_0_in_129238_2
 70
     2
 10
0.0
 20
0.0
 30
0.0
  3
3_129931_0_in_129238_2
  1

  0
ATTDEF
  5
D9
330
D5
100
AcDbEntity
  8
AM_6
100
AcDbText
 10
5.703125
 20
1.625
 30
0.0
 40
0.5
  1
Grip Tight Normal Duty Adapter and Nut Inch Bore
100
AcDbAttributeDefinition
  3

  2
NN
 70
     8
280
     0
  0
ATTDEF
  5
DA
330
D5
100
AcDbEntity
  8
AM_6
100
AcDbText
 10
5.703125
 20
1.125
 30
0.0
 40
0.5
  1
GT and GTM Adapter & Lock Nut Assemblies
100
AcDbAttributeDefinition
  3

  2
NT
 70
     8
280
     0
  0
ATTDEF
  5
DB
330
D5
100
AcDbEntity
  8
AM_6
100
AcDbText
 10
5.703125
 20
0.625
 30
0.0
 40
0.5
  1
129931
100
AcDbAttributeDefinition
  3

  2
NB
 70
     8
280
     0
  0
ATTDEF
  5
DC
330
D5
100
AcDbEntity
  8
AM_6
100
AcDbText
 10
5.703125
 20
0.125
 30
0.0
 40
0.5
  1
$PN.
100
AcDbAttributeDefinition
  3

  2
NBSYN
 70
     8
280
     0
  0
ATTDEF
  5
DD
330
D5
100
AcDbEntity
  8
AM_6
100
AcDbText
 10
5.703125
 20
-0.375
 30
0.0
 40
0.5
  1
129931
100
AcDbAttributeDefinition
  3

  2
LINA
 70
     8
280
     0
  0
ATTDEF
  5
DE
330
D5
100
AcDbEntity
  8
AM_6
100
AcDbText
 10
5.703125
 20
-0.875
 30
0.0
 40
0.5
  1
211
100
AcDbAttributeDefinition
  3

  2
SERIES
 70
     8
280
     0
  0
ATTDEF
  5
DF
330
D5
100
AcDbEntity
  8
AM_6
100
AcDbText
 10
5.703125
 20
-1.375
 30
0.0
 40
0.5
  1
1-15/16
100
AcDbAttributeDefinition
  3

  2
SS
 70
     8
280
     0
  0
ATTDEF
  5
E0
330
D5
100
AcDbEntity
  8
AM_6
100
AcDbText
 10
5.703125
 20
-1.875
 30
0.0
 40
0.5
  1
129931
100
AcDbAttributeDefinition
  3

  2
PN
 70
     8
280
     0
  0
ATTDEF
  5
E1
330
D5
100
AcDbEntity
  8
AM_6
100
AcDbText
 10
5.703125
 20
-2.375
 30
0.0
 40
0.5
  1
AN-GTM-11-115
100
AcDbAttributeDefinition
  3

  2
DESCRIPTION
 70
     8
280
     0
  0
ATTDEF
  5
E2
330
D5
100
AcDbEntity
  8
AM_6
100
AcDbText
 10
5.703125
 20
-2.875
 30
0.0
 40
0.5
  1
1-59/64
100
AcDbAttributeDefinition
  3

  2
A
 70
     8
280
     0
  0
ATTDEF
  5
E3
330
D5
100
AcDbEntity
  8
AM_6
100
AcDbText
 10
5.703125
 20
-3.375
 30
0.0
 40
0.5
  1
0.9449
100
AcDbAttributeDefinition
  3

  2
C
 70
     8
280
     0
  0
ATTDEF
  5
E4
330
D5
100
AcDbEntity
  8
AM_6
100
AcDbText
 10
5.703125
 20
-3.875
 30
0.0
 40
0.5
  1
3.9370
100
AcDbAttributeDefinition
  3

  2
D
 70
     8
280
     0
  0
ATTDEF
  5
E5
330
D5
100
AcDbEntity
  8
AM_6
100
AcDbText
 10
5.703125
 20
-4.375
 30
0.0
 40
0.5
  1
0.267
100
AcDbAttributeDefinition
  3

  2
J
 70
     8
280
     0
  0
ATTDEF
  5
E6
330
D5
100
AcDbEntity
  8
AM_6
100
AcDbText
 10
5.703125
 20
-4.875
 30
0.0
 40
0.5
  1
3-1/4
100
AcDbAttributeDefinition
  3

  2
L
 70
     8
280
     0
  0
ATTDEF
  5
E7
330
D5
100
AcDbEntity
  8
AM_6
100
AcDbText
 10
5.703125
 20
-5.375
 30
0.0
 40
0.5
  1
10 - 32 x 1/4
100
AcDbAttributeDefinition
  3

  2
N
 70
     8
280
     0
  0
ATTDEF
  5
E8
330
D5
100
AcDbEntity
  8
AM_6
100
AcDbText
 10
5.703125
 20
-5.875
 30
0.0
 40
0.5
  1
45/64
100
AcDbAttributeDefinition
  3

  2
W
 70
     8
280
     0
  0
ATTDEF
  5
E9
330
D5
100
AcDbEntity
  8
AM_6
100
AcDbText
 10
5.703125
 20
-6.375
 30
0.0
 40
0.5
  1
1-3/16
100
AcDbAttributeDefinition
  3

  2
X
 70
     8
280
     0
  0
ATTDEF
  5
EA
330
D5
100
AcDbEntity
  8
AM_6
100
AcDbText
 10
5.703125
 20
-6.875
 30
0.0
 40
0.5
  1
1-7/32
100
AcDbAttributeDefinition
  3

  2
Y
 70
     8
280
     0
  0
ATTDEF
  5
EB
330
D5
100
AcDbEntity
  8
AM_6
100
AcDbText
 10
5.703125
 20
-7.375
 30
0.0
 40
0.5
  1
baldor
100
AcDbAttributeDefinition
  3

  2
COMPANY
 70
     8
280
     0
  0
LWPOLYLINE
  5
EC
330
D5
100
AcDbEntity
  8
AM_9
100
AcDbPolyline
 90
        7
 70
     0
 43
0.0
 10
-1.149704
 20
0.0623981609553294
 10
-1.157043710292973
 20
0.0401264555278246
 10
-1.161403128296046
 20
0.0156699007615675
 10
-1.162028444031562
 20
-0.0070207816722861
 10
-1.159251590400473
 20
-0.0303283341884596
 10
-1.155196414435241
 20
-0.0467469384874531
 10
-1.149704
 20
-0.0623981609553275
  0
LWPOLYLINE
  5
ED
330
D5
100
AcDbEntity
  8
AM_9
100
AcDbPolyline
 90
       13
 70
     0
 43
0.0
 10
-0.9970027942341709
 20
0.0455078231242328
 10
-1.003286804385852
 20
0.0549144837497562
 10
-1.013593128888682
 20
0.0663477919689286
 10
-1.025620077186234
 20
0.0759579789895793
 10
-1.039429077224968
 20
0.0836627525199564
 10
-1.054310784080917
 20
0.0890191123815799
 10
-1.070250301000364
 20
0.091908313626811
 10
-1.08644906843248
 20
0.0921365691811654
 10
-1.10265533669707
 20
0.0896155670876469
 10
-1.118210154453928
 20
0.0844232053549709
 10
-1.132611637601485
 20
0.076676470324815
 10
-1.145485480593903
 20
0.0665985493088592
 10
-1.149704
 20
0.0623981609553294
  0
LWPOLYLINE
  5
EE
330
D5
100
AcDbEntity
  8
AM_9
100
AcDbPolyline
 90
       12
 70
     0
 43
0.0
 10
-1.149704
 20
-0.0623981609553275
 10
-1.138228057559186
 20
-0.0727144953633314
 10
-1.125235635605578
 20
-0.0810453110921731
 10
-1.110580239983255
 20
-0.0873327405209543
 10
-1.095092531235281
 20
-0.0911457023254238
 10
-1.078850241988437
 20
-0.092360000062879
 10
-1.062630658739067
 20
-0.090873958086211
 10
-1.04677115939737
 20
-0.086643826854459
 10
-1.031850580970712
 20
-0.0798112381569236
 10
-1.018425708083839
 20
-0.070593373373632
 10
-1.006771786088342
 20
-0.0592229593649447
 10
-0.9976227062611079
 20
-0.0465560044104567
  0
CIRCLE
  5
EF
330
D5
100
AcDbEntity
  8
AM_9
100
AcDbCircle
 10
-1.0796668666709
 20
0.0
 30
0.0
 40
0.0724499999999998
  0
LINE
  5
F0
330
D5
100
AcDbEntity
  8
AM_9
100
AcDbLine
 10
-1.149704
 20
0.0623981609553294
 30
0.0
 11
-1.149704
 21
0.1335
 31
0.0
  0
LINE
  5
F1
330
D5
100
AcDbEntity
  8
AM_9
100
AcDbLine
 10
-1.149704
 20
-0.1335
 30
0.0
 11
-1.149704
 21
-0.0623981609553275
 31
0.0
  0
LINE
  5
F2
330
D5
100
AcDbEntity
  8
AM_9
100
AcDbLine
 10
-0.59375
 20
1.246721624104598
 30
0.0
 11
-1.1875
 21
1.246721624104598
 31
0.0
  0
LINE
  5
F3
330
D5
100
AcDbEntity
  8
AM_9
100
AcDbLine
 10
-0.5937500000000002
 20
1.302938181927551
 30
0.0
 11
-0.6315459999999999
 21
1.335784157338066
 31
0.0
  0
LINE
  5
F4
330
D5
100
AcDbEntity
  8
AM_9
100
AcDbLine
 10
-0.6315459999999999
 20
1.335784157338066
 30
0.0
 11
-1.149704
 21
1.335784157338066
 31
0.0
  0
LINE
  5
F5
330
D5
100
AcDbEntity
  8
AM_9
100
AcDbLine
 10
-1.149704
 20
1.335784157338066
 30
0.0
 11
-1.1875
 21
1.302938181927551
 31
0.0
  0
LINE
  5
F6
330
D5
100
AcDbEntity
  8
AM_9
100
AcDbLine
 10
-0.59375
 20
-1.246721624104599
 30
0.0
 11
-1.1875
 21
-1.246721624104599
 31
0.0
  0
LINE
  5
F7
330
D5
100
AcDbEntity
  8
AM_9
100
AcDbLine
 10
-1.1875
 20
-1.302938181927551
 30
0.0
 11
-1.149704
 21
-1.335784157338066
 31
0.0
  0
LINE
  5
F8
330
D5
100
AcDbEntity
  8
AM_9
100
AcDbLine
 10
-1.149704
 20
-1.335784157338066
 30
0.0
 11
-0.6315459999999999
 21
-1.335784157338066
 31
0.0
  0
LINE
  5
F9
330
D5
100
AcDbEntity
  8
AM_9
100
AcDbLine
 10
-0.6315459999999999
 20
-1.335784157338066
 30
0.0
 11
-0.5937500000000002
 21
-1.302938181927551
 31
0.0
  0
LINE
  5
FA
330
D5
100
AcDbEntity
  8
AM_9
100
AcDbLine
 10
-0.59375
 20
1.380221624104598
 30
0.0
 11
-1.1875
 21
1.380221624104598
 31
0.0
  0
LINE
  5
FB
330
D5
100
AcDbEntity
  8
AM_9
100
AcDbLine
 10
-0.59375
 20
-1.380221624104598
 30
0.0
 11
-1.1875
 21
-1.380221624104598
 31
0.0
  0
ARC
  5
FC
330
D5
100
AcDbEntity
  8
AM_9
100
AcDbCircle
 10
-0.3946875000000002
 20
1.224176587301586
 30
0.0
 40
0.0118749999999987
100
AcDbArc
 50
270.0
 51
292.3996407151301
  0
LINE
  5
FD
330
D5
100
AcDbEntity
  8
AM_9
100
AcDbLine
 10
-1.15625
 20
1.212301587301587
 30
0.0
 11
-1.15625
 21
-1.212301587301587
 31
0.0
  0
LINE
  5
FE
330
D5
100
AcDbEntity
  8
AM_9
100
AcDbLine
 10
-0.890625
 20
1.212301587301587
 30
0.0
 11
-1.1875
 21
1.212301587301587
 31
0.0
  0
LINE
  5
FF
330
D5
100
AcDbEntity
  8
AM_9
100
AcDbLine
 10
0.703125
 20
0.9674588169529493
 30
0.0
 11
-1.15625
 21
0.9674588169529494
 31
0.0
  0
LINE
  5
100
330
D5
100
AcDbEntity
  8
AM_9
100
AcDbLine
 10
-1.15625
 20
-0.9687500000000001
 30
0.0
 11
0.7031249999999999
 21
-0.9687500000000001
 31
0.0
  0
LINE
  5
101
330
D5
100
AcDbEntity
  8
AM_9
100
AcDbLine
 10
-1.1875
 20
-1.212301587301587
 30
0.0
 11
-1.15625
 21
-1.212301587301587
 31
0.0
  0
LINE
  5
102
330
D5
100
AcDbEntity
  8
AM_9
100
AcDbLine
 10
-0.8906249999999999
 20
1.211270051876932
 30
0.0
 11
-0.4453124999999991
 21
1.211270051876933
 31
0.0
  0
LINE
  5
103
330
D5
100
AcDbEntity
  8
AM_9
100
AcDbLine
 10
-0.8906249999999999
 20
-1.212301587301587
 30
0.0
 11
-0.4453124999999991
 21
-1.212301587301587
 31
0.0
  0
LINE
  5
104
330
D5
100
AcDbEntity
  8
AM_9
100
AcDbLine
 10
0.703125
 20
1.251407431527677
 30
0.0
 11
0.703125
 21
-1.252405908514766
 31
0.0
  0
LINE
  5
105
330
D5
100
AcDbEntity
  8
AM_9
100
AcDbLine
 10
-0.4453124999999991
 20
1.211270051876933
 30
0.0
 11
-0.4157983036560035
 21
1.212301587301587
 31
0.0
  0
LINE
  5
106
330
D5
100
AcDbEntity
  8
AM_9
100
AcDbLine
 10
-0.4453124999999991
 20
1.211270051876933
 30
0.0
 11
-0.4453124999999991
 21
-1.212301587301587
 31
0.0
  0
LINE
  5
107
330
D5
100
AcDbEntity
  8
AM_9
100
AcDbLine
 10
-0.3901623581268892
 20
1.2131975747764
 30
0.0
 11
0.703125
 21
1.251407431527677
 31
0.0
  0
LINE
  5
108
330
D5
100
AcDbEntity
  8
AM_9
100
AcDbLine
 10
-0.4453124999999991
 20
-1.212301587301587
 30
0.0
 11
0.703125
 21
-1.252405908514766
 31
0.0
  0
LINE
  5
109
330
D5
100
AcDbEntity
  8
AM_9
100
AcDbLine
 10
-0.388309751332055
 20
1.214292167148217
 30
0.0
 11
-0.4453124999999991
 21
1.212301587301587
 31
0.0
  0
LINE
  5
10A
330
D5
100
AcDbEntity
  8
AM_9
100
AcDbLine
 10
-0.4453125000002503
 20
1.212301587301587
 30
0.0
 11
-0.3946875000000002
 21
1.212301587301587
 31
0.0
  0
LWPOLYLINE
  5
10B
330
D5
100
AcDbEntity
  8
AM_9
100
AcDbPolyline
 90
        3
 70
     0
 43
0.0
 10
-0.3880949197421631
 20
1.214299669232407
 10
-0.3881863488489035
 20
1.214239250701139
 10
-0.3901623581268855
 20
1.213197574776401
  0
LINE
  5
10C
330
D5
100
AcDbEntity
  8
AM_9
100
AcDbLine
 10
-0.7421875
 20
-1.328373015873015
 30
0.0
 11
-0.59375
 21
-1.328373015873015
 31
0.0
  0
LINE
  5
10D
330
D5
100
AcDbEntity
  8
AM_9
100
AcDbLine
 10
-0.59375
 20
1.328373015873015
 30
0.0
 11
-0.7421875
 21
1.328373015873015
 31
0.0
  0
LINE
  5
10E
330
D5
100
AcDbEntity
  8
AM_9
100
AcDbLine
 10
-0.7421875
 20
1.444444444444444
 30
0.0
 11
-0.7421875
 21
-1.444444444444444
 31
0.0
  0
LINE
  5
10F
330
D5
100
AcDbEntity
  8
AM_9
100
AcDbLine
 10
-0.8906249999999999
 20
1.444444444444444
 30
0.0
 11
-0.8906249999999999
 21
-1.444444444444444
 31
0.0
  0
LINE
  5
110
330
D5
100
AcDbEntity
  8
AM_9
100
AcDbLine
 10
-0.8906249999999999
 20
-1.444444444444444
 30
0.0
 11
-0.7421875
 21
-1.444444444444444
 31
0.0
  0
LINE
  5
111
330
D5
100
AcDbEntity
  8
AM_9
100
AcDbLine
 10
-0.7421875
 20
1.444444444444444
 30
0.0
 11
-0.8906249999999999
 21
1.444444444444444
 31
0.0
  0
LINE
  5
112
330
D5
100
AcDbEntity
  8
AM_9
100
AcDbLine
 10
-0.59375
 20
0.1335
 30
0.0
 11
-0.9894176150538462
 21
0.1335
 31
0.0
  0
LINE
  5
113
330
D5
100
AcDbEntity
  8
AM_9
100
AcDbLine
 10
-1.149704
 20
1.469284157338066
 30
0.0
 11
-0.6315459999999999
 21
1.469284157338066
 31
0.0
  0
LINE
  5
114
330
D5
100
AcDbEntity
  8
AM_9
100
AcDbLine
 10
-0.6315459999999999
 20
1.625
 30
0.0
 11
-0.8479160499999999
 21
1.625
 31
0.0
  0
LINE
  5
115
330
D5
100
AcDbEntity
  8
AM_9
100
AcDbLine
 10
-0.5937500000000002
 20
-1.436438181927551
 30
0.0
 11
-0.6315459999999999
 21
-1.469284157338066
 31
0.0
  0
LINE
  5
116
330
D5
100
AcDbEntity
  8
AM_9
100
AcDbLine
 10
-1.014748434946154
 20
-0.1335
 30
0.0
 11
-0.59375
 21
-0.1335
 31
0.0
  0
LINE
  5
117
330
D5
100
AcDbEntity
  8
AM_9
100
AcDbLine
 10
-0.6315459999999999
 20
-1.625
 30
0.0
 11
-0.59375
 21
-1.587204
 31
0.0
  0
LINE
  5
118
330
D5
100
AcDbEntity
  8
AM_9
100
AcDbLine
 10
-1.1875
 20
1.43643818192755
 30
0.0
 11
-1.149704
 21
1.469284157338066
 31
0.0
  0
LINE
  5
119
330
D5
100
AcDbEntity
  8
AM_9
100
AcDbLine
 10
-0.6315459999999999
 20
1.469284157338066
 30
0.0
 11
-0.5937500000000002
 21
1.43643818192755
 31
0.0
  0
LINE
  5
11A
330
D5
100
AcDbEntity
  8
AM_9
100
AcDbLine
 10
-0.59375
 20
1.587204
 30
0.0
 11
-0.6315459999999999
 21
1.625
 31
0.0
  0
LINE
  5
11B
330
D5
100
AcDbEntity
  8
AM_9
100
AcDbLine
 10
-0.59375
 20
1.587204
 30
0.0
 11
-0.59375
 21
-1.587204
 31
0.0
  0
LINE
  5
11C
330
D5
100
AcDbEntity
  8
AM_9
100
AcDbLine
 10
-0.6315459999999999
 20
1.625
 30
0.0
 11
-0.6315459999999999
 21
-1.625
 31
0.0
  0
LINE
  5
11D
330
D5
100
AcDbEntity
  8
AM_9
100
AcDbLine
 10
-1.149704
 20
-1.469284157338066
 30
0.0
 11
-1.1875
 21
-1.436438181927551
 31
0.0
  0
LINE
  5
11E
330
D5
100
AcDbEntity
  8
AM_9
100
AcDbLine
 10
-1.155682781165269
 20
-1.619021218834731
 30
0.0
 11
-1.149704
 21
-1.625
 31
0.0
  0
LINE
  5
11F
330
D5
100
AcDbEntity
  8
AM_9
100
AcDbLine
 10
-0.6315459999999999
 20
-1.469284157338066
 30
0.0
 11
-1.149704
 21
-1.469284157338066
 31
0.0
  0
LINE
  5
120
330
D5
100
AcDbEntity
  8
AM_9
100
AcDbLine
 10
-1.149704
 20
-1.556001759618101
 30
0.0
 11
-1.149704
 21
-1.625
 31
0.0
  0
LINE
  5
123
330
D5
100
AcDbEntity
  8
AM_7
100
AcDbLine
 10
-1.0796668666709
 20
-0.0997499999999999
 30
0.0
 11
-1.0796668666709
 21
0.0997499999999999
 31
0.0
  0
LINE
  5
125
330
D5
100
AcDbEntity
  8
AM_4
100
AcDbLine
 10
-0.9894176150538462
 20
0.1335
 30
0.0
 11
-1.1875
 21
0.1335
 31
0.0
  0
LINE
  5
126
330
D5
100
AcDbEntity
  8
AM_4
100
AcDbLine
 10
-0.8479160499999999
 20
1.625
 30
0.0
 11
-1.149704
 21
1.625
 31
0.0
  0
LINE
  5
127
330
D5
100
AcDbEntity
  8
AM_4
100
AcDbLine
 10
-1.149704
 20
1.625
 30
0.0
 11
-1.1875
 21
1.587204
 31
0.0
  0
LINE
  5
128
330
D5
100
AcDbEntity
  8
AM_4
100
AcDbLine
 10
-1.149704
 20
1.625
 30
0.0
 11
-1.149704
 21
0.1335
 31
0.0
  0
LINE
  5
129
330
D5
100
AcDbEntity
  8
AM_4
100
AcDbLine
 10
-1.1875
 20
-0.1335
 30
0.0
 11
-1.014748434946154
 21
-0.1335
 31
0.0
  0
LINE
  5
12A
330
D5
100
AcDbEntity
  8
AM_4
100
AcDbLine
 10
-1.1875
 20
1.587204
 30
0.0
 11
-1.1875
 21
-1.587204
 31
0.0
  0
LINE
  5
12B
330
D5
100
AcDbEntity
  8
AM_4
100
AcDbLine
 10
-1.1875
 20
-1.587204
 30
0.0
 11
-1.155682781165269
 21
-1.619021218834731
 31
0.0
  0
LINE
  5
12C
330
D5
100
AcDbEntity
  8
AM_4
100
AcDbLine
 10
-1.149704
 20
-0.1335
 30
0.0
 11
-1.149704
 21
-1.556001759618101
 31
0.0
  0
ARC
  5
12E
330
D5
100
AcDbEntity
  8
AM_5
100
AcDbCircle
 10
-1.0796668666709
 20
0.0000000000000002
 30
0.0
 40
0.0949999999999999
100
AcDbArc
 50
74.99999999999979
 51
14.99999999999982
  0
ENDBLK
  5
D8
330
D5
100
AcDbEntity
  8
0
100
AcDbBlockEnd
  0
BLOCK
  5
131
330
12F
100
AcDbEntity
  8
0
100
AcDbBlockBegin
  2
4_129448I_0_in_129238_2
 70
     2
 10
0.0
 20
0.0
 30
0.0
  3
4_129448I_0_in_129238_2
  1

  0
ATTDEF
  5
133
330
12F
100
AcDbEntity
  8
AM_6
100
AcDbText
 10
6.271875
 20
3.424999999999999
 30
0.0
 40
0.5
  1
GTAH-I
100
AcDbAttributeDefinition
  3

  2
NN
 70
     8
280
     0
  0
ATTDEF
  5
134
330
12F
100
AcDbEntity
  8
AM_6
100
AcDbText
 10
6.271875
 20
2.924999999999999
 30
0.0
 40
0.5
  1
GTAH Air Handling Normal and Medium Duty Pillow Blocks
100
AcDbAttributeDefinition
  3

  2
NT
 70
     8
280
     0
  0
ATTDEF
  5
135
330
12F
100
AcDbEntity
  8
AM_6
100
AcDbText
 10
6.271875
 20
2.424999999999999
 30
0.0
 40
0.5
  1
129448I
100
AcDbAttributeDefinition
  3

  2
NB
 70
     8
280
     0
  0
ATTDEF
  5
136
330
12F
100
AcDbEntity
  8
AM_6
100
AcDbText
 10
6.271875
 20
1.924999999999999
 30
0.0
 40
0.5
  1
$PN.$LUBE.I
100
AcDbAttributeDefinition
  3

  2
NBSYN
 70
     8
280
     0
  0
ATTDEF
  5
137
330
12F
100
AcDbEntity
  8
AM_6
100
AcDbText
 10
6.271875
 20
1.424999999999999
 30
0.0
 40
0.5
  1
129448
100
AcDbAttributeDefinition
  3

  2
LINA
 70
     8
280
     0
  0
ATTDEF
  5
138
330
12F
100
AcDbEntity
  8
AM_6
100
AcDbText
 10
6.271875
 20
0.9249999999999989
 30
0.0
 40
0.5
  1
211
100
AcDbAttributeDefinition
  3

  2
SERIES
 70
     8
280
     0
  0
ATTDEF
  5
139
330
12F
100
AcDbEntity
  8
AM_6
100
AcDbText
 10
6.271875
 20
0.4249999999999989
 30
0.0
 40
0.5
  1
129448
100
AcDbAttributeDefinition
  3

  2
PN
 70
     8
280
     0
  0
ATTDEF
  5
13A
330
12F
100
AcDbEntity
  8
AM_6
100
AcDbText
 10
6.271875
 20
-0.0750000000000011
 30
0.0
 40
0.5
  1
P2B-GTAH-11
100
AcDbAttributeDefinition
  3

  2
DESCRIPTION
 70
     8
280
     0
  0
ATTDEF
  5
13B
330
12F
100
AcDbEntity
  8
AM_6
100
AcDbText
 10
6.271875
 20
-0.5750000000000011
 30
0.0
 40
0.5
  1
1-59/64
100
AcDbAttributeDefinition
  3

  2
A
 70
     8
280
     0
  0
ATTDEF
  5
13C
330
12F
100
AcDbEntity
  8
AM_6
100
AcDbText
 10
6.271875
 20
-1.075000000000001
 30
0.0
 40
0.5
  1
8-7/8
100
AcDbAttributeDefinition
  3

  2
B
 70
     8
280
     0
  0
ATTDEF
  5
13D
330
12F
100
AcDbEntity
  8
AM_6
100
AcDbText
 10
6.271875
 20
-1.575000000000001
 30
0.0
 40
0.5
  1
2-5/16
100
AcDbAttributeDefinition
  3

  2
C
 70
     8
280
     0
  0
ATTDEF
  5
13E
330
12F
100
AcDbEntity
  8
AM_6
100
AcDbText
 10
6.271875
 20
-2.075000000000001
 30
0.0
 40
0.5
  1
6-3/8
100
AcDbAttributeDefinition
  3

  2
DMIN
 70
     8
280
     0
  0
ATTDEF
  5
13F
330
12F
100
AcDbEntity
  8
AM_6
100
AcDbText
 10
6.271875
 20
-2.575000000000001
 30
0.0
 40
0.5
  1
7-7/16
100
AcDbAttributeDefinition
  3

  2
DMAX
 70
     8
280
     0
  0
ATTDEF
  5
140
330
12F
100
AcDbEntity
  8
AM_6
100
AcDbText
 10
6.271875
 20
-3.075000000000001
 30
0.0
 40
0.5
  1
5/8
100
AcDbAttributeDefinition
  3

  2
F
 70
     8
280
     0
  0
ATTDEF
  5
141
330
12F
100
AcDbEntity
  8
AM_6
100
AcDbText
 10
6.271875
 20
-3.575000000000001
 30
0.0
 40
0.5
  1
1-7/32
100
AcDbAttributeDefinition
  3

  2
G
 70
     8
280
     0
  0
ATTDEF
  5
142
330
12F
100
AcDbEntity
  8
AM_6
100
AcDbText
 10
6.271875
 20
-4.075000000000001
 30
0.0
 40
0.5
  1
7/8
100
AcDbAttributeDefinition
  3

  2
H
 70
     8
280
     0
  0
ATTDEF
  5
143
330
12F
100
AcDbEntity
  8
AM_6
100
AcDbText
 10
6.271875
 20
-4.575000000000001
 30
0.0
 40
0.5
  1
4-15/16
100
AcDbAttributeDefinition
  3

  2
J
 70
     8
280
     0
  0
ATTDEF
  5
144
330
12F
100
AcDbEntity
  8
AM_6
100
AcDbText
 10
6.271875
 20
-5.075000000000001
 30
0.0
 40
0.5
  1
3-1/4
100
AcDbAttributeDefinition
  3

  2
L
 70
     8
280
     0
  0
ATTDEF
  5
145
330
12F
100
AcDbEntity
  8
AM_6
100
AcDbText
 10
6.271875
 20
-5.575000000000001
 30
0.0
 40
0.5
  1
2-1/2
100
AcDbAttributeDefinition
  3

  2
M
 70
     8
280
     0
  0
ATTDEF
  5
146
330
12F
100
AcDbEntity
  8
AM_6
100
AcDbText
 10
6.271875
 20
-6.075000000000001
 30
0.0
 40
0.5
  1
45/64
100
AcDbAttributeDefinition
  3

  2
R
 70
     8
280
     0
  0
ATTDEF
  5
147
330
12F
100
AcDbEntity
  8
AM_6
100
AcDbText
 10
6.271875
 20
-6.575000000000001
 30
0.0
 40
0.5
  1
1-7/32
100
AcDbAttributeDefinition
  3

  2
S
 70
     8
280
     0
  0
ATTDEF
  5
148
330
12F
100
AcDbEntity
  8
AM_6
100
AcDbText
 10
6.271875
 20
-7.075000000000001
 30
0.0
 40
0.5
  1
3-15/16
100
AcDbAttributeDefinition
  3

  2
U
 70
     8
280
     0
  0
ATTDEF
  5
149
330
12F
100
AcDbEntity
  8
AM_6
100
AcDbText
 10
6.271875
 20
-7.575000000000001
 30
0.0
 40
0.5
  1
7-7/8
100
AcDbAttributeDefinition
  3

  2
V
 70
     8
280
     0
  0
ATTDEF
  5
14A
330
12F
100
AcDbEntity
  8
AM_6
100
AcDbText
 10
6.271875
 20
-8.075000000000001
 30
0.0
 40
0.5
  1
13/16
100
AcDbAttributeDefinition
  3

  2
W
 70
     8
280
     0
  0
ATTDEF
  5
14B
330
12F
100
AcDbEntity
  8
AM_6
100
AcDbText
 10
6.271875
 20
-8.575000000000001
 30
0.0
 40
0.5
  1
3/16
100
AcDbAttributeDefinition
  3

  2
X
 70
     8
280
     0
  0
ATTDEF
  5
14C
330
12F
100
AcDbEntity
  8
AM_6
100
AcDbText
 10
6.271875
 20
-9.075000000000001
 30
0.0
 40
0.5
  1
1-3/16
100
AcDbAttributeDefinition
  3

  2
Z
 70
     8
280
     0
  0
ATTDEF
  5
14D
330
12F
100
AcDbEntity
  8
AM_6
100
AcDbText
 10
6.271875
 20
-9.575000000000001
 30
0.0
 40
0.5
  1
baldor
100
AcDbAttributeDefinition
  3

  2
COMPANY
 70
     8
280
     0
  0
LINE
  5
14E
330
12F
100
AcDbEntity
  8
AM_9
100
AcDbLine
 10
-0.0509854606030001
 20
2.415188576045466
 30
0.0
 11
0.0509853999999999
 21
2.415188576045466
 31
0.0
  0
LINE
  5
14F
330
12F
100
AcDbEntity
  8
AM_9
100
AcDbLine
 10
-0.0480720732029999
 20
2.423410119477541
 30
0.0
 11
-0.050985460603
 21
2.422056652780976
 31
0.0
  0
LINE
  5
150
330
12F
100
AcDbEntity
  8
AM_9
100
AcDbLine
 10
0.0509854
 20
2.422056652780976
 30
0.0
 11
0.048072
 21
2.423410119477542
 31
0.0
  0
LINE
  5
151
330
12F
100
AcDbEntity
  8
AM_9
100
AcDbLine
 10
-0.0422449047019999
 20
2.424384168804572
 30
0.0
 11
-0.0480720732029998
 21
2.423410119477542
 31
0.0
  0
LINE
  5
152
330
12F
100
AcDbEntity
  8
AM_9
100
AcDbLine
 10
0.0480720000000001
 20
2.423410119477541
 30
0.0
 11
0.0422448999999999
 21
2.424384168804571
 31
0.0
  0
LINE
  5
153
330
12F
100
AcDbEntity
  8
AM_9
100
AcDbLine
 10
-0.0335047031318999
 20
2.425013986845736
 30
0.0
 11
-0.0422449047020001
 21
2.424384168804571
 31
0.0
  0
LINE
  5
154
330
12F
100
AcDbEntity
  8
AM_9
100
AcDbLine
 10
0.0422448999999998
 20
2.424384168804571
 30
0.0
 11
0.0335047000000003
 21
2.425013986845736
 31
0.0
  0
LINE
  5
155
330
12F
100
AcDbEntity
  8
AM_9
100
AcDbLine
 10
-0.0218508779412004
 20
2.425323060009188
 30
0.0
 11
-0.0335047031318999
 21
2.425013986845736
 31
0.0
  0
LINE
  5
156
330
12F
100
AcDbEntity
  8
AM_9
100
AcDbLine
 10
0.0335046999999991
 20
2.425013986845736
 30
0.0
 11
0.0218508999999995
 21
2.425323060009187
 31
0.0
  0
LINE
  5
157
330
12F
100
AcDbEntity
  8
AM_9
100
AcDbLine
 10
0.0218509
 20
2.425323060009187
 30
0.0
 11
-0.0218508779412
 21
2.425323060009187
 31
0.0
  0
LINE
  5
158
330
12F
100
AcDbEntity
  8
AM_9
100
AcDbLine
 10
-0.0218508779412
 20
2.430686687766586
 30
0.0
 11
0.0218509
 21
2.430686687766586
 31
0.0
  0
LINE
  5
159
330
12F
100
AcDbEntity
  8
AM_9
100
AcDbLine
 10
0.0218508999999954
 20
2.430686687766586
 30
0.0
 11
0.0335046999999961
 21
2.430914071743034
 31
0.0
  0
LINE
  5
15A
330
12F
100
AcDbEntity
  8
AM_9
100
AcDbLine
 10
-0.0335047031318996
 20
2.430914071743035
 30
0.0
 11
-0.0218508779412071
 21
2.430686687766586
 31
0.0
  0
LINE
  5
15B
330
12F
100
AcDbEntity
  8
AM_9
100
AcDbLine
 10
-0.0422449047019992
 20
2.431357273618194
 30
0.0
 11
-0.0335047031318998
 21
2.430914071743035
 31
0.0
  0
LINE
  5
15C
330
12F
100
AcDbEntity
  8
AM_9
100
AcDbLine
 10
0.0335046999999987
 20
2.430914071743034
 30
0.0
 11
0.0422448999999982
 21
2.431357273618193
 31
0.0
  0
LINE
  5
15D
330
12F
100
AcDbEntity
  8
AM_9
100
AcDbLine
 10
0.0422448999999991
 20
2.431357273618194
 30
0.0
 11
0.0480719999999991
 21
2.431992976474632
 31
0.0
  0
LINE
  5
15E
330
12F
100
AcDbEntity
  8
AM_9
100
AcDbLine
 10
-0.0480720732029996
 20
2.431992976474632
 30
0.0
 11
-0.0422449047019997
 21
2.431357273618194
 31
0.0
  0
LINE
  5
15F
330
12F
100
AcDbEntity
  8
AM_9
100
AcDbLine
 10
-0.0509854606030002
 20
2.432786451606982
 30
0.0
 11
-0.0480720732029998
 21
2.431992976474631
 31
0.0
  0
LINE
  5
160
330
12F
100
AcDbEntity
  8
AM_9
100
AcDbLine
 10
0.0480719999999996
 20
2.431992976474631
 30
0.0
 11
0.0509854
 21
2.432786451606982
 31
0.0
  0
LINE
  5
161
330
12F
100
AcDbEntity
  8
AM_9
100
AcDbLine
 10
0.0509853999999999
 20
2.434187858789384
 30
0.0
 11
0.0480719999999998
 21
2.434795901592857
 31
0.0
  0
LINE
  5
162
330
12F
100
AcDbEntity
  8
AM_9
100
AcDbLine
 10
-0.048072073203
 20
2.434795901592857
 30
0.0
 11
-0.050985460603
 21
2.434187858789384
 31
0.0
  0
LINE
  5
163
330
12F
100
AcDbEntity
  8
AM_9
100
AcDbLine
 10
0.0480719999999999
 20
2.434795901592856
 30
0.0
 11
0.0422449000000001
 21
2.435211447658432
 31
0.0
  0
LINE
  5
164
330
12F
100
AcDbEntity
  8
AM_9
100
AcDbLine
 10
-0.0422449047019999
 20
2.435211447658432
 30
0.0
 11
-0.048072073203
 21
2.434795901592856
 31
0.0
  0
LINE
  5
165
330
12F
100
AcDbEntity
  8
AM_9
100
AcDbLine
 10
0.0422449000000002
 20
2.435211447658432
 30
0.0
 11
0.0335047000000003
 21
2.435469215140816
 31
0.0
  0
LINE
  5
166
330
12F
100
AcDbEntity
  8
AM_9
100
AcDbLine
 10
-0.0335047031319
 20
2.435469215140816
 30
0.0
 11
-0.042244904702
 21
2.435211447658432
 31
0.0
  0
LINE
  5
167
330
12F
100
AcDbEntity
  8
AM_9
100
AcDbLine
 10
0.0335047000000012
 20
2.435469215140816
 30
0.0
 11
-0.0335047031319001
 21
2.435469215140816
 31
0.0
  0
LINE
  5
168
330
12F
100
AcDbEntity
  8
AM_9
100
AcDbLine
 10
0.0684661
 20
2.433340941265527
 30
0.0
 11
0.0684661
 21
2.437418800928866
 31
0.0
  0
LINE
  5
169
330
12F
100
AcDbEntity
  8
AM_9
100
AcDbLine
 10
-0.068466178704
 20
2.433340941265527
 30
0.0
 11
-0.068466178704
 21
2.437418800928866
 31
0.0
  0
LINE
  5
16A
330
12F
100
AcDbEntity
  8
AM_9
100
AcDbLine
 10
0.0509854
 20
2.433340941265527
 30
0.0
 11
0.0509854
 21
2.436842162780525
 31
0.0
  0
LINE
  5
16B
330
12F
100
AcDbEntity
  8
AM_9
100
AcDbLine
 10
-0.050985460603
 20
2.433340941265527
 30
0.0
 11
-0.050985460603
 21
2.436842162780525
 31
0.0
  0
LINE
  5
16C
330
12F
100
AcDbEntity
  8
AM_9
100
AcDbLine
 10
0.0655528
 20
2.434187882092095
 30
0.0
 11
0.0655528
 21
2.437245823252137
 31
0.0
  0
LINE
  5
16D
330
12F
100
AcDbEntity
  8
AM_9
100
AcDbLine
 10
-0.065552791304
 20
2.434187882092096
 30
0.0
 11
-0.065552791304
 21
2.437245823252137
 31
0.0
  0
LINE
  5
16E
330
12F
100
AcDbEntity
  8
AM_9
100
AcDbLine
 10
0.0597256
 20
2.434795907855728
 30
0.0
 11
0.0597256
 21
2.437038232225812
 31
0.0
  0
LINE
  5
16F
330
12F
100
AcDbEntity
  8
AM_9
100
AcDbLine
 10
-0.042244904702
 20
2.429981203008576
 30
0.0
 11
-0.042244904702
 21
2.436692208557246
 31
0.0
  0
LINE
  5
170
330
12F
100
AcDbEntity
  8
AM_9
100
AcDbLine
 10
0.0422449
 20
2.429981203008575
 30
0.0
 11
0.0422449
 21
2.436692209191024
 31
0.0
  0
LINE
  5
171
330
12F
100
AcDbEntity
  8
AM_9
100
AcDbLine
 10
-0.059725622803
 20
2.434795907855728
 30
0.0
 11
-0.059725622803
 21
2.437038232225812
 31
0.0
  0
LINE
  5
172
330
12F
100
AcDbEntity
  8
AM_9
100
AcDbLine
 10
-0.050985460603
 20
2.437245823284659
 30
0.0
 11
0.0509854
 21
2.437245823284659
 31
0.0
  0
LINE
  5
173
330
12F
100
AcDbEntity
  8
AM_9
100
AcDbLine
 10
0.0335047
 20
2.42973827974208
 30
0.0
 11
0.0335047
 21
2.436594851970702
 31
0.0
  0
LINE
  5
174
330
12F
100
AcDbEntity
  8
AM_9
100
AcDbLine
 10
-0.0335047031319
 20
2.42973827974208
 30
0.0
 11
-0.0335047031319
 21
2.4365948518769
 31
0.0
  0
LINE
  5
175
330
12F
100
AcDbEntity
  8
AM_9
100
AcDbLine
 10
0.048072
 20
2.435342276452943
 30
0.0
 11
0.048072
 21
2.436769113402211
 31
0.0
  0
LINE
  5
176
330
12F
100
AcDbEntity
  8
AM_9
100
AcDbLine
 10
-0.048072073203
 20
2.435342276452942
 30
0.0
 11
-0.048072073203
 21
2.436769113402212
 31
0.0
  0
LINE
  5
177
330
12F
100
AcDbEntity
  8
AM_9
100
AcDbLine
 10
0.0364181
 20
2.3587598
 30
0.0
 11
0.0364181
 21
2.436611461098627
 31
0.0
  0
LINE
  5
178
330
12F
100
AcDbEntity
  8
AM_9
100
AcDbLine
 10
0.0218509
 20
2.3587598
 30
0.0
 11
0.0218509
 21
2.434938283553816
 31
0.0
  0
LINE
  5
179
330
12F
100
AcDbEntity
  8
AM_9
100
AcDbLine
 10
-0.0218508779412
 20
2.3587598
 30
0.0
 11
-0.0218508779412
 21
2.434938283553815
 31
0.0
  0
LINE
  5
17A
330
12F
100
AcDbEntity
  8
AM_9
100
AcDbLine
 10
0.048072
 20
2.430686698675089
 30
0.0
 11
0.048072
 21
2.434026216463371
 31
0.0
  0
LINE
  5
17B
330
12F
100
AcDbEntity
  8
AM_9
100
AcDbLine
 10
-0.048072073203
 20
2.430686698675089
 30
0.0
 11
-0.048072073203
 21
2.434026216463373
 31
0.0
  0
LINE
  5
17C
330
12F
100
AcDbEntity
  8
AM_9
100
AcDbLine
 10
0.0684661
 20
2.425929485882885
 30
0.0
 11
0.0684661
 21
2.431573024887182
 31
0.0
  0
LINE
  5
17D
330
12F
100
AcDbEntity
  8
AM_9
100
AcDbLine
 10
-0.068466178704
 20
2.425929485882885
 30
0.0
 11
-0.068466178704
 21
2.431573024887182
 31
0.0
  0
LINE
  5
17E
330
12F
100
AcDbEntity
  8
AM_9
100
AcDbLine
 10
-0.050985460603
 20
2.424063443912101
 30
0.0
 11
-0.050985460603
 21
2.428727829093749
 31
0.0
  0
LINE
  5
17F
330
12F
100
AcDbEntity
  8
AM_9
100
AcDbLine
 10
0.0509854
 20
2.424063443912101
 30
0.0
 11
0.0509854
 21
2.428727829093749
 31
0.0
  0
LINE
  5
180
330
12F
100
AcDbEntity
  8
AM_9
100
AcDbLine
 10
-0.065552791304
 20
2.3587598
 30
0.0
 11
-0.065552791304
 21
2.430455411339817
 31
0.0
  0
LINE
  5
181
330
12F
100
AcDbEntity
  8
AM_9
100
AcDbLine
 10
0.0655528
 20
2.3587598
 30
0.0
 11
0.0655528
 21
2.430455411339817
 31
0.0
  0
LINE
  5
182
330
12F
100
AcDbEntity
  8
AM_9
100
AcDbLine
 10
-0.0101970921206
 20
2.3587598
 30
0.0
 11
-0.0101970921206
 21
2.428199285816344
 31
0.0
  0
LINE
  5
183
330
12F
100
AcDbEntity
  8
AM_9
100
AcDbLine
 10
-0.042244904702
 20
2.3587598
 30
0.0
 11
-0.042244904702
 21
2.428332880179278
 31
0.0
  0
LINE
  5
184
330
12F
100
AcDbEntity
  8
AM_9
100
AcDbLine
 10
-0.0335047031319
 20
2.3587598
 30
0.0
 11
-0.0335047031319
 21
2.428199285816344
 31
0.0
  0
LINE
  5
185
330
12F
100
AcDbEntity
  8
AM_9
100
AcDbLine
 10
0.0422449
 20
2.3587598
 30
0.0
 11
0.0422449
 21
2.428359484527629
 31
0.0
  0
LINE
  5
186
330
12F
100
AcDbEntity
  8
AM_9
100
AcDbLine
 10
0.0597256
 20
2.3587598
 30
0.0
 11
0.0597256
 21
2.429491475529601
 31
0.0
  0
LINE
  5
187
330
12F
100
AcDbEntity
  8
AM_9
100
AcDbLine
 10
-0.059725622803
 20
2.3587598
 30
0.0
 11
-0.059725622803
 21
2.429491475529601
 31
0.0
  0
LINE
  5
188
330
12F
100
AcDbEntity
  8
AM_9
100
AcDbLine
 10
-0.048072073203
 20
2.3587598
 30
0.0
 11
-0.048072073203
 21
2.428465511614277
 31
0.0
  0
LINE
  5
189
330
12F
100
AcDbEntity
  8
AM_9
100
AcDbLine
 10
0.048072
 20
2.3587598
 30
0.0
 11
0.048072
 21
2.428465511614278
 31
0.0
  0
LINE
  5
18A
330
12F
100
AcDbEntity
  8
AM_9
100
AcDbLine
 10
-0.036418129902
 20
2.3587598
 30
0.0
 11
-0.036418129902
 21
2.436611461098627
 31
0.0
  0
LINE
  5
18B
330
12F
100
AcDbEntity
  8
AM_9
100
AcDbLine
 10
0.00728362
 20
2.3587598
 30
0.0
 11
0.00728362
 21
2.428199285816344
 31
0.0
  0
LINE
  5
18C
330
12F
100
AcDbEntity
  8
AM_9
100
AcDbLine
 10
0.0335047
 20
2.3587598
 30
0.0
 11
0.0335047
 21
2.428199285816344
 31
0.0
  0
LINE
  5
18D
330
12F
100
AcDbEntity
  8
AM_9
100
AcDbLine
 10
-0.0043701598402
 20
2.3587598
 30
0.0
 11
-0.0043701598402
 21
2.41434670303252
 31
0.0
  0
LINE
  5
18E
330
12F
100
AcDbEntity
  8
AM_9
100
AcDbLine
 10
0.0131105
 20
2.3587598
 30
0.0
 11
0.0131105
 21
2.41434670303252
 31
0.0
  0
LINE
  5
18F
330
12F
100
AcDbEntity
  8
AM_9
100
AcDbLine
 10
-0.050985460603
 20
2.3587598
 30
0.0
 11
-0.050985460603
 21
2.412615434900266
 31
0.0
  0
LINE
  5
190
330
12F
100
AcDbEntity
  8
AM_9
100
AcDbLine
 10
-0.068466178704
 20
2.3587598
 30
0.0
 11
-0.068466178704
 21
2.412615434900266
 31
0.0
  0
LINE
  5
191
330
12F
100
AcDbEntity
  8
AM_9
100
AcDbLine
 10
-0.068466178704
 20
2.3587598
 30
0.0
 11
0.0684661
 21
2.3587598
 31
0.0
  0
LINE
  5
192
330
12F
100
AcDbEntity
  8
AM_9
100
AcDbLine
 10
0.0509854
 20
2.3587598
 30
0.0
 11
0.0509854
 21
2.412615434900266
 31
0.0
  0
LINE
  5
193
330
12F
100
AcDbEntity
  8
AM_9
100
AcDbLine
 10
0.0684661
 20
2.3587598
 30
0.0
 11
0.0684661
 21
2.412615434900266
 31
0.0
  0
LWPOLYLINE
  5
194
330
12F
100
AcDbEntity
  8
AM_9
100
AcDbPolyline
 90
        5
 70
     0
 43
0.0
 10
0.090921409067117
 20
1.853463732200367
 10
0.0460980447457688
 20
1.850099903543988
 10
0.0008744807129147
 20
1.848848295695347
 10
-0.0450211226067939
 20
1.850043198880487
 10
-0.0909214090671168
 20
1.853463732200367
  0
LINE
  5
195
330
12F
100
AcDbEntity
  8
AM_9
100
AcDbLine
 10
-0.0909214090671168
 20
1.853463732200367
 30
0.0
 11
-0.0909214090671168
 21
1.941668235699721
 31
0.0
  0
LINE
  5
196
330
12F
100
AcDbEntity
  8
AM_9
100
AcDbLine
 10
0.090921409067117
 20
1.853463732200367
 30
0.0
 11
0.090921409067117
 21
1.941668235699721
 31
0.0
  0
LINE
  5
197
330
12F
100
AcDbEntity
  8
AM_9
100
AcDbLine
 10
-0.9866667437499997
 20
-0.8510976735956928
 30
0.0
 11
-0.9866667437499997
 21
-2.23625253383923
 31
0.0
  0
LINE
  5
198
330
12F
100
AcDbEntity
  8
AM_9
100
AcDbLine
 10
0.9866667437500003
 20
-0.8510976735956914
 30
0.0
 11
0.9866667437500003
 21
-2.236252533839231
 31
0.0
  0
LINE
  5
199
330
12F
100
AcDbEntity
  8
AM_9
100
AcDbLine
 10
-1.15625
 20
-2.267388725
 30
0.0
 11
1.15625
 21
-2.267388725
 31
0.0
  0
LINE
  5
19A
330
12F
100
AcDbEntity
  8
AM_9
100
AcDbLine
 10
1.15625
 20
-2.23625253383923
 30
0.0
 11
0.9866667437500003
 21
-2.236252533839231
 31
0.0
  0
LINE
  5
19B
330
12F
100
AcDbEntity
  8
AM_9
100
AcDbLine
 10
-0.9866667437499997
 20
-2.23625253383923
 30
0.0
 11
-1.15625
 21
-2.236252533839232
 31
0.0
  0
LINE
  5
19C
330
12F
100
AcDbEntity
  8
AM_9
100
AcDbLine
 10
-0.9866667437499997
 20
-2.208333625
 30
0.0
 11
0.9866667437500002
 21
-2.208333625
 31
0.0
  0
LINE
  5
19D
330
12F
100
AcDbEntity
  8
AM_9
100
AcDbLine
 10
-0.1102359999999997
 20
1.737492211485205
 30
0.0
 11
-0.1102359999999997
 21
1.723570191886065
 31
0.0
  0
LINE
  5
19E
330
12F
100
AcDbEntity
  8
AM_9
100
AcDbLine
 10
0.1102359999999999
 20
1.723561524813684
 30
0.0
 11
0.1102359999999999
 21
1.737492211485205
 31
0.0
  0
LWPOLYLINE
  5
19F
330
12F
100
AcDbEntity
  8
AM_9
100
AcDbPolyline
 90
       20
 70
     0
 43
0.0
 10
0.1102359994888119
 20
1.72356527237395
 10
0.1095008518891714
 20
1.732536537109106
 10
0.1058074369134946
 20
1.745277717335871
 10
0.0991380025073268
 20
1.757321132283163
 10
0.0896376127080664
 20
1.76833319659798
 10
0.0776149921400907
 20
1.778036621921708
 10
0.0633636993060225
 20
1.786167759270362
 10
0.0473251711330741
 20
1.792534366365071
 10
0.0299315423549141
 20
1.796952043140184
 10
0.0116925262102701
 20
1.799338017518878
 10
-0.0068650513062851
 20
1.799606251154497
 10
-0.0252289820912475
 20
1.797781431854448
 10
-0.0428642641315897
 20
1.793882522485091
 10
-0.0592925829374365
 20
1.788032520419208
 10
-0.0740387069046263
 20
1.780345206995667
 10
-0.0866996325688603
 20
1.771041526423797
 10
-0.0968915379990079
 20
1.760330537024857
 10
-0.1043512574795148
 20
1.7485171867504
 10
-0.1088251560142438
 20
1.735909160837108
 10
-0.1102359998288321
 20
1.723568435298527
  0
LWPOLYLINE
  5
1A0
330
12F
100
AcDbEntity
  8
AM_9
100
AcDbPolyline
 90
       11
 70
     0
 43
0.0
 10
-0.1102359998288321
 20
1.723568435298527
 10
-0.1102313733508816
 20
1.722858479533026
 10
-0.1084890505149331
 20
1.70973925968284
 10
-0.1036940109239093
 20
1.696916718304061
 10
-0.0959408794309498
 20
1.684772692529734
 10
-0.085489327554519
 20
1.673658554684934
 10
-0.072587120021172
 20
1.663920093089028
 10
-0.057639177685854
 20
1.655847235558888
 10
-0.0410359962568198
 20
1.649716318109508
 10
-0.0232739504147564
 20
1.645696378824841
 10
0.0000000000000001
 20
1.643860639578552
  0
LWPOLYLINE
  5
1A1
330
12F
100
AcDbEntity
  8
AM_9
100
AcDbPolyline
 90
        5
 70
     0
 43
0.0
 10
0.1818428181342338
 20
1.742108202745719
 10
0.1594311359735599
 20
1.766192966874883
 10
0.1368193539571327
 20
1.792635023083886
 10
0.1138715522972783
 20
1.821935128661644
 10
0.090921409067117
 20
1.853463732200367
  0
LWPOLYLINE
  5
1A2
330
12F
100
AcDbEntity
  8
AM_9
100
AcDbPolyline
 90
        5
 70
     0
 43
0.0
 10
-0.0909214090671168
 20
1.853463732200367
 10
-0.1133330912277907
 20
1.822651310758444
 10
-0.135944873244218
 20
1.793706038852159
 10
-0.1588926749040724
 20
1.766795739644681
 10
-0.1818428181342336
 20
1.742108202745719
  0
ELLIPSE
  5
1A3
330
12F
100
AcDbEntity
  8
AM_9
100
AcDbEllipse
 10
0.0000000000000001
 20
1.737492211485205
 30
0.0
 11
0.1574800000000014
 21
0.0
 31
0.0
210
0.0
220
0.0
230
1.0
 40
0.7071067811865465
 41
0.0
 42
6.283185307179586
  0
ELLIPSE
  5
1A4
330
12F
100
AcDbEntity
  8
AM_9
100
AcDbEllipse
 10
0.0000000000000001
 20
1.834928697505587
 30
0.0
 11
-0.1102359999999995
 21
1.350001645508070E-17
 31
0.0
210
0.0
220
0.0
230
1.0
 40
0.7071067811865476
 41
3.141592653589793
 42
6.283185307179586
  0
ELLIPSE
  5
1A5
330
12F
100
AcDbEntity
  8
AM_9
100
AcDbEllipse
 10
-0.000000000000008
 20
1.84884809449261
 30
0.0
 11
-0.1102359999998717
 21
1.350001645506505E-17
 31
0.0
210
0.0
220
0.0
230
1.0
 40
0.707106781193114
 41
4.469191272886809
 42
4.715409550102268
  0
ELLIPSE
  5
1A6
330
12F
100
AcDbEntity
  8
AM_9
100
AcDbEllipse
 10
-0.0000000000000084
 20
1.848848094493247
 30
0.0
 11
-0.1102359999999871
 21
1.350001645507919E-17
 31
0.0
210
0.0
220
0.0
230
1.0
 40
0.7071067811865704
 41
5.323210888652069
 42
5.688299935274569
  0
LINE
  5
1A7
330
12F
100
AcDbEntity
  8
AM_9
100
AcDbLine
 10
0.9866667437500003
 20
-0.8510976735956914
 30
0.0
 11
1.08282835039556
 21
-0.8510976735956914
 31
0.0
  0
LINE
  5
1A8
330
12F
100
AcDbEntity
  8
AM_9
100
AcDbLine
 10
-1.08282835039556
 20
-0.8510976735956914
 30
0.0
 11
-0.9866667437499997
 21
-0.8510976735956928
 31
0.0
  0
LINE
  5
1A9
330
12F
100
AcDbEntity
  8
AM_9
100
AcDbLine
 10
-0.9866667437500001
 20
-1.9685
 30
0.0
 11
0.9866667437500001
 21
-1.9685
 31
0.0
  0
LINE
  5
1AA
330
12F
100
AcDbEntity
  8
AM_9
100
AcDbLine
 10
0.8153275232846161
 20
1.968499999999999
 30
0.0
 11
-0.8153275232846157
 21
1.968499999999999
 31
0.0
  0
LINE
  5
1AB
330
12F
100
AcDbEntity
  8
AM_9
100
AcDbLine
 10
0.090921409067117
 20
1.941668235699721
 30
0.0
 11
0.1055038464457945
 21
1.926212099081811
 31
0.0
  0
LWPOLYLINE
  5
1AC
330
12F
100
AcDbEntity
  8
AM_9
100
AcDbPolyline
 90
        5
 70
     0
 43
0.0
 10
-0.0909214090671168
 20
1.941668235699721
 10
-0.0460980447457687
 20
1.9450320643561
 10
-0.0008744807129145
 20
1.946283672204742
 10
0.0450211226067941
 20
1.945088769019602
 10
0.090921409067117
 20
1.941668235699721
  0
LINE
  5
1AD
330
12F
100
AcDbEntity
  8
AM_9
100
AcDbLine
 10
-0.1055950427613321
 20
1.926113007197987
 30
0.0
 11
-0.0909214090671168
 21
1.941668235699721
 31
0.0
  0
ELLIPSE
  5
1AE
330
12F
100
AcDbEntity
  8
AM_9
100
AcDbEllipse
 10
0.0000000000000001
 20
1.834928697505586
 30
0.0
 11
-0.1574800000000001
 21
1.928573779297253E-17
 31
0.0
210
0.0
220
0.0
230
1.0
 40
0.7071067811865481
 41
3.986847650589342
 42
5.435155146449519
  0
LWPOLYLINE
  5
1AF
330
12F
100
AcDbEntity
  8
AM_9
100
AcDbPolyline
 90
       20
 70
     0
 43
0.0
 10
-0.0812441933109545
 20
1.883147310864247
 10
-0.0833594184252061
 20
1.885984146986884
 10
-0.0846768397982302
 20
1.888320533240931
 10
-0.0852424157322897
 20
1.889795977173238
 10
-0.0853795166385018
 20
1.890477644283112
 10
-0.0853516168228567
 20
1.890946413568747
 10
-0.0850284071326494
 20
1.892060914387695
 10
-0.0841006766723345
 20
1.894009276877333
 10
-0.0823098426328255
 20
1.896722428464774
 10
-0.0791039307180488
 20
1.900424548732517
 10
-0.0746087230169304
 20
1.904498016189797
 10
-0.0687902188519231
 20
1.908722475031958
 10
-0.0616598552976632
 20
1.91288872751549
 10
-0.0532868592753288
 20
1.916793214594216
 10
-0.0438081720286748
 20
1.920243632505864
 10
-0.0333862431893385
 20
1.923081666432571
 10
-0.0222225788271811
 20
1.925176712510621
 10
-0.0105495646746723
 20
1.926431351883259
 10
0.0013785501539345
 20
1.926785374289266
 10
0.0023264127965363
 20
1.926774041114919
  0
LINE
  5
1B0
330
12F
100
AcDbEntity
  8
AM_9
100
AcDbLine
 10
-0.0673858767259237
 20
1.871594322442654
 30
0.0
 11
-0.0685842366013101
 21
1.872355977625184
 31
0.0
  0
LINE
  5
1B1
330
12F
100
AcDbEntity
  8
AM_9
100
AcDbLine
 10
0.0756834250111654
 20
1.877607761944812
 30
0.0
 11
0.0739084703074467
 21
1.876154323598068
 31
0.0
  0
LWPOLYLINE
  5
1B2
330
12F
100
AcDbEntity
  8
AM_9
100
AcDbPolyline
 90
       21
 70
     0
 43
0.0
 10
0.0023264127965363
 20
1.926774041114919
 10
0.0132949209651291
 20
1.926218511022505
 10
0.0249231720817567
 20
1.924753183482803
 10
0.0359976013716561
 20
1.922455315920434
 10
0.0462754370559517
 20
1.919431966988657
 10
0.0555431796969691
 20
1.91582916748847
 10
0.0636276170525907
 20
1.911827909921874
 10
0.0704069206230579
 20
1.907637708093627
 10
0.075818580453335
 20
1.903489221015477
 10
0.0798629490106688
 20
1.899629305205224
 10
0.0826317903543927
 20
1.896285804268998
 10
0.0842964638656693
 20
1.893651948355046
 10
0.0851025183897768
 20
1.891856988588087
 10
0.0853577645796705
 20
1.890909367313045
 10
0.0853818867631928
 20
1.890509397639965
 10
0.0852637827261157
 20
1.889873728987125
 10
0.0847242794990399
 20
1.888423444715873
 10
0.0834535817697995
 20
1.886129681885584
 10
0.0812378315865625
 20
1.883139697572656
 10
0.0775527174503232
 20
1.87927357713806
 10
0.0756834250111654
 20
1.877607761944812
  0
ELLIPSE
  5
1B3
330
12F
100
AcDbEntity
  8
AM_9
100
AcDbEllipse
 10
-0.0000000000000065
 20
1.848848094493232
 30
0.0
 11
-0.1102360000000082
 21
1.642644418865128E-9
 31
0.0
210
0.0
220
0.0
230
1.0
 40
0.7071067811865925
 41
3.737270163755539
 42
4.075983112674333
  0
ELLIPSE
  5
1B4
330
12F
100
AcDbEntity
  8
AM_9
100
AcDbEllipse
 10
0.0000000000000042
 20
1.925930292097509
 30
0.0
 11
-0.1022054666020828
 21
1.522980145246608E-9
 31
0.0
210
0.0
220
0.0
230
1.0
 40
0.7071067811863601
 41
2.293049646831927
 42
7.026320716755107
  0
ELLIPSE
  5
1B5
330
12F
100
AcDbEntity
  8
AM_9
100
AcDbEllipse
 10
0.0000000000000547
 20
1.925930292097649
 30
0.0
 11
-0.102205466602167
 21
1.251655975297056E-17
 31
0.0
210
0.0
220
0.0
230
1.0
 40
0.7071067811870637
 41
0.7699191262156777
 42
0.8487445082677954
  0
LINE
  5
1B6
330
12F
100
AcDbEntity
  8
AM_9
100
AcDbLine
 10
0.0873281928704074
 20
1.980703909848134
 30
0.0
 11
0.0862890510951833
 21
1.981825176683814
 31
0.0
  0
LINE
  5
1B7
330
12F
100
AcDbEntity
  8
AM_9
100
AcDbLine
 10
-0.0868168690908755
 20
1.981260769790972
 30
0.0
 11
-0.0878983757987798
 21
1.980070783408197
 31
0.0
  0
ELLIPSE
  5
1B8
330
12F
100
AcDbEntity
  8
AM_9
100
AcDbEllipse
 10
0.0000000000000001
 20
1.940819456384389
 30
0.0
 11
-0.1039584237793374
 21
1.549101242925467E-9
 31
0.0
210
0.0
220
0.0
230
1.0
 40
0.7071067811865474
 41
3.694304725885901
 42
5.720707633051611
  0
LINE
  5
1B9
330
12F
100
AcDbEntity
  8
AM_9
100
AcDbLine
 10
0.0538987683457974
 20
2.436911364764143
 30
0.0
 11
0.0684661
 21
2.436911364764143
 31
0.0
  0
LINE
  5
1BA
330
12F
100
AcDbEntity
  8
AM_9
100
AcDbLine
 10
-0.050985460603
 20
2.436911364764143
 30
0.0
 11
0.0509854
 21
2.436911364764143
 31
0.0
  0
LINE
  5
1BB
330
12F
100
AcDbEntity
  8
AM_9
100
AcDbLine
 10
-0.0684661787040001
 20
2.436911364764143
 30
0.0
 11
-0.0538988163489347
 21
2.436911364764143
 31
0.0
  0
LINE
  5
1BC
330
12F
100
AcDbEntity
  8
AM_9
100
AcDbLine
 10
-0.0218508779412
 20
2.429240829641837
 30
0.0
 11
0.0218509
 21
2.429240829641837
 31
0.0
  0
LINE
  5
1BD
330
12F
100
AcDbEntity
  8
AM_9
100
AcDbLine
 10
0.0218508999999942
 20
2.429240829641837
 30
0.0
 11
0.0364180999999964
 21
2.429491485422193
 31
0.0
  0
LINE
  5
1BE
330
12F
100
AcDbEntity
  8
AM_9
100
AcDbLine
 10
0.0364180999999981
 20
2.429491485422192
 30
0.0
 11
0.0480719999999977
 21
2.429981216572119
 31
0.0
  0
LINE
  5
1BF
330
12F
100
AcDbEntity
  8
AM_9
100
AcDbLine
 10
0.0480719999999991
 20
2.42998121657212
 30
0.0
 11
0.0597255999999991
 21
2.430914071743035
 31
0.0
  0
LINE
  5
1C0
330
12F
100
AcDbEntity
  8
AM_9
100
AcDbLine
 10
0.0597255999999995
 20
2.430914071743035
 30
0.0
 11
0.0655527999999995
 21
2.431784955417624
 31
0.0
  0
LINE
  5
1C1
330
12F
100
AcDbEntity
  8
AM_9
100
AcDbLine
 10
0.0655527999999997
 20
2.431784955417623
 30
0.0
 11
0.0684660999999999
 21
2.432786451606982
 31
0.0
  0
LINE
  5
1C2
330
12F
100
AcDbEntity
  8
AM_9
100
AcDbLine
 10
0.0684660999999998
 20
2.434187858789384
 30
0.0
 11
0.0655527999999998
 21
2.434938278618008
 31
0.0
  0
LINE
  5
1C3
330
12F
100
AcDbEntity
  8
AM_9
100
AcDbLine
 10
0.0655527999999999
 20
2.434938278618008
 30
0.0
 11
0.0597256000000001
 21
2.435469215140816
 31
0.0
  0
LINE
  5
1C4
330
12F
100
AcDbEntity
  8
AM_9
100
AcDbLine
 10
0.0597256000000002
 20
2.435469215140816
 30
0.0
 11
0.0480719999999998
 21
2.435938482328187
 31
0.0
  0
LINE
  5
1C5
330
12F
100
AcDbEntity
  8
AM_9
100
AcDbLine
 10
0.0480719999999998
 20
2.435938482328187
 30
0.0
 11
0.0364180999999996
 21
2.436150008011408
 31
0.0
  0
LINE
  5
1C6
330
12F
100
AcDbEntity
  8
AM_9
100
AcDbLine
 10
0.0364181000000013
 20
2.436150008011408
 30
0.0
 11
-0.0364181299019997
 21
2.436150008011408
 31
0.0
  0
LINE
  5
1C7
330
12F
100
AcDbEntity
  8
AM_9
100
AcDbLine
 10
-0.0364181299019998
 20
2.436150008011408
 30
0.0
 11
-0.048072073203
 21
2.435938482328187
 31
0.0
  0
LINE
  5
1C8
330
12F
100
AcDbEntity
  8
AM_9
100
AcDbLine
 10
-0.0480720732030001
 20
2.435938482328187
 30
0.0
 11
-0.059725622803
 21
2.435469215140816
 31
0.0
  0
LINE
  5
1C9
330
12F
100
AcDbEntity
  8
AM_9
100
AcDbLine
 10
-0.0597256228030001
 20
2.435469215140816
 30
0.0
 11
-0.0655527913040001
 21
2.434938278618007
 31
0.0
  0
LINE
  5
1CA
330
12F
100
AcDbEntity
  8
AM_9
100
AcDbLine
 10
-0.0655527913040002
 20
2.434938278618007
 30
0.0
 11
-0.0684661787040001
 21
2.434187858789383
 31
0.0
  0
LINE
  5
1CB
330
12F
100
AcDbEntity
  8
AM_9
100
AcDbLine
 10
-0.0684661787040001
 20
2.432786451606982
 30
0.0
 11
-0.0655527913039999
 21
2.431784955417623
 31
0.0
  0
LINE
  5
1CC
330
12F
100
AcDbEntity
  8
AM_9
100
AcDbLine
 10
-0.0655527913039999
 20
2.431784955417623
 30
0.0
 11
-0.0597256228029999
 21
2.430914071743034
 31
0.0
  0
LINE
  5
1CD
330
12F
100
AcDbEntity
  8
AM_9
100
AcDbLine
 10
-0.059725622803
 20
2.430914071743034
 30
0.0
 11
-0.0480720732029999
 21
2.429981216572119
 31
0.0
  0
LINE
  5
1CE
330
12F
100
AcDbEntity
  8
AM_9
100
AcDbLine
 10
-0.0480720732029998
 20
2.42998121657212
 30
0.0
 11
-0.0364181299020001
 21
2.429491485422193
 31
0.0
  0
LINE
  5
1CF
330
12F
100
AcDbEntity
  8
AM_9
100
AcDbLine
 10
-0.036418129902
 20
2.429491485422192
 30
0.0
 11
-0.0218508779412083
 21
2.429240829641837
 31
0.0
  0
LINE
  5
1D0
330
12F
100
AcDbEntity
  8
AM_9
100
AcDbLine
 10
-0.0509854606030001
 20
2.412615343257711
 30
0.0
 11
0.0509854
 21
2.412615343257711
 31
0.0
  0
LINE
  5
1D1
330
12F
100
AcDbEntity
  8
AM_9
100
AcDbLine
 10
0.0684660999999999
 20
2.422056652780976
 30
0.0
 11
0.0655527999999999
 21
2.423738725633985
 31
0.0
  0
LINE
  5
1D2
330
12F
100
AcDbEntity
  8
AM_9
100
AcDbLine
 10
0.0655528
 20
2.423738725633986
 30
0.0
 11
0.0597256000000001
 21
2.425013986845736
 31
0.0
  0
LINE
  5
1D3
330
12F
100
AcDbEntity
  8
AM_9
100
AcDbLine
 10
0.0597256000000002
 20
2.425013986845736
 30
0.0
 11
0.0480720000000002
 21
2.426226833907424
 31
0.0
  0
LINE
  5
1D4
330
12F
100
AcDbEntity
  8
AM_9
100
AcDbLine
 10
0.0480720000000006
 20
2.426226833907424
 30
0.0
 11
0.0364180999999997
 21
2.426809847331265
 31
0.0
  0
LINE
  5
1D5
330
12F
100
AcDbEntity
  8
AM_9
100
AcDbLine
 10
0.0364180999999987
 20
2.426809847331265
 30
0.0
 11
0.0218508999999987
 21
2.427095529729017
 31
0.0
  0
LINE
  5
1D6
330
12F
100
AcDbEntity
  8
AM_9
100
AcDbLine
 10
0.0218509
 20
2.427095529729017
 30
0.0
 11
-0.0218508779412
 21
2.427095529729017
 31
0.0
  0
LINE
  5
1D7
330
12F
100
AcDbEntity
  8
AM_9
100
AcDbLine
 10
-0.0218508779412005
 20
2.427095529729017
 30
0.0
 11
-0.0364181299020005
 21
2.426809847331265
 31
0.0
  0
LINE
  5
1D8
330
12F
100
AcDbEntity
  8
AM_9
100
AcDbLine
 10
-0.036418129902
 20
2.426809847331264
 30
0.0
 11
-0.0480720732029999
 21
2.426226833907423
 31
0.0
  0
LINE
  5
1D9
330
12F
100
AcDbEntity
  8
AM_9
100
AcDbLine
 10
-0.048072073203
 20
2.426226833907424
 30
0.0
 11
-0.059725622803
 21
2.425013986845736
 31
0.0
  0
LINE
  5
1DA
330
12F
100
AcDbEntity
  8
AM_9
100
AcDbLine
 10
-0.0597256228029999
 20
2.425013986845736
 30
0.0
 11
-0.0655527913039999
 21
2.423738725633985
 31
0.0
  0
LINE
  5
1DB
330
12F
100
AcDbEntity
  8
AM_9
100
AcDbLine
 10
-0.0655527913040001
 20
2.423738725633986
 30
0.0
 11
-0.0684661787040001
 21
2.422056652780976
 31
0.0
  0
LWPOLYLINE
  5
1DC
330
12F
100
AcDbEntity
  8
AM_9
100
AcDbPolyline
 90
       11
 70
     0
 43
0.0
 10
0.0000000000000001
 20
1.643860639578552
 10
0.0184945879176487
 20
1.645023816103675
 10
0.0364675912344456
 20
1.648442538786258
 10
0.0533975373956249
 20
1.654039206899975
 10
0.0688234763872615
 20
1.661606376451601
 10
0.0822927980736811
 20
1.67093955090538
 10
0.0934435001977827
 20
1.681722716189455
 10
0.1019275998841949
 20
1.693649665877005
 10
0.1075370975225976
 20
1.7063447668677
 10
0.1100695462263225
 20
1.719430955171888
 10
0.1102359994888119
 20
1.72356527237395
  0
LINE
  5
1DD
330
12F
100
AcDbEntity
  8
AM_9
100
AcDbLine
 10
-0.9062499999999993
 20
-1.7125
 30
0.0
 11
-0.7187499999999996
 21
-1.7125
 31
0.0
  0
LINE
  5
1DE
330
12F
100
AcDbEntity
  8
AM_9
100
AcDbLine
 10
-0.9062499999999993
 20
-1.625
 30
0.0
 11
-0.9062499999999993
 21
-1.7125
 31
0.0
  0
LINE
  5
1DF
330
12F
100
AcDbEntity
  8
AM_9
100
AcDbLine
 10
-0.7187499999999996
 20
-1.7125
 30
0.0
 11
-0.7187499999999996
 21
-1.625
 31
0.0
  0
LINE
  5
1E0
330
12F
100
AcDbEntity
  8
AM_9
100
AcDbLine
 10
0.3437500000000003
 20
-1.625
 30
0.0
 11
0.3437500000000003
 21
-2.5
 31
0.0
  0
LINE
  5
1E1
330
12F
100
AcDbEntity
  8
AM_9
100
AcDbLine
 10
-0.3437499999999997
 20
-1.625
 30
0.0
 11
-0.3437499999999996
 21
-2.5
 31
0.0
  0
ELLIPSE
  5
1E2
330
12F
100
AcDbEntity
  8
AM_9
100
AcDbEllipse
 10
-0.0000000000000001
 20
1.737492211485205
 30
0.0
 11
-0.1102359999999997
 21
1.642644418865002E-9
 31
0.0
210
0.0
220
0.0
230
1.0
 40
0.7071067811865465
 41
0.0
 42
6.283185307179586
  0
LINE
  5
1E3
330
12F
100
AcDbEntity
  8
AM_7
100
AcDbLine
 10
1.271875
 20
0.0
 30
0.0
 11
-1.28203125
 21
0.0
 31
0.0
  0
LINE
  5
1E4
330
12F
100
AcDbEntity
  8
AM_7
100
AcDbLine
 10
-0.0000000000000004
 20
-1.871875
 30
0.0
 11
-0.0000000000000004
 21
3.424999999999999
 31
0.0
  0
LINE
  5
1E5
330
12F
100
AcDbEntity
  8
AM_7
100
AcDbLine
 10
-0.8125000000000006
 20
-1.72125
 30
0.0
 11
-0.8125000000000006
 21
-1.52875
 31
0.0
  0
LINE
  5
1E6
330
12F
100
AcDbEntity
  8
AM_4
100
AcDbLine
 10
-0.0480720732030001
 20
2.437288108087216
 30
0.0
 11
-0.0509854606030001
 21
2.437418800928866
 31
0.0
  0
LINE
  5
1E7
330
12F
100
AcDbEntity
  8
AM_4
100
AcDbLine
 10
0.0509854
 20
2.437418800928866
 30
0.0
 11
0.048072
 21
2.437288108087216
 31
0.0
  0
LINE
  5
1E8
330
12F
100
AcDbEntity
  8
AM_4
100
AcDbLine
 10
0.0364181000000007
 20
2.436611461098628
 30
0.0
 11
-0.0480720732030002
 21
2.437288108087216
 31
0.0
  0
LINE
  5
1E9
330
12F
100
AcDbEntity
  8
AM_4
100
AcDbLine
 10
-0.048072073203
 20
2.434026216463372
 30
0.0
 11
-0.048072073203
 21
2.435342276452942
 31
0.0
  0
LINE
  5
1EA
330
12F
100
AcDbEntity
  8
AM_4
100
AcDbLine
 10
0.048072
 20
2.434026216463373
 30
0.0
 11
0.048072
 21
2.435342276452943
 31
0.0
  0
LINE
  5
1EB
330
12F
100
AcDbEntity
  8
AM_4
100
AcDbLine
 10
0.0597256
 20
2.429491475529602
 30
0.0
 11
0.0597256
 21
2.434795907855728
 31
0.0
  0
LINE
  5
1EC
330
12F
100
AcDbEntity
  8
AM_4
100
AcDbLine
 10
-0.059725622803
 20
2.429491475529602
 30
0.0
 11
-0.059725622803
 21
2.434795907855728
 31
0.0
  0
LINE
  5
1ED
330
12F
100
AcDbEntity
  8
AM_4
100
AcDbLine
 10
0.0655528
 20
2.430455411339817
 30
0.0
 11
0.0655528
 21
2.434187882092095
 31
0.0
  0
LINE
  5
1EE
330
12F
100
AcDbEntity
  8
AM_4
100
AcDbLine
 10
-0.065552791304
 20
2.430455411339818
 30
0.0
 11
-0.065552791304
 21
2.434187882092096
 31
0.0
  0
LINE
  5
1EF
330
12F
100
AcDbEntity
  8
AM_4
100
AcDbLine
 10
-0.050985460603
 20
2.428727829093749
 30
0.0
 11
-0.050985460603
 21
2.433340941265527
 31
0.0
  0
LINE
  5
1F0
330
12F
100
AcDbEntity
  8
AM_4
100
AcDbLine
 10
0.0509854
 20
2.428727829093749
 30
0.0
 11
0.0509854
 21
2.433340941265527
 31
0.0
  0
LINE
  5
1F1
330
12F
100
AcDbEntity
  8
AM_4
100
AcDbLine
 10
-0.048072073203
 20
2.428465511614278
 30
0.0
 11
-0.048072073203
 21
2.430686698675089
 31
0.0
  0
LINE
  5
1F2
330
12F
100
AcDbEntity
  8
AM_4
100
AcDbLine
 10
0.048072
 20
2.428465511614278
 30
0.0
 11
0.048072
 21
2.430686698675089
 31
0.0
  0
LINE
  5
1F3
330
12F
100
AcDbEntity
  8
AM_4
100
AcDbLine
 10
-0.0101970921206
 20
2.428199285816344
 30
0.0
 11
-0.0101970921206001
 21
2.431784942151752
 31
0.0
  0
LINE
  5
1F4
330
12F
100
AcDbEntity
  8
AM_4
100
AcDbLine
 10
-0.042244904702
 20
2.428332880179278
 30
0.0
 11
-0.042244904702
 21
2.429981203008576
 31
0.0
  0
LINE
  5
1F5
330
12F
100
AcDbEntity
  8
AM_4
100
AcDbLine
 10
-0.0335047031319
 20
2.428199285816344
 30
0.0
 11
-0.0335047031319
 21
2.42973827974208
 31
0.0
  0
LINE
  5
1F6
330
12F
100
AcDbEntity
  8
AM_4
100
AcDbLine
 10
0.0422449
 20
2.428359484527629
 30
0.0
 11
0.0422449
 21
2.429981203008575
 31
0.0
  0
LINE
  5
1F7
330
12F
100
AcDbEntity
  8
AM_4
100
AcDbLine
 10
-0.1102359999999993
 20
1.848848094493244
 30
0.0
 11
-0.1102359999999993
 21
1.834928697505587
 31
0.0
  0
LINE
  5
1F8
330
12F
100
AcDbEntity
  8
AM_4
100
AcDbLine
 10
0.1102359999999996
 20
1.834928697505587
 30
0.0
 11
0.1102359999999996
 21
1.848848094493244
 31
0.0
  0
ELLIPSE
  5
1F9
330
12F
100
AcDbEntity
  8
AM_4
100
AcDbEllipse
 10
0.0000000000000006
 20
1.834928697505585
 30
0.0
 11
-0.110235999999999
 21
1.642644418864992E-9
 31
0.0
210
0.0
220
0.0
230
1.0
 40
0.7071067811865425
 41
0.0000000149011612
 42
3.141592668490954
  0
ELLIPSE
  5
1FA
330
12F
100
AcDbEntity
  8
AM_4
100
AcDbEllipse
 10
-0.0000000000000006
 20
1.848848094493245
 30
0.0
 11
-0.1102360000000002
 21
1.350001645508078E-17
 31
0.0
210
0.0
220
0.0
230
1.0
 40
0.7071067811865474
 41
5.688299935274576
 42
10.02045545317857
  0
LWPOLYLINE
  5
1FB
330
12F
100
AcDbEntity
  8
AM_4
100
AcDbPolyline
 90
        5
 70
     0
 43
0.0
 10
0.090921409067117
 20
1.630752673291071
 10
0.1133330912277909
 20
1.654837437420236
 10
0.1359448732442179
 20
1.681279493629238
 10
0.1588926749040724
 20
1.710579599206996
 10
0.1818428181342338
 20
1.742108202745719
  0
LINE
  5
1FC
330
12F
100
AcDbEntity
  8
AM_4
100
AcDbLine
 10
0.1818428181342338
 20
1.742108202745719
 30
0.0
 11
0.1818428181342338
 21
1.830312706245073
 31
0.0
  0
LINE
  5
1FD
330
12F
100
AcDbEntity
  8
AM_4
100
AcDbLine
 10
-0.1818428181342336
 20
1.742108202745719
 30
0.0
 11
-0.1818428181342336
 21
1.830312706245073
 31
0.0
  0
LWPOLYLINE
  5
1FE
330
12F
100
AcDbEntity
  8
AM_4
100
AcDbPolyline
 90
        5
 70
     0
 43
0.0
 10
-0.1818428181342336
 20
1.742108202745719
 10
-0.1594311359735597
 20
1.711295781303796
 10
-0.1368193539571327
 20
1.682350509397511
 10
-0.1138715522972782
 20
1.655440210190033
 10
-0.0909214090671167
 20
1.630752673291071
  0
LINE
  5
1FF
330
12F
100
AcDbEntity
  8
AM_4
100
AcDbLine
 10
-0.0909214090671167
 20
1.630752673291071
 30
0.0
 11
-0.0909214090671167
 21
1.718957176790426
 31
0.0
  0
LWPOLYLINE
  5
200
330
12F
100
AcDbEntity
  8
AM_4
100
AcDbPolyline
 90
        5
 70
     0
 43
0.0
 10
-0.0909214090671167
 20
1.630752673291071
 10
-0.0460980447457686
 20
1.627388844634692
 10
-0.0008744807129145
 20
1.626137236786051
 10
0.0450211226067941
 20
1.627332139971191
 10
0.090921409067117
 20
1.630752673291071
  0
LINE
  5
201
330
12F
100
AcDbEntity
  8
AM_4
100
AcDbLine
 10
0.090921409067117
 20
1.630752673291071
 30
0.0
 11
0.090921409067117
 21
1.718957176790426
 31
0.0
  0
LWPOLYLINE
  5
202
330
12F
100
AcDbEntity
  8
AM_4
100
AcDbPolyline
 90
        5
 70
     0
 43
0.0
 10
-0.0909214090671167
 20
1.718957176790426
 10
-0.1133330912277909
 20
1.749769598232349
 10
-0.135944873244218
 20
1.778714870138633
 10
-0.1588926749040723
 20
1.805625169346111
 10
-0.1818428181342336
 20
1.830312706245073
  0
LWPOLYLINE
  5
203
330
12F
100
AcDbEntity
  8
AM_4
100
AcDbPolyline
 90
        5
 70
     0
 43
0.0
 10
0.090921409067117
 20
1.718957176790426
 10
0.0460980447457689
 20
1.722321005446805
 10
0.0008744807129147
 20
1.723572613295446
 10
-0.0450211226067939
 20
1.722377710110306
 10
-0.0909214090671167
 20
1.718957176790426
  0
LWPOLYLINE
  5
204
330
12F
100
AcDbEntity
  8
AM_4
100
AcDbPolyline
 90
        5
 70
     0
 43
0.0
 10
0.1818428181342338
 20
1.830312706245073
 10
0.1594311359735598
 20
1.806227942115909
 10
0.1368193539571327
 20
1.779785885906907
 10
0.1138715522972783
 20
1.750485780329148
 10
0.090921409067117
 20
1.718957176790426
  0
LWPOLYLINE
  5
205
330
12F
100
AcDbEntity
  8
AM_4
100
AcDbPolyline
 90
        5
 70
     0
 43
0.0
 10
0.1055038464457945
 20
1.926212099081811
 10
0.1133330912277907
 20
1.917583471570557
 10
0.1359448732442179
 20
1.891141415361555
 10
0.1588926749040723
 20
1.861841309783796
 10
0.1818428181342338
 20
1.830312706245073
  0
LWPOLYLINE
  5
206
330
12F
100
AcDbEntity
  8
AM_4
100
AcDbPolyline
 90
        5
 70
     0
 43
0.0
 10
-0.1818428181342336
 20
1.830312706245073
 10
-0.1594311359735596
 20
1.861125127686996
 10
-0.1368193539571326
 20
1.890070399593281
 10
-0.1138715522972782
 20
1.916980698800759
 10
-0.1055950427613321
 20
1.926113007197987
  0
ELLIPSE
  5
207
330
12F
100
AcDbEntity
  8
AM_4
100
AcDbEllipse
 10
0.0
 20
1.834928697505587
 30
0.0
 11
-0.1574800000000002
 21
1.928573779297254E-17
 31
0.0
210
0.0
220
0.0
230
1.0
 40
0.7071067811865477
 41
5.435155146449521
 42
10.27003295776892
  0
ELLIPSE
  5
208
330
12F
100
AcDbEntity
  8
AM_4
100
AcDbEllipse
 10
0.0000000000000825
 20
1.925930292097374
 30
0.0
 11
-0.102205466601954
 21
1.522980145244690E-9
 31
0.0
210
0.0
220
0.0
230
1.0
 40
0.707106781185891
 41
-4.061114314175077
 42
-3.990135660347335
  0
ELLIPSE
  5
209
330
12F
100
AcDbEntity
  8
AM_4
100
AcDbEllipse
 10
0.0
 20
1.925930292097536
 30
0.0
 11
-0.1022054666020877
 21
1.522980145246682E-9
 31
0.0
210
0.0
220
0.0
230
1.0
 40
0.7071067811865366
 41
0.9617963820055078
 42
2.222070993004237
  0
LWPOLYLINE
  5
20A
330
12F
100
AcDbEntity
  8
AM_4
100
AcDbPolyline
 90
        3
 70
     0
 43
0.0
 10
0.0954859415647697
 20
1.970072360643582
 10
0.090581626481708
 20
1.976901652894897
 10
0.0873281928704074
 20
1.980703909848134
  0
LWPOLYLINE
  5
20B
330
12F
100
AcDbEntity
  8
AM_4
100
AcDbPolyline
 90
       12
 70
     0
 43
0.0
 10
0.0692992143211838
 20
1.872807015484776
 10
0.0791836899306144
 20
1.880147447732322
 10
0.0877596079101149
 20
1.888472469614526
 10
0.0948384127970956
 20
1.897627992854167
 10
0.100269659668477
 20
1.907415839684007
 10
0.103963058936007
 20
1.917612525649901
 10
0.1058934314736669
 20
1.927998247581493
 10
0.106085240960561
 20
1.938379593578693
 10
0.1045882341406713
 20
1.948596893622238
 10
0.1014662705151353
 20
1.958496145910378
 10
0.0967795207576089
 20
1.967966055061694
 10
0.0954859415647697
 20
1.970072360643582
  0
LINE
  5
20C
330
12F
100
AcDbEntity
  8
AM_4
100
AcDbLine
 10
0.061767436233405
 20
1.868345228355852
 30
0.0
 11
0.0692992143211838
 21
1.872807015484776
 31
0.0
  0
LWPOLYLINE
  5
20D
330
12F
100
AcDbEntity
  8
AM_4
100
AcDbPolyline
 90
       15
 70
     0
 43
0.0
 10
-0.0878983757987798
 20
1.980070783408197
 10
-0.0907499956595697
 20
1.976691361472265
 10
-0.0971916902941872
 20
1.967259852699536
 10
-0.1019421149096646
 20
1.957283010969022
 10
-0.1049374245812335
 20
1.946986334654606
 10
-0.1061747755245224
 20
1.936581099196495
 10
-0.105691548971259
 20
1.926247378685603
 10
-0.1035436515106966
 20
1.91614011895557
 10
-0.0997959328874381
 20
1.90639839382363
 10
-0.0945048233165773
 20
1.897126970548005
 10
-0.0877249917359207
 20
1.888433853017786
 10
-0.0795272775383696
 20
1.880440223514984
 10
-0.0700173324275439
 20
1.873278238519264
 10
-0.0593435010231989
 20
1.867078023241651
 10
-0.0581803084848627
 20
1.866496397235979
  0
ELLIPSE
  5
20E
330
12F
100
AcDbEntity
  8
AM_4
100
AcDbEllipse
 10
0.0000000000000185
 20
1.925930292097623
 30
0.0
 11
-0.1022054666021171
 21
1.522980145247120E-9
 31
0.0
210
0.0
220
0.0
230
1.0
 40
0.7071067811870827
 41
0.8487445234071975
 42
0.9617963820056811
  0
ELLIPSE
  5
20F
330
12F
100
AcDbEntity
  8
AM_4
100
AcDbEllipse
 10
0.0000000000000003
 20
1.940819456384389
 30
0.0
 11
-0.1039584237793374
 21
1.549101242925467E-9
 31
0.0
210
0.0
220
0.0
230
1.0
 40
0.7071067811865452
 41
5.730473271222024
 42
9.97749003306549
  0
LINE
  5
210
330
12F
100
AcDbEntity
  8
AM_4
100
AcDbLine
 10
-0.0605219071451571
 20
2.011460443071797
 30
0.0
 11
-0.0884794128974544
 21
1.979411860870285
 31
0.0
  0
LINE
  5
211
330
12F
100
AcDbEntity
  8
AM_4
100
AcDbLine
 10
0.0884794128974547
 20
1.979411860870285
 30
0.0
 11
0.0605219071451573
 21
2.011460443071797
 31
0.0
  0
ELLIPSE
  5
212
330
12F
100
AcDbEntity
  8
AM_4
100
AcDbEllipse
 10
0.0000000000000001
 20
1.985062370974384
 30
0.0
 11
-0.07110989850511332
 21
8.708450959198017E-18
 31
0.0
210
0.0
220
0.0
230
1.0
 40
0.7071067811865446
 41
3.457786458015287
 42
5.984223844621446
  0
ELLIPSE
  5
213
330
12F
100
AcDbEntity
  8
AM_4
100
AcDbEllipse
 10
0.0000000000000001
 20
1.988042064369816
 30
0.0
 11
0.06413825024007702
 21
0.0
 31
0.0
210
0.0
220
0.0
230
1.0
 40
0.7071067811865491
 41
0.0
 42
6.283185307179586
  0
ELLIPSE
  5
214
330
12F
100
AcDbEntity
  8
AM_4
100
AcDbEllipse
 10
0.0000000000000003
 20
1.985062370974385
 30
0.0
 11
-0.07110989850511294
 21
8.708450959197973E-18
 31
0.0
210
0.0
220
0.0
230
1.0
 40
0.7071067811865482
 41
5.984223844621457
 42
9.740971765194864
  0
LINE
  5
215
330
12F
100
AcDbEntity
  8
AM_4
100
AcDbLine
 10
-1.15625
 20
-1.625000000000001
 30
0.0
 11
-0.7708325625000001
 21
2.4375
 31
0.0
  0
LINE
  5
216
330
12F
100
AcDbEntity
  8
AM_4
100
AcDbLine
 10
-0.068466178704
 20
2.412615434900266
 30
0.0
 11
-0.0684661787040001
 21
2.425929485882885
 31
0.0
  0
LINE
  5
217
330
12F
100
AcDbEntity
  8
AM_4
100
AcDbLine
 10
-0.0684661787040001
 20
2.425929485882885
 30
0.0
 11
0.0684661
 21
2.425929485882885
 31
0.0
  0
LINE
  5
218
330
12F
100
AcDbEntity
  8
AM_4
100
AcDbLine
 10
0.0684661
 20
2.425929485882885
 30
0.0
 11
0.0684661
 21
2.412615434900266
 31
0.0
  0
LINE
  5
219
330
12F
100
AcDbEntity
  8
AM_4
100
AcDbLine
 10
0.0684661
 20
2.412615434900266
 30
0.0
 11
0.0509854
 21
2.412615434900266
 31
0.0
  0
LINE
  5
21A
330
12F
100
AcDbEntity
  8
AM_4
100
AcDbLine
 10
0.0509854
 20
2.412615434900266
 30
0.0
 11
0.0509854
 21
2.424063443912101
 31
0.0
  0
LINE
  5
21B
330
12F
100
AcDbEntity
  8
AM_4
100
AcDbLine
 10
0.0509854
 20
2.424063443912101
 30
0.0
 11
0.0131105
 21
2.424063443912101
 31
0.0
  0
LINE
  5
21C
330
12F
100
AcDbEntity
  8
AM_4
100
AcDbLine
 10
0.0131105
 20
2.424063443912101
 30
0.0
 11
0.0131105
 21
2.41434670303252
 31
0.0
  0
LINE
  5
21D
330
12F
100
AcDbEntity
  8
AM_4
100
AcDbLine
 10
0.0131105
 20
2.41434670303252
 30
0.0
 11
-0.0043701598402
 21
2.41434670303252
 31
0.0
  0
LINE
  5
21E
330
12F
100
AcDbEntity
  8
AM_4
100
AcDbLine
 10
-0.0043701598402
 20
2.41434670303252
 30
0.0
 11
-0.0043701598401999
 21
2.424063443912101
 31
0.0
  0
LINE
  5
21F
330
12F
100
AcDbEntity
  8
AM_4
100
AcDbLine
 10
-0.0043701598401999
 20
2.424063443912101
 30
0.0
 11
-0.050985460603
 21
2.424063443912101
 31
0.0
  0
LINE
  5
220
330
12F
100
AcDbEntity
  8
AM_4
100
AcDbLine
 10
-0.050985460603
 20
2.424063443912101
 30
0.0
 11
-0.050985460603
 21
2.412615434900266
 31
0.0
  0
LINE
  5
221
330
12F
100
AcDbEntity
  8
AM_4
100
AcDbLine
 10
-0.050985460603
 20
2.412615434900266
 30
0.0
 11
-0.068466178704
 21
2.412615434900266
 31
0.0
  0
LINE
  5
222
330
12F
100
AcDbEntity
  8
AM_4
100
AcDbLine
 10
-0.065552791304
 20
2.437245823252138
 30
0.0
 11
0.0480719999999979
 21
2.435342276452943
 31
0.0
  0
LINE
  5
223
330
12F
100
AcDbEntity
  8
AM_4
100
AcDbLine
 10
0.0480719999999989
 20
2.435342276452943
 30
0.0
 11
0.0597255999999993
 21
2.434795907855729
 31
0.0
  0
LINE
  5
224
330
12F
100
AcDbEntity
  8
AM_4
100
AcDbLine
 10
0.0597255999999996
 20
2.43479590785573
 30
0.0
 11
0.0655528000000003
 21
2.434187882092096
 31
0.0
  0
LINE
  5
225
330
12F
100
AcDbEntity
  8
AM_4
100
AcDbLine
 10
0.0655528000000001
 20
2.434187882092096
 30
0.0
 11
0.0684660999999999
 21
2.433340941265528
 31
0.0
  0
LINE
  5
226
330
12F
100
AcDbEntity
  8
AM_4
100
AcDbLine
 10
0.0684661
 20
2.433340941265527
 30
0.0
 11
0.0684661
 21
2.431573024887182
 31
0.0
  0
LINE
  5
227
330
12F
100
AcDbEntity
  8
AM_4
100
AcDbLine
 10
0.0684661000000001
 20
2.431573024887182
 30
0.0
 11
0.0655528
 21
2.430455411339817
 31
0.0
  0
LINE
  5
228
330
12F
100
AcDbEntity
  8
AM_4
100
AcDbLine
 10
0.0655528000000001
 20
2.430455411339817
 30
0.0
 11
0.0597256
 21
2.429491475529602
 31
0.0
  0
LINE
  5
229
330
12F
100
AcDbEntity
  8
AM_4
100
AcDbLine
 10
0.0597255999999999
 20
2.429491475529602
 30
0.0
 11
0.0480720000000001
 21
2.428465511614279
 31
0.0
  0
LINE
  5
22A
330
12F
100
AcDbEntity
  8
AM_4
100
AcDbLine
 10
0.0480720000000002
 20
2.428465511614279
 30
0.0
 11
0.0335046999999987
 21
2.428199285816343
 31
0.0
  0
LINE
  5
22B
330
12F
100
AcDbEntity
  8
AM_4
100
AcDbLine
 10
0.0335047
 20
2.428199285816344
 30
0.0
 11
0.0335046999999999
 21
2.42973827974208
 31
0.0
  0
LINE
  5
22C
330
12F
100
AcDbEntity
  8
AM_4
100
AcDbLine
 10
0.0335046999999973
 20
2.42973827974208
 30
0.0
 11
0.0422448999999976
 21
2.429981203008575
 31
0.0
  0
LINE
  5
22D
330
12F
100
AcDbEntity
  8
AM_4
100
AcDbLine
 10
0.0422448999999996
 20
2.429981203008575
 30
0.0
 11
0.0480720000000001
 21
2.430686698675089
 31
0.0
  0
LINE
  5
22E
330
12F
100
AcDbEntity
  8
AM_4
100
AcDbLine
 10
0.0480719999999998
 20
2.430686698675089
 30
0.0
 11
0.0509853999999997
 21
2.431573024887182
 31
0.0
  0
LINE
  5
22F
330
12F
100
AcDbEntity
  8
AM_4
100
AcDbLine
 10
0.0509854
 20
2.433340941265527
 30
0.0
 11
0.048072
 21
2.434026216463372
 31
0.0
  0
LINE
  5
230
330
12F
100
AcDbEntity
  8
AM_4
100
AcDbLine
 10
0.0480719999999999
 20
2.434026216463373
 30
0.0
 11
0.0422449
 21
2.434499585330629
 31
0.0
  0
LINE
  5
231
330
12F
100
AcDbEntity
  8
AM_4
100
AcDbLine
 10
0.0422448999999999
 20
2.434499585330629
 30
0.0
 11
0.0335046999999999
 21
2.434795907855729
 31
0.0
  0
LINE
  5
232
330
12F
100
AcDbEntity
  8
AM_4
100
AcDbLine
 10
0.0335046999999999
 20
2.434795907855728
 30
0.0
 11
-0.0218508779412
 21
2.434938283553815
 31
0.0
  0
LINE
  5
233
330
12F
100
AcDbEntity
  8
AM_4
100
AcDbLine
 10
-0.0218508779412
 20
2.434938283553815
 30
0.0
 11
-0.0335047031319008
 21
2.434795907855728
 31
0.0
  0
LINE
  5
234
330
12F
100
AcDbEntity
  8
AM_4
100
AcDbLine
 10
-0.0335047031319002
 20
2.434795907855729
 30
0.0
 11
-0.0422449047020002
 21
2.434499585330629
 31
0.0
  0
LINE
  5
235
330
12F
100
AcDbEntity
  8
AM_4
100
AcDbLine
 10
-0.0422449047020002
 20
2.434499585330628
 30
0.0
 11
-0.0480720732030002
 21
2.434026216463372
 31
0.0
  0
LINE
  5
236
330
12F
100
AcDbEntity
  8
AM_4
100
AcDbLine
 10
-0.048072073203
 20
2.434026216463372
 30
0.0
 11
-0.050985460603
 21
2.433340941265527
 31
0.0
  0
LINE
  5
237
330
12F
100
AcDbEntity
  8
AM_4
100
AcDbLine
 10
-0.0509854606030001
 20
2.431573024887182
 30
0.0
 11
-0.0480720732030002
 21
2.430686698675089
 31
0.0
  0
LINE
  5
238
330
12F
100
AcDbEntity
  8
AM_4
100
AcDbLine
 10
-0.0480720732030004
 20
2.430686698675089
 30
0.0
 11
-0.0422449047019999
 21
2.429981203008575
 31
0.0
  0
LINE
  5
239
330
12F
100
AcDbEntity
  8
AM_4
100
AcDbLine
 10
-0.042244904702
 20
2.429981203008575
 30
0.0
 11
-0.0335047031318998
 21
2.42973827974208
 31
0.0
  0
LINE
  5
23A
330
12F
100
AcDbEntity
  8
AM_4
100
AcDbLine
 10
-0.0335047031319
 20
2.42973827974208
 30
0.0
 11
-0.0101970921206
 21
2.42973827974208
 31
0.0
  0
LINE
  5
23B
330
12F
100
AcDbEntity
  8
AM_4
100
AcDbLine
 10
-0.0101970921206001
 20
2.431784942151752
 30
0.0
 11
0.00728362
 21
2.431784942151752
 31
0.0
  0
LINE
  5
23C
330
12F
100
AcDbEntity
  8
AM_4
100
AcDbLine
 10
0.00728362
 20
2.431784942151752
 30
0.0
 11
0.00728362
 21
2.428199285816344
 31
0.0
  0
LINE
  5
23D
330
12F
100
AcDbEntity
  8
AM_4
100
AcDbLine
 10
0.00728362
 20
2.428199285816344
 30
0.0
 11
-0.036418129902
 21
2.428199285816344
 31
0.0
  0
LINE
  5
23E
330
12F
100
AcDbEntity
  8
AM_4
100
AcDbLine
 10
-0.0364181299019998
 20
2.428199285816344
 30
0.0
 11
-0.0480720732029992
 21
2.428465511614279
 31
0.0
  0
LINE
  5
23F
330
12F
100
AcDbEntity
  8
AM_4
100
AcDbLine
 10
-0.0480720732029999
 20
2.428465511614279
 30
0.0
 11
-0.0597256228030002
 21
2.429491475529602
 31
0.0
  0
LINE
  5
240
330
12F
100
AcDbEntity
  8
AM_4
100
AcDbLine
 10
-0.059725622803
 20
2.429491475529602
 30
0.0
 11
-0.0655527913040001
 21
2.430455411339818
 31
0.0
  0
LINE
  5
241
330
12F
100
AcDbEntity
  8
AM_4
100
AcDbLine
 10
-0.065552791304
 20
2.430455411339818
 30
0.0
 11
-0.068466178704
 21
2.431573024887182
 31
0.0
  0
LINE
  5
242
330
12F
100
AcDbEntity
  8
AM_4
100
AcDbLine
 10
-0.068466178704
 20
2.431573024887182
 30
0.0
 11
-0.0684661787040001
 21
2.433340941265527
 31
0.0
  0
LINE
  5
243
330
12F
100
AcDbEntity
  8
AM_4
100
AcDbLine
 10
-0.0684661787040002
 20
2.433340941265527
 30
0.0
 11
-0.0655527913040004
 21
2.434187882092095
 31
0.0
  0
LINE
  5
244
330
12F
100
AcDbEntity
  8
AM_4
100
AcDbLine
 10
-0.0655527913040007
 20
2.434187882092096
 30
0.0
 11
-0.0597256228030001
 21
2.434795907855729
 31
0.0
  0
LINE
  5
245
330
12F
100
AcDbEntity
  8
AM_4
100
AcDbLine
 10
-0.059725622803
 20
2.434795907855728
 30
0.0
 11
-0.0480720732030016
 21
2.435342276452942
 31
0.0
  0
LINE
  5
246
330
12F
100
AcDbEntity
  8
AM_4
100
AcDbLine
 10
-0.0480720732030037
 20
2.435342276452942
 30
0.0
 11
0.0218509
 21
2.436526875374436
 31
0.0
  0
LINE
  5
247
330
12F
100
AcDbEntity
  8
AM_4
100
AcDbLine
 10
-0.0538988163489347
 20
2.436911364764143
 30
0.0
 11
0.0538987683457974
 21
2.436911364764143
 31
0.0
  0
LINE
  5
248
330
12F
100
AcDbEntity
  8
AM_4
100
AcDbLine
 10
0.0684660999999999
 20
2.437418800928866
 30
0.0
 11
0.0655527999999998
 21
2.437245823252138
 31
0.0
  0
LINE
  5
249
330
12F
100
AcDbEntity
  8
AM_4
100
AcDbLine
 10
0.0655527999999999
 20
2.437245823252138
 30
0.0
 11
0.0480719999999999
 21
2.436769113402212
 31
0.0
  0
LINE
  5
24A
330
12F
100
AcDbEntity
  8
AM_4
100
AcDbLine
 10
-0.0655527913040002
 20
2.437245823252137
 30
0.0
 11
-0.0684661787040001
 21
2.437418800928866
 31
0.0
  0
LINE
  5
24B
330
12F
100
AcDbEntity
  8
AM_4
100
AcDbLine
 10
0.7708325625000008
 20
2.4375
 30
0.0
 11
0.0684661
 21
2.4375
 31
0.0
  0
LINE
  5
24C
330
12F
100
AcDbEntity
  8
AM_4
100
AcDbLine
 10
-0.0684661787040001
 20
2.4375
 30
0.0
 11
-0.7708325625000002
 21
2.4375
 31
0.0
  0
LINE
  5
24D
330
12F
100
AcDbEntity
  8
AM_4
100
AcDbLine
 10
0.7708325625000008
 20
2.4375
 30
0.0
 11
1.15625
 21
-1.625
 31
0.0
  0
LINE
  5
24E
330
12F
100
AcDbEntity
  8
AM_4
100
AcDbLine
 10
1.15625
 20
-2.5
 30
0.0
 11
1.15625
 21
-1.625
 31
0.0
  0
LINE
  5
24F
330
12F
100
AcDbEntity
  8
AM_4
100
AcDbLine
 10
-0.9446950694758708
 20
0.6048988619430967
 30
0.0
 11
0.9446950694758713
 21
0.6048988619430967
 31
0.0
  0
LWPOLYLINE
  5
250
330
12F
100
AcDbEntity
  8
AM_4
100
AcDbPolyline
 90
       29
 70
     0
 43
0.0
 10
0.6719944661230483
 20
-1.625
 10
0.647212609898121
 20
-1.400164250598887
 10
0.6175050749142104
 20
-1.184615263927854
 10
0.583097953450444
 20
-0.9799934979275029
 10
0.5442531044767491
 20
-0.7878562477910968
 10
0.5012661607489768
 20
-0.6096657940078165
 10
0.4544642788651214
 20
-0.4467782735252916
 10
0.4042036494060683
 20
-0.3004333587285681
 10
0.3508667861101984
 20
-0.1717448227847237
 10
0.2948596147128721
 20
-0.0616920631565544
 10
0.2366083836064776
 20
0.028887352203496
 10
0.1765564198327897
 20
0.0993040592511927
 10
0.1151607550964932
 20
0.1490221443271309
 10
0.0528886474779473
 20
0.177663222783283
 10
-0.0097859746829443
 20
0.1850093187186416
 10
-0.0723861196675656
 20
0.1710045239074439
 10
-0.1344353625735826
 20
0.1357554232945309
 10
-0.1954614711961234
 20
0.0795302838195543
 10
-0.2549999999999986
 20
0.0027570127435872
 10
-0.3125978248306638
 20
-0.0939800989835152
 10
-0.3678165914626406
 20
-0.2099448235300431
 10
-0.4202360517398563
 20
-0.3442545993207826
 10
-0.4694572619178662
 20
-0.4958872478635068
 10
-0.5151056188666362
 20
-0.6636887531445089
 10
-0.5568337110265547
 20
-0.8463820443872822
 10
-0.5943239624201733
 20
-1.042576715332242
 10
-0.6272910495971544
 20
-1.250779606067917
 10
-0.6554840731180094
 20
-1.469406166879465
 10
-0.6719944661230475
 20
-1.625
  0
LINE
  5
251
330
12F
100
AcDbEntity
  8
AM_4
100
AcDbLine
 10
0.7974902000000004
 20
-1.625
 30
0.0
 11
0.7974902000000004
 21
-1.916666375
 31
0.0
  0
LINE
  5
252
330
12F
100
AcDbEntity
  8
AM_4
100
AcDbLine
 10
0.000000000000001
 20
-1.916666375
 30
0.0
 11
1.15625
 21
-1.916666375
 31
0.0
  0
LINE
  5
253
330
12F
100
AcDbEntity
  8
AM_4
100
AcDbLine
 10
0.9212500000000005
 20
-2.5
 30
0.0
 11
0.9212500000000007
 21
-1.916666375
 31
0.0
  0
LINE
  5
254
330
12F
100
AcDbEntity
  8
AM_4
100
AcDbLine
 10
-0.9212499999999997
 20
-1.684055100000001
 30
0.0
 11
0.0000000000000005
 21
-1.684055100000001
 31
0.0
  0
LINE
  5
255
330
12F
100
AcDbEntity
  8
AM_4
100
AcDbLine
 10
0.0000000000000005
 20
-1.684055100000001
 30
0.0
 11
0.000000000000001
 21
-1.916666375
 31
0.0
  0
LINE
  5
256
330
12F
100
AcDbEntity
  8
AM_4
100
AcDbLine
 10
0.7187500000000008
 20
-1.625
 30
0.0
 11
0.7187500000000008
 21
-1.916666375
 31
0.0
  0
LINE
  5
257
330
12F
100
AcDbEntity
  8
AM_4
100
AcDbLine
 10
-1.15625
 20
-1.625
 30
0.0
 11
1.15625
 21
-1.625
 31
0.0
  0
LWPOLYLINE
  5
258
330
12F
100
AcDbEntity
  8
AM_4
100
AcDbPolyline
 90
        9
 70
     0
 43
0.0
 10
0.0000000000000005
 20
-1.684055100000001
 10
0.001022717518109
 20
-1.683761947067262
 10
0.0438330099844426
 20
-1.671555145835807
 10
0.0865964070779575
 20
-1.659745032180071
 10
0.1299004520065524
 20
-1.64858406054754
 10
0.173029780808713
 20
-1.638780253949305
 10
0.2292209356425838
 20
-1.629062209728533
 10
0.2574380545299949
 20
-1.626098760873781
 10
0.2853142152329475
 20
-1.625
  0
LWPOLYLINE
  5
259
330
12F
100
AcDbEntity
  8
AM_4
100
AcDbPolyline
 90
       19
 70
     0
 43
0.0
 10
-0.980305100000001
 20
-1.625
 10
-0.9751581088964637
 20
-1.625224722484722
 10
-0.9700502895030625
 20
-1.625897179665089
 10
-0.9650205154095669
 20
-1.627012253735916
 10
-0.960107066233889
 20
-1.628561458310226
 10
-0.9553473362910774
 20
-1.630533003005772
 10
-0.9507775500000004
 20
-1.632911883176969
 10
-0.9464324861936456
 20
-1.635679994109309
 10
-0.9423452134312006
 20
-1.638816268807164
 10
-0.9385468383263504
 20
-1.64229683832635
 10
-0.9350662688071645
 20
-1.6460952134312
 10
-0.9319299941093091
 20
-1.650182486193645
 10
-0.9291618831769695
 20
-1.65452755
 10
-0.9267830030057718
 20
-1.659097336291077
 10
-0.9248114583102258
 20
-1.663857066233889
 10
-0.9232622537359162
 20
-1.668770515409567
 10
-0.9221471796650884
 20
-1.673800289503062
 10
-0.9214747224847218
 20
-1.678908108896463
 10
-0.9212499999999997
 20
-1.684055097844476
  0
LINE
  5
25A
330
12F
100
AcDbEntity
  8
AM_4
100
AcDbLine
 10
-1.15625
 20
-1.625
 30
0.0
 11
-1.15625
 21
-2.5
 31
0.0
  0
LINE
  5
25B
330
12F
100
AcDbEntity
  8
AM_4
100
AcDbLine
 10
-1.15625
 20
-2.5
 30
0.0
 11
1.15625
 21
-2.5
 31
0.0
  0
LINE
  5
25C
330
12F
100
AcDbEntity
  8
AM_4
100
AcDbLine
 10
-0.9212499999999997
 20
-1.684055100000001
 30
0.0
 11
-0.9212499999999997
 21
-2.5
 31
0.0
  0
ENDBLK
  5
132
330
12F
100
AcDbEntity
  8
0
100
AcDbBlockEnd
  0
ENDSEC
  0
SECTION
  2
ENTITIES
  0
INSERT
  5
6F
330
1F
100
AcDbEntity
  8
0
100
AcDbBlockReference
  2
1_129238_2
 10
0.0
 20
0.0
 30
0.0
  0
POINT
  5
25E
330
1F
100
AcDbEntity
  8
ConnectionPoints
100
AcDbPoint
 10
0.0
 20
0.0
 30
0.0
  0
POINT
  5
25F
330
1F
100
AcDbEntity
  8
ConnectionPoints
100
AcDbPoint
 10
0.703125
 20
0.0
 30
0.0
  0
POINT
  5
260
330
1F
100
AcDbEntity
  8
ConnectionPoints
100
AcDbPoint
 10
0.0
 20
0.0
 30
0.0
  0
POINT
  5
261
330
1F
100
AcDbEntity
  8
ConnectionPoints
100
AcDbPoint
 10
0.0
 20
0.0
 30
0.0
  0
ENDSEC
  0
SECTION
  2
OBJECTS
  0
DICTIONARY
  5
C
330
0
100
AcDbDictionary
281
     1
  3
ACAD_DETAILVIEWSTYLE
350
269
  3
ACAD_GROUP
350
D
  3
ACAD_LAYOUT
350
1A
  3
ACAD_MATERIAL
350
43
  3
ACAD_MLEADERSTYLE
350
6B
  3
ACAD_MLINESTYLE
350
17
  3
ACAD_PLOTSETTINGS
350
19
  3
ACAD_PLOTSTYLENAME
350
E
  3
ACAD_SCALELIST
350
47
  3
ACAD_SECTIONVIEWSTYLE
350
26A
  3
ACAD_TABLESTYLE
350
69
  3
ACAD_VISUALSTYLE
350
2A
  3
ACDB_RECOMPOSE_DATA
350
266
  3
AcDbVariableDictionary
350
262
  0
SUN
  5
6D
330
29
100
AcDbSun
 90
        1
290
     0
 63
     7
421
 16777215
 40
1.0
291
     1
 91
  2455826
 92
 54000000
292
     0
 70
     2
 71
   256
280
     1
  0
DICTIONARY
  5
269
102
{ACAD_REACTORS
330
C
102
}
330
C
100
AcDbDictionary
281
     1
  0
DICTIONARY
  5
D
102
{ACAD_REACTORS
330
C
102
}
330
C
100
AcDbDictionary
281
     1
  0
DICTIONARY
  5
1A
102
{ACAD_REACTORS
330
C
102
}
330
C
100
AcDbDictionary
281
     1
  3
Layout1
350
1E
  3
Layout2
350
26
  3
Model
350
22
  0
DICTIONARY
  5
43
102
{ACAD_REACTORS
330
C
102
}
330
C
100
AcDbDictionary
281
     1
  3
ByBlock
350
45
  3
ByLayer
350
44
  3
Global
350
46
  0
DICTIONARY
  5
6B
102
{ACAD_REACTORS
330
C
102
}
330
C
100
AcDbDictionary
281
     1
  3
Standard
350
6C
  0
DICTIONARY
  5
17
102
{ACAD_REACTORS
330
C
102
}
330
C
100
AcDbDictionary
281
     1
  3
Standard
350
18
  0
DICTIONARY
  5
19
102
{ACAD_REACTORS
330
C
102
}
330
C
100
AcDbDictionary
281
     1
  0
ACDBDICTIONARYWDFLT
  5
E
102
{ACAD_REACTORS
330
C
102
}
330
C
100
AcDbDictionary
281
     1
  3
Normal
350
F
100
AcDbDictionaryWithDefault
340
F
  0
DICTIONARY
  5
47
102
{ACAD_REACTORS
330
C
102
}
330
C
100
AcDbDictionary
281
     1
  3
A0
350
48
  3
A1
350
49
  3
A2
350
4A
  3
A3
350
4B
  3
A4
350
4C
  3
A5
350
4D
  3
A6
350
4E
  3
A7
350
4F
  3
A8
350
50
  3
A9
350
51
  3
B0
350
52
  3
B1
350
53
  3
B2
350
54
  3
B3
350
55
  3
B4
350
56
  3
B5
350
57
  3
B6
350
58
  3
B7
350
59
  3
B8
350
5A
  3
B9
350
5B
  3
C0
350
5C
  3
C1
350
5D
  3
C2
350
5E
  3
C3
350
5F
  3
C4
350
60
  3
C5
350
61
  3
C6
350
62
  3
C7
350
63
  3
C8
350
64
  3
C9
350
65
  3
D0
350
66
  3
D1
350
67
  3
D2
350
68
  0
DICTIONARY
  5
26A
102
{ACAD_REACTORS
330
C
102
}
330
C
100
AcDbDictionary
281
     1
  0
DICTIONARY
  5
69
102
{ACAD_REACTORS
330
C
102
}
330
C
100
AcDbDictionary
281
     1
  3
Standard
350
6A
  0
DICTIONARY
  5
2A
102
{ACAD_REACTORS
330
C
102
}
330
C
100
AcDbDictionary
281
     1
  3
2dWireframe
350
2F
  3
Basic
350
32
  3
Brighten
350
36
  3
ColorChange
350
3A
  3
Conceptual
350
34
  3
Dim
350
35
  3
EdgeColorOff
350
3D
  3
Facepattern
350
39
  3
Flat
350
2B
  3
FlatWithEdges
350
2C
  3
Gouraud
350
2D
  3
GouraudWithEdges
350
2E
  3
Hidden
350
31
  3
JitterOff
350
3B
  3
Linepattern
350
38
  3
OverhangOff
350
3C
  3
Realistic
350
33
  3
Shaded
350
42
  3
Shaded with edges
350
41
  3
Shades of Gray
350
3E
  3
Sketchy
350
3F
  3
Thicken
350
37
  3
Wireframe
350
30
  3
X-Ray
350
40
  0
XRECORD
  5
266
102
{ACAD_REACTORS
330
C
102
}
330
C
100
AcDbXrecord
280
     1
 90
        1
330
6A
  0
DICTIONARY
  5
262
102
{ACAD_REACTORS
330
C
102
}
330
C
100
AcDbDictionary
281
     1
  3
CANNOSCALE
350
263
  3
CMLEADERSTYLE
350
268
  3
CTABLESTYLE
350
267
  0
LAYOUT
  5
1E
102
{ACAD_REACTORS
330
1A
102
}
330
1A
100
AcDbPlotSettings
  1

  2
none_device
  4

  6

 40
0.0
 41
0.0
 42
0.0
 43
0.0
 44
0.0
 45
0.0
 46
0.0
 47
0.0
 48
0.0
 49
0.0
140
0.0
141
0.0
142
1.0
143
1.0
 70
   688
 72
     0
 73
     0
 74
     5
  7

 75
    16
 76
     0
 77
     2
 78
   300
147
1.0
148
0.0
149
0.0
100
AcDbLayout
  1
Layout1
 70
     1
 71
     1
 10
0.0
 20
0.0
 11
12.0
 21
9.0
 12
0.0
 22
0.0
 32
0.0
 14
1.000000000000000E+20
 24
1.000000000000000E+20
 34
1.000000000000000E+20
 15
-1.000000000000000E+20
 25
-1.000000000000000E+20
 35
-1.000000000000000E+20
146
0.0
 13
0.0
 23
0.0
 33
0.0
 16
1.0
 26
0.0
 36
0.0
 17
0.0
 27
1.0
 37
0.0
 76
     0
330
1B
  0
LAYOUT
  5
26
102
{ACAD_REACTORS
330
1A
102
}
330
1A
100
AcDbPlotSettings
  1

  2
none_device
  4

  6

 40
0.0
 41
0.0
 42
0.0
 43
0.0
 44
0.0
 45
0.0
 46
0.0
 47
0.0
 48
0.0
 49
0.0
140
0.0
141
0.0
142
1.0
143
1.0
 70
   688
 72
     0
 73
     0
 74
     5
  7

 75
    16
 76
     0
 77
     2
 78
   300
147
1.0
148
0.0
149
0.0
100
AcDbLayout
  1
Layout2
 70
     1
 71
     2
 10
0.0
 20
0.0
 11
0.0
 21
0.0
 12
0.0
 22
0.0
 32
0.0
 14
0.0
 24
0.0
 34
0.0
 15
0.0
 25
0.0
 35
0.0
146
0.0
 13
0.0
 23
0.0
 33
0.0
 16
1.0
 26
0.0
 36
0.0
 17
0.0
 27
1.0
 37
0.0
 76
     0
330
23
  0
LAYOUT
  5
22
102
{ACAD_REACTORS
330
1A
102
}
330
1A
100
AcDbPlotSettings
  1

  2
none_device
  4
Letter_(8.50_x_11.00_Inches)
  6

 40
6.35
 41
6.35
 42
6.35000508
 43
6.35000508
 44
215.9
 45
279.4
 46
0.0
 47
0.0
 48
0.0
 49
0.0
140
0.0
141
0.0
142
1.0
143
1.0
 70
  1712
 72
     0
 73
     0
 74
     0
  7

 75
     0
 76
     0
 77
     2
 78
   300
147
1.0
148
0.0
149
0.0
100
AcDbLayout
  1
Model
 70
     1
 71
     0
 10
0.0
 20
0.0
 11
12.0
 21
9.0
 12
0.0
 22
0.0
 32
0.0
 14
1.000000000000000E+20
 24
1.000000000000000E+20
 34
1.000000000000000E+20
 15
-1.000000000000000E+20
 25
-1.000000000000000E+20
 35
-1.000000000000000E+20
146
0.0
 13
0.0
 23
0.0
 33
0.0
 16
1.0
 26
0.0
 36
0.0
 17
0.0
 27
1.0
 37
0.0
 76
     0
330
1F
331
29
  0
MATERIAL
  5
45
102
{ACAD_REACTORS
330
43
102
}
330
43
100
AcDbMaterial
  1
ByBlock
 72
     1
 94
      127
  0
MATERIAL
  5
44
102
{ACAD_REACTORS
330
43
102
}
330
43
100
AcDbMaterial
  1
ByLayer
 72
     1
 94
      127
  0
MATERIAL
  5
46
102
{ACAD_REACTORS
330
43
102
}
330
43
100
AcDbMaterial
  1
Global
 72
     1
 94
      127
  0
MLEADERSTYLE
  5
6C
102
{ACAD_REACTORS
330
6B
102
}
330
6B
100
AcDbMLeaderStyle
179
     2
170
     2
171
     1
172
     0
 90
        2
 40
0.0
 41
0.0
173
     1
 91
-1056964608
340
14
 92
       -2
290
     1
 42
0.09
291
     1
 43
0.36
  3
Standard
341
0
 44
0.18
300

342
11
174
     1
178
     6
175
     1
176
     0
 93
-1056964608
 45
0.18
292
     0
297
     0
 46
0.18
343
0
 94
-1056964608
 47
1.0
 49
1.0
140
1.0
293
     1
141
0.0
294
     1
177
     0
142
1.0
295
     0
296
     0
143
0.125
271
     0
272
     9
273
     9
298
     0
  0
MLINESTYLE
  5
18
102
{ACAD_REACTORS
330
17
102
}
330
17
100
AcDbMlineStyle
  2
Standard
 70
     0
  3

 62
   256
 51
90.0
 52
90.0
 71
     2
 49
0.5
 62
   256
  6
BYLAYER
 49
-0.5
 62
   256
  6
BYLAYER
  0
ACDBPLACEHOLDER
  5
F
102
{ACAD_REACTORS
330
E
102
}
330
E
  0
SCALE
  5
48
102
{ACAD_REACTORS
330
47
102
}
330
47
100
AcDbScale
 70
     0
300
1:1
140
1.0
141
1.0
290
     1
  0
SCALE
  5
49
102
{ACAD_REACTORS
330
47
102
}
330
47
100
AcDbScale
 70
     0
300
1:2
140
1.0
141
2.0
290
     0
  0
SCALE
  5
4A
102
{ACAD_REACTORS
330
47
102
}
330
47
100
AcDbScale
 70
     0
300
1:4
140
1.0
141
4.0
290
     0
  0
SCALE
  5
4B
102
{ACAD_REACTORS
330
47
102
}
330
47
100
AcDbScale
 70
     0
300
1:5
140
1.0
141
5.0
290
     0
  0
SCALE
  5
4C
102
{ACAD_REACTORS
330
47
102
}
330
47
100
AcDbScale
 70
     0
300
1:8
140
1.0
141
8.0
290
     0
  0
SCALE
  5
4D
102
{ACAD_REACTORS
330
47
102
}
330
47
100
AcDbScale
 70
     0
300
1:10
140
1.0
141
10.0
290
     0
  0
SCALE
  5
4E
102
{ACAD_REACTORS
330
47
102
}
330
47
100
AcDbScale
 70
     0
300
1:16
140
1.0
141
16.0
290
     0
  0
SCALE
  5
4F
102
{ACAD_REACTORS
330
47
102
}
330
47
100
AcDbScale
 70
     0
300
1:20
140
1.0
141
20.0
290
     0
  0
SCALE
  5
50
102
{ACAD_REACTORS
330
47
102
}
330
47
100
AcDbScale
 70
     0
300
1:30
140
1.0
141
30.0
290
     0
  0
SCALE
  5
51
102
{ACAD_REACTORS
330
47
102
}
330
47
100
AcDbScale
 70
     0
300
1:40
140
1.0
141
40.0
290
     0
  0
SCALE
  5
52
102
{ACAD_REACTORS
330
47
102
}
330
47
100
AcDbScale
 70
     0
300
1:50
140
1.0
141
50.0
290
     0
  0
SCALE
  5
53
102
{ACAD_REACTORS
330
47
102
}
330
47
100
AcDbScale
 70
     0
300
1:100
140
1.0
141
100.0
290
     0
  0
SCALE
  5
54
102
{ACAD_REACTORS
330
47
102
}
330
47
100
AcDbScale
 70
     0
300
2:1
140
2.0
141
1.0
290
     0
  0
SCALE
  5
55
102
{ACAD_REACTORS
330
47
102
}
330
47
100
AcDbScale
 70
     0
300
4:1
140
4.0
141
1.0
290
     0
  0
SCALE
  5
56
102
{ACAD_REACTORS
330
47
102
}
330
47
100
AcDbScale
 70
     0
300
8:1
140
8.0
141
1.0
290
     0
  0
SCALE
  5
57
102
{ACAD_REACTORS
330
47
102
}
330
47
100
AcDbScale
 70
     0
300
10:1
140
10.0
141
1.0
290
     0
  0
SCALE
  5
58
102
{ACAD_REACTORS
330
47
102
}
330
47
100
AcDbScale
 70
     0
300
100:1
140
100.0
141
1.0
290
     0
  0
SCALE
  5
59
102
{ACAD_REACTORS
330
47
102
}
330
47
100
AcDbScale
 70
     0
300
1/128" = 1'-0"
140
0.0078125
141
12.0
290
     0
  0
SCALE
  5
5A
102
{ACAD_REACTORS
330
47
102
}
330
47
100
AcDbScale
 70
     0
300
1/64" = 1'-0"
140
0.015625
141
12.0
290
     0
  0
SCALE
  5
5B
102
{ACAD_REACTORS
330
47
102
}
330
47
100
AcDbScale
 70
     0
300
1/32" = 1'-0"
140
0.03125
141
12.0
290
     0
  0
SCALE
  5
5C
102
{ACAD_REACTORS
330
47
102
}
330
47
100
AcDbScale
 70
     0
300
1/16" = 1'-0"
140
0.0625
141
12.0
290
     0
  0
SCALE
  5
5D
102
{ACAD_REACTORS
330
47
102
}
330
47
100
AcDbScale
 70
     0
300
3/32" = 1'-0"
140
0.09375
141
12.0
290
     0
  0
SCALE
  5
5E
102
{ACAD_REACTORS
330
47
102
}
330
47
100
AcDbScale
 70
     0
300
1/8" = 1'-0"
140
0.125
141
12.0
290
     0
  0
SCALE
  5
5F
102
{ACAD_REACTORS
330
47
102
}
330
47
100
AcDbScale
 70
     0
300
3/16" = 1'-0"
140
0.1875
141
12.0
290
     0
  0
SCALE
  5
60
102
{ACAD_REACTORS
330
47
102
}
330
47
100
AcDbScale
 70
     0
300
1/4" = 1'-0"
140
0.25
141
12.0
290
     0
  0
SCALE
  5
61
102
{ACAD_REACTORS
330
47
102
}
330
47
100
AcDbScale
 70
     0
300
3/8" = 1'-0"
140
0.375
141
12.0
290
     0
  0
SCALE
  5
62
102
{ACAD_REACTORS
330
47
102
}
330
47
100
AcDbScale
 70
     0
300
1/2" = 1'-0"
140
0.5
141
12.0
290
     0
  0
SCALE
  5
63
102
{ACAD_REACTORS
330
47
102
}
330
47
100
AcDbScale
 70
     0
300
3/4" = 1'-0"
140
0.75
141
12.0
290
     0
  0
SCALE
  5
64
102
{ACAD_REACTORS
330
47
102
}
330
47
100
AcDbScale
 70
     0
300
1" = 1'-0"
140
1.0
141
12.0
290
     0
  0
SCALE
  5
65
102
{ACAD_REACTORS
330
47
102
}
330
47
100
AcDbScale
 70
     0
300
1-1/2" = 1'-0"
140
1.5
141
12.0
290
     0
  0
SCALE
  5
66
102
{ACAD_REACTORS
330
47
102
}
330
47
100
AcDbScale
 70
     0
300
3" = 1'-0"
140
3.0
141
12.0
290
     0
  0
SCALE
  5
67
102
{ACAD_REACTORS
330
47
102
}
330
47
100
AcDbScale
 70
     0
300
6" = 1'-0"
140
6.0
141
12.0
290
     0
  0
SCALE
  5
68
102
{ACAD_REACTORS
330
47
102
}
330
47
100
AcDbScale
 70
     0
300
1'-0" = 1'-0"
140
12.0
141
12.0
290
     0
  0
TABLESTYLE
  5
6A
102
{ACAD_REACTORS
330
69
102
}
102
{ACAD_XDICTIONARY
360
264
102
}
330
69
100
AcDbTableStyle
  3
Standard
 70
     0
 71
     0
 40
0.06
 41
0.06
280
     0
281
     0
  7
Standard
140
0.18
170
     2
 62
     0
 63
   257
283
     0
 90
        4
 91
        0
  1

274
    -2
284
     1
 64
     0
275
    -2
285
     1
 65
     0
276
    -2
286
     1
 66
     0
277
    -2
287
     1
 67
     0
278
    -2
288
     1
 68
     0
279
    -2
289
     1
 69
     0
  7
Standard
140
0.25
170
     5
 62
     0
 63
   257
283
     0
 90
        4
 91
        0
  1

274
    -2
284
     1
 64
     0
275
    -2
285
     1
 65
     0
276
    -2
286
     1
 66
     0
277
    -2
287
     1
 67
     0
278
    -2
288
     1
 68
     0
279
    -2
289
     1
 69
     0
  7
Standard
140
0.18
170
     5
 62
     0
 63
   257
283
     0
 90
        4
 91
        0
  1

274
    -2
284
     1
 64
     0
275
    -2
285
     1
 65
     0
276
    -2
286
     1
 66
     0
277
    -2
287
     1
 67
     0
278
    -2
288
     1
 68
     0
279
    -2
289
     1
 69
     0
  0
VISUALSTYLE
  5
2F
102
{ACAD_REACTORS
330
2A
102
}
330
2A
100
AcDbVisualStyle
  2
2dWireframe
 70
     4
177
     3
291
     0
 70
    58
 90
        0
176
     1
 90
        2
176
     1
 90
        0
176
     1
 90
        0
176
     1
 40
0.6
176
     1
 40
30.0
176
     1
 62
     7
420
 16777215
176
     1
 90
        1
176
     1
 90
        4
176
     1
 62
     7
176
     1
 62
   257
176
     1
 90
        1
176
     1
 90
        1
176
     1
 40
1.0
176
     1
 90
        0
176
     1
 62
   257
176
     1
 40
1.0
176
     1
 90
        1
176
     1
 90
        6
176
     1
 90
        2
176
     1
 62
     7
176
     1
 90
        5
176
     1
 90
        0
176
     1
 90
        0
176
     1
290
     0
176
     1
 90
        1
176
     1
 40
0.0
176
     1
 90
        0
176
     1
290
     1
176
     1
290
     1
176
     1
290
     0
176
     1
290
     0
176
     1
290
     0
176
     1
290
     0
176
     1
290
     0
176
     1
290
     0
176
     1
290
     0
176
     1
 90
       50
176
     1
 40
0.0
176
     1
 40
1.0
176
     1
 90
        0
176
     1
 62
    18
420
        0
176
     1
 90
       50
176
     1
 90
        3
176
     1
 62
     5
420
      255
176
     1
290
     0
176
     1
 90
       50
176
     1
 90
       50
176
     1
 90
       50
176
     1
290
     0
176
     1
 90
       50
176
     1
 62
   256
176
     0
 40
1.0
176
     0
 90
        2
176
     1
  1
strokes_ogs.tif
176
     1
290
     0
176
     1
 40
1.0
176
     1
 40
1.0
176
     1
  0
VISUALSTYLE
  5
32
102
{ACAD_REACTORS
330
2A
102
}
330
2A
100
AcDbVisualStyle
  2
Basic
 70
     7
177
     3
291
     1
 70
    58
 90
        1
176
     1
 90
        0
176
     1
 90
        1
176
     1
 90
        0
176
     1
 40
0.6
176
     1
 40
30.0
176
     1
 62
     7
420
 16777215
176
     1
 90
        0
176
     1
 90
        4
176
     1
 62
     7
176
     1
 62
   257
176
     1
 90
        1
176
     1
 90
        1
176
     1
 40
1.0
176
     1
 90
        8
176
     1
 62
     7
176
     1
 40
1.0
176
     1
 90
        1
176
     1
 90
        6
176
     1
 90
        2
176
     1
 62
     7
176
     1
 90
        5
176
     1
 90
        0
176
     1
 90
        0
176
     1
290
     0
176
     1
 90
        1
176
     1
 40
0.0
176
     1
 90
        0
176
     1
290
     0
176
     1
290
     1
176
     1
290
     1
176
     1
290
     0
176
     1
290
     0
176
     1
290
     0
176
     1
290
     0
176
     1
290
     0
176
     1
290
     0
176
     1
 90
       50
176
     1
 40
0.0
176
     1
 40
1.0
176
     1
 90
        0
176
     1
 62
    18
420
        0
176
     1
 90
       50
176
     1
 90
        3
176
     1
 62
     5
420
      255
176
     1
290
     0
176
     1
 90
       50
176
     1
 90
       50
176
     1
 90
       50
176
     1
290
     0
176
     1
 90
       50
176
     1
 62
   256
176
     0
 40
1.0
176
     0
 90
        2
176
     1
  1
strokes_ogs.tif
176
     1
290
     0
176
     1
 40
1.0
176
     1
 40
1.0
176
     1
  0
VISUALSTYLE
  5
36
102
{ACAD_REACTORS
330
2A
102
}
330
2A
100
AcDbVisualStyle
  2
Brighten
 70
    12
177
     3
291
     1
 70
    58
 90
        2
176
     1
 90
        2
176
     1
 90
        0
176
     1
 90
        0
176
     1
 40
0.6
176
     1
 40
30.0
176
     1
 62
     7
420
 16777215
176
     1
 90
        1
176
     1
 90
        4
176
     1
 62
     7
176
     1
 62
   257
176
     1
 90
        1
176
     1
 90
        1
176
     1
 40
1.0
176
     1
 90
        8
176
     1
 62
     7
176
     1
 40
1.0
176
     1
 90
        1
176
     1
 90
        6
176
     1
 90
        2
176
     1
 62
     7
176
     1
 90
        5
176
     1
 90
        0
176
     1
 90
        0
176
     1
290
     0
176
     1
 90
        1
176
     1
 40
50.0
176
     1
 90
        0
176
     1
290
     0
176
     1
290
     1
176
     1
290
     1
176
     1
290
     0
176
     1
290
     0
176
     1
290
     0
176
     1
290
     0
176
     1
290
     0
176
     1
290
     0
176
     1
 90
       50
176
     1
 40
0.0
176
     1
 40
1.0
176
     1
 90
        0
176
     1
 62
    18
420
        0
176
     1
 90
       50
176
     1
 90
        3
176
     1
 62
     5
420
      255
176
     1
290
     0
176
     1
 90
       50
176
     1
 90
       50
176
     1
 90
       50
176
     1
290
     0
176
     1
 90
       50
176
     1
 62
   256
176
     0
 40
1.0
176
     0
 90
        2
176
     1
  1
strokes_ogs.tif
176
     1
290
     0
176
     1
 40
1.0
176
     1
 40
1.0
176
     1
  0
VISUALSTYLE
  5
3A
102
{ACAD_REACTORS
330
2A
102
}
330
2A
100
AcDbVisualStyle
  2
ColorChange
 70
    16
177
     3
291
     1
 70
    58
 90
        2
176
     1
 90
        2
176
     1
 90
        3
176
     1
 90
        0
176
     1
 40
0.6
176
     1
 40
30.0
176
     1
 62
     8
420
  8421504
176
     1
 90
        1
176
     1
 90
        4
176
     1
 62
     7
176
     1
 62
   257
176
     1
 90
        1
176
     1
 90
        1
176
     1
 40
1.0
176
     1
 90
        8
176
     1
 62
     8
420
  8421504
176
     1
 40
1.0
176
     1
 90
        1
176
     1
 90
        6
176
     1
 90
        2
176
     1
 62
     7
176
     1
 90
        5
176
     1
 90
        0
176
     1
 90
        0
176
     1
290
     0
176
     1
 90
        1
176
     1
 40
0.0
176
     1
 90
        0
176
     1
290
     0
176
     1
290
     1
176
     1
290
     1
176
     1
290
     0
176
     1
290
     0
176
     1
290
     0
176
     1
290
     0
176
     1
290
     0
176
     1
290
     0
176
     1
 90
       50
176
     1
 40
0.0
176
     1
 40
1.0
176
     1
 90
        0
176
     1
 62
    18
420
        0
176
     1
 90
       50
176
     1
 90
        3
176
     1
 62
     5
420
      255
176
     1
290
     0
176
     1
 90
       50
176
     1
 90
       50
176
     1
 90
       50
176
     1
290
     0
176
     1
 90
       50
176
     1
 62
   256
176
     0
 40
1.0
176
     0
 90
        2
176
     1
  1
strokes_ogs.tif
176
     1
290
     0
176
     1
 40
1.0
176
     1
 40
1.0
176
     1
  0
VISUALSTYLE
  5
34
102
{ACAD_REACTORS
330
2A
102
}
330
2A
100
AcDbVisualStyle
  2
Conceptual
 70
     9
177
     3
291
     0
 70
    58
 90
        3
176
     1
 90
        2
176
     1
 90
        0
176
     1
 90
        0
176
     1
 40
0.6
176
     1
 40
30.0
176
     1
 62
     7
420
 16777215
176
     1
 90
        2
176
     1
 90
        2
176
     1
 62
     7
176
     1
 62
   257
176
     1
 90
        1
176
     1
 90
        1
176
     1
 40
179.0
176
     1
 90
        8
176
     1
 62
     7
176
     1
 40
1.0
176
     1
 90
        1
176
     1
 90
        6
176
     1
 90
        2
176
     1
 62
     7
176
     1
 90
        3
176
     1
 90
        0
176
     1
 90
        0
176
     1
290
     0
176
     1
 90
        1
176
     1
 40
0.0
176
     1
 90
        0
176
     1
290
     0
176
     1
290
     1
176
     1
290
     1
176
     1
290
     0
176
     1
290
     0
176
     1
290
     0
176
     1
290
     0
176
     1
290
     0
176
     1
290
     0
176
     1
 90
       50
176
     1
 40
0.0
176
     1
 40
1.0
176
     1
 90
        0
176
     1
 62
    18
420
        0
176
     1
 90
       50
176
     1
 90
        3
176
     1
 62
     5
420
      255
176
     1
290
     0
176
     1
 90
       50
176
     1
 90
       50
176
     1
 90
       50
176
     1
290
     0
176
     1
 90
       50
176
     1
 62
   256
176
     0
 40
1.0
176
     0
 90
        2
176
     1
  1
strokes_ogs.tif
176
     1
290
     0
176
     1
 40
1.0
176
     1
 40
1.0
176
     1
  0
VISUALSTYLE
  5
35
102
{ACAD_REACTORS
330
2A
102
}
330
2A
100
AcDbVisualStyle
  2
Dim
 70
    11
177
     3
291
     1
 70
    58
 90
        2
176
     1
 90
        2
176
     1
 90
        0
176
     1
 90
        0
176
     1
 40
0.6
176
     1
 40
30.0
176
     1
 62
     7
420
 16777215
176
     1
 90
        1
176
     1
 90
        4
176
     1
 62
     7
176
     1
 62
   257
176
     1
 90
        1
176
     1
 90
        1
176
     1
 40
1.0
176
     1
 90
        8
176
     1
 62
     7
176
     1
 40
1.0
176
     1
 90
        1
176
     1
 90
        6
176
     1
 90
        2
176
     1
 62
     7
176
     1
 90
        5
176
     1
 90
        0
176
     1
 90
        0
176
     1
290
     0
176
     1
 90
        1
176
     1
 40
-50.0
176
     1
 90
        0
176
     1
290
     0
176
     1
290
     1
176
     1
290
     1
176
     1
290
     0
176
     1
290
     0
176
     1
290
     0
176
     1
290
     0
176
     1
290
     0
176
     1
290
     0
176
     1
 90
       50
176
     1
 40
0.0
176
     1
 40
1.0
176
     1
 90
        0
176
     1
 62
    18
420
        0
176
     1
 90
       50
176
     1
 90
        3
176
     1
 62
     5
420
      255
176
     1
290
     0
176
     1
 90
       50
176
     1
 90
       50
176
     1
 90
       50
176
     1
290
     0
176
     1
 90
       50
176
     1
 62
   256
176
     0
 40
1.0
176
     0
 90
        2
176
     1
  1
strokes_ogs.tif
176
     1
290
     0
176
     1
 40
1.0
176
     1
 40
1.0
176
     1
  0
VISUALSTYLE
  5
3D
102
{ACAD_REACTORS
330
2A
102
}
330
2A
100
AcDbVisualStyle
  2
EdgeColorOff
 70
    22
177
     3
291
     1
 70
    58
 90
        2
176
     0
 90
        2
176
     0
 90
        0
176
     0
 90
        0
176
     0
 40
0.6
176
     0
 40
30.0
176
     0
 62
     7
420
 16777215
176
     0
 90
        1
176
     0
 90
        4
176
     0
 62
     7
176
     0
 62
   257
176
     0
 90
        1
176
     0
 90
        1
176
     0
 40
1.0
176
     0
 90
        8
176
     2
 62
     7
176
     0
 40
1.0
176
     0
 90
        1
176
     0
 90
        6
176
     0
 90
        2
176
     0
 62
     7
176
     0
 90
        5
176
     0
 90
        0
176
     0
 90
        0
176
     0
290
     0
176
     0
 90
        1
176
     0
 40
0.0
176
     0
 90
        0
176
     0
290
     0
176
     0
290
     1
176
     0
290
     1
176
     0
290
     0
176
     0
290
     0
176
     0
290
     0
176
     0
290
     0
176
     0
290
     0
176
     0
290
     0
176
     0
 90
       50
176
     0
 40
0.0
176
     0
 40
1.0
176
     0
 90
        0
176
     0
 62
    18
420
        0
176
     0
 90
       50
176
     0
 90
        3
176
     0
 62
     5
420
      255
176
     0
290
     0
176
     0
 90
       50
176
     0
 90
       50
176
     0
 90
       50
176
     0
290
     0
176
     0
 90
       50
176
     0
 62
   256
176
     0
 40
1.0
176
     0
 90
        2
176
     0
  1
strokes_ogs.tif
176
     0
290
     0
176
     0
 40
1.0
176
     0
 40
1.0
176
     0
  0
VISUALSTYLE
  5
39
102
{ACAD_REACTORS
330
2A
102
}
330
2A
100
AcDbVisualStyle
  2
Facepattern
 70
    15
177
     3
291
     1
 70
    58
 90
        2
176
     1
 90
        2
176
     1
 90
        0
176
     1
 90
        0
176
     1
 40
0.6
176
     1
 40
30.0
176
     1
 62
     7
420
 16777215
176
     1
 90
        1
176
     1
 90
        4
176
     1
 62
     7
176
     1
 62
   257
176
     1
 90
        1
176
     1
 90
        1
176
     1
 40
1.0
176
     1
 90
        8
176
     1
 62
     7
176
     1
 40
1.0
176
     1
 90
        1
176
     1
 90
        6
176
     1
 90
        2
176
     1
 62
     7
176
     1
 90
        5
176
     1
 90
        0
176
     1
 90
        0
176
     1
290
     0
176
     1
 90
        1
176
     1
 40
0.0
176
     1
 90
        0
176
     1
290
     0
176
     1
290
     1
176
     1
290
     1
176
     1
290
     0
176
     1
290
     0
176
     1
290
     0
176
     1
290
     0
176
     1
290
     0
176
     1
290
     0
176
     1
 90
       50
176
     1
 40
0.0
176
     1
 40
1.0
176
     1
 90
        0
176
     1
 62
    18
420
        0
176
     1
 90
       50
176
     1
 90
        3
176
     1
 62
     5
420
      255
176
     1
290
     0
176
     1
 90
       50
176
     1
 90
       50
176
     1
 90
       50
176
     1
290
     0
176
     1
 90
       50
176
     1
 62
   256
176
     0
 40
1.0
176
     0
 90
        2
176
     1
  1
strokes_ogs.tif
176
     1
290
     0
176
     1
 40
1.0
176
     1
 40
1.0
176
     1
  0
VISUALSTYLE
  5
2B
102
{ACAD_REACTORS
330
2A
102
}
330
2A
100
AcDbVisualStyle
  2
Flat
 70
     0
177
     3
291
     1
 70
    58
 90
        2
176
     1
 90
        1
176
     1
 90
        1
176
     1
 90
        2
176
     1
 40
0.6
176
     1
 40
30.0
176
     1
 62
     7
420
 16777215
176
     1
 90
        0
176
     1
 90
        0
176
     1
 62
     7
176
     1
 62
   257
176
     1
 90
        1
176
     1
 90
        1
176
     1
 40
1.0
176
     1
 90
        8
176
     1
 62
     7
176
     1
 40
1.0
176
     1
 90
        1
176
     1
 90
        6
176
     1
 90
        2
176
     1
 62
     7
176
     1
 90
        5
176
     1
 90
        0
176
     1
 90
        0
176
     1
290
     0
176
     1
 90
       13
176
     1
 40
0.0
176
     1
 90
        0
176
     1
290
     0
176
     1
290
     1
176
     1
290
     1
176
     1
290
     0
176
     1
290
     0
176
     1
290
     0
176
     1
290
     0
176
     1
290
     0
176
     1
290
     0
176
     1
 90
       50
176
     1
 40
0.0
176
     1
 40
1.0
176
     1
 90
        0
176
     1
 62
    18
420
        0
176
     1
 90
       50
176
     1
 90
        3
176
     1
 62
     5
420
      255
176
     1
290
     0
176
     1
 90
       50
176
     1
 90
       50
176
     1
 90
       50
176
     1
290
     0
176
     1
 90
       50
176
     1
 62
   256
176
     0
 40
1.0
176
     0
 90
        2
176
     1
  1
strokes_ogs.tif
176
     1
290
     0
176
     1
 40
1.0
176
     1
 40
1.0
176
     1
  0
VISUALSTYLE
  5
2C
102
{ACAD_REACTORS
330
2A
102
}
330
2A
100
AcDbVisualStyle
  2
FlatWithEdges
 70
     1
177
     3
291
     1
 70
    58
 90
        2
176
     1
 90
        1
176
     1
 90
        1
176
     1
 90
        2
176
     1
 40
0.6
176
     1
 40
30.0
176
     1
 62
     7
420
 16777215
176
     1
 90
        1
176
     1
 90
        0
176
     1
 62
     7
176
     1
 62
   257
176
     1
 90
        1
176
     1
 90
        1
176
     1
 40
1.0
176
     1
 90
        0
176
     1
 62
   257
176
     1
 40
1.0
176
     1
 90
        1
176
     1
 90
        6
176
     1
 90
        2
176
     1
 62
     7
176
     1
 90
        5
176
     1
 90
        0
176
     1
 90
        0
176
     1
290
     0
176
     1
 90
       13
176
     1
 40
0.0
176
     1
 90
        0
176
     1
290
     0
176
     1
290
     1
176
     1
290
     1
176
     1
290
     0
176
     1
290
     0
176
     1
290
     0
176
     1
290
     0
176
     1
290
     0
176
     1
290
     0
176
     1
 90
       50
176
     1
 40
0.0
176
     1
 40
1.0
176
     1
 90
        0
176
     1
 62
    18
420
        0
176
     1
 90
       50
176
     1
 90
        3
176
     1
 62
     5
420
      255
176
     1
290
     0
176
     1
 90
       50
176
     1
 90
       50
176
     1
 90
       50
176
     1
290
     0
176
     1
 90
       50
176
     1
 62
   256
176
     0
 40
1.0
176
     0
 90
        2
176
     1
  1
strokes_ogs.tif
176
     1
290
     0
176
     1
 40
1.0
176
     1
 40
1.0
176
     1
  0
VISUALSTYLE
  5
2D
102
{ACAD_REACTORS
330
2A
102
}
330
2A
100
AcDbVisualStyle
  2
Gouraud
 70
     2
177
     3
291
     1
 70
    58
 90
        2
176
     1
 90
        2
176
     1
 90
        1
176
     1
 90
        2
176
     1
 40
0.6
176
     1
 40
30.0
176
     1
 62
     7
420
 16777215
176
     1
 90
        0
176
     1
 90
        0
176
     1
 62
     7
176
     1
 62
   257
176
     1
 90
        1
176
     1
 90
        1
176
     1
 40
1.0
176
     1
 90
        0
176
     1
 62
     7
176
     1
 40
1.0
176
     1
 90
        1
176
     1
 90
        6
176
     1
 90
        2
176
     1
 62
     7
176
     1
 90
        5
176
     1
 90
        0
176
     1
 90
        0
176
     1
290
     0
176
     1
 90
       13
176
     1
 40
0.0
176
     1
 90
        0
176
     1
290
     0
176
     1
290
     1
176
     1
290
     1
176
     1
290
     0
176
     1
290
     0
176
     1
290
     0
176
     1
290
     0
176
     1
290
     0
176
     1
290
     0
176
     1
 90
       50
176
     1
 40
0.0
176
     1
 40
1.0
176
     1
 90
        0
176
     1
 62
    18
420
        0
176
     1
 90
       50
176
     1
 90
        3
176
     1
 62
     5
420
      255
176
     1
290
     0
176
     1
 90
       50
176
     1
 90
       50
176
     1
 90
       50
176
     1
290
     0
176
     1
 90
       50
176
     1
 62
   256
176
     0
 40
1.0
176
     0
 90
        2
176
     1
  1
strokes_ogs.tif
176
     1
290
     0
176
     1
 40
1.0
176
     1
 40
1.0
176
     1
  0
VISUALSTYLE
  5
2E
102
{ACAD_REACTORS
330
2A
102
}
330
2A
100
AcDbVisualStyle
  2
GouraudWithEdges
 70
     3
177
     3
291
     1
 70
    58
 90
        2
176
     1
 90
        2
176
     1
 90
        1
176
     1
 90
        2
176
     1
 40
0.6
176
     1
 40
30.0
176
     1
 62
     7
420
 16777215
176
     1
 90
        1
176
     1
 90
        0
176
     1
 62
     7
176
     1
 62
   257
176
     1
 90
        1
176
     1
 90
        1
176
     1
 40
1.0
176
     1
 90
        0
176
     1
 62
   257
176
     1
 40
1.0
176
     1
 90
        1
176
     1
 90
        6
176
     1
 90
        2
176
     1
 62
     7
176
     1
 90
        5
176
     1
 90
        0
176
     1
 90
        0
176
     1
290
     0
176
     1
 90
       13
176
     1
 40
0.0
176
     1
 90
        0
176
     1
290
     0
176
     1
290
     1
176
     1
290
     1
176
     1
290
     0
176
     1
290
     0
176
     1
290
     0
176
     1
290
     0
176
     1
290
     0
176
     1
290
     0
176
     1
 90
       50
176
     1
 40
0.0
176
     1
 40
1.0
176
     1
 90
        0
176
     1
 62
    18
420
        0
176
     1
 90
       50
176
     1
 90
        3
176
     1
 62
     5
420
      255
176
     1
290
     0
176
     1
 90
       50
176
     1
 90
       50
176
     1
 90
       50
176
     1
290
     0
176
     1
 90
       50
176
     1
 62
   256
176
     0
 40
1.0
176
     0
 90
        2
176
     1
  1
strokes_ogs.tif
176
     1
290
     0
176
     1
 40
1.0
176
     1
 40
1.0
176
     1
  0
VISUALSTYLE
  5
31
102
{ACAD_REACTORS
330
2A
102
}
330
2A
100
AcDbVisualStyle
  2
Hidden
 70
     6
177
     3
291
     0
 70
    58
 90
        1
176
     1
 90
        2
176
     1
 90
        2
176
     1
 90
        0
176
     1
 40
0.6
176
     1
 40
30.0
176
     1
 62
     7
420
 16777215
176
     1
 90
        2
176
     1
 90
        2
176
     1
 62
     7
176
     1
 62
   257
176
     1
 90
        2
176
     1
 90
        1
176
     1
 40
40.0
176
     1
 90
        0
176
     1
 62
   257
176
     1
 40
1.0
176
     1
 90
        1
176
     1
 90
        6
176
     1
 90
        2
176
     1
 62
     7
176
     1
 90
        3
176
     1
 90
        0
176
     1
 90
        0
176
     1
290
     0
176
     1
 90
        1
176
     1
 40
0.0
176
     1
 90
        0
176
     1
290
     0
176
     1
290
     1
176
     1
290
     1
176
     1
290
     0
176
     1
290
     0
176
     1
290
     0
176
     1
290
     0
176
     1
290
     0
176
     1
290
     0
176
     1
 90
       50
176
     1
 40
0.0
176
     1
 40
1.0
176
     1
 90
        0
176
     1
 62
    18
420
        0
176
     1
 90
       50
176
     1
 90
        3
176
     1
 62
     5
420
      255
176
     1
290
     0
176
     1
 90
       50
176
     1
 90
       50
176
     1
 90
       50
176
     1
290
     0
176
     1
 90
       50
176
     1
 62
   256
176
     0
 40
1.0
176
     0
 90
        2
176
     1
  1
strokes_ogs.tif
176
     1
290
     0
176
     1
 40
1.0
176
     1
 40
1.0
176
     1
  0
VISUALSTYLE
  5
3B
102
{ACAD_REACTORS
330
2A
102
}
330
2A
100
AcDbVisualStyle
  2
JitterOff
 70
    20
177
     3
291
     1
 70
    58
 90
        2
176
     0
 90
        2
176
     0
 90
        0
176
     0
 90
        0
176
     0
 40
0.6
176
     0
 40
30.0
176
     0
 62
     7
420
 16777215
176
     0
 90
        1
176
     0
 90
        4
176
     0
 62
     7
176
     0
 62
   257
176
     0
 90
        1
176
     0
 90
        1
176
     0
 40
1.0
176
     0
 90
       10
176
     2
 62
     7
176
     0
 40
1.0
176
     0
 90
        1
176
     0
 90
        6
176
     0
 90
        2
176
     0
 62
     7
176
     0
 90
        5
176
     0
 90
        0
176
     0
 90
        0
176
     0
290
     0
176
     0
 90
        1
176
     0
 40
0.0
176
     0
 90
        0
176
     0
290
     0
176
     0
290
     1
176
     0
290
     1
176
     0
290
     0
176
     0
290
     0
176
     0
290
     0
176
     0
290
     0
176
     0
290
     0
176
     0
290
     0
176
     0
 90
       50
176
     0
 40
0.0
176
     0
 40
1.0
176
     0
 90
        0
176
     0
 62
    18
420
        0
176
     0
 90
       50
176
     0
 90
        3
176
     0
 62
     5
420
      255
176
     0
290
     0
176
     0
 90
       50
176
     0
 90
       50
176
     0
 90
       50
176
     0
290
     0
176
     0
 90
       50
176
     0
 62
   256
176
     0
 40
1.0
176
     0
 90
        2
176
     0
  1
strokes_ogs.tif
176
     0
290
     0
176
     0
 40
1.0
176
     0
 40
1.0
176
     0
  0
VISUALSTYLE
  5
38
102
{ACAD_REACTORS
330
2A
102
}
330
2A
100
AcDbVisualStyle
  2
Linepattern
 70
    14
177
     3
291
     1
 70
    58
 90
        2
176
     1
 90
        2
176
     1
 90
        0
176
     1
 90
        0
176
     1
 40
0.6
176
     1
 40
30.0
176
     1
 62
     7
420
 16777215
176
     1
 90
        1
176
     1
 90
        4
176
     1
 62
     7
176
     1
 62
   257
176
     1
 90
        7
176
     1
 90
        7
176
     1
 40
1.0
176
     1
 90
        8
176
     1
 62
     7
176
     1
 40
1.0
176
     1
 90
        1
176
     1
 90
        6
176
     1
 90
        2
176
     1
 62
     7
176
     1
 90
        5
176
     1
 90
        0
176
     1
 90
        0
176
     1
290
     0
176
     1
 90
        1
176
     1
 40
0.0
176
     1
 90
        0
176
     1
290
     0
176
     1
290
     1
176
     1
290
     1
176
     1
290
     0
176
     1
290
     0
176
     1
290
     0
176
     1
290
     0
176
     1
290
     0
176
     1
290
     0
176
     1
 90
       50
176
     1
 40
0.0
176
     1
 40
1.0
176
     1
 90
        0
176
     1
 62
    18
420
        0
176
     1
 90
       50
176
     1
 90
        3
176
     1
 62
     5
420
      255
176
     1
290
     0
176
     1
 90
       50
176
     1
 90
       50
176
     1
 90
       50
176
     1
290
     0
176
     1
 90
       50
176
     1
 62
   256
176
     0
 40
1.0
176
     0
 90
        2
176
     1
  1
strokes_ogs.tif
176
     1
290
     0
176
     1
 40
1.0
176
     1
 40
1.0
176
     1
  0
VISUALSTYLE
  5
3C
102
{ACAD_REACTORS
330
2A
102
}
330
2A
100
AcDbVisualStyle
  2
OverhangOff
 70
    21
177
     3
291
     1
 70
    58
 90
        2
176
     0
 90
        2
176
     0
 90
        0
176
     0
 90
        0
176
     0
 40
0.6
176
     0
 40
30.0
176
     0
 62
     7
420
 16777215
176
     0
 90
        1
176
     0
 90
        4
176
     0
 62
     7
176
     0
 62
   257
176
     0
 90
        1
176
     0
 90
        1
176
     0
 40
1.0
176
     0
 90
        9
176
     2
 62
     7
176
     0
 40
1.0
176
     0
 90
        1
176
     0
 90
        6
176
     0
 90
        2
176
     0
 62
     7
176
     0
 90
        5
176
     0
 90
        0
176
     0
 90
        0
176
     0
290
     0
176
     0
 90
        1
176
     0
 40
0.0
176
     0
 90
        0
176
     0
290
     0
176
     0
290
     1
176
     0
290
     1
176
     0
290
     0
176
     0
290
     0
176
     0
290
     0
176
     0
290
     0
176
     0
290
     0
176
     0
290
     0
176
     0
 90
       50
176
     0
 40
0.0
176
     0
 40
1.0
176
     0
 90
        0
176
     0
 62
    18
420
        0
176
     0
 90
       50
176
     0
 90
        3
176
     0
 62
     5
420
      255
176
     0
290
     0
176
     0
 90
       50
176
     0
 90
       50
176
     0
 90
       50
176
     0
290
     0
176
     0
 90
       50
176
     0
 62
   256
176
     0
 40
1.0
176
     0
 90
        2
176
     0
  1
strokes_ogs.tif
176
     0
290
     0
176
     0
 40
1.0
176
     0
 40
1.0
176
     0
  0
VISUALSTYLE
  5
33
102
{ACAD_REACTORS
330
2A
102
}
330
2A
100
AcDbVisualStyle
  2
Realistic
 70
     8
177
     3
291
     0
 70
    58
 90
        2
176
     1
 90
        3
176
     1
 90
        0
176
     1
 90
        2
176
     1
 40
0.6
176
     1
 40
30.0
176
     1
 62
     7
420
 16777215
176
     1
 90
        0
176
     1
 90
        0
176
     1
 62
     7
176
     1
 62
   257
176
     1
 90
        1
176
     1
 90
        1
176
     1
 40
1.0
176
     1
 90
        8
176
     1
 62
   257
176
     1
 40
1.0
176
     1
 90
        1
176
     1
 90
        6
176
     1
 90
        2
176
     1
 62
     7
176
     1
 90
        3
176
     1
 90
        0
176
     1
 90
        0
176
     1
290
     0
176
     1
 90
       13
176
     1
 40
0.0
176
     1
 90
        0
176
     1
290
     0
176
     1
290
     1
176
     1
290
     1
176
     1
290
     0
176
     1
290
     0
176
     1
290
     0
176
     1
290
     0
176
     1
290
     0
176
     1
290
     0
176
     1
 90
       50
176
     1
 40
0.0
176
     1
 40
1.0
176
     1
 90
        0
176
     1
 62
    18
420
        0
176
     1
 90
       50
176
     1
 90
        3
176
     1
 62
     5
420
      255
176
     1
290
     0
176
     1
 90
       50
176
     1
 90
       50
176
     1
 90
       50
176
     1
290
     0
176
     1
 90
       50
176
     1
 62
   256
176
     0
 40
1.0
176
     0
 90
        2
176
     1
  1
strokes_ogs.tif
176
     1
290
     0
176
     1
 40
1.0
176
     1
 40
1.0
176
     1
  0
VISUALSTYLE
  5
42
102
{ACAD_REACTORS
330
2A
102
}
330
2A
100
AcDbVisualStyle
  2
Shaded
 70
    27
177
     3
291
     0
 70
    58
 90
        2
176
     1
 90
        2
176
     1
 90
        1
176
     1
 90
        2
176
     1
 40
0.6
176
     1
 40
30.0
176
     1
 62
     7
420
 16777215
176
     1
 90
        0
176
     1
 90
        4
176
     1
 62
     7
176
     1
 62
   257
176
     1
 90
        1
176
     1
 90
        1
176
     1
 40
1.0
176
     1
 90
        8
176
     1
 62
   257
176
     1
 40
1.0
176
     1
 90
        1
176
     1
 90
        6
176
     1
 90
        2
176
     1
 62
     8
420
  7895160
176
     1
 90
        3
176
     1
 90
        0
176
     1
 90
        0
176
     1
290
     0
176
     1
 90
        5
176
     1
 40
0.0
176
     1
 90
        0
176
     1
290
     0
176
     1
290
     1
176
     1
290
     1
176
     1
290
     0
176
     1
290
     0
176
     1
290
     0
176
     1
290
     0
176
     1
290
     0
176
     1
290
     0
176
     1
 90
       50
176
     1
 40
0.0
176
     1
 40
1.0
176
     1
 90
        0
176
     1
 62
    18
420
        0
176
     1
 90
       50
176
     1
 90
        3
176
     1
 62
     5
420
      255
176
     1
290
     0
176
     1
 90
       50
176
     1
 90
       50
176
     1
 90
       50
176
     1
290
     0
176
     1
 90
       50
176
     1
 62
   256
176
     0
 40
1.0
176
     0
 90
        2
176
     1
  1
strokes_ogs.tif
176
     1
290
     0
176
     1
 40
1.0
176
     1
 40
1.0
176
     1
  0
VISUALSTYLE
  5
41
102
{ACAD_REACTORS
330
2A
102
}
330
2A
100
AcDbVisualStyle
  2
Shaded with edges
 70
    26
177
     3
291
     0
 70
    58
 90
        2
176
     1
 90
        2
176
     1
 90
        1
176
     1
 90
        2
176
     1
 40
0.6
176
     1
 40
30.0
176
     1
 62
     7
420
 16777215
176
     1
 90
        1
176
     1
 90
       10
176
     1
 62
     7
176
     1
 62
   257
176
     1
 90
        2
176
     1
 90
        1
176
     1
 40
1.0
176
     1
 90
        8
176
     1
 62
   257
176
     1
 40
1.0
176
     1
 90
        1
176
     1
 90
        6
176
     1
 90
        2
176
     1
 62
     7
176
     1
 90
        3
176
     1
 90
        0
176
     1
 90
        0
176
     1
290
     0
176
     1
 90
        5
176
     1
 40
0.0
176
     1
 90
        0
176
     1
290
     0
176
     1
290
     1
176
     1
290
     1
176
     1
290
     0
176
     1
290
     0
176
     1
290
     0
176
     1
290
     0
176
     1
290
     0
176
     1
290
     0
176
     1
 90
       50
176
     1
 40
0.0
176
     1
 40
1.0
176
     1
 90
        0
176
     1
 62
    18
420
        0
176
     1
 90
       50
176
     1
 90
        3
176
     1
 62
     5
420
      255
176
     1
290
     0
176
     1
 90
       50
176
     1
 90
       50
176
     1
 90
       50
176
     1
290
     0
176
     1
 90
       50
176
     1
 62
   256
176
     0
 40
1.0
176
     0
 90
        2
176
     1
  1
strokes_ogs.tif
176
     1
290
     0
176
     1
 40
1.0
176
     1
 40
1.0
176
     1
  0
VISUALSTYLE
  5
3E
102
{ACAD_REACTORS
330
2A
102
}
330
2A
100
AcDbVisualStyle
  2
Shades of Gray
 70
    23
177
     3
291
     0
 70
    58
 90
        2
176
     1
 90
        2
176
     1
 90
        3
176
     1
 90
        0
176
     1
 40
0.6
176
     1
 40
30.0
176
     1
 62
     7
420
 16777215
176
     1
 90
        2
176
     1
 90
        2
176
     1
 62
     7
176
     1
 62
     7
176
     1
 90
        1
176
     1
 90
        1
176
     1
 40
40.0
176
     1
 90
        8
176
     1
 62
     7
176
     1
 40
1.0
176
     1
 90
        1
176
     1
 90
        6
176
     1
 90
        2
176
     1
 62
     7
176
     1
 90
        3
176
     1
 90
        0
176
     1
 90
        0
176
     1
290
     0
176
     1
 90
        1
176
     1
 40
0.0
176
     1
 90
        0
176
     1
290
     0
176
     1
290
     1
176
     1
290
     1
176
     1
290
     0
176
     1
290
     0
176
     1
290
     0
176
     1
290
     0
176
     1
290
     0
176
     1
290
     0
176
     1
 90
       50
176
     1
 40
0.0
176
     1
 40
1.0
176
     1
 90
        0
176
     1
 62
    18
420
        0
176
     1
 90
       50
176
     1
 90
        3
176
     1
 62
     5
420
      255
176
     1
290
     0
176
     1
 90
       50
176
     1
 90
       50
176
     1
 90
       50
176
     1
290
     0
176
     1
 90
       50
176
     1
 62
   256
176
     0
 40
1.0
176
     0
 90
        2
176
     1
  1
strokes_ogs.tif
176
     1
290
     0
176
     1
 40
1.0
176
     1
 40
1.0
176
     1
  0
VISUALSTYLE
  5
3F
102
{ACAD_REACTORS
330
2A
102
}
330
2A
100
AcDbVisualStyle
  2
Sketchy
 70
    24
177
     3
291
     0
 70
    58
 90
        1
176
     1
 90
        2
176
     1
 90
        2
176
     1
 90
        0
176
     1
 40
0.6
176
     1
 40
30.0
176
     1
 62
     7
420
 16777215
176
     1
 90
        2
176
     1
 90
        2
176
     1
 62
     7
176
     1
 62
     7
176
     1
 90
        1
176
     1
 90
        1
176
     1
 40
40.0
176
     1
 90
       11
176
     1
 62
     7
176
     1
 40
1.0
176
     1
 90
        1
176
     1
 90
        6
176
     1
 90
        2
176
     1
 62
     7
176
     1
 90
        6
176
     1
 90
        0
176
     1
 90
        0
176
     1
290
     0
176
     1
 90
        1
176
     1
 40
0.0
176
     1
 90
        0
176
     1
290
     0
176
     1
290
     1
176
     1
290
     1
176
     1
290
     0
176
     1
290
     0
176
     1
290
     0
176
     1
290
     0
176
     1
290
     0
176
     1
290
     0
176
     1
 90
       50
176
     1
 40
0.0
176
     1
 40
1.0
176
     1
 90
        0
176
     1
 62
    18
420
        0
176
     1
 90
       50
176
     1
 90
        3
176
     1
 62
     5
420
      255
176
     1
290
     0
176
     1
 90
       50
176
     1
 90
       50
176
     1
 90
       50
176
     1
290
     0
176
     1
 90
       50
176
     1
 62
   256
176
     0
 40
1.0
176
     0
 90
        2
176
     1
  1
strokes_ogs.tif
176
     1
290
     0
176
     1
 40
1.0
176
     1
 40
1.0
176
     1
  0
VISUALSTYLE
  5
37
102
{ACAD_REACTORS
330
2A
102
}
330
2A
100
AcDbVisualStyle
  2
Thicken
 70
    13
177
     3
291
     1
 70
    58
 90
        2
176
     1
 90
        2
176
     1
 90
        0
176
     1
 90
        0
176
     1
 40
0.6
176
     1
 40
30.0
176
     1
 62
     7
420
 16777215
176
     1
 90
        1
176
     1
 90
        4
176
     1
 62
     7
176
     1
 62
   257
176
     1
 90
        1
176
     1
 90
        1
176
     1
 40
1.0
176
     1
 90
       12
176
     1
 62
     7
176
     1
 40
1.0
176
     1
 90
        1
176
     1
 90
        6
176
     1
 90
        2
176
     1
 62
     7
176
     1
 90
        5
176
     1
 90
        0
176
     1
 90
        0
176
     1
290
     0
176
     1
 90
        1
176
     1
 40
0.0
176
     1
 90
        0
176
     1
290
     0
176
     1
290
     1
176
     1
290
     1
176
     1
290
     0
176
     1
290
     0
176
     1
290
     0
176
     1
290
     0
176
     1
290
     0
176
     1
290
     0
176
     1
 90
       50
176
     1
 40
0.0
176
     1
 40
1.0
176
     1
 90
        0
176
     1
 62
    18
420
        0
176
     1
 90
       50
176
     1
 90
        3
176
     1
 62
     5
420
      255
176
     1
290
     0
176
     1
 90
       50
176
     1
 90
       50
176
     1
 90
       50
176
     1
290
     0
176
     1
 90
       50
176
     1
 62
   256
176
     0
 40
1.0
176
     0
 90
        2
176
     1
  1
strokes_ogs.tif
176
     1
290
     0
176
     1
 40
1.0
176
     1
 40
1.0
176
     1
  0
VISUALSTYLE
  5
30
102
{ACAD_REACTORS
330
2A
102
}
330
2A
100
AcDbVisualStyle
  2
Wireframe
 70
     5
177
     3
291
     0
 70
    58
 90
        0
176
     1
 90
        2
176
     1
 90
        0
176
     1
 90
        0
176
     1
 40
0.6
176
     1
 40
30.0
176
     1
 62
     7
420
 16777215
176
     1
 90
        1
176
     1
 90
        4
176
     1
 62
     7
176
     1
 62
   257
176
     1
 90
        1
176
     1
 90
        1
176
     1
 40
1.0
176
     1
 90
        0
176
     1
 62
   257
176
     1
 40
1.0
176
     1
 90
        1
176
     1
 90
        6
176
     1
 90
        2
176
     1
 62
     7
176
     1
 90
        3
176
     1
 90
        0
176
     1
 90
        0
176
     1
290
     0
176
     1
 90
        1
176
     1
 40
0.0
176
     1
 90
        0
176
     1
290
     0
176
     1
290
     1
176
     1
290
     1
176
     1
290
     0
176
     1
290
     0
176
     1
290
     0
176
     1
290
     0
176
     1
290
     0
176
     1
290
     0
176
     1
 90
       50
176
     1
 40
0.0
176
     1
 40
1.0
176
     1
 90
        0
176
     1
 62
    18
420
        0
176
     1
 90
       50
176
     1
 90
        3
176
     1
 62
     5
420
      255
176
     1
290
     0
176
     1
 90
       50
176
     1
 90
       50
176
     1
 90
       50
176
     1
290
     0
176
     1
 90
       50
176
     1
 62
   256
176
     0
 40
1.0
176
     0
 90
        2
176
     1
  1
strokes_ogs.tif
176
     1
290
     0
176
     1
 40
1.0
176
     1
 40
1.0
176
     1
  0
VISUALSTYLE
  5
40
102
{ACAD_REACTORS
330
2A
102
}
330
2A
100
AcDbVisualStyle
  2
X-Ray
 70
    25
177
     3
291
     0
 70
    58
 90
        2
176
     1
 90
        2
176
     1
 90
        1
176
     1
 90
        1
176
     1
 40
0.5
176
     1
 40
30.0
176
     1
 62
     7
420
 16777215
176
     1
 90
        1
176
     1
 90
        0
176
     1
 62
     7
176
     1
 62
   257
176
     1
 90
        1
176
     1
 90
        1
176
     1
 40
1.0
176
     1
 90
        8
176
     1
 62
     7
176
     1
 40
1.0
176
     1
 90
        1
176
     1
 90
        6
176
     1
 90
        2
176
     1
 62
     7
176
     1
 90
        3
176
     1
 90
        0
176
     1
 90
        0
176
     1
290
     0
176
     1
 90
       13
176
     1
 40
0.0
176
     1
 90
        0
176
     1
290
     0
176
     1
290
     1
176
     1
290
     1
176
     1
290
     0
176
     1
290
     0
176
     1
290
     0
176
     1
290
     0
176
     1
290
     0
176
     1
290
     0
176
     1
 90
       50
176
     1
 40
0.0
176
     1
 40
1.0
176
     1
 90
        0
176
     1
 62
    18
420
        0
176
     1
 90
       50
176
     1
 90
        3
176
     1
 62
     5
420
      255
176
     1
290
     0
176
     1
 90
       50
176
     1
 90
       50
176
     1
 90
       50
176
     1
290
     0
176
     1
 90
       50
176
     1
 62
   256
176
     0
 40
1.0
176
     0
 90
        2
176
     1
  1
strokes_ogs.tif
176
     1
290
     0
176
     1
 40
1.0
176
     1
 40
1.0
176
     1
  0
DICTIONARYVAR
  5
263
102
{ACAD_REACTORS
330
262
102
}
330
262
100
DictionaryVariables
280
     0
  1
1:1
  0
DICTIONARYVAR
  5
268
102
{ACAD_REACTORS
330
262
102
}
330
262
100
DictionaryVariables
280
     0
  1
Standard
  0
DICTIONARYVAR
  5
267
102
{ACAD_REACTORS
330
262
102
}
330
262
100
DictionaryVariables
280
     0
  1
Standard
  0
DICTIONARY
  5
264
330
6A
100
AcDbDictionary
280
     1
281
     1
  3
ACAD_ROUNDTRIP_2008_TABLESTYLE_CELLSTYLEMAP
360
265
  0
CELLSTYLEMAP
  5
265
102
{ACAD_REACTORS
330
264
102
}
330
264
100
AcDbCellStyleMap
 90
        3
300
CELLSTYLE
  1
TABLEFORMAT_BEGIN
 90
        5
170
     1
 91
        0
 92
    32768
 62
   257
 93
        1
300
CONTENTFORMAT
  1
CONTENTFORMAT_BEGIN
 90
        0
 91
        0
 92
        4
 93
        0
300

 40
0.0
140
1.0
 94
        5
 62
     0
340
11
144
0.25
309
CONTENTFORMAT_END
171
     1
301
MARGIN
  1
CELLMARGIN_BEGIN
 40
0.06
 40
0.06
 40
0.06
 40
0.06
 40
0.06
 40
0.06
309
CELLMARGIN_END
 94
        6
 95
        1
302
GRIDFORMAT
  1
GRIDFORMAT_BEGIN
 90
        0
 91
        1
 62
     0
 92
       -2
340
14
 93
        0
 40
0.045
309
GRIDFORMAT_END
 95
        2
302
GRIDFORMAT
  1
GRIDFORMAT_BEGIN
 90
        0
 91
        1
 62
     0
 92
       -2
340
14
 93
        0
 40
0.045
309
GRIDFORMAT_END
 95
        4
302
GRIDFORMAT
  1
GRIDFORMAT_BEGIN
 90
        0
 91
        1
 62
     0
 92
       -2
340
14
 93
        0
 40
0.045
309
GRIDFORMAT_END
 95
        8
302
GRIDFORMAT
  1
GRIDFORMAT_BEGIN
 90
        0
 91
        1
 62
     0
 92
       -2
340
14
 93
        0
 40
0.045
309
GRIDFORMAT_END
 95
       16
302
GRIDFORMAT
  1
GRIDFORMAT_BEGIN
 90
        0
 91
        1
 62
     0
 92
       -2
340
14
 93
        0
 40
0.045
309
GRIDFORMAT_END
 95
       32
302
GRIDFORMAT
  1
GRIDFORMAT_BEGIN
 90
        0
 91
        1
 62
     0
 92
       -2
340
14
 93
        0
 40
0.045
309
GRIDFORMAT_END
309
TABLEFORMAT_END
  1
CELLSTYLE_BEGIN
 90
        1
 91
        1
300
_TITLE
309
CELLSTYLE_END
300
CELLSTYLE
  1
TABLEFORMAT_BEGIN
 90
        5
170
     1
 91
        0
 92
        0
 62
   257
 93
        1
300
CONTENTFORMAT
  1
CONTENTFORMAT_BEGIN
 90
        0
 91
        0
 92
        4
 93
        0
300

 40
0.0
140
1.0
 94
        5
 62
     0
340
11
144
0.18
309
CONTENTFORMAT_END
171
     1
301
MARGIN
  1
CELLMARGIN_BEGIN
 40
0.06
 40
0.06
 40
0.06
 40
0.06
 40
0.06
 40
0.06
309
CELLMARGIN_END
 94
        6
 95
        1
302
GRIDFORMAT
  1
GRIDFORMAT_BEGIN
 90
        0
 91
        1
 62
     0
 92
       -2
340
14
 93
        0
 40
0.045
309
GRIDFORMAT_END
 95
        2
302
GRIDFORMAT
  1
GRIDFORMAT_BEGIN
 90
        0
 91
        1
 62
     0
 92
       -2
340
14
 93
        0
 40
0.045
309
GRIDFORMAT_END
 95
        4
302
GRIDFORMAT
  1
GRIDFORMAT_BEGIN
 90
        0
 91
        1
 62
     0
 92
       -2
340
14
 93
        0
 40
0.045
309
GRIDFORMAT_END
 95
        8
302
GRIDFORMAT
  1
GRIDFORMAT_BEGIN
 90
        0
 91
        1
 62
     0
 92
       -2
340
14
 93
        0
 40
0.045
309
GRIDFORMAT_END
 95
       16
302
GRIDFORMAT
  1
GRIDFORMAT_BEGIN
 90
        0
 91
        1
 62
     0
 92
       -2
340
14
 93
        0
 40
0.045
309
GRIDFORMAT_END
 95
       32
302
GRIDFORMAT
  1
GRIDFORMAT_BEGIN
 90
        0
 91
        1
 62
     0
 92
       -2
340
14
 93
        0
 40
0.045
309
GRIDFORMAT_END
309
TABLEFORMAT_END
  1
CELLSTYLE_BEGIN
 90
        2
 91
        1
300
_HEADER
309
CELLSTYLE_END
300
CELLSTYLE
  1
TABLEFORMAT_BEGIN
 90
        5
170
     1
 91
        0
 92
        0
 62
   257
 93
        1
300
CONTENTFORMAT
  1
CONTENTFORMAT_BEGIN
 90
        0
 91
        0
 92
        4
 93
        0
300

 40
0.0
140
1.0
 94
        2
 62
     0
340
11
144
0.18
309
CONTENTFORMAT_END
171
     1
301
MARGIN
  1
CELLMARGIN_BEGIN
 40
0.06
 40
0.06
 40
0.06
 40
0.06
 40
0.06
 40
0.06
309
CELLMARGIN_END
 94
        6
 95
        1
302
GRIDFORMAT
  1
GRIDFORMAT_BEGIN
 90
        0
 91
        1
 62
     0
 92
       -2
340
14
 93
        0
 40
0.045
309
GRIDFORMAT_END
 95
        2
302
GRIDFORMAT
  1
GRIDFORMAT_BEGIN
 90
        0
 91
        1
 62
     0
 92
       -2
340
14
 93
        0
 40
0.045
309
GRIDFORMAT_END
 95
        4
302
GRIDFORMAT
  1
GRIDFORMAT_BEGIN
 90
        0
 91
        1
 62
     0
 92
       -2
340
14
 93
        0
 40
0.045
309
GRIDFORMAT_END
 95
        8
302
GRIDFORMAT
  1
GRIDFORMAT_BEGIN
 90
        0
 91
        1
 62
     0
 92
       -2
340
14
 93
        0
 40
0.045
309
GRIDFORMAT_END
 95
       16
302
GRIDFORMAT
  1
GRIDFORMAT_BEGIN
 90
        0
 91
        1
 62
     0
 92
       -2
340
14
 93
        0
 40
0.045
309
GRIDFORMAT_END
 95
       32
302
GRIDFORMAT
  1
GRIDFORMAT_BEGIN
 90
        0
 91
        1
 62
     0
 92
       -2
340
14
 93
        0
 40
0.045
309
GRIDFORMAT_END
309
TABLEFORMAT_END
  1
CELLSTYLE_BEGIN
 90
        3
 91
        2
300
_DATA
309
CELLSTYLE_END
  0
ENDSEC
  0
EOF