0
SECTION
  2
HEADER
  9
$ACADVER
  1
AC1027
  9
$ACADMAINTVER
 70
     8
  9
$DWGCODEPAGE
  3
ANSI_1252
  9
$REQUIREDVERSIONS
160
                 0
  9
$COMMENTS
  1
File was created by Cadenas
  9
$CUSTOMPROPERTYTAG
  1
NN
  9
$CUSTOMPROPERTY
  1
Grip Tight Medium Duty Air-Handling Two-Bolt Pillow Block Inch Bore
  9
$CUSTOMPROPERTYTAG
  1
NT
  9
$CUSTOMPROPERTY
  1
GTMAH Air Handling Medium Duty Pillow Blocks
  9
$CUSTOMPROPERTYTAG
  1
NB
  9
$CUSTOMPROPERTY
  1
129238
  9
$CUSTOMPROPERTYTAG
  1
NBSYN
  9
$CUSTOMPROPERTY
  1
$PN.$LUBE.
  9
$CUSTOMPROPERTYTAG
  1
LINA
  9
$CUSTOMPROPERTY
  1
129238
  9
$CUSTOMPROPERTYTAG
  1
SERIES
  9
$CUSTOMPROPERTY
  1
211
  9
$CUSTOMPROPERTYTAG
  1
SS
  9
$CUSTOMPROPERTY
  1
1-15/16
  9
$CUSTOMPROPERTYTAG
  1
PN
  9
$CUSTOMPROPERTY
  1
129238
  9
$CUSTOMPROPERTYTAG
  1
DESCRIPTION
  9
$CUSTOMPROPERTY
  1
P2B-GTMAH-115
  9
$CUSTOMPROPERTYTAG
  1
A
  9
$CUSTOMPROPERTY
  1
1-59/64
  9
$CUSTOMPROPERTYTAG
  1
B
  9
$CUSTOMPROPERTY
  1
8-7/8
  9
$CUSTOMPROPERTYTAG
  1
C
  9
$CUSTOMPROPERTY
  1
2-5/16
  9
$CUSTOMPROPERTYTAG
  1
DMIN
  9
$CUSTOMPROPERTY
  1
6-3/8
  9
$CUSTOMPROPERTYTAG
  1
DMAX
  9
$CUSTOMPROPERTY
  1
7-7/16
  9
$CUSTOMPROPERTYTAG
  1
F
  9
$CUSTOMPROPERTY
  1
5/8
  9
$CUSTOMPROPERTYTAG
  1
G
  9
$CUSTOMPROPERTY
  1
1-7/32
  9
$CUSTOMPROPERTYTAG
  1
H
  9
$CUSTOMPROPERTY
  1
7/8
  9
$CUSTOMPROPERTYTAG
  1
J
  9
$CUSTOMPROPERTY
  1
4-15/16
  9
$CUSTOMPROPERTYTAG
  1
L
  9
$CUSTOMPROPERTY
  1
3-1/4
  9
$CUSTOMPROPERTYTAG
  1
M
  9
$CUSTOMPROPERTY
  1
2-1/2
  9
$CUSTOMPROPERTYTAG
  1
R
  9
$CUSTOMPROPERTY
  1
45/64
  9
$CUSTOMPROPERTYTAG
  1
S
  9
$CUSTOMPROPERTY
  1
1-7/32
  9
$CUSTOMPROPERTYTAG
  1
U
  9
$CUSTOMPROPERTY
  1
3-15/16
  9
$CUSTOMPROPERTYTAG
  1
V
  9
$CUSTOMPROPERTY
  1
7-7/8
  9
$CUSTOMPROPERTYTAG
  1
W
  9
$CUSTOMPROPERTY
  1
13/16
  9
$CUSTOMPROPERTYTAG
  1
X
  9
$CUSTOMPROPERTY
  1
3/16
  9
$CUSTOMPROPERTYTAG
  1
Z
  9
$CUSTOMPROPERTY
  1
1-3/16
  9
$CUSTOMPROPERTYTAG
  1
COMPANY
  9
$CUSTOMPROPERTY
  1
baldor
  9
$INSBASE
 10
0.0
 20
0.0
 30
0.0
  9
$EXTMIN
 10
1.000000000000000E+20
 20
1.000000000000000E+20
 30
1.000000000000000E+20
  9
$EXTMAX
 10
-1.000000000000000E+20
 20
-1.000000000000000E+20
 30
-1.000000000000000E+20
  9
$LIMMIN
 10
0.0
 20
0.0
  9
$LIMMAX
 10
12.0
 20
9.0
  9
$ORTHOMODE
 70
     0
  9
$REGENMODE
 70
     1
  9
$FILLMODE
 70
     1
  9
$QTEXTMODE
 70
     0
  9
$MIRRTEXT
 70
     1
  9
$LTSCALE
 40
1.0
  9
$ATTMODE
 70
     1
  9
$TEXTSIZE
 40
0.2
  9
$TRACEWID
 40
0.05
  9
$TEXTSTYLE
  7
Standard
  9
$CLAYER
  8
0
  9
$CELTYPE
  6
ByLayer
  9
$CECOLOR
 62
   256
  9
$CELTSCALE
 40
1.0
  9
$DISPSILH
 70
     0
  9
$DIMSCALE
 40
1.0
  9
$DIMASZ
 40
0.18
  9
$DIMEXO
 40
0.0625
  9
$DIMDLI
 40
0.38
  9
$DIMRND
 40
0.0
  9
$DIMDLE
 40
0.0
  9
$DIMEXE
 40
0.18
  9
$DIMTP
 40
0.0
  9
$DIMTM
 40
0.0
  9
$DIMTXT
 40
0.18
  9
$DIMCEN
 40
0.09
  9
$DIMTSZ
 40
0.0
  9
$DIMTOL
 70
     0
  9
$DIMLIM
 70
     0
  9
$DIMTIH
 70
     1
  9
$DIMTOH
 70
     1
  9
$DIMSE1
 70
     0
  9
$DIMSE2
 70
     0
  9
$DIMTAD
 70
     0
  9
$DIMZIN
 70
     0
  9
$DIMBLK
  1

  9
$DIMASO
 70
     1
  9
$DIMSHO
 70
     1
  9
$DIMPOST
  1

  9
$DIMAPOST
  1

  9
$DIMALT
 70
     0
  9
$DIMALTD
 70
     2
  9
$DIMALTF
 40
25.4
  9
$DIMLFAC
 40
1.0
  9
$DIMTOFL
 70
     0
  9
$DIMTVP
 40
0.0
  9
$DIMTIX
 70
     0
  9
$DIMSOXD
 70
     0
  9
$DIMSAH
 70
     0
  9
$DIMBLK1
  1

  9
$DIMBLK2
  1

  9
$DIMSTYLE
  2
Standard
  9
$DIMCLRD
 70
     0
  9
$DIMCLRE
 70
     0
  9
$DIMCLRT
 70
     0
  9
$DIMTFAC
 40
1.0
  9
$DIMGAP
 40
0.09
  9
$DIMJUST
 70
     0
  9
$DIMSD1
 70
     0
  9
$DIMSD2
 70
     0
  9
$DIMTOLJ
 70
     1
  9
$DIMTZIN
 70
     0
  9
$DIMALTZ
 70
     0
  9
$DIMALTTZ
 70
     0
  9
$DIMUPT
 70
     0
  9
$DIMDEC
 70
     4
  9
$DIMTDEC
 70
     4
  9
$DIMALTU
 70
     2
  9
$DIMALTTD
 70
     2
  9
$DIMTXSTY
  7
Standard
  9
$DIMAUNIT
 70
     0
  9
$DIMADEC
 70
     0
  9
$DIMALTRND
 40
0.0
  9
$DIMAZIN
 70
     0
  9
$DIMDSEP
 70
    46
  9
$DIMATFIT
 70
     3
  9
$DIMFRAC
 70
     0
  9
$DIMLDRBLK
  1

  9
$DIMLUNIT
 70
     2
  9
$DIMLWD
 70
    -2
  9
$DIMLWE
 70
    -2
  9
$DIMTMOVE
 70
     0
  9
$DIMFXL
 40
1.0
  9
$DIMFXLON
 70
     0
  9
$DIMJOGANG
 40
0.7853981633974483
  9
$DIMTFILL
 70
     0
  9
$DIMTFILLCLR
 70
     0
  9
$DIMARCSYM
 70
     0
  9
$DIMLTYPE
  6

  9
$DIMLTEX1
  6

  9
$DIMLTEX2
  6

  9
$DIMTXTDIRECTION
 70
     0
  9
$LUNITS
 70
     2
  9
$LUPREC
 70
     4
  9
$SKETCHINC
 40
0.1
  9
$FILLETRAD
 40
0.5
  9
$AUNITS
 70
     0
  9
$AUPREC
 70
     0
  9
$MENU
  1
.
  9
$ELEVATION
 40
0.0
  9
$PELEVATION
 40
0.0
  9
$THICKNESS
 40
0.0
  9
$LIMCHECK
 70
     0
  9
$CHAMFERA
 40
0.0
  9
$CHAMFERB
 40
0.0
  9
$CHAMFERC
 40
0.0
  9
$CHAMFERD
 40
0.0
  9
$SKPOLY
 70
     0
  9
$TDCREATE
 40
2458168.993405312
  9
$TDUCREATE
 40
2458168.951738646
  9
$TDUPDATE
 40
2458168.993405312
  9
$TDUUPDATE
 40
2458168.951738646
  9
$TDINDWG
 40
0.0000000116
  9
$TDUSRTIMER
 40
0.0000000116
  9
$USRTIMER
 70
     1
  9
$ANGBASE
 50
0.0
  9
$ANGDIR
 70
     0
  9
$PDMODE
 70
     0
  9
$PDSIZE
 40
0.0
  9
$PLINEWID
 40
0.0
  9
$SPLFRAME
 70
     0
  9
$SPLINETYPE
 70
     6
  9
$SPLINESEGS
 70
     8
  9
$HANDSEED
  5
1BC
  9
$SURFTAB1
 70
     6
  9
$SURFTAB2
 70
     6
  9
$SURFTYPE
 70
     6
  9
$SURFU
 70
     6
  9
$SURFV
 70
     6
  9
$UCSBASE
  2

  9
$UCSNAME
  2

  9
$UCSORG
 10
0.0
 20
0.0
 30
0.0
  9
$UCSXDIR
 10
1.0
 20
0.0
 30
0.0
  9
$UCSYDIR
 10
0.0
 20
1.0
 30
0.0
  9
$UCSORTHOREF
  2

  9
$UCSORTHOVIEW
 70
     0
  9
$UCSORGTOP
 10
0.0
 20
0.0
 30
0.0
  9
$UCSORGBOTTOM
 10
0.0
 20
0.0
 30
0.0
  9
$UCSORGLEFT
 10
0.0
 20
0.0
 30
0.0
  9
$UCSORGRIGHT
 10
0.0
 20
0.0
 30
0.0
  9
$UCSORGFRONT
 10
0.0
 20
0.0
 30
0.0
  9
$UCSORGBACK
 10
0.0
 20
0.0
 30
0.0
  9
$PUCSBASE
  2

  9
$PUCSNAME
  2

  9
$PUCSORG
 10
0.0
 20
0.0
 30
0.0
  9
$PUCSXDIR
 10
1.0
 20
0.0
 30
0.0
  9
$PUCSYDIR
 10
0.0
 20
1.0
 30
0.0
  9
$PUCSORTHOREF
  2

  9
$PUCSORTHOVIEW
 70
     0
  9
$PUCSORGTOP
 10
0.0
 20
0.0
 30
0.0
  9
$PUCSORGBOTTOM
 10
0.0
 20
0.0
 30
0.0
  9
$PUCSORGLEFT
 10
0.0
 20
0.0
 30
0.0
  9
$PUCSORGRIGHT
 10
0.0
 20
0.0
 30
0.0
  9
$PUCSORGFRONT
 10
0.0
 20
0.0
 30
0.0
  9
$PUCSORGBACK
 10
0.0
 20
0.0
 30
0.0
  9
$USERI1
 70
     0
  9
$USERI2
 70
     0
  9
$USERI3
 70
     0
  9
$USERI4
 70
     0
  9
$USERI5
 70
     0
  9
$USERR1
 40
0.0
  9
$USERR2
 40
0.0
  9
$USERR3
 40
0.0
  9
$USERR4
 40
0.0
  9
$USERR5
 40
0.0
  9
$WORLDVIEW
 70
     1
  9
$SHADEDGE
 70
     3
  9
$SHADEDIF
 70
    70
  9
$TILEMODE
 70
     1
  9
$MAXACTVP
 70
    64
  9
$PINSBASE
 10
0.0
 20
0.0
 30
0.0
  9
$PLIMCHECK
 70
     0
  9
$PEXTMIN
 10
1.000000000000000E+20
 20
1.000000000000000E+20
 30
1.000000000000000E+20
  9
$PEXTMAX
 10
-1.000000000000000E+20
 20
-1.000000000000000E+20
 30
-1.000000000000000E+20
  9
$PLIMMIN
 10
0.0
 20
0.0
  9
$PLIMMAX
 10
12.0
 20
9.0
  9
$UNITMODE
 70
     0
  9
$VISRETAIN
 70
     1
  9
$PLINEGEN
 70
     0
  9
$PSLTSCALE
 70
     1
  9
$TREEDEPTH
 70
  3020
  9
$CMLSTYLE
  2
Standard
  9
$CMLJUST
 70
     0
  9
$CMLSCALE
 40
1.0
  9
$PROXYGRAPHICS
 70
     1
  9
$MEASUREMENT
 70
     0
  9
$CELWEIGHT
370
    -1
  9
$ENDCAPS
280
     0
  9
$JOINSTYLE
280
     0
  9
$LWDISPLAY
290
     0
  9
$INSUNITS
 70
     1
  9
$HYPERLINKBASE
  1

  9
$STYLESHEET
  1

  9
$XEDIT
290
     1
  9
$CEPSNTYPE
380
     0
  9
$PSTYLEMODE
290
     1
  9
$FINGERPRINTGUID
  2
{98E80BB1-9379-420B-8D6D-08BA06E0BCD5}
  9
$VERSIONGUID
  2
{FAEB1C32-E019-11D5-929B-00C0DF256EC4}
  9
$EXTNAMES
290
     1
  9
$PSVPSCALE
 40
0.0
  9
$OLESTARTUP
290
     0
  9
$SORTENTS
280
   127
  9
$INDEXCTL
280
     0
  9
$HIDETEXT
280
     1
  9
$XCLIPFRAME
280
     2
  9
$HALOGAP
280
     0
  9
$OBSCOLOR
 70
   257
  9
$OBSLTYPE
280
     0
  9
$INTERSECTIONDISPLAY
280
     0
  9
$INTERSECTIONCOLOR
 70
   257
  9
$DIMASSOC
280
     2
  9
$PROJECTNAME
  1

  9
$CAMERADISPLAY
290
     0
  9
$LENSLENGTH
 40
50.0
  9
$CAMERAHEIGHT
 40
0.0
  9
$STEPSPERSEC
 40
2.0
  9
$STEPSIZE
 40
6.0
  9
$3DDWFPREC
 40
2.0
  9
$PSOLWIDTH
 40
0.25
  9
$PSOLHEIGHT
 40
4.0
  9
$LOFTANG1
 40
1.570796326794897
  9
$LOFTANG2
 40
1.570796326794897
  9
$LOFTMAG1
 40
0.0
  9
$LOFTMAG2
 40
0.0
  9
$LOFTPARAM
 70
     7
  9
$LOFTNORMALS
280
     1
  9
$LATITUDE
 40
37.795
  9
$LONGITUDE
 40
-122.394
  9
$NORTHDIRECTION
 40
0.0
  9
$TIMEZONE
 70
 -8000
  9
$LIGHTGLYPHDISPLAY
280
     1
  9
$TILEMODELIGHTSYNCH
280
     1
  9
$CMATERIAL
347
44
  9
$SOLIDHIST
280
     0
  9
$SHOWHIST
280
     1
  9
$DWFFRAME
280
     2
  9
$DGNFRAME
280
     2
  9
$REALWORLDSCALE
290
     1
  9
$INTERFERECOLOR
 62
   256
  9
$CSHADOW
280
     0
  9
$SHADOWPLANELOCATION
 40
0.0
  0
ENDSEC
  0
SECTION
  2
CLASSES
  0
CLASS
  1
ACDBDICTIONARYWDFLT
  2
AcDbDictionaryWithDefault
  3
ObjectDBX Classes
 90
        0
 91
        4
280
     0
281
     0
  0
CLASS
  1
VISUALSTYLE
  2
AcDbVisualStyle
  3
ObjectDBX Classes
 90
     4095
 91
        4
280
     0
281
     0
  0
CLASS
  1
MATERIAL
  2
AcDbMaterial
  3
ObjectDBX Classes
 90
     1153
 91
        4
280
     0
281
     0
  0
CLASS
  1
SCALE
  2
AcDbScale
  3
ObjectDBX Classes
 90
     1153
 91
        4
280
     0
281
     0
  0
CLASS
  1
TABLESTYLE
  2
AcDbTableStyle
  3
ObjectDBX Classes
 90
     4095
 91
        4
280
     0
281
     0
  0
CLASS
  1
MLEADERSTYLE
  2
AcDbMLeaderStyle
  3
ACDB_MLEADERSTYLE_CLASS
 90
     4095
 91
        4
280
     0
281
     0
  0
CLASS
  1
SUN
  2
AcDbSun
  3
SCENEOE
 90
     1153
 91
        4
280
     0
281
     0
  0
CLASS
  1
DICTIONARYVAR
  2
AcDbDictionaryVar
  3
ObjectDBX Classes
 90
        0
 91
        4
280
     0
281
     0
  0
CLASS
  1
CELLSTYLEMAP
  2
AcDbCellStyleMap
  3
ObjectDBX Classes
 90
     1152
 91
        4
280
     0
281
     0
  0
ENDSEC
  0
SECTION
  2
TABLES
  0
TABLE
  2
VPORT
  5
8
330
0
100
AcDbSymbolTable
 70
     1
  0
VPORT
  5
29
330
8
100
AcDbSymbolTableRecord
100
AcDbViewportTableRecord
  2
*Active
 70
     0
 10
0.0
 20
0.0
 11
1.0
 21
1.0
 12
0.0
 22
0.5296874999999992
 13
0.0
 23
0.0
 14
0.5
 24
0.5
 15
0.5
 25
0.5
 16
0.0
 26
0.0
 36
1.0
 17
0.0
 27
0.0
 37
0.0
 40
6.180562499999999
 41
1.46467251160392
 42
50.0
 43
0.0
 44
0.0
 50
0.0
 51
0.0
 71
     0
 72
   100
 73
     1
 74
     3
 75
     0
 76
     0
 77
     0
 78
     0
281
     0
 65
     1
110
0.0
120
0.0
130
0.0
111
1.0
121
0.0
131
0.0
112
0.0
122
1.0
132
0.0
 79
     0
146
0.0
348
2F
 60
     3
 61
     5
292
     1
282
     1
141
0.0
142
0.0
 63
   250
361
6D
  0
ENDTAB
  0
TABLE
  2
LTYPE
  5
5
330
0
100
AcDbSymbolTable
 70
     3
  0
LTYPE
  5
14
330
5
100
AcDbSymbolTableRecord
100
AcDbLinetypeTableRecord
  2
ByBlock
 70
     0
  3

 72
    65
 73
     0
 40
0.0
  0
LTYPE
  5
15
330
5
100
AcDbSymbolTableRecord
100
AcDbLinetypeTableRecord
  2
ByLayer
 70
     0
  3

 72
    65
 73
     0
 40
0.0
  0
LTYPE
  5
16
330
5
100
AcDbSymbolTableRecord
100
AcDbLinetypeTableRecord
  2
Continuous
 70
     0
  3
Solid line
 72
    65
 73
     0
 40
0.0
  0
LTYPE
  5
A5
330
5
100
AcDbSymbolTableRecord
100
AcDbLinetypeTableRecord
  2
Dashed
 70
     0
  3

 72
    65
 73
     2
 40
2.0
 49
1.0
 74
     0
 49
-1.0
 74
     0
  0
LTYPE
  5
B1
330
5
100
AcDbSymbolTableRecord
100
AcDbLinetypeTableRecord
  2
Center
 70
     0
  3

 72
    65
 73
     4
 40
1.5
 49
0.45
 74
     0
 49
-0.5
 74
     0
 49
0.05
 74
     0
 49
-0.5
 74
     0
  0
ENDTAB
  0
TABLE
  2
LAYER
  5
2
330
0
100
AcDbSymbolTable
 70
     7
  0
LAYER
  5
10
330
2
100
AcDbSymbolTableRecord
100
AcDbLayerTableRecord
  2
0
 70
     0
 62
     7
  6
Continuous
370
    -3
390
F
347
46
348
0
  0
LAYER
  5
72
330
2
100
AcDbSymbolTableRecord
100
AcDbLayerTableRecord
  2
AM_6
 70
     0
 62
    -2
  6
Continuous
370
    35
390
F
347
46
348
0
  0
LAYER
  5
A6
330
2
100
AcDbSymbolTableRecord
100
AcDbLayerTableRecord
  2
AM_9
 70
     0
 62
     6
  6
Dashed
370
    25
390
F
347
46
348
0
  0
LAYER
  5
B2
330
2
100
AcDbSymbolTableRecord
100
AcDbLayerTableRecord
  2
AM_7
 70
     0
 62
     7
  6
Center
370
    25
390
F
347
46
348
0
  0
LAYER
  5
B5
330
2
100
AcDbSymbolTableRecord
100
AcDbLayerTableRecord
  2
AM_4
 70
     0
 62
     3
  6
Continuous
370
    25
390
F
347
46
348
0
  0
LAYER
  5
E7
330
2
100
AcDbSymbolTableRecord
100
AcDbLayerTableRecord
  2
AM_5
 70
     0
 62
     3
  6
Continuous
370
    25
390
F
347
46
348
0
  0
LAYER
  5
1AE
330
2
100
AcDbSymbolTableRecord
100
AcDbLayerTableRecord
  2
ConnectionPoints
 70
     0
 62
     7
  6
Continuous
370
    50
390
F
347
46
348
0
  0
ENDTAB
  0
TABLE
  2
STYLE
  5
3
330
0
100
AcDbSymbolTable
 70
     1
  0
STYLE
  5
11
330
3
100
AcDbSymbolTableRecord
100
AcDbTextStyleTableRecord
  2
Standard
 70
     0
 40
0.0
 41
1.0
 50
0.0
 71
     0
 42
0.2
  3
txt
  4

  0
ENDTAB
  0
TABLE
  2
VIEW
  5
6
330
0
100
AcDbSymbolTable
 70
     0
  0
ENDTAB
  0
TABLE
  2
UCS
  5
7
330
0
100
AcDbSymbolTable
 70
     0
  0
ENDTAB
  0
TABLE
  2
APPID
  5
9
330
0
100
AcDbSymbolTable
 70
     1
  0
APPID
  5
12
330
9
100
AcDbSymbolTableRecord
100
AcDbRegAppTableRecord
  2
ACAD
 70
     0
  0
ENDTAB
  0
TABLE
  2
DIMSTYLE
  5
A
330
0
100
AcDbSymbolTable
 70
     1
100
AcDbDimStyleTable
  0
DIMSTYLE
105
27
330
A
100
AcDbSymbolTableRecord
100
AcDbDimStyleTableRecord
  2
Standard
 70
     0
178
     0
340
11
  0
ENDTAB
  0
TABLE
  2
BLOCK_RECORD
  5
1
330
0
100
AcDbSymbolTable
 70
     5
  0
BLOCK_RECORD
  5
1F
330
1
100
AcDbSymbolTableRecord
100
AcDbBlockTableRecord
  2
*Model_Space
340
22
 70
     0
280
     1
281
     0
  0
BLOCK_RECORD
  5
1B
330
1
100
AcDbSymbolTableRecord
100
AcDbBlockTableRecord
  2
*Paper_Space
340
1E
 70
     0
280
     1
281
     0
  0
BLOCK_RECORD
  5
23
330
1
100
AcDbSymbolTableRecord
100
AcDbBlockTableRecord
  2
*Paper_Space0
340
26
 70
     0
280
     1
281
     0
  0
BLOCK_RECORD
  5
6E
330
1
100
AcDbSymbolTableRecord
100
AcDbBlockTableRecord
  2
1_129238_0
340
0
102
{BLKREFS
331
6F
102
}
 70
     0
280
     1
281
     0
  0
BLOCK_RECORD
  5
8F
330
1
100
AcDbSymbolTableRecord
100
AcDbBlockTableRecord
  2
2_129524I_0_in_129238_0
340
0
102
{BLKREFS
331
90
102
}
 70
     0
280
     1
281
     0
  0
BLOCK_RECORD
  5
BE
330
1
100
AcDbSymbolTableRecord
100
AcDbBlockTableRecord
  2
3_129931_0_in_129238_0
340
0
102
{BLKREFS
331
BF
102
}
 70
     0
280
     1
281
     0
  0
BLOCK_RECORD
  5
100
330
1
100
AcDbSymbolTableRecord
100
AcDbBlockTableRecord
  2
4_129448I_0_in_129238_0
340
0
102
{BLKREFS
331
101
102
}
 70
     0
280
     1
281
     0
  0
ENDTAB
  0
ENDSEC
  0
SECTION
  2
BLOCKS
  0
BLOCK
  5
20
330
1F
100
AcDbEntity
  8
0
100
AcDbBlockBegin
  2
*Model_Space
 70
     0
 10
0.0
 20
0.0
 30
0.0
  3
*Model_Space
  1

  0
ENDBLK
  5
21
330
1F
100
AcDbEntity
  8
0
100
AcDbBlockEnd
  0
BLOCK
  5
1C
330
1B
100
AcDbEntity
 67
     1
  8
0
100
AcDbBlockBegin
  2
*Paper_Space
 70
     0
 10
0.0
 20
0.0
 30
0.0
  3
*Paper_Space
  1

  0
ENDBLK
  5
1D
330
1B
100
AcDbEntity
 67
     1
  8
0
100
AcDbBlockEnd
  0
BLOCK
  5
24
330
23
100
AcDbEntity
  8
0
100
AcDbBlockBegin
  2
*Paper_Space0
 70
     0
 10
0.0
 20
0.0
 30
0.0
  3
*Paper_Space0
  1

  0
ENDBLK
  5
25
330
23
100
AcDbEntity
  8
0
100
AcDbBlockEnd
  0
BLOCK
  5
70
330
6E
100
AcDbEntity
  8
0
100
AcDbBlockBegin
  2
1_129238_0
 70
     2
 10
0.0
 20
0.0
 30
0.0
  3
1_129238_0
  1

  0
ATTDEF
  5
73
330
6E
100
AcDbEntity
  8
AM_6
100
AcDbText
 10
9.4375
 20
3.559374999999999
 30
0.0
 40
0.5
  1
Grip Tight Medium Duty Air-Handling Two-Bolt Pillow Block Inch Bore
100
AcDbAttributeDefinition
  3

  2
NN
 70
     8
280
     0
  0
ATTDEF
  5
74
330
6E
100
AcDbEntity
  8
AM_6
100
AcDbText
 10
9.4375
 20
3.059374999999999
 30
0.0
 40
0.5
  1
GTMAH Air Handling Medium Duty Pillow Blocks
100
AcDbAttributeDefinition
  3

  2
NT
 70
     8
280
     0
  0
ATTDEF
  5
75
330
6E
100
AcDbEntity
  8
AM_6
100
AcDbText
 10
9.4375
 20
2.559374999999999
 30
0.0
 40
0.5
  1
129238
100
AcDbAttributeDefinition
  3

  2
NB
 70
     8
280
     0
  0
ATTDEF
  5
76
330
6E
100
AcDbEntity
  8
AM_6
100
AcDbText
 10
9.4375
 20
2.059374999999999
 30
0.0
 40
0.5
  1
$PN.$LUBE.
100
AcDbAttributeDefinition
  3

  2
NBSYN
 70
     8
280
     0
  0
ATTDEF
  5
77
330
6E
100
AcDbEntity
  8
AM_6
100
AcDbText
 10
9.4375
 20
1.559374999999999
 30
0.0
 40
0.5
  1
129238
100
AcDbAttributeDefinition
  3

  2
LINA
 70
     8
280
     0
  0
ATTDEF
  5
78
330
6E
100
AcDbEntity
  8
AM_6
100
AcDbText
 10
9.4375
 20
1.059374999999999
 30
0.0
 40
0.5
  1
211
100
AcDbAttributeDefinition
  3

  2
SERIES
 70
     8
280
     0
  0
ATTDEF
  5
79
330
6E
100
AcDbEntity
  8
AM_6
100
AcDbText
 10
9.4375
 20
0.5593749999999993
 30
0.0
 40
0.5
  1
1-15/16
100
AcDbAttributeDefinition
  3

  2
SS
 70
     8
280
     0
  0
ATTDEF
  5
7A
330
6E
100
AcDbEntity
  8
AM_6
100
AcDbText
 10
9.4375
 20
0.0593749999999993
 30
0.0
 40
0.5
  1
129238
100
AcDbAttributeDefinition
  3

  2
PN
 70
     8
280
     0
  0
ATTDEF
  5
7B
330
6E
100
AcDbEntity
  8
AM_6
100
AcDbText
 10
9.4375
 20
-0.4406250000000007
 30
0.0
 40
0.5
  1
P2B-GTMAH-115
100
AcDbAttributeDefinition
  3

  2
DESCRIPTION
 70
     8
280
     0
  0
ATTDEF
  5
7C
330
6E
100
AcDbEntity
  8
AM_6
100
AcDbText
 10
9.4375
 20
-0.9406250000000007
 30
0.0
 40
0.5
  1
1-59/64
100
AcDbAttributeDefinition
  3

  2
A
 70
     8
280
     0
  0
ATTDEF
  5
7D
330
6E
100
AcDbEntity
  8
AM_6
100
AcDbText
 10
9.4375
 20
-1.440625000000001
 30
0.0
 40
0.5
  1
8-7/8
100
AcDbAttributeDefinition
  3

  2
B
 70
     8
280
     0
  0
ATTDEF
  5
7E
330
6E
100
AcDbEntity
  8
AM_6
100
AcDbText
 10
9.4375
 20
-1.940625000000001
 30
0.0
 40
0.5
  1
2-5/16
100
AcDbAttributeDefinition
  3

  2
C
 70
     8
280
     0
  0
ATTDEF
  5
7F
330
6E
100
AcDbEntity
  8
AM_6
100
AcDbText
 10
9.4375
 20
-2.440625000000001
 30
0.0
 40
0.5
  1
6-3/8
100
AcDbAttributeDefinition
  3

  2
DMIN
 70
     8
280
     0
  0
ATTDEF
  5
80
330
6E
100
AcDbEntity
  8
AM_6
100
AcDbText
 10
9.4375
 20
-2.940625000000001
 30
0.0
 40
0.5
  1
7-7/16
100
AcDbAttributeDefinition
  3

  2
DMAX
 70
     8
280
     0
  0
ATTDEF
  5
81
330
6E
100
AcDbEntity
  8
AM_6
100
AcDbText
 10
9.4375
 20
-3.440625000000001
 30
0.0
 40
0.5
  1
5/8
100
AcDbAttributeDefinition
  3

  2
F
 70
     8
280
     0
  0
ATTDEF
  5
82
330
6E
100
AcDbEntity
  8
AM_6
100
AcDbText
 10
9.4375
 20
-3.940625000000001
 30
0.0
 40
0.5
  1
1-7/32
100
AcDbAttributeDefinition
  3

  2
G
 70
     8
280
     0
  0
ATTDEF
  5
83
330
6E
100
AcDbEntity
  8
AM_6
100
AcDbText
 10
9.4375
 20
-4.440625000000001
 30
0.0
 40
0.5
  1
7/8
100
AcDbAttributeDefinition
  3

  2
H
 70
     8
280
     0
  0
ATTDEF
  5
84
330
6E
100
AcDbEntity
  8
AM_6
100
AcDbText
 10
9.4375
 20
-4.940625000000001
 30
0.0
 40
0.5
  1
4-15/16
100
AcDbAttributeDefinition
  3

  2
J
 70
     8
280
     0
  0
ATTDEF
  5
85
330
6E
100
AcDbEntity
  8
AM_6
100
AcDbText
 10
9.4375
 20
-5.440625000000001
 30
0.0
 40
0.5
  1
3-1/4
100
AcDbAttributeDefinition
  3

  2
L
 70
     8
280
     0
  0
ATTDEF
  5
86
330
6E
100
AcDbEntity
  8
AM_6
100
AcDbText
 10
9.4375
 20
-5.940625000000001
 30
0.0
 40
0.5
  1
2-1/2
100
AcDbAttributeDefinition
  3

  2
M
 70
     8
280
     0
  0
ATTDEF
  5
87
330
6E
100
AcDbEntity
  8
AM_6
100
AcDbText
 10
9.4375
 20
-6.440625000000001
 30
0.0
 40
0.5
  1
45/64
100
AcDbAttributeDefinition
  3

  2
R
 70
     8
280
     0
  0
ATTDEF
  5
88
330
6E
100
AcDbEntity
  8
AM_6
100
AcDbText
 10
9.4375
 20
-6.940625000000001
 30
0.0
 40
0.5
  1
1-7/32
100
AcDbAttributeDefinition
  3

  2
S
 70
     8
280
     0
  0
ATTDEF
  5
89
330
6E
100
AcDbEntity
  8
AM_6
100
AcDbText
 10
9.4375
 20
-7.440625000000001
 30
0.0
 40
0.5
  1
3-15/16
100
AcDbAttributeDefinition
  3

  2
U
 70
     8
280
     0
  0
ATTDEF
  5
8A
330
6E
100
AcDbEntity
  8
AM_6
100
AcDbText
 10
9.4375
 20
-7.940625000000001
 30
0.0
 40
0.5
  1
7-7/8
100
AcDbAttributeDefinition
  3

  2
V
 70
     8
280
     0
  0
ATTDEF
  5
8B
330
6E
100
AcDbEntity
  8
AM_6
100
AcDbText
 10
9.4375
 20
-8.440625
 30
0.0
 40
0.5
  1
13/16
100
AcDbAttributeDefinition
  3

  2
W
 70
     8
280
     0
  0
ATTDEF
  5
8C
330
6E
100
AcDbEntity
  8
AM_6
100
AcDbText
 10
9.4375
 20
-8.940625
 30
0.0
 40
0.5
  1
3/16
100
AcDbAttributeDefinition
  3

  2
X
 70
     8
280
     0
  0
ATTDEF
  5
8D
330
6E
100
AcDbEntity
  8
AM_6
100
AcDbText
 10
9.4375
 20
-9.440625
 30
0.0
 40
0.5
  1
1-3/16
100
AcDbAttributeDefinition
  3

  2
Z
 70
     8
280
     0
  0
ATTDEF
  5
8E
330
6E
100
AcDbEntity
  8
AM_6
100
AcDbText
 10
9.4375
 20
-9.940625
 30
0.0
 40
0.5
  1
baldor
100
AcDbAttributeDefinition
  3

  2
COMPANY
 70
     8
280
     0
  0
INSERT
  5
90
330
6E
100
AcDbEntity
  8
0
100
AcDbBlockReference
  2
2_129524I_0_in_129238_0
 10
0.0
 20
0.0
 30
0.0
  0
INSERT
  5
BF
330
6E
100
AcDbEntity
  8
0
100
AcDbBlockReference
  2
3_129931_0_in_129238_0
 10
0.0
 20
0.0
 30
0.0
  0
INSERT
  5
101
330
6E
100
AcDbEntity
  8
0
100
AcDbBlockReference
  2
4_129448I_0_in_129238_0
 10
0.0
 20
0.0
 30
0.0
  0
ENDBLK
  5
71
330
6E
100
AcDbEntity
  8
0
100
AcDbBlockEnd
  0
BLOCK
  5
91
330
8F
100
AcDbEntity
  8
0
100
AcDbBlockBegin
  2
2_129524I_0_in_129238_0
 70
     2
 10
0.0
 20
0.0
 30
0.0
  3
2_129524I_0_in_129238_0
  1

  0
ATTDEF
  5
93
330
8F
100
AcDbEntity
  8
AM_6
100
AcDbText
 10
7.049546055340237
 20
2.049546055340237
 30
0.0
 40
0.5
  1
INS-GT B
100
AcDbAttributeDefinition
  3

  2
NN
 70
     8
280
     0
  0
ATTDEF
  5
94
330
8F
100
AcDbEntity
  8
AM_6
100
AcDbText
 10
7.049546055340237
 20
1.549546055340237
 30
0.0
 40
0.5
  1
GT Normal Duty Bearing Inserts
100
AcDbAttributeDefinition
  3

  2
NT
 70
     8
280
     0
  0
ATTDEF
  5
95
330
8F
100
AcDbEntity
  8
AM_6
100
AcDbText
 10
7.049546055340237
 20
1.049546055340237
 30
0.0
 40
0.5
  1
129524I
100
AcDbAttributeDefinition
  3

  2
NB
 70
     8
280
     0
  0
ATTDEF
  5
96
330
8F
100
AcDbEntity
  8
AM_6
100
AcDbText
 10
7.049546055340237
 20
0.5495460553402371
 30
0.0
 40
0.5
  1
$PN.I
100
AcDbAttributeDefinition
  3

  2
NBSYN
 70
     8
280
     0
  0
ATTDEF
  5
97
330
8F
100
AcDbEntity
  8
AM_6
100
AcDbText
 10
7.049546055340237
 20
0.0495460553402371
 30
0.0
 40
0.5
  1
129524
100
AcDbAttributeDefinition
  3

  2
LINA
 70
     8
280
     0
  0
ATTDEF
  5
98
330
8F
100
AcDbEntity
  8
AM_6
100
AcDbText
 10
7.049546055340237
 20
-0.4504539446597629
 30
0.0
 40
0.5
  1
211
100
AcDbAttributeDefinition
  3

  2
SERIES
 70
     8
280
     0
  0
ATTDEF
  5
99
330
8F
100
AcDbEntity
  8
AM_6
100
AcDbText
 10
7.049546055340237
 20
-0.9504539446597629
 30
0.0
 40
0.5
  1
129524
100
AcDbAttributeDefinition
  3

  2
PN
 70
     8
280
     0
  0
ATTDEF
  5
9A
330
8F
100
AcDbEntity
  8
AM_6
100
AcDbText
 10
7.049546055340237
 20
-1.450453944659763
 30
0.0
 40
0.5
  1
INS-GT-11
100
AcDbAttributeDefinition
  3

  2
DESCRIPTION
 70
     8
280
     0
  0
ATTDEF
  5
9B
330
8F
100
AcDbEntity
  8
AM_6
100
AcDbText
 10
7.049546055340237
 20
-1.950453944659763
 30
0.0
 40
0.5
  1
1.93
100
AcDbAttributeDefinition
  3

  2
A
 70
     8
280
     0
  0
ATTDEF
  5
9C
330
8F
100
AcDbEntity
  8
AM_6
100
AcDbText
 10
7.049546055340237
 20
-2.450453944659763
 30
0.0
 40
0.5
  1
0.87
100
AcDbAttributeDefinition
  3

  2
C
 70
     8
280
     0
  0
ATTDEF
  5
9D
330
8F
100
AcDbEntity
  8
AM_6
100
AcDbText
 10
7.049546055340237
 20
-2.950453944659763
 30
0.0
 40
0.5
  1
3.9370
100
AcDbAttributeDefinition
  3

  2
D
 70
     8
280
     0
  0
ATTDEF
  5
9E
330
8F
100
AcDbEntity
  8
AM_6
100
AcDbText
 10
7.049546055340237
 20
-3.450453944659763
 30
0.0
 40
0.5
  1
0.25
100
AcDbAttributeDefinition
  3

  2
J
 70
     8
280
     0
  0
ATTDEF
  5
9F
330
8F
100
AcDbEntity
  8
AM_6
100
AcDbText
 10
7.049546055340237
 20
-3.950453944659763
 30
0.0
 40
0.5
  1
3.43
100
AcDbAttributeDefinition
  3

  2
L
 70
     8
280
     0
  0
ATTDEF
  5
A0
330
8F
100
AcDbEntity
  8
AM_6
100
AcDbText
 10
7.049546055340237
 20
-4.450453944659763
 30
0.0
 40
0.5
  1
#10 - 32 x 1/4
100
AcDbAttributeDefinition
  3

  2
N
 70
     8
280
     0
  0
ATTDEF
  5
A1
330
8F
100
AcDbEntity
  8
AM_6
100
AcDbText
 10
7.049546055340237
 20
-4.950453944659763
 30
0.0
 40
0.5
  1
0.67000
100
AcDbAttributeDefinition
  3

  2
W
 70
     8
280
     0
  0
ATTDEF
  5
A2
330
8F
100
AcDbEntity
  8
AM_6
100
AcDbText
 10
7.049546055340237
 20
-5.450453944659763
 30
0.0
 40
0.5
  1
1.32
100
AcDbAttributeDefinition
  3

  2
X
 70
     8
280
     0
  0
ATTDEF
  5
A3
330
8F
100
AcDbEntity
  8
AM_6
100
AcDbText
 10
7.049546055340237
 20
-5.950453944659763
 30
0.0
 40
0.5
  1
1.26
100
AcDbAttributeDefinition
  3

  2
Y
 70
     8
280
     0
  0
ATTDEF
  5
A4
330
8F
100
AcDbEntity
  8
AM_6
100
AcDbText
 10
7.049546055340237
 20
-6.450453944659763
 30
0.0
 40
0.5
  1
baldor
100
AcDbAttributeDefinition
  3

  2
COMPANY
 70
     8
280
     0
  0
CIRCLE
  5
A7
330
8F
100
AcDbEntity
  8
AM_9
100
AcDbCircle
 10
0.0
 20
0.0
 30
0.0
 40
1.317787322075736
  0
ARC
  5
A8
330
8F
100
AcDbEntity
  8
AM_9
100
AcDbCircle
 10
-0.0000000000000001
 20
0.0000000000000002
 30
0.0
 40
1.9685
100
AcDbArc
 50
205.6173287667146
 51
334.3826712332854
  0
CIRCLE
  5
A9
330
8F
100
AcDbEntity
  8
AM_9
100
AcDbCircle
 10
0.0
 20
0.0
 30
0.0
 40
1.8815
  0
CIRCLE
  5
AA
330
8F
100
AcDbEntity
  8
AM_9
100
AcDbCircle
 10
0.0
 20
0.0
 30
0.0
 40
1.916509545833585
  0
CIRCLE
  5
AB
330
8F
100
AcDbEntity
  8
AM_9
100
AcDbCircle
 10
0.0
 20
0.0
 30
0.0
 40
1.401944395444444
  0
CIRCLE
  5
AC
330
8F
100
AcDbEntity
  8
AM_9
100
AcDbCircle
 10
0.0
 20
0.0
 30
0.0
 40
1.279444346444444
  0
CIRCLE
  5
AD
330
8F
100
AcDbEntity
  8
AM_9
100
AcDbCircle
 10
0.0
 20
0.0
 30
0.0
 40
1.489644444444445
  0
ARC
  5
AE
330
8F
100
AcDbEntity
  8
AM_9
100
AcDbCircle
 10
0.0000000000000002
 20
0.0000000000000001
 30
0.0
 40
1.524444444444444
100
AcDbArc
 50
5.023992301309935
 51
114.9760076986901
  0
ARC
  5
AF
330
8F
100
AcDbEntity
  8
AM_9
100
AcDbCircle
 10
0.0000000000000007
 20
-0.0000000000000001
 30
0.0
 40
1.524444444444445
100
AcDbArc
 50
125.02399230131
 51
234.97600769869
  0
ARC
  5
B0
330
8F
100
AcDbEntity
  8
AM_9
100
AcDbCircle
 10
0.0000000000000002
 20
-0.0000000000000002
 30
0.0
 40
1.524444444444444
100
AcDbArc
 50
245.0239923013099
 51
354.97600769869
  0
LINE
  5
B3
330
8F
100
AcDbEntity
  8
AM_7
100
AcDbLine
 10
-2.049546055340237
 20
0.0
 30
0.0
 11
2.049546055340237
 21
0.0
 31
0.0
  0
LINE
  5
B4
330
8F
100
AcDbEntity
  8
AM_7
100
AcDbLine
 10
0.0
 20
-2.049546055340237
 30
0.0
 11
0.0
 21
2.049546055340237
 31
0.0
  0
CIRCLE
  5
B6
330
8F
100
AcDbEntity
  8
AM_4
100
AcDbCircle
 10
0.0
 20
0.0
 30
0.0
 40
1.943375942409455
  0
CIRCLE
  5
B7
330
8F
100
AcDbEntity
  8
AM_4
100
AcDbCircle
 10
0.0
 20
0.0
 30
0.0
 40
1.951948624133559
  0
CIRCLE
  5
B8
330
8F
100
AcDbEntity
  8
AM_4
100
AcDbCircle
 10
0.0
 20
0.0
 30
0.0
 40
1.924873961284066
  0
CIRCLE
  5
B9
330
8F
100
AcDbEntity
  8
AM_4
100
AcDbCircle
 10
0.0
 20
0.0
 30
0.0
 40
1.890434308300557
  0
CIRCLE
  5
BA
330
8F
100
AcDbEntity
  8
AM_4
100
AcDbCircle
 10
0.0
 20
0.0
 30
0.0
 40
1.858036329583617
  0
ARC
  5
BB
330
8F
100
AcDbEntity
  8
AM_4
100
AcDbCircle
 10
-0.0000000000000179
 20
0.0000000000000293
 30
0.0
 40
1.52444444444441
100
AcDbArc
 50
114.97600769869
 51
125.02399230131
  0
ARC
  5
BC
330
8F
100
AcDbEntity
  8
AM_4
100
AcDbCircle
 10
0.0000000000000231
 20
0.0000000000000384
 30
0.0
 40
1.524444444444489
100
AcDbArc
 50
234.9760076986902
 51
245.0239923013098
  0
ARC
  5
BD
330
8F
100
AcDbEntity
  8
AM_4
100
AcDbCircle
 10
-0.000000000000004
 20
0.0
 30
0.0
 40
1.524444444444448
100
AcDbArc
 50
354.9760076986901
 51
5.023992301309863
  0
ENDBLK
  5
92
330
8F
100
AcDbEntity
  8
0
100
AcDbBlockEnd
  0
BLOCK
  5
C0
330
BE
100
AcDbEntity
  8
0
100
AcDbBlockBegin
  2
3_129931_0_in_129238_0
 70
     2
 10
0.0
 20
0.0
 30
0.0
  3
3_129931_0_in_129238_0
  1

  0
ATTDEF
  5
C2
330
BE
100
AcDbEntity
  8
AM_6
100
AcDbText
 10
6.619506946573555
 20
1.624613588121566
 30
0.0
 40
0.5
  1
Grip Tight Normal Duty Adapter and Nut Inch Bore
100
AcDbAttributeDefinition
  3

  2
NN
 70
     8
280
     0
  0
ATTDEF
  5
C3
330
BE
100
AcDbEntity
  8
AM_6
100
AcDbText
 10
6.619506946573555
 20
1.124613588121566
 30
0.0
 40
0.5
  1
GT and GTM Adapter & Lock Nut Assemblies
100
AcDbAttributeDefinition
  3

  2
NT
 70
     8
280
     0
  0
ATTDEF
  5
C4
330
BE
100
AcDbEntity
  8
AM_6
100
AcDbText
 10
6.619506946573555
 20
0.6246135881215662
 30
0.0
 40
0.5
  1
129931
100
AcDbAttributeDefinition
  3

  2
NB
 70
     8
280
     0
  0
ATTDEF
  5
C5
330
BE
100
AcDbEntity
  8
AM_6
100
AcDbText
 10
6.619506946573555
 20
0.1246135881215662
 30
0.0
 40
0.5
  1
$PN.
100
AcDbAttributeDefinition
  3

  2
NBSYN
 70
     8
280
     0
  0
ATTDEF
  5
C6
330
BE
100
AcDbEntity
  8
AM_6
100
AcDbText
 10
6.619506946573555
 20
-0.3753864118784338
 30
0.0
 40
0.5
  1
129931
100
AcDbAttributeDefinition
  3

  2
LINA
 70
     8
280
     0
  0
ATTDEF
  5
C7
330
BE
100
AcDbEntity
  8
AM_6
100
AcDbText
 10
6.619506946573555
 20
-0.8753864118784338
 30
0.0
 40
0.5
  1
211
100
AcDbAttributeDefinition
  3

  2
SERIES
 70
     8
280
     0
  0
ATTDEF
  5
C8
330
BE
100
AcDbEntity
  8
AM_6
100
AcDbText
 10
6.619506946573555
 20
-1.375386411878434
 30
0.0
 40
0.5
  1
1-15/16
100
AcDbAttributeDefinition
  3

  2
SS
 70
     8
280
     0
  0
ATTDEF
  5
C9
330
BE
100
AcDbEntity
  8
AM_6
100
AcDbText
 10
6.619506946573555
 20
-1.875386411878434
 30
0.0
 40
0.5
  1
129931
100
AcDbAttributeDefinition
  3

  2
PN
 70
     8
280
     0
  0
ATTDEF
  5
CA
330
BE
100
AcDbEntity
  8
AM_6
100
AcDbText
 10
6.619506946573555
 20
-2.375386411878434
 30
0.0
 40
0.5
  1
AN-GTM-11-115
100
AcDbAttributeDefinition
  3

  2
DESCRIPTION
 70
     8
280
     0
  0
ATTDEF
  5
CB
330
BE
100
AcDbEntity
  8
AM_6
100
AcDbText
 10
6.619506946573555
 20
-2.875386411878434
 30
0.0
 40
0.5
  1
1-59/64
100
AcDbAttributeDefinition
  3

  2
A
 70
     8
280
     0
  0
ATTDEF
  5
CC
330
BE
100
AcDbEntity
  8
AM_6
100
AcDbText
 10
6.619506946573555
 20
-3.375386411878434
 30
0.0
 40
0.5
  1
0.9449
100
AcDbAttributeDefinition
  3

  2
C
 70
     8
280
     0
  0
ATTDEF
  5
CD
330
BE
100
AcDbEntity
  8
AM_6
100
AcDbText
 10
6.619506946573555
 20
-3.875386411878434
 30
0.0
 40
0.5
  1
3.9370
100
AcDbAttributeDefinition
  3

  2
D
 70
     8
280
     0
  0
ATTDEF
  5
CE
330
BE
100
AcDbEntity
  8
AM_6
100
AcDbText
 10
6.619506946573555
 20
-4.375386411878434
 30
0.0
 40
0.5
  1
0.267
100
AcDbAttributeDefinition
  3

  2
J
 70
     8
280
     0
  0
ATTDEF
  5
CF
330
BE
100
AcDbEntity
  8
AM_6
100
AcDbText
 10
6.619506946573555
 20
-4.875386411878434
 30
0.0
 40
0.5
  1
3-1/4
100
AcDbAttributeDefinition
  3

  2
L
 70
     8
280
     0
  0
ATTDEF
  5
D0
330
BE
100
AcDbEntity
  8
AM_6
100
AcDbText
 10
6.619506946573555
 20
-5.375386411878434
 30
0.0
 40
0.5
  1
10 - 32 x 1/4
100
AcDbAttributeDefinition
  3

  2
N
 70
     8
280
     0
  0
ATTDEF
  5
D1
330
BE
100
AcDbEntity
  8
AM_6
100
AcDbText
 10
6.619506946573555
 20
-5.875386411878434
 30
0.0
 40
0.5
  1
45/64
100
AcDbAttributeDefinition
  3

  2
W
 70
     8
280
     0
  0
ATTDEF
  5
D2
330
BE
100
AcDbEntity
  8
AM_6
100
AcDbText
 10
6.619506946573555
 20
-6.375386411878434
 30
0.0
 40
0.5
  1
1-3/16
100
AcDbAttributeDefinition
  3

  2
X
 70
     8
280
     0
  0
ATTDEF
  5
D3
330
BE
100
AcDbEntity
  8
AM_6
100
AcDbText
 10
6.619506946573555
 20
-6.875386411878434
 30
0.0
 40
0.5
  1
1-7/32
100
AcDbAttributeDefinition
  3

  2
Y
 70
     8
280
     0
  0
ATTDEF
  5
D4
330
BE
100
AcDbEntity
  8
AM_6
100
AcDbText
 10
6.619506946573555
 20
-7.375386411878434
 30
0.0
 40
0.5
  1
baldor
100
AcDbAttributeDefinition
  3

  2
COMPANY
 70
     8
280
     0
  0
LINE
  5
D5
330
BE
100
AcDbEntity
  8
AM_9
100
AcDbLine
 10
-0.05
 20
1.211270051876932
 30
0.0
 11
-0.05
 21
1.251407431527677
 31
0.0
  0
LINE
  5
D6
330
BE
100
AcDbEntity
  8
AM_9
100
AcDbLine
 10
0.05
 20
1.211270051876932
 30
0.0
 11
0.05
 21
1.251407431527677
 31
0.0
  0
ARC
  5
D7
330
BE
100
AcDbEntity
  8
AM_9
100
AcDbCircle
 10
0.0
 20
0.0
 30
0.0
 40
1.252405908514766
100
AcDbArc
 50
92.288036581387
 51
87.711963418613
  0
LWPOLYLINE
  5
D8
330
BE
100
AcDbEntity
  8
AM_9
100
AcDbPolyline
 90
        4
 70
     0
 43
0.0
 10
-0.05
 20
1.2131975747764
 10
-0.026302628250111
 20
1.213998149507004
 10
0.0117887571342884
 20
1.214239250701139
 10
0.05
 20
1.2131975747764
  0
CIRCLE
  5
D9
330
BE
100
AcDbEntity
  8
AM_9
100
AcDbCircle
 10
0.0
 20
0.0
 30
0.0
 40
1.328373015873014
  0
CIRCLE
  5
DA
330
BE
100
AcDbEntity
  8
AM_9
100
AcDbCircle
 10
0.0
 20
0.0
 30
0.0
 40
1.444444444444444
  0
LINE
  5
DB
330
BE
100
AcDbEntity
  8
AM_9
100
AcDbLine
 10
-1.60245
 20
-0.0724499999999998
 30
0.0
 11
-1.2413
 21
-0.0724499999999998
 31
0.0
  0
LINE
  5
DC
330
BE
100
AcDbEntity
  8
AM_9
100
AcDbLine
 10
-1.2413
 20
0.0724499999999998
 30
0.0
 11
-1.60245
 21
0.0724499999999998
 31
0.0
  0
LINE
  5
DD
330
BE
100
AcDbEntity
  8
AM_9
100
AcDbLine
 10
0.05
 20
1.212301587301587
 30
0.0
 11
-0.05
 21
1.212301587301587
 31
0.0
  0
LINE
  5
DE
330
BE
100
AcDbEntity
  8
AM_9
100
AcDbLine
 10
-1.60245
 20
0.0724499999999998
 30
0.0
 11
-1.621952834906265
 21
0.091952834906265
 31
0.0
  0
LINE
  5
DF
330
BE
100
AcDbEntity
  8
AM_9
100
AcDbLine
 10
-1.621732842657526
 20
-0.0917328426575256
 30
0.0
 11
-1.60245
 21
-0.0724499999999998
 31
0.0
  0
LINE
  5
E0
330
BE
100
AcDbEntity
  8
AM_9
100
AcDbLine
 10
-1.60245
 20
0.0724499999999998
 30
0.0
 11
-1.60245
 21
-0.0724499999999998
 31
0.0
  0
LINE
  5
E1
330
BE
100
AcDbEntity
  8
AM_9
100
AcDbLine
 10
-1.623743301510399
 20
0.0638959372738872
 30
0.0
 11
-1.622372440178363
 21
0.0923724274321172
 31
0.0
  0
LINE
  5
E2
330
BE
100
AcDbEntity
  8
AM_9
100
AcDbLine
 10
-1.622372439503753
 20
-0.0923724392805585
 30
0.0
 11
-1.623784432160667
 21
-0.0628420072297223
 31
0.0
  0
LINE
  5
E3
330
BE
100
AcDbEntity
  8
AM_9
100
AcDbLine
 10
-1.2413
 20
-0.0724499999999998
 30
0.0
 11
-1.21875
 21
-0.0949999999999999
 31
0.0
  0
LINE
  5
E4
330
BE
100
AcDbEntity
  8
AM_9
100
AcDbLine
 10
-1.21875
 20
0.0949999999999999
 30
0.0
 11
-1.2413
 21
0.0724499999999998
 31
0.0
  0
LINE
  5
E5
330
BE
100
AcDbEntity
  8
AM_9
100
AcDbLine
 10
-1.21875
 20
0.0949999999999999
 30
0.0
 11
-1.21875
 21
-0.0949999999999999
 31
0.0
  0
LINE
  5
E6
330
BE
100
AcDbEntity
  8
AM_9
100
AcDbLine
 10
-1.2413
 20
0.0724499999999998
 30
0.0
 11
-1.2413
 21
-0.0724499999999998
 31
0.0
  0
LINE
  5
E8
330
BE
100
AcDbEntity
  8
AM_5
100
AcDbLine
 10
-1.622220700151493
 20
-0.0949999999999999
 30
0.0
 11
-1.21875
 21
-0.0949999999999999
 31
0.0
  0
LINE
  5
E9
330
BE
100
AcDbEntity
  8
AM_5
100
AcDbLine
 10
-1.622220700151493
 20
0.0950000000000001
 30
0.0
 11
-1.21875
 21
0.0950000000000001
 31
0.0
  0
ARC
  5
EA
330
BE
100
AcDbEntity
  8
AM_4
100
AcDbCircle
 10
0.0
 20
0.0000000000000001
 30
0.0
 40
0.9687500000000001
100
AcDbArc
 50
92.9585160437875
 51
87.04148395621249
  0
LINE
  5
EB
330
BE
100
AcDbEntity
  8
AM_4
100
AcDbLine
 10
0.05
 20
1.211270051876932
 30
0.0
 11
0.05
 21
0.9674588169529494
 31
0.0
  0
LINE
  5
EC
330
BE
100
AcDbEntity
  8
AM_4
100
AcDbLine
 10
-0.05
 20
1.211270051876932
 30
0.0
 11
-0.05
 21
0.9674588169529494
 31
0.0
  0
LWPOLYLINE
  5
ED
330
BE
100
AcDbEntity
  8
AM_4
100
AcDbPolyline
 90
        7
 70
     0
 43
0.0
 10
-1.623784432160667
 20
-0.0628420072297223
 10
-1.623920454050646
 20
-0.0592229593649447
 10
-1.62468596716113
 20
-0.0319453926208662
 10
-1.62499916936709
 20
-0.0016430326434985
 10
-1.624754639650975
 20
0.0282375801482803
 10
-1.624071857854355
 20
0.0549144837497562
 10
-1.623743301510399
 20
0.0638959372738872
  0
LINE
  5
EE
330
BE
100
AcDbEntity
  8
AM_4
100
AcDbLine
 10
1.51666639149945
 20
-0.1335
 30
0.0
 11
1.619506946573555
 21
-0.1335
 31
0.0
  0
LINE
  5
EF
330
BE
100
AcDbEntity
  8
AM_4
100
AcDbLine
 10
-0.6941390818815548
 20
-1.469284157338066
 30
0.0
 11
-0.6427188043445021
 21
-1.380221624104598
 31
0.0
  0
ARC
  5
F0
330
BE
100
AcDbEntity
  8
AM_4
100
AcDbCircle
 10
0.0
 20
-0.0000000000000002
 30
0.0
 40
1.625
100
AcDbArc
 50
244.7123796690046
 51
355.2876203309954
  0
LINE
  5
F1
330
BE
100
AcDbEntity
  8
AM_4
100
AcDbLine
 10
-0.873947587154947
 20
-1.246721624104599
 30
0.0
 11
-0.9253678646919995
 21
-1.335784157338066
 31
0.0
  0
ARC
  5
F2
330
BE
100
AcDbEntity
  8
AM_4
100
AcDbCircle
 10
-0.0000000000000016
 20
0.0000000000000004
 30
0.0
 40
1.624999999999998
100
AcDbArc
 50
124.7123796690046
 51
177.7993658874059
  0
LWPOLYLINE
  5
F3
330
BE
100
AcDbEntity
  8
AM_4
100
AcDbPolyline
 90
        6
 70
     0
 43
0.0
 10
-1.623801548684257
 20
0.0623981609553294
 10
-1.617162539901848
 20
0.0401264555278246
 10
-1.61322476947599
 20
0.0156699007615675
 10
-1.612660273412482
 20
-0.0070207816722861
 10
-1.615167694026311
 20
-0.0303283341884596
 10
-1.623801548684257
 20
-0.0623981609553275
  0
ARC
  5
F4
330
BE
100
AcDbEntity
  8
AM_4
100
AcDbCircle
 10
-0.0000000000000027
 20
-0.0000000000000013
 30
0.0
 40
1.624999999999997
100
AcDbArc
 50
182.2006341125942
 51
235.2876203309954
  0
LINE
  5
F5
330
BE
100
AcDbEntity
  8
AM_4
100
AcDbLine
 10
-0.9253678646920004
 20
1.335784157338066
 30
0.0
 11
-0.8739475871549478
 21
1.246721624104598
 31
0.0
  0
LINE
  5
F6
330
BE
100
AcDbEntity
  8
AM_4
100
AcDbLine
 10
1.619506946573555
 20
0.1335
 30
0.0
 11
1.51666639149945
 21
0.1335
 31
0.0
  0
LINE
  5
F7
330
BE
100
AcDbEntity
  8
AM_4
100
AcDbLine
 10
-0.6427188043445029
 20
1.380221624104598
 30
0.0
 11
-0.6941390818815556
 21
1.469284157338066
 31
0.0
  0
ARC
  5
F8
330
BE
100
AcDbEntity
  8
AM_4
100
AcDbCircle
 10
0.0000000000000004
 20
0.000000000000001
 30
0.0
 40
1.624999999999999
100
AcDbArc
 50
4.712379669004559
 51
115.2876203309954
  0
CIRCLE
  5
F9
330
BE
100
AcDbEntity
  8
AM_4
100
AcDbCircle
 10
0.0
 20
0.0
 30
0.0
 40
1.212301587301587
  0
LINE
  5
FA
330
BE
100
AcDbEntity
  8
AM_4
100
AcDbLine
 10
-0.6427188043445021
 20
-1.380221624104598
 30
0.0
 11
-0.873947587154947
 21
-1.246721624104599
 31
0.0
  0
ARC
  5
FB
330
BE
100
AcDbEntity
  8
AM_4
100
AcDbCircle
 10
-0.0000000000000002
 20
0.0000000000000004
 30
0.0
 40
1.587204000000001
100
AcDbArc
 50
244.8248581892463
 51
355.1751418107538
  0
LINE
  5
FC
330
BE
100
AcDbEntity
  8
AM_4
100
AcDbLine
 10
1.51666639149945
 20
0.1335
 30
0.0
 11
1.51666639149945
 21
-0.1335
 31
0.0
  0
ARC
  5
FD
330
BE
100
AcDbEntity
  8
AM_4
100
AcDbCircle
 10
0.0000000000000002
 20
0.0000000000000001
 30
0.0
 40
1.587204
100
AcDbArc
 50
4.824858189246235
 51
115.1751418107538
  0
LINE
  5
FE
330
BE
100
AcDbEntity
  8
AM_4
100
AcDbLine
 10
-0.8739475871549478
 20
1.246721624104598
 30
0.0
 11
-0.6427188043445029
 21
1.380221624104598
 31
0.0
  0
ARC
  5
FF
330
BE
100
AcDbEntity
  8
AM_4
100
AcDbCircle
 10
0.0
 20
0.0000000000000002
 30
0.0
 40
1.587204
100
AcDbArc
 50
124.8248581892463
 51
235.1751418107537
  0
ENDBLK
  5
C1
330
BE
100
AcDbEntity
  8
0
100
AcDbBlockEnd
  0
BLOCK
  5
102
330
100
100
AcDbEntity
  8
0
100
AcDbBlockBegin
  2
4_129448I_0_in_129238_0
 70
     2
 10
0.0
 20
0.0
 30
0.0
  3
4_129448I_0_in_129238_0
  1

  0
ATTDEF
  5
104
330
100
100
AcDbEntity
  8
AM_6
100
AcDbText
 10
9.4375
 20
3.559374999999999
 30
0.0
 40
0.5
  1
GTAH-I
100
AcDbAttributeDefinition
  3

  2
NN
 70
     8
280
     0
  0
ATTDEF
  5
105
330
100
100
AcDbEntity
  8
AM_6
100
AcDbText
 10
9.4375
 20
3.059374999999999
 30
0.0
 40
0.5
  1
GTAH Air Handling Normal and Medium Duty Pillow Blocks
100
AcDbAttributeDefinition
  3

  2
NT
 70
     8
280
     0
  0
ATTDEF
  5
106
330
100
100
AcDbEntity
  8
AM_6
100
AcDbText
 10
9.4375
 20
2.559374999999999
 30
0.0
 40
0.5
  1
129448I
100
AcDbAttributeDefinition
  3

  2
NB
 70
     8
280
     0
  0
ATTDEF
  5
107
330
100
100
AcDbEntity
  8
AM_6
100
AcDbText
 10
9.4375
 20
2.059374999999999
 30
0.0
 40
0.5
  1
$PN.$LUBE.I
100
AcDbAttributeDefinition
  3

  2
NBSYN
 70
     8
280
     0
  0
ATTDEF
  5
108
330
100
100
AcDbEntity
  8
AM_6
100
AcDbText
 10
9.4375
 20
1.559374999999999
 30
0.0
 40
0.5
  1
129448
100
AcDbAttributeDefinition
  3

  2
LINA
 70
     8
280
     0
  0
ATTDEF
  5
109
330
100
100
AcDbEntity
  8
AM_6
100
AcDbText
 10
9.4375
 20
1.059374999999999
 30
0.0
 40
0.5
  1
211
100
AcDbAttributeDefinition
  3

  2
SERIES
 70
     8
280
     0
  0
ATTDEF
  5
10A
330
100
100
AcDbEntity
  8
AM_6
100
AcDbText
 10
9.4375
 20
0.5593749999999993
 30
0.0
 40
0.5
  1
129448
100
AcDbAttributeDefinition
  3

  2
PN
 70
     8
280
     0
  0
ATTDEF
  5
10B
330
100
100
AcDbEntity
  8
AM_6
100
AcDbText
 10
9.4375
 20
0.0593749999999993
 30
0.0
 40
0.5
  1
P2B-GTAH-11
100
AcDbAttributeDefinition
  3

  2
DESCRIPTION
 70
     8
280
     0
  0
ATTDEF
  5
10C
330
100
100
AcDbEntity
  8
AM_6
100
AcDbText
 10
9.4375
 20
-0.4406250000000007
 30
0.0
 40
0.5
  1
1-59/64
100
AcDbAttributeDefinition
  3

  2
A
 70
     8
280
     0
  0
ATTDEF
  5
10D
330
100
100
AcDbEntity
  8
AM_6
100
AcDbText
 10
9.4375
 20
-0.9406250000000007
 30
0.0
 40
0.5
  1
8-7/8
100
AcDbAttributeDefinition
  3

  2
B
 70
     8
280
     0
  0
ATTDEF
  5
10E
330
100
100
AcDbEntity
  8
AM_6
100
AcDbText
 10
9.4375
 20
-1.440625000000001
 30
0.0
 40
0.5
  1
2-5/16
100
AcDbAttributeDefinition
  3

  2
C
 70
     8
280
     0
  0
ATTDEF
  5
10F
330
100
100
AcDbEntity
  8
AM_6
100
AcDbText
 10
9.4375
 20
-1.940625000000001
 30
0.0
 40
0.5
  1
6-3/8
100
AcDbAttributeDefinition
  3

  2
DMIN
 70
     8
280
     0
  0
ATTDEF
  5
110
330
100
100
AcDbEntity
  8
AM_6
100
AcDbText
 10
9.4375
 20
-2.440625000000001
 30
0.0
 40
0.5
  1
7-7/16
100
AcDbAttributeDefinition
  3

  2
DMAX
 70
     8
280
     0
  0
ATTDEF
  5
111
330
100
100
AcDbEntity
  8
AM_6
100
AcDbText
 10
9.4375
 20
-2.940625000000001
 30
0.0
 40
0.5
  1
5/8
100
AcDbAttributeDefinition
  3

  2
F
 70
     8
280
     0
  0
ATTDEF
  5
112
330
100
100
AcDbEntity
  8
AM_6
100
AcDbText
 10
9.4375
 20
-3.440625000000001
 30
0.0
 40
0.5
  1
1-7/32
100
AcDbAttributeDefinition
  3

  2
G
 70
     8
280
     0
  0
ATTDEF
  5
113
330
100
100
AcDbEntity
  8
AM_6
100
AcDbText
 10
9.4375
 20
-3.940625000000001
 30
0.0
 40
0.5
  1
7/8
100
AcDbAttributeDefinition
  3

  2
H
 70
     8
280
     0
  0
ATTDEF
  5
114
330
100
100
AcDbEntity
  8
AM_6
100
AcDbText
 10
9.4375
 20
-4.440625000000001
 30
0.0
 40
0.5
  1
4-15/16
100
AcDbAttributeDefinition
  3

  2
J
 70
     8
280
     0
  0
ATTDEF
  5
115
330
100
100
AcDbEntity
  8
AM_6
100
AcDbText
 10
9.4375
 20
-4.940625000000001
 30
0.0
 40
0.5
  1
3-1/4
100
AcDbAttributeDefinition
  3

  2
L
 70
     8
280
     0
  0
ATTDEF
  5
116
330
100
100
AcDbEntity
  8
AM_6
100
AcDbText
 10
9.4375
 20
-5.440625000000001
 30
0.0
 40
0.5
  1
2-1/2
100
AcDbAttributeDefinition
  3

  2
M
 70
     8
280
     0
  0
ATTDEF
  5
117
330
100
100
AcDbEntity
  8
AM_6
100
AcDbText
 10
9.4375
 20
-5.940625000000001
 30
0.0
 40
0.5
  1
45/64
100
AcDbAttributeDefinition
  3

  2
R
 70
     8
280
     0
  0
ATTDEF
  5
118
330
100
100
AcDbEntity
  8
AM_6
100
AcDbText
 10
9.4375
 20
-6.440625000000001
 30
0.0
 40
0.5
  1
1-7/32
100
AcDbAttributeDefinition
  3

  2
S
 70
     8
280
     0
  0
ATTDEF
  5
119
330
100
100
AcDbEntity
  8
AM_6
100
AcDbText
 10
9.4375
 20
-6.940625000000001
 30
0.0
 40
0.5
  1
3-15/16
100
AcDbAttributeDefinition
  3

  2
U
 70
     8
280
     0
  0
ATTDEF
  5
11A
330
100
100
AcDbEntity
  8
AM_6
100
AcDbText
 10
9.4375
 20
-7.440625000000001
 30
0.0
 40
0.5
  1
7-7/8
100
AcDbAttributeDefinition
  3

  2
V
 70
     8
280
     0
  0
ATTDEF
  5
11B
330
100
100
AcDbEntity
  8
AM_6
100
AcDbText
 10
9.4375
 20
-7.940625000000001
 30
0.0
 40
0.5
  1
13/16
100
AcDbAttributeDefinition
  3

  2
W
 70
     8
280
     0
  0
ATTDEF
  5
11C
330
100
100
AcDbEntity
  8
AM_6
100
AcDbText
 10
9.4375
 20
-8.440625
 30
0.0
 40
0.5
  1
3/16
100
AcDbAttributeDefinition
  3

  2
X
 70
     8
280
     0
  0
ATTDEF
  5
11D
330
100
100
AcDbEntity
  8
AM_6
100
AcDbText
 10
9.4375
 20
-8.940625
 30
0.0
 40
0.5
  1
1-3/16
100
AcDbAttributeDefinition
  3

  2
Z
 70
     8
280
     0
  0
ATTDEF
  5
11E
330
100
100
AcDbEntity
  8
AM_6
100
AcDbText
 10
9.4375
 20
-9.440625
 30
0.0
 40
0.5
  1
baldor
100
AcDbAttributeDefinition
  3

  2
COMPANY
 70
     8
280
     0
  0
LINE
  5
11F
330
100
100
AcDbEntity
  8
AM_9
100
AcDbLine
 10
3.0112402
 20
-1.625
 30
0.0
 11
3.0112402
 21
-1.916666375
 31
0.0
  0
LINE
  5
120
330
100
100
AcDbEntity
  8
AM_9
100
AcDbLine
 10
2.9325
 20
-1.625
 30
0.0
 11
2.9325
 21
-1.916666375
 31
0.0
  0
LINE
  5
121
330
100
100
AcDbEntity
  8
AM_9
100
AcDbLine
 10
-4.4375
 20
-1.916666375
 30
0.0
 11
-2.932500000000001
 21
-1.916666375
 31
0.0
  0
LINE
  5
122
330
100
100
AcDbEntity
  8
AM_9
100
AcDbLine
 10
-2.932500000000001
 20
-1.625
 30
0.0
 11
-2.932500000000001
 21
-1.916666375
 31
0.0
  0
LINE
  5
123
330
100
100
AcDbEntity
  8
AM_9
100
AcDbLine
 10
-3.011240199999997
 20
-1.625
 30
0.0
 11
-3.011240199999997
 21
-1.916666375
 31
0.0
  0
LINE
  5
124
330
100
100
AcDbEntity
  8
AM_9
100
AcDbLine
 10
4.4375
 20
-1.916666375
 30
0.0
 11
2.9325
 21
-1.916666375
 31
0.0
  0
LINE
  5
125
330
100
100
AcDbEntity
  8
AM_9
100
AcDbLine
 10
0.335166
 20
2.3587598
 30
0.0
 11
0.335166
 21
2.41434670303252
 31
0.0
  0
LINE
  5
126
330
100
100
AcDbEntity
  8
AM_9
100
AcDbLine
 10
0.166818
 20
2.3587598
 30
0.0
 11
0.166818
 21
2.431784942151752
 31
0.0
  0
LINE
  5
127
330
100
100
AcDbEntity
  8
AM_9
100
AcDbLine
 10
-0.224974530935
 20
2.3587598
 30
0.0
 11
-0.224974530935
 21
2.427095529729017
 31
0.0
  0
LINE
  5
128
330
100
100
AcDbEntity
  8
AM_9
100
AcDbLine
 10
0.0688697
 20
2.3587598
 30
0.0
 11
0.0688697
 21
2.436526875374436
 31
0.0
  0
LINE
  5
129
330
100
100
AcDbEntity
  8
AM_9
100
AcDbLine
 10
-0.200487509838
 20
2.3587598
 30
0.0
 11
-0.200487509838
 21
2.429240829641837
 31
0.0
  0
LINE
  5
12A
330
100
100
AcDbEntity
  8
AM_9
100
AcDbLine
 10
0.0933567
 20
2.3587598
 30
0.0
 11
0.0933567
 21
2.435711554467217
 31
0.0
  0
LINE
  5
12B
330
100
100
AcDbEntity
  8
AM_9
100
AcDbLine
 10
-0.078052404353
 20
2.3587598
 30
0.0
 11
-0.078052404353
 21
2.436250001985576
 31
0.0
  0
LINE
  5
12C
330
100
100
AcDbEntity
  8
AM_9
100
AcDbLine
 10
-0.243339895183
 20
2.3587598
 30
0.0
 11
-0.243339895183
 21
2.425323060009187
 31
0.0
  0
LINE
  5
12D
330
100
100
AcDbEntity
  8
AM_9
100
AcDbLine
 10
-0.18212214559
 20
2.3587598
 30
0.0
 11
-0.18212214559
 21
2.430686687766586
 31
0.0
  0
LINE
  5
12E
330
100
100
AcDbEntity
  8
AM_9
100
AcDbLine
 10
-0.096417768601
 20
2.3587598
 30
0.0
 11
-0.096417768601
 21
2.435592302479626
 31
0.0
  0
LINE
  5
12F
330
100
100
AcDbEntity
  8
AM_9
100
AcDbLine
 10
0.0505043
 20
2.3587598
 30
0.0
 11
0.0505043
 21
2.436976726536695
 31
0.0
  0
LINE
  5
130
330
100
100
AcDbEntity
  8
AM_9
100
AcDbLine
 10
0.111722
 20
2.3587598
 30
0.0
 11
0.111722
 21
2.434938283553815
 31
0.0
  0
LINE
  5
131
330
100
100
AcDbEntity
  8
AM_9
100
AcDbLine
 10
-0.081113429628
 20
2.3587598
 30
0.0
 11
-0.081113429628
 21
2.436150008011408
 31
0.0
  0
LINE
  5
132
330
100
100
AcDbEntity
  8
AM_9
100
AcDbLine
 10
0.0964177
 20
2.3587598
 30
0.0
 11
0.0964177
 21
2.435592305195332
 31
0.0
  0
LINE
  5
133
330
100
100
AcDbEntity
  8
AM_9
100
AcDbLine
 10
0.212731
 20
2.3587598
 30
0.0
 11
0.212731
 21
2.428199285816344
 31
0.0
  0
LINE
  5
134
330
100
100
AcDbEntity
  8
AM_9
100
AcDbLine
 10
0.0658091
 20
2.3587598
 30
0.0
 11
0.0658091
 21
2.436611461098627
 31
0.0
  0
LINE
  5
135
330
100
100
AcDbEntity
  8
AM_9
100
AcDbLine
 10
-0.197426878264
 20
2.3587598
 30
0.0
 11
-0.197426878264
 21
2.429491485422192
 31
0.0
  0
LINE
  5
136
330
100
100
AcDbEntity
  8
AM_9
100
AcDbLine
 10
-0.22803555621
 20
2.3587598
 30
0.0
 11
-0.22803555621
 21
2.426809847331266
 31
0.0
  0
LINE
  5
137
330
100
100
AcDbEntity
  8
AM_9
100
AcDbLine
 10
0.194366
 20
2.3587598
 30
0.0
 11
0.194366
 21
2.42973827974208
 31
0.0
  0
LINE
  5
138
330
100
100
AcDbEntity
  8
AM_9
100
AcDbLine
 10
0.102539
 20
2.3587598
 30
0.0
 11
0.102539
 21
2.435342276452942
 31
0.0
  0
LINE
  5
139
330
100
100
AcDbEntity
  8
AM_9
100
AcDbLine
 10
0.120905
 20
2.3587598
 30
0.0
 11
0.120905
 21
2.434499585330629
 31
0.0
  0
LINE
  5
13A
330
100
100
AcDbEntity
  8
AM_9
100
AcDbLine
 10
-0.172939463466
 20
2.3587598
 30
0.0
 11
-0.172939463466
 21
2.431357273618193
 31
0.0
  0
LINE
  5
13B
330
100
100
AcDbEntity
  8
AM_9
100
AcDbLine
 10
-0.087235086477
 20
2.3587598
 30
0.0
 11
-0.087235086477
 21
2.435938482328187
 31
0.0
  0
LINE
  5
13C
330
100
100
AcDbEntity
  8
AM_9
100
AcDbLine
 10
0.20967
 20
2.3587598
 30
0.0
 11
0.20967
 21
2.428465511614277
 31
0.0
  0
LINE
  5
13D
330
100
100
AcDbEntity
  8
AM_9
100
AcDbLine
 10
0.0413217
 20
2.3587598
 30
0.0
 11
0.0413217
 21
2.437149721931156
 31
0.0
  0
LINE
  5
13E
330
100
100
AcDbEntity
  8
AM_9
100
AcDbLine
 10
-0.234157213059
 20
2.3587598
 30
0.0
 11
-0.234157213059
 21
2.426226833907424
 31
0.0
  0
LINE
  5
13F
330
100
100
AcDbEntity
  8
AM_9
100
AcDbLine
 10
-0.105600450725
 20
2.3587598
 30
0.0
 11
-0.105600450725
 21
2.435211447658431
 31
0.0
  0
LINE
  5
140
330
100
100
AcDbEntity
  8
AM_9
100
AcDbLine
 10
-0.252522577307
 20
2.3587598
 30
0.0
 11
-0.252522577307
 21
2.42438416880457
 31
0.0
  0
LINE
  5
141
330
100
100
AcDbEntity
  8
AM_9
100
AcDbLine
 10
0.059687
 20
2.3587598
 30
0.0
 11
0.059687
 21
2.436769113402212
 31
0.0
  0
LINE
  5
142
330
100
100
AcDbEntity
  8
AM_9
100
AcDbLine
 10
0.191305
 20
2.3587598
 30
0.0
 11
0.191305
 21
2.429981203008576
 31
0.0
  0
LINE
  5
143
330
100
100
AcDbEntity
  8
AM_9
100
AcDbLine
 10
-0.191304827714
 20
2.3587598
 30
0.0
 11
-0.191304827714
 21
2.42998121657212
 31
0.0
  0
LINE
  5
144
330
100
100
AcDbEntity
  8
AM_9
100
AcDbLine
 10
0.130087
 20
2.3587598
 30
0.0
 11
0.130087
 21
2.434026216463373
 31
0.0
  0
LINE
  5
145
330
100
100
AcDbEntity
  8
AM_9
100
AcDbLine
 10
-0.114783132849
 20
2.3587598
 30
0.0
 11
-0.114783132849
 21
2.434795901592856
 31
0.0
  0
LINE
  5
146
330
100
100
AcDbEntity
  8
AM_9
100
AcDbLine
 10
0.255583
 20
2.3587598
 30
0.0
 11
0.255583
 21
2.424063443912101
 31
0.0
  0
LINE
  5
147
330
100
100
AcDbEntity
  8
AM_9
100
AcDbLine
 10
-0.163757175043
 20
2.3587598
 30
0.0
 11
-0.163757175043
 21
2.431992976474632
 31
0.0
  0
LINE
  5
148
330
100
100
AcDbEntity
  8
AM_9
100
AcDbLine
 10
-0.3290446658729999
 20
2.3587598
 30
0.0
 11
-0.3290446658729999
 21
2.415188576045466
 31
0.0
  0
LINE
  5
149
330
100
100
AcDbEntity
  8
AM_9
100
AcDbLine
 10
0.0321392
 20
2.3587598
 30
0.0
 11
0.0321392
 21
2.437288108087215
 31
0.0
  0
LINE
  5
14A
330
100
100
AcDbEntity
  8
AM_9
100
AcDbLine
 10
-0.0352000977482
 20
2.3587598
 30
0.0
 11
-0.0352000977482
 21
2.437245823284659
 31
0.0
  0
LINE
  5
14B
330
100
100
AcDbEntity
  8
AM_9
100
AcDbLine
 10
0.182122
 20
2.3587598
 30
0.0
 11
0.182122
 21
2.430686698675089
 31
0.0
  0
LINE
  5
14C
330
100
100
AcDbEntity
  8
AM_9
100
AcDbLine
 10
-0.261705259431
 20
2.3587598
 30
0.0
 11
-0.261705259431
 21
2.423410119477542
 31
0.0
  0
LINE
  5
14D
330
100
100
AcDbEntity
  8
AM_9
100
AcDbLine
 10
0.114783
 20
2.3587598
 30
0.0
 11
0.114783
 21
2.434795907855728
 31
0.0
  0
LINE
  5
14E
330
100
100
AcDbEntity
  8
AM_9
100
AcDbLine
 10
-0.179061514016
 20
2.3587598
 30
0.0
 11
-0.179061514016
 21
2.430914071743034
 31
0.0
  0
LINE
  5
14F
330
100
100
AcDbEntity
  8
AM_9
100
AcDbLine
 10
0.197427
 20
2.3587598
 30
0.0
 11
0.197427
 21
2.429491475529601
 31
0.0
  0
LINE
  5
150
330
100
100
AcDbEntity
  8
AM_9
100
AcDbLine
 10
-0.099478400175
 20
2.3587598
 30
0.0
 11
-0.099478400175
 21
2.435469215140816
 31
0.0
  0
LINE
  5
151
330
100
100
AcDbEntity
  8
AM_9
100
AcDbLine
 10
0.0474437
 20
2.3587598
 30
0.0
 11
0.0474437
 21
2.437038232225812
 31
0.0
  0
LINE
  5
152
330
100
100
AcDbEntity
  8
AM_9
100
AcDbLine
 10
-0.246400920458
 20
2.3587598
 30
0.0
 11
-0.246400920458
 21
2.425013986845735
 31
0.0
  0
LINE
  5
153
330
100
100
AcDbEntity
  8
AM_9
100
AcDbLine
 10
-0.258644234156
 20
2.3587598
 30
0.0
 11
-0.258644234156
 21
2.423738725633985
 31
0.0
  0
LINE
  5
154
330
100
100
AcDbEntity
  8
AM_9
100
AcDbLine
 10
-0.111722107574
 20
2.3587598
 30
0.0
 11
-0.111722107574
 21
2.434938278618007
 31
0.0
  0
LINE
  5
155
330
100
100
AcDbEntity
  8
AM_9
100
AcDbLine
 10
0.185183
 20
2.3587598
 30
0.0
 11
0.185183
 21
2.430455411339817
 31
0.0
  0
LINE
  5
156
330
100
100
AcDbEntity
  8
AM_9
100
AcDbLine
 10
0.127026
 20
2.3587598
 30
0.0
 11
0.127026
 21
2.434187882092096
 31
0.0
  0
LINE
  5
157
330
100
100
AcDbEntity
  8
AM_9
100
AcDbLine
 10
-0.166817806617
 20
2.3587598
 30
0.0
 11
-0.166817806617
 21
2.431784955417623
 31
0.0
  0
LINE
  5
158
330
100
100
AcDbEntity
  8
AM_9
100
AcDbLine
 10
0.0352001
 20
2.3587598
 30
0.0
 11
0.0352001
 21
2.437245823252137
 31
0.0
  0
LINE
  5
159
330
100
100
AcDbEntity
  8
AM_9
100
AcDbLine
 10
-0.3474096364199999
 20
2.3587598
 30
0.0
 11
-0.3474096364199999
 21
2.412615343257711
 31
0.0
  0
LINE
  5
15A
330
100
100
AcDbEntity
  8
AM_9
100
AcDbLine
 10
-0.053565383256
 20
2.3587598
 30
0.0
 11
-0.053565383256
 21
2.436911364764143
 31
0.0
  0
LINE
  5
15B
330
100
100
AcDbEntity
  8
AM_9
100
AcDbLine
 10
0.237218
 20
2.3587598
 30
0.0
 11
0.237218
 21
2.425929485882885
 31
0.0
  0
LINE
  5
15C
330
100
100
AcDbEntity
  8
AM_9
100
AcDbLine
 10
-0.151513467644
 20
2.3587598
 30
0.0
 11
-0.151513467644
 21
2.432786451606982
 31
0.0
  0
LINE
  5
15D
330
100
100
AcDbEntity
  8
AM_9
100
AcDbLine
 10
0.142331
 20
2.3587598
 30
0.0
 11
0.142331
 21
2.433340941265527
 31
0.0
  0
LINE
  5
15E
330
100
100
AcDbEntity
  8
AM_9
100
AcDbLine
 10
0.169879
 20
2.3587598
 30
0.0
 11
0.169879
 21
2.431573024887182
 31
0.0
  0
LINE
  5
15F
330
100
100
AcDbEntity
  8
AM_9
100
AcDbLine
 10
-0.200487509838
 20
2.3587598
 30
0.0
 11
-0.078052404353
 21
2.3587598
 31
0.0
  0
LINE
  5
160
330
100
100
AcDbEntity
  8
AM_9
100
AcDbLine
 10
-0.127026446547
 20
2.3587598
 30
0.0
 11
-0.127026446547
 21
2.434187858789383
 31
0.0
  0
LINE
  5
161
330
100
100
AcDbEntity
  8
AM_9
100
AcDbLine
 10
0.0933567
 20
2.3587598
 30
0.0
 11
0.212731
 21
2.3587598
 31
0.0
  0
LINE
  5
162
330
100
100
AcDbEntity
  8
AM_9
100
AcDbLine
 10
0.237218
 20
2.3587598
 30
0.0
 11
0.347409
 21
2.3587598
 31
0.0
  0
LINE
  5
163
330
100
100
AcDbEntity
  8
AM_9
100
AcDbLine
 10
0.347409
 20
2.3587598
 30
0.0
 11
0.347409
 21
2.412615434900266
 31
0.0
  0
LINE
  5
164
330
100
100
AcDbEntity
  8
AM_9
100
AcDbLine
 10
-0.3474096364199999
 20
2.3587598
 30
0.0
 11
-0.224974530935
 21
2.3587598
 31
0.0
  0
LINE
  5
165
330
100
100
AcDbEntity
  8
AM_9
100
AcDbLine
 10
-0.273948573129
 20
2.3587598
 30
0.0
 11
-0.273948573129
 21
2.422056652780976
 31
0.0
  0
LINE
  5
166
330
100
100
AcDbEntity
  8
AM_9
100
AcDbLine
 10
-0.053565383256
 20
2.3587598
 30
0.0
 11
0.0688697
 21
2.3587598
 31
0.0
  0
LINE
  5
167
330
100
100
AcDbEntity
  8
AM_9
100
AcDbLine
 10
0.0198957
 20
2.3587598
 30
0.0
 11
0.0198957
 21
2.437418800928866
 31
0.0
  0
LINE
  5
168
330
100
100
AcDbEntity
  8
AM_9
100
AcDbLine
 10
-3.71875
 20
-1.625
 30
0.0
 11
-3.71875
 21
-2.5
 31
0.0
  0
LINE
  5
169
330
100
100
AcDbEntity
  8
AM_9
100
AcDbLine
 10
-4.0625
 20
-1.625
 30
0.0
 11
-4.0625
 21
-2.5
 31
0.0
  0
LINE
  5
16A
330
100
100
AcDbEntity
  8
AM_9
100
AcDbLine
 10
3.1875
 20
-1.625
 30
0.0
 11
3.1875
 21
-2.5
 31
0.0
  0
LINE
  5
16B
330
100
100
AcDbEntity
  8
AM_9
100
AcDbLine
 10
2.84375
 20
-1.625
 30
0.0
 11
2.84375
 21
-2.5
 31
0.0
  0
LINE
  5
16C
330
100
100
AcDbEntity
  8
AM_9
100
AcDbLine
 10
3.71875
 20
-1.625
 30
0.0
 11
3.71875
 21
-2.5
 31
0.0
  0
LINE
  5
16D
330
100
100
AcDbEntity
  8
AM_9
100
AcDbLine
 10
4.0625
 20
-2.5
 30
0.0
 11
4.0625
 21
-1.625
 31
0.0
  0
LINE
  5
16E
330
100
100
AcDbEntity
  8
AM_9
100
AcDbLine
 10
-3.1875
 20
-1.625
 30
0.0
 11
-3.1875
 21
-2.5
 31
0.0
  0
LINE
  5
16F
330
100
100
AcDbEntity
  8
AM_9
100
AcDbLine
 10
-2.84375
 20
-2.5
 30
0.0
 11
-2.84375
 21
-1.625
 31
0.0
  0
LINE
  5
170
330
100
100
AcDbEntity
  8
AM_9
100
AcDbLine
 10
2.46875
 20
0.1852693824169071
 30
0.0
 11
2.46875
 21
-1.625
 31
0.0
  0
LINE
  5
171
330
100
100
AcDbEntity
  8
AM_9
100
AcDbLine
 10
-2.46875
 20
-1.625
 30
0.0
 11
-2.46875
 21
0.185269382416906
 31
0.0
  0
LINE
  5
172
330
100
100
AcDbEntity
  8
AM_9
100
AcDbLine
 10
3.84375
 20
-1.625
 30
0.0
 11
3.84375
 21
-1.7125
 31
0.0
  0
LINE
  5
173
330
100
100
AcDbEntity
  8
AM_9
100
AcDbLine
 10
4.03125
 20
-1.7125
 30
0.0
 11
4.03125
 21
-1.625
 31
0.0
  0
LINE
  5
174
330
100
100
AcDbEntity
  8
AM_9
100
AcDbLine
 10
3.84375
 20
-1.7125
 30
0.0
 11
4.03125
 21
-1.7125
 31
0.0
  0
LINE
  5
175
330
100
100
AcDbEntity
  8
AM_9
100
AcDbLine
 10
-4.03125
 20
-1.625
 30
0.0
 11
-4.03125
 21
-1.7125
 31
0.0
  0
LINE
  5
176
330
100
100
AcDbEntity
  8
AM_9
100
AcDbLine
 10
-3.84375
 20
-1.7125
 30
0.0
 11
-3.84375
 21
-1.625
 31
0.0
  0
LINE
  5
177
330
100
100
AcDbEntity
  8
AM_9
100
AcDbLine
 10
-4.03125
 20
-1.7125
 30
0.0
 11
-3.84375
 21
-1.7125
 31
0.0
  0
LINE
  5
178
330
100
100
AcDbEntity
  8
AM_7
100
AcDbLine
 10
3.1875
 20
-1.871875
 30
0.0
 11
3.1875
 21
3.559374999999999
 31
0.0
  0
LINE
  5
179
330
100
100
AcDbEntity
  8
AM_7
100
AcDbLine
 10
-3.1875
 20
-1.871875
 30
0.0
 11
-3.1875
 21
3.559374999999999
 31
0.0
  0
LINE
  5
17A
330
100
100
AcDbEntity
  8
AM_7
100
AcDbLine
 10
1.536696657057055
 20
1.536696657057054
 30
0.0
 11
2.034496662752107
 21
2.034496662752107
 31
0.0
  0
LINE
  5
17B
330
100
100
AcDbEntity
  8
AM_7
100
AcDbLine
 10
-3.9375
 20
-1.72125
 30
0.0
 11
-3.9375
 21
-1.52875
 31
0.0
  0
LINE
  5
17C
330
100
100
AcDbEntity
  8
AM_7
100
AcDbLine
 10
3.9375
 20
-1.72125
 30
0.0
 11
3.9375
 21
-1.52875
 31
0.0
  0
LINE
  5
17D
330
100
100
AcDbEntity
  8
AM_4
100
AcDbLine
 10
-0.179061514016
 20
2.430914071743035
 30
0.0
 11
-0.1821221455899981
 21
2.430686687766586
 31
0.0
  0
LINE
  5
17E
330
100
100
AcDbEntity
  8
AM_4
100
AcDbLine
 10
2.033394656048015
 20
1.942689472691618
 30
0.0
 11
1.94268947815449
 21
2.033394650585142
 31
0.0
  0
ARC
  5
17F
330
100
100
AcDbEntity
  8
AM_4
100
AcDbCircle
 10
1.93712169975442
 20
2.027826883110818
 30
0.0
 40
0.0078740199999982
100
AcDbArc
 50
44.99999999999314
 51
107.3006441304302
  0
ARC
  5
180
330
100
100
AcDbEntity
  8
AM_4
100
AcDbCircle
 10
2.027826883110818
 20
1.93712169975442
 30
0.0
 40
0.0078740199999981
100
AcDbArc
 50
342.6993558695698
 51
45.00000000000686
  0
LINE
  5
181
330
100
100
AcDbEntity
  8
AM_4
100
AcDbLine
 10
2.035344662416837
 20
1.934780079531932
 30
0.0
 11
1.934780079531932
 21
2.035344662416837
 31
0.0
  0
LINE
  5
182
330
100
100
AcDbEntity
  8
AM_4
100
AcDbLine
 10
1.934780079531932
 20
2.035344662416837
 30
0.0
 11
1.867309749968555
 21
2.014329162800224
 31
0.0
  0
LINE
  5
183
330
100
100
AcDbEntity
  8
AM_4
100
AcDbLine
 10
2.014329162800224
 20
1.867309749968555
 30
0.0
 11
2.035344662416837
 21
1.934780079531932
 31
0.0
  0
LINE
  5
184
330
100
100
AcDbEntity
  8
AM_4
100
AcDbLine
 10
2.014329162800224
 20
1.867309749968555
 30
0.0
 11
1.867309749968555
 21
2.014329162800224
 31
0.0
  0
ARC
  5
185
330
100
100
AcDbEntity
  8
AM_4
100
AcDbCircle
 10
1.873163785655493
 20
1.995534762273043
 30
0.0
 40
0.0196850000000005
100
AcDbArc
 50
107.3006441304189
 51
172.2171938122396
  0
ARC
  5
186
330
100
100
AcDbEntity
  8
AM_4
100
AcDbCircle
 10
1.995534762273042
 20
1.873163785655493
 30
0.0
 40
0.0196850000000013
100
AcDbArc
 50
277.7828061877629
 51
342.6993558695804
  0
LINE
  5
187
330
100
100
AcDbEntity
  8
AM_4
100
AcDbLine
 10
1.998200470606209
 20
1.853660113588866
 30
0.0
 11
1.853660113588866
 21
1.998200470606208
 31
0.0
  0
ARC
  5
188
330
100
100
AcDbEntity
  8
AM_4
100
AcDbCircle
 10
1.771827270658998
 20
2.009385158832076
 30
0.0
 40
0.082593652496389
100
AcDbArc
 50
269.3563657692234
 51
352.2171938122397
  0
ARC
  5
189
330
100
100
AcDbEntity
  8
AM_4
100
AcDbCircle
 10
2.009385158832076
 20
1.771827270658998
 30
0.0
 40
0.082593652496389
100
AcDbArc
 50
97.78280618775975
 51
180.643634230776
  0
LINE
  5
18A
330
100
100
AcDbEntity
  8
AM_4
100
AcDbLine
 10
1.926796717624124
 20
1.770899471362365
 30
0.0
 11
1.770899471362365
 21
1.926796717624124
 31
0.0
  0
LINE
  5
18B
330
100
100
AcDbEntity
  8
AM_4
100
AcDbLine
 10
1.770899471362365
 20
1.926796717624124
 30
0.0
 11
1.756980074374707
 21
1.912877320636466
 31
0.0
  0
LINE
  5
18C
330
100
100
AcDbEntity
  8
AM_4
100
AcDbLine
 10
1.912877320636467
 20
1.756980074374707
 30
0.0
 11
1.926796717624125
 21
1.770899471362364
 31
0.0
  0
LINE
  5
18D
330
100
100
AcDbEntity
  8
AM_4
100
AcDbLine
 10
1.659543588354326
 20
1.815440834616086
 30
0.0
 11
1.643903305084019
 21
1.799800551345779
 31
0.0
  0
LINE
  5
18E
330
100
100
AcDbEntity
  8
AM_4
100
AcDbLine
 10
1.799757885840314
 20
1.643860639578553
 30
0.0
 11
1.815440834616086
 21
1.659543588354325
 31
0.0
  0
LINE
  5
18F
330
100
100
AcDbEntity
  8
AM_4
100
AcDbLine
 10
1.848847387386465
 20
1.626137035583947
 30
0.0
 11
1.626137035583948
 21
1.848847387386464
 31
0.0
  0
LWPOLYLINE
  5
190
330
100
100
AcDbEntity
  8
AM_4
100
AcDbPolyline
 90
        3
 70
     0
 43
0.0
 10
1.74210820274572
 20
1.742108202745719
 10
1.792635023083886
 20
1.682350509397511
 10
1.853463732200367
 20
1.630752673291071
  0
LWPOLYLINE
  5
191
330
100
100
AcDbEntity
  8
AM_4
100
AcDbPolyline
 90
        3
 70
     0
 43
0.0
 10
1.941668235699721
 20
1.718957176790426
 10
1.891141415361554
 20
1.778714870138633
 10
1.830312706245073
 20
1.830312706245073
  0
LINE
  5
192
330
100
100
AcDbEntity
  8
AM_4
100
AcDbLine
 10
1.62613677677526
 20
1.848847835684556
 30
0.0
 11
1.723573073306236
 21
1.946284132215533
 31
0.0
  0
LINE
  5
193
330
100
100
AcDbEntity
  8
AM_4
100
AcDbLine
 10
1.946283873406845
 20
1.723573521604329
 30
0.0
 11
1.72357352160433
 21
1.946283873406843
 31
0.0
  0
LINE
  5
194
330
100
100
AcDbEntity
  8
AM_4
100
AcDbLine
 10
1.946284132215532
 20
1.723573073306237
 30
0.0
 11
1.848847835684556
 21
1.62613677677526
 31
0.0
  0
LWPOLYLINE
  5
195
330
100
100
AcDbEntity
  8
AM_4
100
AcDbPolyline
 90
        3
 70
     0
 43
0.0
 10
1.830312706245073
 20
1.830312706245073
 10
1.779785885906906
 20
1.890070399593281
 10
1.718957176790425
 20
1.941668235699721
  0
LWPOLYLINE
  5
196
330
100
100
AcDbEntity
  8
AM_4
100
AcDbPolyline
 90
        3
 70
     0
 43
0.0
 10
1.630752673291071
 20
1.853463732200367
 10
1.681279493629238
 20
1.793706038852159
 10
1.74210820274572
 20
1.742108202745719
  0
LINE
  5
197
330
100
100
AcDbEntity
  8
AM_4
100
AcDbLine
 10
1.74210820274572
 20
1.742108202745719
 30
0.0
 11
1.830312706245073
 21
1.830312706245073
 31
0.0
  0
ARC
  5
198
330
100
100
AcDbEntity
  8
AM_4
100
AcDbCircle
 10
1.724819899999999
 20
-2.267388725
 30
0.0
 40
0.0590551000000008
100
AcDbArc
 50
0.0000008537736463
 51
90.0
  0
ARC
  5
199
330
100
100
AcDbEntity
  8
AM_4
100
AcDbCircle
 10
-1.7248199
 20
-2.267388725
 30
0.0
 40
0.0590550999999997
100
AcDbArc
 50
90.0
 51
180.0
  0
ARC
  5
19A
330
100
100
AcDbEntity
  8
AM_4
100
AcDbCircle
 10
-0.0000000000000001
 20
0.0000000000000002
 30
0.0
 40
1.9685
100
AcDbArc
 50
205.6173287667146
 51
334.3826712332853
  0
LINE
  5
19B
330
100
100
AcDbEntity
  8
AM_4
100
AcDbLine
 10
1.7248199
 20
-2.208333625
 30
0.0
 11
-1.7248199
 21
-2.208333625
 31
0.0
  0
LINE
  5
19C
330
100
100
AcDbEntity
  8
AM_4
100
AcDbLine
 10
-2.36125043500683
 20
0.6048988619430973
 30
0.0
 11
-2.932499999999995
 21
-1.625000000000001
 31
0.0
  0
LINE
  5
19D
330
100
100
AcDbEntity
  8
AM_4
100
AcDbLine
 10
2.932499999999999
 20
-1.625000000000001
 30
0.0
 11
2.361250435006831
 21
0.6048988619430967
 31
0.0
  0
LWPOLYLINE
  5
19E
330
100
100
AcDbEntity
  8
AM_4
100
AcDbPolyline
 90
       32
 70
     0
 43
0.0
 10
2.361250435006832
 20
0.6048988619430963
 10
2.299544754620769
 20
0.8083935746256944
 10
2.220338150148958
 20
1.005735924084005
 10
2.124233431677682
 20
1.195424015880081
 10
2.011962014144125
 20
1.376014209098555
 10
1.88437835082705
 20
1.546132103325692
 10
1.742453430441425
 20
1.704482998666432
 10
1.587267387327994
 20
1.849861749192346
 10
1.420001280978743
 20
1.981161934829843
 10
1.241928107461029
 20
2.097384281885002
 10
1.054403111148842
 20
2.197644268119762
 10
0.8588534704948061
 20
2.28117885450024
 10
0.6567674363404011
 20
2.347352292384519
 10
0.4496830054284249
 20
2.395660961953686
 10
0.2391762153191161
 20
2.425737205062746
 10
0.0268491497926813
 20
2.437352123341108
 10
-0.1856822539756356
 20
2.430417320247395
 10
-0.3968005036731876
 20
2.404985573820497
 10
-0.6048988619430918
 20
2.361250435006832
 10
-0.8083935746256901
 20
2.29954475462077
 10
-1.005735924084001
 20
2.220338150148959
 10
-1.195424015880077
 20
2.124233431677684
 10
-1.376014209098551
 20
2.011962014144126
 10
-1.546132103325688
 20
1.884378350827053
 10
-1.704482998666428
 20
1.742453430441428
 10
-1.849861749192343
 20
1.587267387327997
 10
-1.981161934829841
 20
1.420001280978747
 10
-2.097384281885001
 20
1.241928107461032
 10
-2.19764426811976
 20
1.054403111148845
 10
-2.281178854500239
 20
0.85885347049481
 10
-2.347352292384518
 20
0.6567674363404051
 10
-2.361250435006831
 20
0.6048988619430974
  0
LINE
  5
19F
330
100
100
AcDbEntity
  8
AM_4
100
AcDbLine
 10
-1.775
 20
-2.23625253383923
 30
0.0
 11
-1.775
 21
-0.8510976735956914
 31
0.0
  0
LWPOLYLINE
  5
1A0
330
100
100
AcDbEntity
  8
AM_4
100
AcDbPolyline
 90
       48
 70
     0
 43
0.0
 10
1.775000000000001
 20
-0.8510976735956916
 10
1.842423639005885
 20
-0.6931575466171537
 10
1.895825321633126
 20
-0.5299420721688897
 10
1.934798628832111
 20
-0.3626934185636483
 10
1.95904695020233
 20
-0.1926844490428637
 10
1.968385741376619
 20
-0.0212090345188116
 10
1.962743928515225
 20
0.1504277935642938
 10
1.942164449220644
 20
0.3209197753075898
 10
1.906803925756536
 20
0.4889693637841367
 10
1.856931473057732
 20
0.6532976001545121
 10
1.792926650603078
 20
0.8126538473158355
 10
1.715276573738624
 20
0.9658253080052761
 10
1.624572206435707
 20
1.111646254919531
 10
1.521503863698296
 20
1.249006902603488
 10
1.406855957848989
 20
1.376861853587644
 10
1.281501028677599
 20
1.494238054494081
 10
1.146393102886495
 20
1.600242201560212
 10
1.002560433371343
 20
1.694067539219811
 10
0.851097673595695
 20
1.774999999999999
 10
0.6931575466171572
 20
1.842423639005884
 10
0.5299420721688933
 20
1.895825321633124
 10
0.3626934185636518
 20
1.93479862883211
 10
0.1926844490428673
 20
1.959046950202329
 10
0.0212090345188152
 20
1.968385741376618
 10
-0.1504277935642902
 20
1.962743928515225
 10
-0.3209197753075863
 20
1.942164449220644
 10
-0.4889693637841333
 20
1.906803925756537
 10
-0.6532976001545087
 20
1.856931473057732
 10
-0.8126538473158322
 20
1.792926650603079
 10
-0.9658253080052732
 20
1.715276573738626
 10
-1.111646254919528
 20
1.624572206435709
 10
-1.249006902603485
 20
1.521503863698298
 10
-1.376861853587642
 20
1.406855957848992
 10
-1.494238054494079
 20
1.281501028677602
 10
-1.60024220156021
 20
1.146393102886498
 10
-1.694067539219809
 20
1.002560433371346
 10
-1.774999999999997
 20
0.8510976735956981
 10
-1.842423639005883
 20
0.6931575466171606
 10
-1.895825321633124
 20
0.5299420721688967
 10
-1.934798628832109
 20
0.3626934185636554
 10
-1.959046950202329
 20
0.1926844490428709
 10
-1.968385741376619
 20
0.0212090345188188
 10
-1.962743928515226
 20
-0.1504277935642866
 10
-1.942164449220645
 20
-0.3209197753075826
 10
-1.906803925756538
 20
-0.4889693637841296
 10
-1.856931473057734
 20
-0.6532976001545052
 10
-1.792926650603081
 20
-0.8126538473158289
 10
-1.775000000000001
 20
-0.8510976735956908
  0
LINE
  5
1A1
330
100
100
AcDbEntity
  8
AM_4
100
AcDbLine
 10
1.775
 20
-0.8510976735956914
 30
0.0
 11
1.775000000000001
 21
-2.236252533839232
 31
0.0
  0
LINE
  5
1A2
330
100
100
AcDbEntity
  8
AM_4
100
AcDbLine
 10
1.783875
 20
-2.5
 30
0.0
 11
4.4375
 21
-2.5
 31
0.0
  0
LINE
  5
1A3
330
100
100
AcDbEntity
  8
AM_4
100
AcDbLine
 10
1.783875
 20
-2.267388725
 30
0.0
 11
1.783875
 21
-2.5
 31
0.0
  0
LINE
  5
1A4
330
100
100
AcDbEntity
  8
AM_4
100
AcDbLine
 10
-4.4375
 20
-2.5
 30
0.0
 11
-1.783875
 21
-2.5
 31
0.0
  0
LINE
  5
1A5
330
100
100
AcDbEntity
  8
AM_4
100
AcDbLine
 10
-1.783875
 20
-2.5
 30
0.0
 11
-1.783875
 21
-2.267388725
 31
0.0
  0
LINE
  5
1A6
330
100
100
AcDbEntity
  8
AM_4
100
AcDbLine
 10
-4.202500000000001
 20
-2.5
 30
0.0
 11
-4.202500000000001
 21
-1.625
 31
0.0
  0
LINE
  5
1A7
330
100
100
AcDbEntity
  8
AM_4
100
AcDbLine
 10
-4.3784449
 20
-1.625
 30
0.0
 11
-1.775
 21
-1.625000000000022
 31
0.0
  0
LWPOLYLINE
  5
1A8
330
100
100
AcDbEntity
  8
AM_4
100
AcDbPolyline
 90
       19
 70
     0
 43
0.0
 10
-4.437499999999999
 20
-1.684055100000001
 10
-4.437275277515278
 20
-1.678908108896464
 10
-4.436602820334911
 20
-1.673800289503063
 10
-4.435487746264083
 20
-1.668770515409567
 10
-4.433938541689773
 20
-1.663857066233889
 10
-4.431966996994228
 20
-1.659097336291077
 10
-4.42958811682303
 20
-1.654527550000001
 10
-4.42682000589069
 20
-1.650182486193646
 10
-4.423683731192835
 20
-1.646095213431201
 10
-4.420203161673649
 20
-1.642296838326351
 10
-4.416404786568799
 20
-1.638816268807165
 10
-4.412317513806354
 20
-1.635679994109309
 10
-4.407972449999999
 20
-1.63291188317697
 10
-4.403402663708922
 20
-1.630533003005772
 10
-4.39864293376611
 20
-1.628561458310226
 10
-4.393729484590432
 20
-1.627012253735917
 10
-4.388699710496938
 20
-1.625897179665089
 10
-4.383591891103536
 20
-1.625224722484722
 10
-4.3784449
 20
-1.625
  0
LINE
  5
1A9
330
100
100
AcDbEntity
  8
AM_4
100
AcDbLine
 10
-4.4375
 20
-2.5
 30
0.0
 11
-4.4375
 21
-1.6840551
 31
0.0
  0
LWPOLYLINE
  5
1AA
330
100
100
AcDbEntity
  8
AM_4
100
AcDbPolyline
 90
       19
 70
     0
 43
0.0
 10
4.378444899999999
 20
-1.625
 10
4.383591891103536
 20
-1.625224722484722
 10
4.388699710496937
 20
-1.625897179665089
 10
4.393729484590432
 20
-1.627012253735916
 10
4.39864293376611
 20
-1.628561458310226
 10
4.403402663708922
 20
-1.630533003005772
 10
4.407972449999999
 20
-1.632911883176969
 10
4.412317513806354
 20
-1.635679994109309
 10
4.416404786568799
 20
-1.638816268807164
 10
4.420203161673649
 20
-1.64229683832635
 10
4.423683731192835
 20
-1.6460952134312
 10
4.42682000589069
 20
-1.650182486193645
 10
4.42958811682303
 20
-1.65452755
 10
4.431966996994228
 20
-1.659097336291077
 10
4.433938541689773
 20
-1.663857066233889
 10
4.435487746264084
 20
-1.668770515409567
 10
4.436602820334911
 20
-1.673800289503062
 10
4.437275277515278
 20
-1.678908108896463
 10
4.4375
 20
-1.684055097844476
  0
LINE
  5
1AB
330
100
100
AcDbEntity
  8
AM_4
100
AcDbLine
 10
1.775000000000002
 20
-1.625000000000001
 30
0.0
 11
4.378444899999999
 21
-1.625
 31
0.0
  0
LINE
  5
1AC
330
100
100
AcDbEntity
  8
AM_4
100
AcDbLine
 10
4.202500000000001
 20
-1.625
 30
0.0
 11
4.2025
 21
-2.5
 31
0.0
  0
LINE
  5
1AD
330
100
100
AcDbEntity
  8
AM_4
100
AcDbLine
 10
4.4375
 20
-1.684055100000001
 30
0.0
 11
4.4375
 21
-2.5
 31
0.0
  0
ENDBLK
  5
103
330
100
100
AcDbEntity
  8
0
100
AcDbBlockEnd
  0
ENDSEC
  0
SECTION
  2
ENTITIES
  0
INSERT
  5
6F
330
1F
100
AcDbEntity
  8
0
100
AcDbBlockReference
  2
1_129238_0
 10
0.0
 20
0.0
 30
0.0
  0
POINT
  5
1AF
330
1F
100
AcDbEntity
  8
ConnectionPoints
100
AcDbPoint
 10
0.0
 20
0.0
 30
0.0
  0
POINT
  5
1B0
330
1F
100
AcDbEntity
  8
ConnectionPoints
100
AcDbPoint
 10
0.0
 20
0.0
 30
-0.703125
  0
POINT
  5
1B1
330
1F
100
AcDbEntity
  8
ConnectionPoints
100
AcDbPoint
 10
0.0
 20
0.0
 30
0.0
  0
POINT
  5
1B2
330
1F
100
AcDbEntity
  8
ConnectionPoints
100
AcDbPoint
 10
0.0
 20
0.0
 30
0.0
  0
ENDSEC
  0
SECTION
  2
OBJECTS
  0
DICTIONARY
  5
C
330
0
100
AcDbDictionary
281
     1
  3
ACAD_DETAILVIEWSTYLE
350
1BA
  3
ACAD_GROUP
350
D
  3
ACAD_LAYOUT
350
1A
  3
ACAD_MATERIAL
350
43
  3
ACAD_MLEADERSTYLE
350
6B
  3
ACAD_MLINESTYLE
350
17
  3
ACAD_PLOTSETTINGS
350
19
  3
ACAD_PLOTSTYLENAME
350
E
  3
ACAD_SCALELIST
350
47
  3
ACAD_SECTIONVIEWSTYLE
350
1BB
  3
ACAD_TABLESTYLE
350
69
  3
ACAD_VISUALSTYLE
350
2A
  3
ACDB_RECOMPOSE_DATA
350
1B7
  3
AcDbVariableDictionary
350
1B3
  0
SUN
  5
6D
330
29
100
AcDbSun
 90
        1
290
     0
 63
     7
421
 16777215
 40
1.0
291
     1
 91
  2455826
 92
 54000000
292
     0
 70
     2
 71
   256
280
     1
  0
DICTIONARY
  5
1BA
102
{ACAD_REACTORS
330
C
102
}
330
C
100
AcDbDictionary
281
     1
  0
DICTIONARY
  5
D
102
{ACAD_REACTORS
330
C
102
}
330
C
100
AcDbDictionary
281
     1
  0
DICTIONARY
  5
1A
102
{ACAD_REACTORS
330
C
102
}
330
C
100
AcDbDictionary
281
     1
  3
Layout1
350
1E
  3
Layout2
350
26
  3
Model
350
22
  0
DICTIONARY
  5
43
102
{ACAD_REACTORS
330
C
102
}
330
C
100
AcDbDictionary
281
     1
  3
ByBlock
350
45
  3
ByLayer
350
44
  3
Global
350
46
  0
DICTIONARY
  5
6B
102
{ACAD_REACTORS
330
C
102
}
330
C
100
AcDbDictionary
281
     1
  3
Standard
350
6C
  0
DICTIONARY
  5
17
102
{ACAD_REACTORS
330
C
102
}
330
C
100
AcDbDictionary
281
     1
  3
Standard
350
18
  0
DICTIONARY
  5
19
102
{ACAD_REACTORS
330
C
102
}
330
C
100
AcDbDictionary
281
     1
  0
ACDBDICTIONARYWDFLT
  5
E
102
{ACAD_REACTORS
330
C
102
}
330
C
100
AcDbDictionary
281
     1
  3
Normal
350
F
100
AcDbDictionaryWithDefault
340
F
  0
DICTIONARY
  5
47
102
{ACAD_REACTORS
330
C
102
}
330
C
100
AcDbDictionary
281
     1
  3
A0
350
48
  3
A1
350
49
  3
A2
350
4A
  3
A3
350
4B
  3
A4
350
4C
  3
A5
350
4D
  3
A6
350
4E
  3
A7
350
4F
  3
A8
350
50
  3
A9
350
51
  3
B0
350
52
  3
B1
350
53
  3
B2
350
54
  3
B3
350
55
  3
B4
350
56
  3
B5
350
57
  3
B6
350
58
  3
B7
350
59
  3
B8
350
5A
  3
B9
350
5B
  3
C0
350
5C
  3
C1
350
5D
  3
C2
350
5E
  3
C3
350
5F
  3
C4
350
60
  3
C5
350
61
  3
C6
350
62
  3
C7
350
63
  3
C8
350
64
  3
C9
350
65
  3
D0
350
66
  3
D1
350
67
  3
D2
350
68
  0
DICTIONARY
  5
1BB
102
{ACAD_REACTORS
330
C
102
}
330
C
100
AcDbDictionary
281
     1
  0
DICTIONARY
  5
69
102
{ACAD_REACTORS
330
C
102
}
330
C
100
AcDbDictionary
281
     1
  3
Standard
350
6A
  0
DICTIONARY
  5
2A
102
{ACAD_REACTORS
330
C
102
}
330
C
100
AcDbDictionary
281
     1
  3
2dWireframe
350
2F
  3
Basic
350
32
  3
Brighten
350
36
  3
ColorChange
350
3A
  3
Conceptual
350
34
  3
Dim
350
35
  3
EdgeColorOff
350
3D
  3
Facepattern
350
39
  3
Flat
350
2B
  3
FlatWithEdges
350
2C
  3
Gouraud
350
2D
  3
GouraudWithEdges
350
2E
  3
Hidden
350
31
  3
JitterOff
350
3B
  3
Linepattern
350
38
  3
OverhangOff
350
3C
  3
Realistic
350
33
  3
Shaded
350
42
  3
Shaded with edges
350
41
  3
Shades of Gray
350
3E
  3
Sketchy
350
3F
  3
Thicken
350
37
  3
Wireframe
350
30
  3
X-Ray
350
40
  0
XRECORD
  5
1B7
102
{ACAD_REACTORS
330
C
102
}
330
C
100
AcDbXrecord
280
     1
 90
        1
330
6A
  0
DICTIONARY
  5
1B3
102
{ACAD_REACTORS
330
C
102
}
330
C
100
AcDbDictionary
281
     1
  3
CANNOSCALE
350
1B4
  3
CMLEADERSTYLE
350
1B9
  3
CTABLESTYLE
350
1B8
  0
LAYOUT
  5
1E
102
{ACAD_REACTORS
330
1A
102
}
330
1A
100
AcDbPlotSettings
  1

  2
none_device
  4

  6

 40
0.0
 41
0.0
 42
0.0
 43
0.0
 44
0.0
 45
0.0
 46
0.0
 47
0.0
 48
0.0
 49
0.0
140
0.0
141
0.0
142
1.0
143
1.0
 70
   688
 72
     0
 73
     0
 74
     5
  7

 75
    16
 76
     0
 77
     2
 78
   300
147
1.0
148
0.0
149
0.0
100
AcDbLayout
  1
Layout1
 70
     1
 71
     1
 10
0.0
 20
0.0
 11
12.0
 21
9.0
 12
0.0
 22
0.0
 32
0.0
 14
1.000000000000000E+20
 24
1.000000000000000E+20
 34
1.000000000000000E+20
 15
-1.000000000000000E+20
 25
-1.000000000000000E+20
 35
-1.000000000000000E+20
146
0.0
 13
0.0
 23
0.0
 33
0.0
 16
1.0
 26
0.0
 36
0.0
 17
0.0
 27
1.0
 37
0.0
 76
     0
330
1B
  0
LAYOUT
  5
26
102
{ACAD_REACTORS
330
1A
102
}
330
1A
100
AcDbPlotSettings
  1

  2
none_device
  4

  6

 40
0.0
 41
0.0
 42
0.0
 43
0.0
 44
0.0
 45
0.0
 46
0.0
 47
0.0
 48
0.0
 49
0.0
140
0.0
141
0.0
142
1.0
143
1.0
 70
   688
 72
     0
 73
     0
 74
     5
  7

 75
    16
 76
     0
 77
     2
 78
   300
147
1.0
148
0.0
149
0.0
100
AcDbLayout
  1
Layout2
 70
     1
 71
     2
 10
0.0
 20
0.0
 11
0.0
 21
0.0
 12
0.0
 22
0.0
 32
0.0
 14
0.0
 24
0.0
 34
0.0
 15
0.0
 25
0.0
 35
0.0
146
0.0
 13
0.0
 23
0.0
 33
0.0
 16
1.0
 26
0.0
 36
0.0
 17
0.0
 27
1.0
 37
0.0
 76
     0
330
23
  0
LAYOUT
  5
22
102
{ACAD_REACTORS
330
1A
102
}
330
1A
100
AcDbPlotSettings
  1

  2
none_device
  4
Letter_(8.50_x_11.00_Inches)
  6

 40
6.35
 41
6.35
 42
6.35000508
 43
6.35000508
 44
215.9
 45
279.4
 46
0.0
 47
0.0
 48
0.0
 49
0.0
140
0.0
141
0.0
142
1.0
143
1.0
 70
  1712
 72
     0
 73
     0
 74
     0
  7

 75
     0
 76
     0
 77
     2
 78
   300
147
1.0
148
0.0
149
0.0
100
AcDbLayout
  1
Model
 70
     1
 71
     0
 10
0.0
 20
0.0
 11
12.0
 21
9.0
 12
0.0
 22
0.0
 32
0.0
 14
1.000000000000000E+20
 24
1.000000000000000E+20
 34
1.000000000000000E+20
 15
-1.000000000000000E+20
 25
-1.000000000000000E+20
 35
-1.000000000000000E+20
146
0.0
 13
0.0
 23
0.0
 33
0.0
 16
1.0
 26
0.0
 36
0.0
 17
0.0
 27
1.0
 37
0.0
 76
     0
330
1F
331
29
  0
MATERIAL
  5
45
102
{ACAD_REACTORS
330
43
102
}
330
43
100
AcDbMaterial
  1
ByBlock
 72
     1
 94
      127
  0
MATERIAL
  5
44
102
{ACAD_REACTORS
330
43
102
}
330
43
100
AcDbMaterial
  1
ByLayer
 72
     1
 94
      127
  0
MATERIAL
  5
46
102
{ACAD_REACTORS
330
43
102
}
330
43
100
AcDbMaterial
  1
Global
 72
     1
 94
      127
  0
MLEADERSTYLE
  5
6C
102
{ACAD_REACTORS
330
6B
102
}
330
6B
100
AcDbMLeaderStyle
179
     2
170
     2
171
     1
172
     0
 90
        2
 40
0.0
 41
0.0
173
     1
 91
-1056964608
340
14
 92
       -2
290
     1
 42
0.09
291
     1
 43
0.36
  3
Standard
341
0
 44
0.18
300

342
11
174
     1
178
     6
175
     1
176
     0
 93
-1056964608
 45
0.18
292
     0
297
     0
 46
0.18
343
0
 94
-1056964608
 47
1.0
 49
1.0
140
1.0
293
     1
141
0.0
294
     1
177
     0
142
1.0
295
     0
296
     0
143
0.125
271
     0
272
     9
273
     9
298
     0
  0
MLINESTYLE
  5
18
102
{ACAD_REACTORS
330
17
102
}
330
17
100
AcDbMlineStyle
  2
Standard
 70
     0
  3

 62
   256
 51
90.0
 52
90.0
 71
     2
 49
0.5
 62
   256
  6
BYLAYER
 49
-0.5
 62
   256
  6
BYLAYER
  0
ACDBPLACEHOLDER
  5
F
102
{ACAD_REACTORS
330
E
102
}
330
E
  0
SCALE
  5
48
102
{ACAD_REACTORS
330
47
102
}
330
47
100
AcDbScale
 70
     0
300
1:1
140
1.0
141
1.0
290
     1
  0
SCALE
  5
49
102
{ACAD_REACTORS
330
47
102
}
330
47
100
AcDbScale
 70
     0
300
1:2
140
1.0
141
2.0
290
     0
  0
SCALE
  5
4A
102
{ACAD_REACTORS
330
47
102
}
330
47
100
AcDbScale
 70
     0
300
1:4
140
1.0
141
4.0
290
     0
  0
SCALE
  5
4B
102
{ACAD_REACTORS
330
47
102
}
330
47
100
AcDbScale
 70
     0
300
1:5
140
1.0
141
5.0
290
     0
  0
SCALE
  5
4C
102
{ACAD_REACTORS
330
47
102
}
330
47
100
AcDbScale
 70
     0
300
1:8
140
1.0
141
8.0
290
     0
  0
SCALE
  5
4D
102
{ACAD_REACTORS
330
47
102
}
330
47
100
AcDbScale
 70
     0
300
1:10
140
1.0
141
10.0
290
     0
  0
SCALE
  5
4E
102
{ACAD_REACTORS
330
47
102
}
330
47
100
AcDbScale
 70
     0
300
1:16
140
1.0
141
16.0
290
     0
  0
SCALE
  5
4F
102
{ACAD_REACTORS
330
47
102
}
330
47
100
AcDbScale
 70
     0
300
1:20
140
1.0
141
20.0
290
     0
  0
SCALE
  5
50
102
{ACAD_REACTORS
330
47
102
}
330
47
100
AcDbScale
 70
     0
300
1:30
140
1.0
141
30.0
290
     0
  0
SCALE
  5
51
102
{ACAD_REACTORS
330
47
102
}
330
47
100
AcDbScale
 70
     0
300
1:40
140
1.0
141
40.0
290
     0
  0
SCALE
  5
52
102
{ACAD_REACTORS
330
47
102
}
330
47
100
AcDbScale
 70
     0
300
1:50
140
1.0
141
50.0
290
     0
  0
SCALE
  5
53
102
{ACAD_REACTORS
330
47
102
}
330
47
100
AcDbScale
 70
     0
300
1:100
140
1.0
141
100.0
290
     0
  0
SCALE
  5
54
102
{ACAD_REACTORS
330
47
102
}
330
47
100
AcDbScale
 70
     0
300
2:1
140
2.0
141
1.0
290
     0
  0
SCALE
  5
55
102
{ACAD_REACTORS
330
47
102
}
330
47
100
AcDbScale
 70
     0
300
4:1
140
4.0
141
1.0
290
     0
  0
SCALE
  5
56
102
{ACAD_REACTORS
330
47
102
}
330
47
100
AcDbScale
 70
     0
300
8:1
140
8.0
141
1.0
290
     0
  0
SCALE
  5
57
102
{ACAD_REACTORS
330
47
102
}
330
47
100
AcDbScale
 70
     0
300
10:1
140
10.0
141
1.0
290
     0
  0
SCALE
  5
58
102
{ACAD_REACTORS
330
47
102
}
330
47
100
AcDbScale
 70
     0
300
100:1
140
100.0
141
1.0
290
     0
  0
SCALE
  5
59
102
{ACAD_REACTORS
330
47
102
}
330
47
100
AcDbScale
 70
     0
300
1/128" = 1'-0"
140
0.0078125
141
12.0
290
     0
  0
SCALE
  5
5A
102
{ACAD_REACTORS
330
47
102
}
330
47
100
AcDbScale
 70
     0
300
1/64" = 1'-0"
140
0.015625
141
12.0
290
     0
  0
SCALE
  5
5B
102
{ACAD_REACTORS
330
47
102
}
330
47
100
AcDbScale
 70
     0
300
1/32" = 1'-0"
140
0.03125
141
12.0
290
     0
  0
SCALE
  5
5C
102
{ACAD_REACTORS
330
47
102
}
330
47
100
AcDbScale
 70
     0
300
1/16" = 1'-0"
140
0.0625
141
12.0
290
     0
  0
SCALE
  5
5D
102
{ACAD_REACTORS
330
47
102
}
330
47
100
AcDbScale
 70
     0
300
3/32" = 1'-0"
140
0.09375
141
12.0
290
     0
  0
SCALE
  5
5E
102
{ACAD_REACTORS
330
47
102
}
330
47
100
AcDbScale
 70
     0
300
1/8" = 1'-0"
140
0.125
141
12.0
290
     0
  0
SCALE
  5
5F
102
{ACAD_REACTORS
330
47
102
}
330
47
100
AcDbScale
 70
     0
300
3/16" = 1'-0"
140
0.1875
141
12.0
290
     0
  0
SCALE
  5
60
102
{ACAD_REACTORS
330
47
102
}
330
47
100
AcDbScale
 70
     0
300
1/4" = 1'-0"
140
0.25
141
12.0
290
     0
  0
SCALE
  5
61
102
{ACAD_REACTORS
330
47
102
}
330
47
100
AcDbScale
 70
     0
300
3/8" = 1'-0"
140
0.375
141
12.0
290
     0
  0
SCALE
  5
62
102
{ACAD_REACTORS
330
47
102
}
330
47
100
AcDbScale
 70
     0
300
1/2" = 1'-0"
140
0.5
141
12.0
290
     0
  0
SCALE
  5
63
102
{ACAD_REACTORS
330
47
102
}
330
47
100
AcDbScale
 70
     0
300
3/4" = 1'-0"
140
0.75
141
12.0
290
     0
  0
SCALE
  5
64
102
{ACAD_REACTORS
330
47
102
}
330
47
100
AcDbScale
 70
     0
300
1" = 1'-0"
140
1.0
141
12.0
290
     0
  0
SCALE
  5
65
102
{ACAD_REACTORS
330
47
102
}
330
47
100
AcDbScale
 70
     0
300
1-1/2" = 1'-0"
140
1.5
141
12.0
290
     0
  0
SCALE
  5
66
102
{ACAD_REACTORS
330
47
102
}
330
47
100
AcDbScale
 70
     0
300
3" = 1'-0"
140
3.0
141
12.0
290
     0
  0
SCALE
  5
67
102
{ACAD_REACTORS
330
47
102
}
330
47
100
AcDbScale
 70
     0
300
6" = 1'-0"
140
6.0
141
12.0
290
     0
  0
SCALE
  5
68
102
{ACAD_REACTORS
330
47
102
}
330
47
100
AcDbScale
 70
     0
300
1'-0" = 1'-0"
140
12.0
141
12.0
290
     0
  0
TABLESTYLE
  5
6A
102
{ACAD_REACTORS
330
69
102
}
102
{ACAD_XDICTIONARY
360
1B5
102
}
330
69
100
AcDbTableStyle
  3
Standard
 70
     0
 71
     0
 40
0.06
 41
0.06
280
     0
281
     0
  7
Standard
140
0.18
170
     2
 62
     0
 63
   257
283
     0
 90
        4
 91
        0
  1

274
    -2
284
     1
 64
     0
275
    -2
285
     1
 65
     0
276
    -2
286
     1
 66
     0
277
    -2
287
     1
 67
     0
278
    -2
288
     1
 68
     0
279
    -2
289
     1
 69
     0
  7
Standard
140
0.25
170
     5
 62
     0
 63
   257
283
     0
 90
        4
 91
        0
  1

274
    -2
284
     1
 64
     0
275
    -2
285
     1
 65
     0
276
    -2
286
     1
 66
     0
277
    -2
287
     1
 67
     0
278
    -2
288
     1
 68
     0
279
    -2
289
     1
 69
     0
  7
Standard
140
0.18
170
     5
 62
     0
 63
   257
283
     0
 90
        4
 91
        0
  1

274
    -2
284
     1
 64
     0
275
    -2
285
     1
 65
     0
276
    -2
286
     1
 66
     0
277
    -2
287
     1
 67
     0
278
    -2
288
     1
 68
     0
279
    -2
289
     1
 69
     0
  0
VISUALSTYLE
  5
2F
102
{ACAD_REACTORS
330
2A
102
}
330
2A
100
AcDbVisualStyle
  2
2dWireframe
 70
     4
177
     3
291
     0
 70
    58
 90
        0
176
     1
 90
        2
176
     1
 90
        0
176
     1
 90
        0
176
     1
 40
0.6
176
     1
 40
30.0
176
     1
 62
     7
420
 16777215
176
     1
 90
        1
176
     1
 90
        4
176
     1
 62
     7
176
     1
 62
   257
176
     1
 90
        1
176
     1
 90
        1
176
     1
 40
1.0
176
     1
 90
        0
176
     1
 62
   257
176
     1
 40
1.0
176
     1
 90
        1
176
     1
 90
        6
176
     1
 90
        2
176
     1
 62
     7
176
     1
 90
        5
176
     1
 90
        0
176
     1
 90
        0
176
     1
290
     0
176
     1
 90
        1
176
     1
 40
0.0
176
     1
 90
        0
176
     1
290
     1
176
     1
290
     1
176
     1
290
     0
176
     1
290
     0
176
     1
290
     0
176
     1
290
     0
176
     1
290
     0
176
     1
290
     0
176
     1
290
     0
176
     1
 90
       50
176
     1
 40
0.0
176
     1
 40
1.0
176
     1
 90
        0
176
     1
 62
    18
420
        0
176
     1
 90
       50
176
     1
 90
        3
176
     1
 62
     5
420
      255
176
     1
290
     0
176
     1
 90
       50
176
     1
 90
       50
176
     1
 90
       50
176
     1
290
     0
176
     1
 90
       50
176
     1
 62
   256
176
     0
 40
1.0
176
     0
 90
        2
176
     1
  1
strokes_ogs.tif
176
     1
290
     0
176
     1
 40
1.0
176
     1
 40
1.0
176
     1
  0
VISUALSTYLE
  5
32
102
{ACAD_REACTORS
330
2A
102
}
330
2A
100
AcDbVisualStyle
  2
Basic
 70
     7
177
     3
291
     1
 70
    58
 90
        1
176
     1
 90
        0
176
     1
 90
        1
176
     1
 90
        0
176
     1
 40
0.6
176
     1
 40
30.0
176
     1
 62
     7
420
 16777215
176
     1
 90
        0
176
     1
 90
        4
176
     1
 62
     7
176
     1
 62
   257
176
     1
 90
        1
176
     1
 90
        1
176
     1
 40
1.0
176
     1
 90
        8
176
     1
 62
     7
176
     1
 40
1.0
176
     1
 90
        1
176
     1
 90
        6
176
     1
 90
        2
176
     1
 62
     7
176
     1
 90
        5
176
     1
 90
        0
176
     1
 90
        0
176
     1
290
     0
176
     1
 90
        1
176
     1
 40
0.0
176
     1
 90
        0
176
     1
290
     0
176
     1
290
     1
176
     1
290
     1
176
     1
290
     0
176
     1
290
     0
176
     1
290
     0
176
     1
290
     0
176
     1
290
     0
176
     1
290
     0
176
     1
 90
       50
176
     1
 40
0.0
176
     1
 40
1.0
176
     1
 90
        0
176
     1
 62
    18
420
        0
176
     1
 90
       50
176
     1
 90
        3
176
     1
 62
     5
420
      255
176
     1
290
     0
176
     1
 90
       50
176
     1
 90
       50
176
     1
 90
       50
176
     1
290
     0
176
     1
 90
       50
176
     1
 62
   256
176
     0
 40
1.0
176
     0
 90
        2
176
     1
  1
strokes_ogs.tif
176
     1
290
     0
176
     1
 40
1.0
176
     1
 40
1.0
176
     1
  0
VISUALSTYLE
  5
36
102
{ACAD_REACTORS
330
2A
102
}
330
2A
100
AcDbVisualStyle
  2
Brighten
 70
    12
177
     3
291
     1
 70
    58
 90
        2
176
     1
 90
        2
176
     1
 90
        0
176
     1
 90
        0
176
     1
 40
0.6
176
     1
 40
30.0
176
     1
 62
     7
420
 16777215
176
     1
 90
        1
176
     1
 90
        4
176
     1
 62
     7
176
     1
 62
   257
176
     1
 90
        1
176
     1
 90
        1
176
     1
 40
1.0
176
     1
 90
        8
176
     1
 62
     7
176
     1
 40
1.0
176
     1
 90
        1
176
     1
 90
        6
176
     1
 90
        2
176
     1
 62
     7
176
     1
 90
        5
176
     1
 90
        0
176
     1
 90
        0
176
     1
290
     0
176
     1
 90
        1
176
     1
 40
50.0
176
     1
 90
        0
176
     1
290
     0
176
     1
290
     1
176
     1
290
     1
176
     1
290
     0
176
     1
290
     0
176
     1
290
     0
176
     1
290
     0
176
     1
290
     0
176
     1
290
     0
176
     1
 90
       50
176
     1
 40
0.0
176
     1
 40
1.0
176
     1
 90
        0
176
     1
 62
    18
420
        0
176
     1
 90
       50
176
     1
 90
        3
176
     1
 62
     5
420
      255
176
     1
290
     0
176
     1
 90
       50
176
     1
 90
       50
176
     1
 90
       50
176
     1
290
     0
176
     1
 90
       50
176
     1
 62
   256
176
     0
 40
1.0
176
     0
 90
        2
176
     1
  1
strokes_ogs.tif
176
     1
290
     0
176
     1
 40
1.0
176
     1
 40
1.0
176
     1
  0
VISUALSTYLE
  5
3A
102
{ACAD_REACTORS
330
2A
102
}
330
2A
100
AcDbVisualStyle
  2
ColorChange
 70
    16
177
     3
291
     1
 70
    58
 90
        2
176
     1
 90
        2
176
     1
 90
        3
176
     1
 90
        0
176
     1
 40
0.6
176
     1
 40
30.0
176
     1
 62
     8
420
  8421504
176
     1
 90
        1
176
     1
 90
        4
176
     1
 62
     7
176
     1
 62
   257
176
     1
 90
        1
176
     1
 90
        1
176
     1
 40
1.0
176
     1
 90
        8
176
     1
 62
     8
420
  8421504
176
     1
 40
1.0
176
     1
 90
        1
176
     1
 90
        6
176
     1
 90
        2
176
     1
 62
     7
176
     1
 90
        5
176
     1
 90
        0
176
     1
 90
        0
176
     1
290
     0
176
     1
 90
        1
176
     1
 40
0.0
176
     1
 90
        0
176
     1
290
     0
176
     1
290
     1
176
     1
290
     1
176
     1
290
     0
176
     1
290
     0
176
     1
290
     0
176
     1
290
     0
176
     1
290
     0
176
     1
290
     0
176
     1
 90
       50
176
     1
 40
0.0
176
     1
 40
1.0
176
     1
 90
        0
176
     1
 62
    18
420
        0
176
     1
 90
       50
176
     1
 90
        3
176
     1
 62
     5
420
      255
176
     1
290
     0
176
     1
 90
       50
176
     1
 90
       50
176
     1
 90
       50
176
     1
290
     0
176
     1
 90
       50
176
     1
 62
   256
176
     0
 40
1.0
176
     0
 90
        2
176
     1
  1
strokes_ogs.tif
176
     1
290
     0
176
     1
 40
1.0
176
     1
 40
1.0
176
     1
  0
VISUALSTYLE
  5
34
102
{ACAD_REACTORS
330
2A
102
}
330
2A
100
AcDbVisualStyle
  2
Conceptual
 70
     9
177
     3
291
     0
 70
    58
 90
        3
176
     1
 90
        2
176
     1
 90
        0
176
     1
 90
        0
176
     1
 40
0.6
176
     1
 40
30.0
176
     1
 62
     7
420
 16777215
176
     1
 90
        2
176
     1
 90
        2
176
     1
 62
     7
176
     1
 62
   257
176
     1
 90
        1
176
     1
 90
        1
176
     1
 40
179.0
176
     1
 90
        8
176
     1
 62
     7
176
     1
 40
1.0
176
     1
 90
        1
176
     1
 90
        6
176
     1
 90
        2
176
     1
 62
     7
176
     1
 90
        3
176
     1
 90
        0
176
     1
 90
        0
176
     1
290
     0
176
     1
 90
        1
176
     1
 40
0.0
176
     1
 90
        0
176
     1
290
     0
176
     1
290
     1
176
     1
290
     1
176
     1
290
     0
176
     1
290
     0
176
     1
290
     0
176
     1
290
     0
176
     1
290
     0
176
     1
290
     0
176
     1
 90
       50
176
     1
 40
0.0
176
     1
 40
1.0
176
     1
 90
        0
176
     1
 62
    18
420
        0
176
     1
 90
       50
176
     1
 90
        3
176
     1
 62
     5
420
      255
176
     1
290
     0
176
     1
 90
       50
176
     1
 90
       50
176
     1
 90
       50
176
     1
290
     0
176
     1
 90
       50
176
     1
 62
   256
176
     0
 40
1.0
176
     0
 90
        2
176
     1
  1
strokes_ogs.tif
176
     1
290
     0
176
     1
 40
1.0
176
     1
 40
1.0
176
     1
  0
VISUALSTYLE
  5
35
102
{ACAD_REACTORS
330
2A
102
}
330
2A
100
AcDbVisualStyle
  2
Dim
 70
    11
177
     3
291
     1
 70
    58
 90
        2
176
     1
 90
        2
176
     1
 90
        0
176
     1
 90
        0
176
     1
 40
0.6
176
     1
 40
30.0
176
     1
 62
     7
420
 16777215
176
     1
 90
        1
176
     1
 90
        4
176
     1
 62
     7
176
     1
 62
   257
176
     1
 90
        1
176
     1
 90
        1
176
     1
 40
1.0
176
     1
 90
        8
176
     1
 62
     7
176
     1
 40
1.0
176
     1
 90
        1
176
     1
 90
        6
176
     1
 90
        2
176
     1
 62
     7
176
     1
 90
        5
176
     1
 90
        0
176
     1
 90
        0
176
     1
290
     0
176
     1
 90
        1
176
     1
 40
-50.0
176
     1
 90
        0
176
     1
290
     0
176
     1
290
     1
176
     1
290
     1
176
     1
290
     0
176
     1
290
     0
176
     1
290
     0
176
     1
290
     0
176
     1
290
     0
176
     1
290
     0
176
     1
 90
       50
176
     1
 40
0.0
176
     1
 40
1.0
176
     1
 90
        0
176
     1
 62
    18
420
        0
176
     1
 90
       50
176
     1
 90
        3
176
     1
 62
     5
420
      255
176
     1
290
     0
176
     1
 90
       50
176
     1
 90
       50
176
     1
 90
       50
176
     1
290
     0
176
     1
 90
       50
176
     1
 62
   256
176
     0
 40
1.0
176
     0
 90
        2
176
     1
  1
strokes_ogs.tif
176
     1
290
     0
176
     1
 40
1.0
176
     1
 40
1.0
176
     1
  0
VISUALSTYLE
  5
3D
102
{ACAD_REACTORS
330
2A
102
}
330
2A
100
AcDbVisualStyle
  2
EdgeColorOff
 70
    22
177
     3
291
     1
 70
    58
 90
        2
176
     0
 90
        2
176
     0
 90
        0
176
     0
 90
        0
176
     0
 40
0.6
176
     0
 40
30.0
176
     0
 62
     7
420
 16777215
176
     0
 90
        1
176
     0
 90
        4
176
     0
 62
     7
176
     0
 62
   257
176
     0
 90
        1
176
     0
 90
        1
176
     0
 40
1.0
176
     0
 90
        8
176
     2
 62
     7
176
     0
 40
1.0
176
     0
 90
        1
176
     0
 90
        6
176
     0
 90
        2
176
     0
 62
     7
176
     0
 90
        5
176
     0
 90
        0
176
     0
 90
        0
176
     0
290
     0
176
     0
 90
        1
176
     0
 40
0.0
176
     0
 90
        0
176
     0
290
     0
176
     0
290
     1
176
     0
290
     1
176
     0
290
     0
176
     0
290
     0
176
     0
290
     0
176
     0
290
     0
176
     0
290
     0
176
     0
290
     0
176
     0
 90
       50
176
     0
 40
0.0
176
     0
 40
1.0
176
     0
 90
        0
176
     0
 62
    18
420
        0
176
     0
 90
       50
176
     0
 90
        3
176
     0
 62
     5
420
      255
176
     0
290
     0
176
     0
 90
       50
176
     0
 90
       50
176
     0
 90
       50
176
     0
290
     0
176
     0
 90
       50
176
     0
 62
   256
176
     0
 40
1.0
176
     0
 90
        2
176
     0
  1
strokes_ogs.tif
176
     0
290
     0
176
     0
 40
1.0
176
     0
 40
1.0
176
     0
  0
VISUALSTYLE
  5
39
102
{ACAD_REACTORS
330
2A
102
}
330
2A
100
AcDbVisualStyle
  2
Facepattern
 70
    15
177
     3
291
     1
 70
    58
 90
        2
176
     1
 90
        2
176
     1
 90
        0
176
     1
 90
        0
176
     1
 40
0.6
176
     1
 40
30.0
176
     1
 62
     7
420
 16777215
176
     1
 90
        1
176
     1
 90
        4
176
     1
 62
     7
176
     1
 62
   257
176
     1
 90
        1
176
     1
 90
        1
176
     1
 40
1.0
176
     1
 90
        8
176
     1
 62
     7
176
     1
 40
1.0
176
     1
 90
        1
176
     1
 90
        6
176
     1
 90
        2
176
     1
 62
     7
176
     1
 90
        5
176
     1
 90
        0
176
     1
 90
        0
176
     1
290
     0
176
     1
 90
        1
176
     1
 40
0.0
176
     1
 90
        0
176
     1
290
     0
176
     1
290
     1
176
     1
290
     1
176
     1
290
     0
176
     1
290
     0
176
     1
290
     0
176
     1
290
     0
176
     1
290
     0
176
     1
290
     0
176
     1
 90
       50
176
     1
 40
0.0
176
     1
 40
1.0
176
     1
 90
        0
176
     1
 62
    18
420
        0
176
     1
 90
       50
176
     1
 90
        3
176
     1
 62
     5
420
      255
176
     1
290
     0
176
     1
 90
       50
176
     1
 90
       50
176
     1
 90
       50
176
     1
290
     0
176
     1
 90
       50
176
     1
 62
   256
176
     0
 40
1.0
176
     0
 90
        2
176
     1
  1
strokes_ogs.tif
176
     1
290
     0
176
     1
 40
1.0
176
     1
 40
1.0
176
     1
  0
VISUALSTYLE
  5
2B
102
{ACAD_REACTORS
330
2A
102
}
330
2A
100
AcDbVisualStyle
  2
Flat
 70
     0
177
     3
291
     1
 70
    58
 90
        2
176
     1
 90
        1
176
     1
 90
        1
176
     1
 90
        2
176
     1
 40
0.6
176
     1
 40
30.0
176
     1
 62
     7
420
 16777215
176
     1
 90
        0
176
     1
 90
        0
176
     1
 62
     7
176
     1
 62
   257
176
     1
 90
        1
176
     1
 90
        1
176
     1
 40
1.0
176
     1
 90
        8
176
     1
 62
     7
176
     1
 40
1.0
176
     1
 90
        1
176
     1
 90
        6
176
     1
 90
        2
176
     1
 62
     7
176
     1
 90
        5
176
     1
 90
        0
176
     1
 90
        0
176
     1
290
     0
176
     1
 90
       13
176
     1
 40
0.0
176
     1
 90
        0
176
     1
290
     0
176
     1
290
     1
176
     1
290
     1
176
     1
290
     0
176
     1
290
     0
176
     1
290
     0
176
     1
290
     0
176
     1
290
     0
176
     1
290
     0
176
     1
 90
       50
176
     1
 40
0.0
176
     1
 40
1.0
176
     1
 90
        0
176
     1
 62
    18
420
        0
176
     1
 90
       50
176
     1
 90
        3
176
     1
 62
     5
420
      255
176
     1
290
     0
176
     1
 90
       50
176
     1
 90
       50
176
     1
 90
       50
176
     1
290
     0
176
     1
 90
       50
176
     1
 62
   256
176
     0
 40
1.0
176
     0
 90
        2
176
     1
  1
strokes_ogs.tif
176
     1
290
     0
176
     1
 40
1.0
176
     1
 40
1.0
176
     1
  0
VISUALSTYLE
  5
2C
102
{ACAD_REACTORS
330
2A
102
}
330
2A
100
AcDbVisualStyle
  2
FlatWithEdges
 70
     1
177
     3
291
     1
 70
    58
 90
        2
176
     1
 90
        1
176
     1
 90
        1
176
     1
 90
        2
176
     1
 40
0.6
176
     1
 40
30.0
176
     1
 62
     7
420
 16777215
176
     1
 90
        1
176
     1
 90
        0
176
     1
 62
     7
176
     1
 62
   257
176
     1
 90
        1
176
     1
 90
        1
176
     1
 40
1.0
176
     1
 90
        0
176
     1
 62
   257
176
     1
 40
1.0
176
     1
 90
        1
176
     1
 90
        6
176
     1
 90
        2
176
     1
 62
     7
176
     1
 90
        5
176
     1
 90
        0
176
     1
 90
        0
176
     1
290
     0
176
     1
 90
       13
176
     1
 40
0.0
176
     1
 90
        0
176
     1
290
     0
176
     1
290
     1
176
     1
290
     1
176
     1
290
     0
176
     1
290
     0
176
     1
290
     0
176
     1
290
     0
176
     1
290
     0
176
     1
290
     0
176
     1
 90
       50
176
     1
 40
0.0
176
     1
 40
1.0
176
     1
 90
        0
176
     1
 62
    18
420
        0
176
     1
 90
       50
176
     1
 90
        3
176
     1
 62
     5
420
      255
176
     1
290
     0
176
     1
 90
       50
176
     1
 90
       50
176
     1
 90
       50
176
     1
290
     0
176
     1
 90
       50
176
     1
 62
   256
176
     0
 40
1.0
176
     0
 90
        2
176
     1
  1
strokes_ogs.tif
176
     1
290
     0
176
     1
 40
1.0
176
     1
 40
1.0
176
     1
  0
VISUALSTYLE
  5
2D
102
{ACAD_REACTORS
330
2A
102
}
330
2A
100
AcDbVisualStyle
  2
Gouraud
 70
     2
177
     3
291
     1
 70
    58
 90
        2
176
     1
 90
        2
176
     1
 90
        1
176
     1
 90
        2
176
     1
 40
0.6
176
     1
 40
30.0
176
     1
 62
     7
420
 16777215
176
     1
 90
        0
176
     1
 90
        0
176
     1
 62
     7
176
     1
 62
   257
176
     1
 90
        1
176
     1
 90
        1
176
     1
 40
1.0
176
     1
 90
        0
176
     1
 62
     7
176
     1
 40
1.0
176
     1
 90
        1
176
     1
 90
        6
176
     1
 90
        2
176
     1
 62
     7
176
     1
 90
        5
176
     1
 90
        0
176
     1
 90
        0
176
     1
290
     0
176
     1
 90
       13
176
     1
 40
0.0
176
     1
 90
        0
176
     1
290
     0
176
     1
290
     1
176
     1
290
     1
176
     1
290
     0
176
     1
290
     0
176
     1
290
     0
176
     1
290
     0
176
     1
290
     0
176
     1
290
     0
176
     1
 90
       50
176
     1
 40
0.0
176
     1
 40
1.0
176
     1
 90
        0
176
     1
 62
    18
420
        0
176
     1
 90
       50
176
     1
 90
        3
176
     1
 62
     5
420
      255
176
     1
290
     0
176
     1
 90
       50
176
     1
 90
       50
176
     1
 90
       50
176
     1
290
     0
176
     1
 90
       50
176
     1
 62
   256
176
     0
 40
1.0
176
     0
 90
        2
176
     1
  1
strokes_ogs.tif
176
     1
290
     0
176
     1
 40
1.0
176
     1
 40
1.0
176
     1
  0
VISUALSTYLE
  5
2E
102
{ACAD_REACTORS
330
2A
102
}
330
2A
100
AcDbVisualStyle
  2
GouraudWithEdges
 70
     3
177
     3
291
     1
 70
    58
 90
        2
176
     1
 90
        2
176
     1
 90
        1
176
     1
 90
        2
176
     1
 40
0.6
176
     1
 40
30.0
176
     1
 62
     7
420
 16777215
176
     1
 90
        1
176
     1
 90
        0
176
     1
 62
     7
176
     1
 62
   257
176
     1
 90
        1
176
     1
 90
        1
176
     1
 40
1.0
176
     1
 90
        0
176
     1
 62
   257
176
     1
 40
1.0
176
     1
 90
        1
176
     1
 90
        6
176
     1
 90
        2
176
     1
 62
     7
176
     1
 90
        5
176
     1
 90
        0
176
     1
 90
        0
176
     1
290
     0
176
     1
 90
       13
176
     1
 40
0.0
176
     1
 90
        0
176
     1
290
     0
176
     1
290
     1
176
     1
290
     1
176
     1
290
     0
176
     1
290
     0
176
     1
290
     0
176
     1
290
     0
176
     1
290
     0
176
     1
290
     0
176
     1
 90
       50
176
     1
 40
0.0
176
     1
 40
1.0
176
     1
 90
        0
176
     1
 62
    18
420
        0
176
     1
 90
       50
176
     1
 90
        3
176
     1
 62
     5
420
      255
176
     1
290
     0
176
     1
 90
       50
176
     1
 90
       50
176
     1
 90
       50
176
     1
290
     0
176
     1
 90
       50
176
     1
 62
   256
176
     0
 40
1.0
176
     0
 90
        2
176
     1
  1
strokes_ogs.tif
176
     1
290
     0
176
     1
 40
1.0
176
     1
 40
1.0
176
     1
  0
VISUALSTYLE
  5
31
102
{ACAD_REACTORS
330
2A
102
}
330
2A
100
AcDbVisualStyle
  2
Hidden
 70
     6
177
     3
291
     0
 70
    58
 90
        1
176
     1
 90
        2
176
     1
 90
        2
176
     1
 90
        0
176
     1
 40
0.6
176
     1
 40
30.0
176
     1
 62
     7
420
 16777215
176
     1
 90
        2
176
     1
 90
        2
176
     1
 62
     7
176
     1
 62
   257
176
     1
 90
        2
176
     1
 90
        1
176
     1
 40
40.0
176
     1
 90
        0
176
     1
 62
   257
176
     1
 40
1.0
176
     1
 90
        1
176
     1
 90
        6
176
     1
 90
        2
176
     1
 62
     7
176
     1
 90
        3
176
     1
 90
        0
176
     1
 90
        0
176
     1
290
     0
176
     1
 90
        1
176
     1
 40
0.0
176
     1
 90
        0
176
     1
290
     0
176
     1
290
     1
176
     1
290
     1
176
     1
290
     0
176
     1
290
     0
176
     1
290
     0
176
     1
290
     0
176
     1
290
     0
176
     1
290
     0
176
     1
 90
       50
176
     1
 40
0.0
176
     1
 40
1.0
176
     1
 90
        0
176
     1
 62
    18
420
        0
176
     1
 90
       50
176
     1
 90
        3
176
     1
 62
     5
420
      255
176
     1
290
     0
176
     1
 90
       50
176
     1
 90
       50
176
     1
 90
       50
176
     1
290
     0
176
     1
 90
       50
176
     1
 62
   256
176
     0
 40
1.0
176
     0
 90
        2
176
     1
  1
strokes_ogs.tif
176
     1
290
     0
176
     1
 40
1.0
176
     1
 40
1.0
176
     1
  0
VISUALSTYLE
  5
3B
102
{ACAD_REACTORS
330
2A
102
}
330
2A
100
AcDbVisualStyle
  2
JitterOff
 70
    20
177
     3
291
     1
 70
    58
 90
        2
176
     0
 90
        2
176
     0
 90
        0
176
     0
 90
        0
176
     0
 40
0.6
176
     0
 40
30.0
176
     0
 62
     7
420
 16777215
176
     0
 90
        1
176
     0
 90
        4
176
     0
 62
     7
176
     0
 62
   257
176
     0
 90
        1
176
     0
 90
        1
176
     0
 40
1.0
176
     0
 90
       10
176
     2
 62
     7
176
     0
 40
1.0
176
     0
 90
        1
176
     0
 90
        6
176
     0
 90
        2
176
     0
 62
     7
176
     0
 90
        5
176
     0
 90
        0
176
     0
 90
        0
176
     0
290
     0
176
     0
 90
        1
176
     0
 40
0.0
176
     0
 90
        0
176
     0
290
     0
176
     0
290
     1
176
     0
290
     1
176
     0
290
     0
176
     0
290
     0
176
     0
290
     0
176
     0
290
     0
176
     0
290
     0
176
     0
290
     0
176
     0
 90
       50
176
     0
 40
0.0
176
     0
 40
1.0
176
     0
 90
        0
176
     0
 62
    18
420
        0
176
     0
 90
       50
176
     0
 90
        3
176
     0
 62
     5
420
      255
176
     0
290
     0
176
     0
 90
       50
176
     0
 90
       50
176
     0
 90
       50
176
     0
290
     0
176
     0
 90
       50
176
     0
 62
   256
176
     0
 40
1.0
176
     0
 90
        2
176
     0
  1
strokes_ogs.tif
176
     0
290
     0
176
     0
 40
1.0
176
     0
 40
1.0
176
     0
  0
VISUALSTYLE
  5
38
102
{ACAD_REACTORS
330
2A
102
}
330
2A
100
AcDbVisualStyle
  2
Linepattern
 70
    14
177
     3
291
     1
 70
    58
 90
        2
176
     1
 90
        2
176
     1
 90
        0
176
     1
 90
        0
176
     1
 40
0.6
176
     1
 40
30.0
176
     1
 62
     7
420
 16777215
176
     1
 90
        1
176
     1
 90
        4
176
     1
 62
     7
176
     1
 62
   257
176
     1
 90
        7
176
     1
 90
        7
176
     1
 40
1.0
176
     1
 90
        8
176
     1
 62
     7
176
     1
 40
1.0
176
     1
 90
        1
176
     1
 90
        6
176
     1
 90
        2
176
     1
 62
     7
176
     1
 90
        5
176
     1
 90
        0
176
     1
 90
        0
176
     1
290
     0
176
     1
 90
        1
176
     1
 40
0.0
176
     1
 90
        0
176
     1
290
     0
176
     1
290
     1
176
     1
290
     1
176
     1
290
     0
176
     1
290
     0
176
     1
290
     0
176
     1
290
     0
176
     1
290
     0
176
     1
290
     0
176
     1
 90
       50
176
     1
 40
0.0
176
     1
 40
1.0
176
     1
 90
        0
176
     1
 62
    18
420
        0
176
     1
 90
       50
176
     1
 90
        3
176
     1
 62
     5
420
      255
176
     1
290
     0
176
     1
 90
       50
176
     1
 90
       50
176
     1
 90
       50
176
     1
290
     0
176
     1
 90
       50
176
     1
 62
   256
176
     0
 40
1.0
176
     0
 90
        2
176
     1
  1
strokes_ogs.tif
176
     1
290
     0
176
     1
 40
1.0
176
     1
 40
1.0
176
     1
  0
VISUALSTYLE
  5
3C
102
{ACAD_REACTORS
330
2A
102
}
330
2A
100
AcDbVisualStyle
  2
OverhangOff
 70
    21
177
     3
291
     1
 70
    58
 90
        2
176
     0
 90
        2
176
     0
 90
        0
176
     0
 90
        0
176
     0
 40
0.6
176
     0
 40
30.0
176
     0
 62
     7
420
 16777215
176
     0
 90
        1
176
     0
 90
        4
176
     0
 62
     7
176
     0
 62
   257
176
     0
 90
        1
176
     0
 90
        1
176
     0
 40
1.0
176
     0
 90
        9
176
     2
 62
     7
176
     0
 40
1.0
176
     0
 90
        1
176
     0
 90
        6
176
     0
 90
        2
176
     0
 62
     7
176
     0
 90
        5
176
     0
 90
        0
176
     0
 90
        0
176
     0
290
     0
176
     0
 90
        1
176
     0
 40
0.0
176
     0
 90
        0
176
     0
290
     0
176
     0
290
     1
176
     0
290
     1
176
     0
290
     0
176
     0
290
     0
176
     0
290
     0
176
     0
290
     0
176
     0
290
     0
176
     0
290
     0
176
     0
 90
       50
176
     0
 40
0.0
176
     0
 40
1.0
176
     0
 90
        0
176
     0
 62
    18
420
        0
176
     0
 90
       50
176
     0
 90
        3
176
     0
 62
     5
420
      255
176
     0
290
     0
176
     0
 90
       50
176
     0
 90
       50
176
     0
 90
       50
176
     0
290
     0
176
     0
 90
       50
176
     0
 62
   256
176
     0
 40
1.0
176
     0
 90
        2
176
     0
  1
strokes_ogs.tif
176
     0
290
     0
176
     0
 40
1.0
176
     0
 40
1.0
176
     0
  0
VISUALSTYLE
  5
33
102
{ACAD_REACTORS
330
2A
102
}
330
2A
100
AcDbVisualStyle
  2
Realistic
 70
     8
177
     3
291
     0
 70
    58
 90
        2
176
     1
 90
        3
176
     1
 90
        0
176
     1
 90
        2
176
     1
 40
0.6
176
     1
 40
30.0
176
     1
 62
     7
420
 16777215
176
     1
 90
        0
176
     1
 90
        0
176
     1
 62
     7
176
     1
 62
   257
176
     1
 90
        1
176
     1
 90
        1
176
     1
 40
1.0
176
     1
 90
        8
176
     1
 62
   257
176
     1
 40
1.0
176
     1
 90
        1
176
     1
 90
        6
176
     1
 90
        2
176
     1
 62
     7
176
     1
 90
        3
176
     1
 90
        0
176
     1
 90
        0
176
     1
290
     0
176
     1
 90
       13
176
     1
 40
0.0
176
     1
 90
        0
176
     1
290
     0
176
     1
290
     1
176
     1
290
     1
176
     1
290
     0
176
     1
290
     0
176
     1
290
     0
176
     1
290
     0
176
     1
290
     0
176
     1
290
     0
176
     1
 90
       50
176
     1
 40
0.0
176
     1
 40
1.0
176
     1
 90
        0
176
     1
 62
    18
420
        0
176
     1
 90
       50
176
     1
 90
        3
176
     1
 62
     5
420
      255
176
     1
290
     0
176
     1
 90
       50
176
     1
 90
       50
176
     1
 90
       50
176
     1
290
     0
176
     1
 90
       50
176
     1
 62
   256
176
     0
 40
1.0
176
     0
 90
        2
176
     1
  1
strokes_ogs.tif
176
     1
290
     0
176
     1
 40
1.0
176
     1
 40
1.0
176
     1
  0
VISUALSTYLE
  5
42
102
{ACAD_REACTORS
330
2A
102
}
330
2A
100
AcDbVisualStyle
  2
Shaded
 70
    27
177
     3
291
     0
 70
    58
 90
        2
176
     1
 90
        2
176
     1
 90
        1
176
     1
 90
        2
176
     1
 40
0.6
176
     1
 40
30.0
176
     1
 62
     7
420
 16777215
176
     1
 90
        0
176
     1
 90
        4
176
     1
 62
     7
176
     1
 62
   257
176
     1
 90
        1
176
     1
 90
        1
176
     1
 40
1.0
176
     1
 90
        8
176
     1
 62
   257
176
     1
 40
1.0
176
     1
 90
        1
176
     1
 90
        6
176
     1
 90
        2
176
     1
 62
     8
420
  7895160
176
     1
 90
        3
176
     1
 90
        0
176
     1
 90
        0
176
     1
290
     0
176
     1
 90
        5
176
     1
 40
0.0
176
     1
 90
        0
176
     1
290
     0
176
     1
290
     1
176
     1
290
     1
176
     1
290
     0
176
     1
290
     0
176
     1
290
     0
176
     1
290
     0
176
     1
290
     0
176
     1
290
     0
176
     1
 90
       50
176
     1
 40
0.0
176
     1
 40
1.0
176
     1
 90
        0
176
     1
 62
    18
420
        0
176
     1
 90
       50
176
     1
 90
        3
176
     1
 62
     5
420
      255
176
     1
290
     0
176
     1
 90
       50
176
     1
 90
       50
176
     1
 90
       50
176
     1
290
     0
176
     1
 90
       50
176
     1
 62
   256
176
     0
 40
1.0
176
     0
 90
        2
176
     1
  1
strokes_ogs.tif
176
     1
290
     0
176
     1
 40
1.0
176
     1
 40
1.0
176
     1
  0
VISUALSTYLE
  5
41
102
{ACAD_REACTORS
330
2A
102
}
330
2A
100
AcDbVisualStyle
  2
Shaded with edges
 70
    26
177
     3
291
     0
 70
    58
 90
        2
176
     1
 90
        2
176
     1
 90
        1
176
     1
 90
        2
176
     1
 40
0.6
176
     1
 40
30.0
176
     1
 62
     7
420
 16777215
176
     1
 90
        1
176
     1
 90
       10
176
     1
 62
     7
176
     1
 62
   257
176
     1
 90
        2
176
     1
 90
        1
176
     1
 40
1.0
176
     1
 90
        8
176
     1
 62
   257
176
     1
 40
1.0
176
     1
 90
        1
176
     1
 90
        6
176
     1
 90
        2
176
     1
 62
     7
176
     1
 90
        3
176
     1
 90
        0
176
     1
 90
        0
176
     1
290
     0
176
     1
 90
        5
176
     1
 40
0.0
176
     1
 90
        0
176
     1
290
     0
176
     1
290
     1
176
     1
290
     1
176
     1
290
     0
176
     1
290
     0
176
     1
290
     0
176
     1
290
     0
176
     1
290
     0
176
     1
290
     0
176
     1
 90
       50
176
     1
 40
0.0
176
     1
 40
1.0
176
     1
 90
        0
176
     1
 62
    18
420
        0
176
     1
 90
       50
176
     1
 90
        3
176
     1
 62
     5
420
      255
176
     1
290
     0
176
     1
 90
       50
176
     1
 90
       50
176
     1
 90
       50
176
     1
290
     0
176
     1
 90
       50
176
     1
 62
   256
176
     0
 40
1.0
176
     0
 90
        2
176
     1
  1
strokes_ogs.tif
176
     1
290
     0
176
     1
 40
1.0
176
     1
 40
1.0
176
     1
  0
VISUALSTYLE
  5
3E
102
{ACAD_REACTORS
330
2A
102
}
330
2A
100
AcDbVisualStyle
  2
Shades of Gray
 70
    23
177
     3
291
     0
 70
    58
 90
        2
176
     1
 90
        2
176
     1
 90
        3
176
     1
 90
        0
176
     1
 40
0.6
176
     1
 40
30.0
176
     1
 62
     7
420
 16777215
176
     1
 90
        2
176
     1
 90
        2
176
     1
 62
     7
176
     1
 62
     7
176
     1
 90
        1
176
     1
 90
        1
176
     1
 40
40.0
176
     1
 90
        8
176
     1
 62
     7
176
     1
 40
1.0
176
     1
 90
        1
176
     1
 90
        6
176
     1
 90
        2
176
     1
 62
     7
176
     1
 90
        3
176
     1
 90
        0
176
     1
 90
        0
176
     1
290
     0
176
     1
 90
        1
176
     1
 40
0.0
176
     1
 90
        0
176
     1
290
     0
176
     1
290
     1
176
     1
290
     1
176
     1
290
     0
176
     1
290
     0
176
     1
290
     0
176
     1
290
     0
176
     1
290
     0
176
     1
290
     0
176
     1
 90
       50
176
     1
 40
0.0
176
     1
 40
1.0
176
     1
 90
        0
176
     1
 62
    18
420
        0
176
     1
 90
       50
176
     1
 90
        3
176
     1
 62
     5
420
      255
176
     1
290
     0
176
     1
 90
       50
176
     1
 90
       50
176
     1
 90
       50
176
     1
290
     0
176
     1
 90
       50
176
     1
 62
   256
176
     0
 40
1.0
176
     0
 90
        2
176
     1
  1
strokes_ogs.tif
176
     1
290
     0
176
     1
 40
1.0
176
     1
 40
1.0
176
     1
  0
VISUALSTYLE
  5
3F
102
{ACAD_REACTORS
330
2A
102
}
330
2A
100
AcDbVisualStyle
  2
Sketchy
 70
    24
177
     3
291
     0
 70
    58
 90
        1
176
     1
 90
        2
176
     1
 90
        2
176
     1
 90
        0
176
     1
 40
0.6
176
     1
 40
30.0
176
     1
 62
     7
420
 16777215
176
     1
 90
        2
176
     1
 90
        2
176
     1
 62
     7
176
     1
 62
     7
176
     1
 90
        1
176
     1
 90
        1
176
     1
 40
40.0
176
     1
 90
       11
176
     1
 62
     7
176
     1
 40
1.0
176
     1
 90
        1
176
     1
 90
        6
176
     1
 90
        2
176
     1
 62
     7
176
     1
 90
        6
176
     1
 90
        0
176
     1
 90
        0
176
     1
290
     0
176
     1
 90
        1
176
     1
 40
0.0
176
     1
 90
        0
176
     1
290
     0
176
     1
290
     1
176
     1
290
     1
176
     1
290
     0
176
     1
290
     0
176
     1
290
     0
176
     1
290
     0
176
     1
290
     0
176
     1
290
     0
176
     1
 90
       50
176
     1
 40
0.0
176
     1
 40
1.0
176
     1
 90
        0
176
     1
 62
    18
420
        0
176
     1
 90
       50
176
     1
 90
        3
176
     1
 62
     5
420
      255
176
     1
290
     0
176
     1
 90
       50
176
     1
 90
       50
176
     1
 90
       50
176
     1
290
     0
176
     1
 90
       50
176
     1
 62
   256
176
     0
 40
1.0
176
     0
 90
        2
176
     1
  1
strokes_ogs.tif
176
     1
290
     0
176
     1
 40
1.0
176
     1
 40
1.0
176
     1
  0
VISUALSTYLE
  5
37
102
{ACAD_REACTORS
330
2A
102
}
330
2A
100
AcDbVisualStyle
  2
Thicken
 70
    13
177
     3
291
     1
 70
    58
 90
        2
176
     1
 90
        2
176
     1
 90
        0
176
     1
 90
        0
176
     1
 40
0.6
176
     1
 40
30.0
176
     1
 62
     7
420
 16777215
176
     1
 90
        1
176
     1
 90
        4
176
     1
 62
     7
176
     1
 62
   257
176
     1
 90
        1
176
     1
 90
        1
176
     1
 40
1.0
176
     1
 90
       12
176
     1
 62
     7
176
     1
 40
1.0
176
     1
 90
        1
176
     1
 90
        6
176
     1
 90
        2
176
     1
 62
     7
176
     1
 90
        5
176
     1
 90
        0
176
     1
 90
        0
176
     1
290
     0
176
     1
 90
        1
176
     1
 40
0.0
176
     1
 90
        0
176
     1
290
     0
176
     1
290
     1
176
     1
290
     1
176
     1
290
     0
176
     1
290
     0
176
     1
290
     0
176
     1
290
     0
176
     1
290
     0
176
     1
290
     0
176
     1
 90
       50
176
     1
 40
0.0
176
     1
 40
1.0
176
     1
 90
        0
176
     1
 62
    18
420
        0
176
     1
 90
       50
176
     1
 90
        3
176
     1
 62
     5
420
      255
176
     1
290
     0
176
     1
 90
       50
176
     1
 90
       50
176
     1
 90
       50
176
     1
290
     0
176
     1
 90
       50
176
     1
 62
   256
176
     0
 40
1.0
176
     0
 90
        2
176
     1
  1
strokes_ogs.tif
176
     1
290
     0
176
     1
 40
1.0
176
     1
 40
1.0
176
     1
  0
VISUALSTYLE
  5
30
102
{ACAD_REACTORS
330
2A
102
}
330
2A
100
AcDbVisualStyle
  2
Wireframe
 70
     5
177
     3
291
     0
 70
    58
 90
        0
176
     1
 90
        2
176
     1
 90
        0
176
     1
 90
        0
176
     1
 40
0.6
176
     1
 40
30.0
176
     1
 62
     7
420
 16777215
176
     1
 90
        1
176
     1
 90
        4
176
     1
 62
     7
176
     1
 62
   257
176
     1
 90
        1
176
     1
 90
        1
176
     1
 40
1.0
176
     1
 90
        0
176
     1
 62
   257
176
     1
 40
1.0
176
     1
 90
        1
176
     1
 90
        6
176
     1
 90
        2
176
     1
 62
     7
176
     1
 90
        3
176
     1
 90
        0
176
     1
 90
        0
176
     1
290
     0
176
     1
 90
        1
176
     1
 40
0.0
176
     1
 90
        0
176
     1
290
     0
176
     1
290
     1
176
     1
290
     1
176
     1
290
     0
176
     1
290
     0
176
     1
290
     0
176
     1
290
     0
176
     1
290
     0
176
     1
290
     0
176
     1
 90
       50
176
     1
 40
0.0
176
     1
 40
1.0
176
     1
 90
        0
176
     1
 62
    18
420
        0
176
     1
 90
       50
176
     1
 90
        3
176
     1
 62
     5
420
      255
176
     1
290
     0
176
     1
 90
       50
176
     1
 90
       50
176
     1
 90
       50
176
     1
290
     0
176
     1
 90
       50
176
     1
 62
   256
176
     0
 40
1.0
176
     0
 90
        2
176
     1
  1
strokes_ogs.tif
176
     1
290
     0
176
     1
 40
1.0
176
     1
 40
1.0
176
     1
  0
VISUALSTYLE
  5
40
102
{ACAD_REACTORS
330
2A
102
}
330
2A
100
AcDbVisualStyle
  2
X-Ray
 70
    25
177
     3
291
     0
 70
    58
 90
        2
176
     1
 90
        2
176
     1
 90
        1
176
     1
 90
        1
176
     1
 40
0.5
176
     1
 40
30.0
176
     1
 62
     7
420
 16777215
176
     1
 90
        1
176
     1
 90
        0
176
     1
 62
     7
176
     1
 62
   257
176
     1
 90
        1
176
     1
 90
        1
176
     1
 40
1.0
176
     1
 90
        8
176
     1
 62
     7
176
     1
 40
1.0
176
     1
 90
        1
176
     1
 90
        6
176
     1
 90
        2
176
     1
 62
     7
176
     1
 90
        3
176
     1
 90
        0
176
     1
 90
        0
176
     1
290
     0
176
     1
 90
       13
176
     1
 40
0.0
176
     1
 90
        0
176
     1
290
     0
176
     1
290
     1
176
     1
290
     1
176
     1
290
     0
176
     1
290
     0
176
     1
290
     0
176
     1
290
     0
176
     1
290
     0
176
     1
290
     0
176
     1
 90
       50
176
     1
 40
0.0
176
     1
 40
1.0
176
     1
 90
        0
176
     1
 62
    18
420
        0
176
     1
 90
       50
176
     1
 90
        3
176
     1
 62
     5
420
      255
176
     1
290
     0
176
     1
 90
       50
176
     1
 90
       50
176
     1
 90
       50
176
     1
290
     0
176
     1
 90
       50
176
     1
 62
   256
176
     0
 40
1.0
176
     0
 90
        2
176
     1
  1
strokes_ogs.tif
176
     1
290
     0
176
     1
 40
1.0
176
     1
 40
1.0
176
     1
  0
DICTIONARYVAR
  5
1B4
102
{ACAD_REACTORS
330
1B3
102
}
330
1B3
100
DictionaryVariables
280
     0
  1
1:1
  0
DICTIONARYVAR
  5
1B9
102
{ACAD_REACTORS
330
1B3
102
}
330
1B3
100
DictionaryVariables
280
     0
  1
Standard
  0
DICTIONARYVAR
  5
1B8
102
{ACAD_REACTORS
330
1B3
102
}
330
1B3
100
DictionaryVariables
280
     0
  1
Standard
  0
DICTIONARY
  5
1B5
330
6A
100
AcDbDictionary
280
     1
281
     1
  3
ACAD_ROUNDTRIP_2008_TABLESTYLE_CELLSTYLEMAP
360
1B6
  0
CELLSTYLEMAP
  5
1B6
102
{ACAD_REACTORS
330
1B5
102
}
330
1B5
100
AcDbCellStyleMap
 90
        3
300
CELLSTYLE
  1
TABLEFORMAT_BEGIN
 90
        5
170
     1
 91
        0
 92
    32768
 62
   257
 93
        1
300
CONTENTFORMAT
  1
CONTENTFORMAT_BEGIN
 90
        0
 91
        0
 92
        4
 93
        0
300

 40
0.0
140
1.0
 94
        5
 62
     0
340
11
144
0.25
309
CONTENTFORMAT_END
171
     1
301
MARGIN
  1
CELLMARGIN_BEGIN
 40
0.06
 40
0.06
 40
0.06
 40
0.06
 40
0.06
 40
0.06
309
CELLMARGIN_END
 94
        6
 95
        1
302
GRIDFORMAT
  1
GRIDFORMAT_BEGIN
 90
        0
 91
        1
 62
     0
 92
       -2
340
14
 93
        0
 40
0.045
309
GRIDFORMAT_END
 95
        2
302
GRIDFORMAT
  1
GRIDFORMAT_BEGIN
 90
        0
 91
        1
 62
     0
 92
       -2
340
14
 93
        0
 40
0.045
309
GRIDFORMAT_END
 95
        4
302
GRIDFORMAT
  1
GRIDFORMAT_BEGIN
 90
        0
 91
        1
 62
     0
 92
       -2
340
14
 93
        0
 40
0.045
309
GRIDFORMAT_END
 95
        8
302
GRIDFORMAT
  1
GRIDFORMAT_BEGIN
 90
        0
 91
        1
 62
     0
 92
       -2
340
14
 93
        0
 40
0.045
309
GRIDFORMAT_END
 95
       16
302
GRIDFORMAT
  1
GRIDFORMAT_BEGIN
 90
        0
 91
        1
 62
     0
 92
       -2
340
14
 93
        0
 40
0.045
309
GRIDFORMAT_END
 95
       32
302
GRIDFORMAT
  1
GRIDFORMAT_BEGIN
 90
        0
 91
        1
 62
     0
 92
       -2
340
14
 93
        0
 40
0.045
309
GRIDFORMAT_END
309
TABLEFORMAT_END
  1
CELLSTYLE_BEGIN
 90
        1
 91
        1
300
_TITLE
309
CELLSTYLE_END
300
CELLSTYLE
  1
TABLEFORMAT_BEGIN
 90
        5
170
     1
 91
        0
 92
        0
 62
   257
 93
        1
300
CONTENTFORMAT
  1
CONTENTFORMAT_BEGIN
 90
        0
 91
        0
 92
        4
 93
        0
300

 40
0.0
140
1.0
 94
        5
 62
     0
340
11
144
0.18
309
CONTENTFORMAT_END
171
     1
301
MARGIN
  1
CELLMARGIN_BEGIN
 40
0.06
 40
0.06
 40
0.06
 40
0.06
 40
0.06
 40
0.06
309
CELLMARGIN_END
 94
        6
 95
        1
302
GRIDFORMAT
  1
GRIDFORMAT_BEGIN
 90
        0
 91
        1
 62
     0
 92
       -2
340
14
 93
        0
 40
0.045
309
GRIDFORMAT_END
 95
        2
302
GRIDFORMAT
  1
GRIDFORMAT_BEGIN
 90
        0
 91
        1
 62
     0
 92
       -2
340
14
 93
        0
 40
0.045
309
GRIDFORMAT_END
 95
        4
302
GRIDFORMAT
  1
GRIDFORMAT_BEGIN
 90
        0
 91
        1
 62
     0
 92
       -2
340
14
 93
        0
 40
0.045
309
GRIDFORMAT_END
 95
        8
302
GRIDFORMAT
  1
GRIDFORMAT_BEGIN
 90
        0
 91
        1
 62
     0
 92
       -2
340
14
 93
        0
 40
0.045
309
GRIDFORMAT_END
 95
       16
302
GRIDFORMAT
  1
GRIDFORMAT_BEGIN
 90
        0
 91
        1
 62
     0
 92
       -2
340
14
 93
        0
 40
0.045
309
GRIDFORMAT_END
 95
       32
302
GRIDFORMAT
  1
GRIDFORMAT_BEGIN
 90
        0
 91
        1
 62
     0
 92
       -2
340
14
 93
        0
 40
0.045
309
GRIDFORMAT_END
309
TABLEFORMAT_END
  1
CELLSTYLE_BEGIN
 90
        2
 91
        1
300
_HEADER
309
CELLSTYLE_END
300
CELLSTYLE
  1
TABLEFORMAT_BEGIN
 90
        5
170
     1
 91
        0
 92
        0
 62
   257
 93
        1
300
CONTENTFORMAT
  1
CONTENTFORMAT_BEGIN
 90
        0
 91
        0
 92
        4
 93
        0
300

 40
0.0
140
1.0
 94
        2
 62
     0
340
11
144
0.18
309
CONTENTFORMAT_END
171
     1
301
MARGIN
  1
CELLMARGIN_BEGIN
 40
0.06
 40
0.06
 40
0.06
 40
0.06
 40
0.06
 40
0.06
309
CELLMARGIN_END
 94
        6
 95
        1
302
GRIDFORMAT
  1
GRIDFORMAT_BEGIN
 90
        0
 91
        1
 62
     0
 92
       -2
340
14
 93
        0
 40
0.045
309
GRIDFORMAT_END
 95
        2
302
GRIDFORMAT
  1
GRIDFORMAT_BEGIN
 90
        0
 91
        1
 62
     0
 92
       -2
340
14
 93
        0
 40
0.045
309
GRIDFORMAT_END
 95
        4
302
GRIDFORMAT
  1
GRIDFORMAT_BEGIN
 90
        0
 91
        1
 62
     0
 92
       -2
340
14
 93
        0
 40
0.045
309
GRIDFORMAT_END
 95
        8
302
GRIDFORMAT
  1
GRIDFORMAT_BEGIN
 90
        0
 91
        1
 62
     0
 92
       -2
340
14
 93
        0
 40
0.045
309
GRIDFORMAT_END
 95
       16
302
GRIDFORMAT
  1
GRIDFORMAT_BEGIN
 90
        0
 91
        1
 62
     0
 92
       -2
340
14
 93
        0
 40
0.045
309
GRIDFORMAT_END
 95
       32
302
GRIDFORMAT
  1
GRIDFORMAT_BEGIN
 90
        0
 91
        1
 62
     0
 92
       -2
340
14
 93
        0
 40
0.045
309
GRIDFORMAT_END
309
TABLEFORMAT_END
  1
CELLSTYLE_BEGIN
 90
        3
 91
        2
300
_DATA
309
CELLSTYLE_END
  0
ENDSEC
  0
EOF