0
SECTION
  2
HEADER
  9
$ACADVER
  1
AC1027
  9
$ACADMAINTVER
 70
     8
  9
$DWGCODEPAGE
  3
ANSI_1252
  9
$REQUIREDVERSIONS
160
                 0
  9
$COMMENTS
  1
File was created by Cadenas
  9
$CUSTOMPROPERTYTAG
  1
NN
  9
$CUSTOMPROPERTY
  1
Grip Tight Medium Duty Air-Handling Two-Bolt Pillow Block Inch Bore
  9
$CUSTOMPROPERTYTAG
  1
NT
  9
$CUSTOMPROPERTY
  1
GTMAH Air Handling Medium Duty Pillow Blocks
  9
$CUSTOMPROPERTYTAG
  1
NB
  9
$CUSTOMPROPERTY
  1
129234
  9
$CUSTOMPROPERTYTAG
  1
NBSYN
  9
$CUSTOMPROPERTY
  1
$PN.$LUBE.
  9
$CUSTOMPROPERTYTAG
  1
LINA
  9
$CUSTOMPROPERTY
  1
129234
  9
$CUSTOMPROPERTYTAG
  1
SERIES
  9
$CUSTOMPROPERTY
  1
206
  9
$CUSTOMPROPERTYTAG
  1
SS
  9
$CUSTOMPROPERTY
  1
1
  9
$CUSTOMPROPERTYTAG
  1
PN
  9
$CUSTOMPROPERTY
  1
129234
  9
$CUSTOMPROPERTYTAG
  1
DESCRIPTION
  9
$CUSTOMPROPERTY
  1
P2B-GTMAH-100
  9
$CUSTOMPROPERTYTAG
  1
A
  9
$CUSTOMPROPERTY
  1
1-39/64
  9
$CUSTOMPROPERTYTAG
  1
B
  9
$CUSTOMPROPERTY
  1
6-1/4
  9
$CUSTOMPROPERTYTAG
  1
C
  9
$CUSTOMPROPERTY
  1
1-47/64
  9
$CUSTOMPROPERTYTAG
  1
DMIN
  9
$CUSTOMPROPERTY
  1
4-1/4
  9
$CUSTOMPROPERTYTAG
  1
DMAX
  9
$CUSTOMPROPERTY
  1
5
  9
$CUSTOMPROPERTYTAG
  1
F
  9
$CUSTOMPROPERTY
  1
1/2
  9
$CUSTOMPROPERTYTAG
  1
G
  9
$CUSTOMPROPERTY
  1
15/16
  9
$CUSTOMPROPERTYTAG
  1
H
  9
$CUSTOMPROPERTY
  1
5/8
  9
$CUSTOMPROPERTYTAG
  1
J
  9
$CUSTOMPROPERTY
  1
3-1/4
  9
$CUSTOMPROPERTYTAG
  1
L
  9
$CUSTOMPROPERTY
  1
2
  9
$CUSTOMPROPERTYTAG
  1
M
  9
$CUSTOMPROPERTY
  1
1-5/8
  9
$CUSTOMPROPERTYTAG
  1
R
  9
$CUSTOMPROPERTY
  1
17/32
  9
$CUSTOMPROPERTYTAG
  1
S
  9
$CUSTOMPROPERTY
  1
1-5/64
  9
$CUSTOMPROPERTYTAG
  1
U
  9
$CUSTOMPROPERTY
  1
2-7/8
  9
$CUSTOMPROPERTYTAG
  1
V
  9
$CUSTOMPROPERTY
  1
5-3/4
  9
$CUSTOMPROPERTYTAG
  1
W
  9
$CUSTOMPROPERTY
  1
9/16
  9
$CUSTOMPROPERTYTAG
  1
X
  9
$CUSTOMPROPERTY
  1
3/16
  9
$CUSTOMPROPERTYTAG
  1
Z
  9
$CUSTOMPROPERTY
  1
1-1/32
  9
$CUSTOMPROPERTYTAG
  1
COMPANY
  9
$CUSTOMPROPERTY
  1
baldor
  9
$INSBASE
 10
0.0
 20
0.0
 30
0.0
  9
$EXTMIN
 10
1.000000000000000E+20
 20
1.000000000000000E+20
 30
1.000000000000000E+20
  9
$EXTMAX
 10
-1.000000000000000E+20
 20
-1.000000000000000E+20
 30
-1.000000000000000E+20
  9
$LIMMIN
 10
0.0
 20
0.0
  9
$LIMMAX
 10
12.0
 20
9.0
  9
$ORTHOMODE
 70
     0
  9
$REGENMODE
 70
     1
  9
$FILLMODE
 70
     1
  9
$QTEXTMODE
 70
     0
  9
$MIRRTEXT
 70
     1
  9
$LTSCALE
 40
1.0
  9
$ATTMODE
 70
     1
  9
$TEXTSIZE
 40
0.2
  9
$TRACEWID
 40
0.05
  9
$TEXTSTYLE
  7
Standard
  9
$CLAYER
  8
0
  9
$CELTYPE
  6
ByLayer
  9
$CECOLOR
 62
   256
  9
$CELTSCALE
 40
1.0
  9
$DISPSILH
 70
     0
  9
$DIMSCALE
 40
1.0
  9
$DIMASZ
 40
0.18
  9
$DIMEXO
 40
0.0625
  9
$DIMDLI
 40
0.38
  9
$DIMRND
 40
0.0
  9
$DIMDLE
 40
0.0
  9
$DIMEXE
 40
0.18
  9
$DIMTP
 40
0.0
  9
$DIMTM
 40
0.0
  9
$DIMTXT
 40
0.18
  9
$DIMCEN
 40
0.09
  9
$DIMTSZ
 40
0.0
  9
$DIMTOL
 70
     0
  9
$DIMLIM
 70
     0
  9
$DIMTIH
 70
     1
  9
$DIMTOH
 70
     1
  9
$DIMSE1
 70
     0
  9
$DIMSE2
 70
     0
  9
$DIMTAD
 70
     0
  9
$DIMZIN
 70
     0
  9
$DIMBLK
  1

  9
$DIMASO
 70
     1
  9
$DIMSHO
 70
     1
  9
$DIMPOST
  1

  9
$DIMAPOST
  1

  9
$DIMALT
 70
     0
  9
$DIMALTD
 70
     2
  9
$DIMALTF
 40
25.4
  9
$DIMLFAC
 40
1.0
  9
$DIMTOFL
 70
     0
  9
$DIMTVP
 40
0.0
  9
$DIMTIX
 70
     0
  9
$DIMSOXD
 70
     0
  9
$DIMSAH
 70
     0
  9
$DIMBLK1
  1

  9
$DIMBLK2
  1

  9
$DIMSTYLE
  2
Standard
  9
$DIMCLRD
 70
     0
  9
$DIMCLRE
 70
     0
  9
$DIMCLRT
 70
     0
  9
$DIMTFAC
 40
1.0
  9
$DIMGAP
 40
0.09
  9
$DIMJUST
 70
     0
  9
$DIMSD1
 70
     0
  9
$DIMSD2
 70
     0
  9
$DIMTOLJ
 70
     1
  9
$DIMTZIN
 70
     0
  9
$DIMALTZ
 70
     0
  9
$DIMALTTZ
 70
     0
  9
$DIMUPT
 70
     0
  9
$DIMDEC
 70
     4
  9
$DIMTDEC
 70
     4
  9
$DIMALTU
 70
     2
  9
$DIMALTTD
 70
     2
  9
$DIMTXSTY
  7
Standard
  9
$DIMAUNIT
 70
     0
  9
$DIMADEC
 70
     0
  9
$DIMALTRND
 40
0.0
  9
$DIMAZIN
 70
     0
  9
$DIMDSEP
 70
    46
  9
$DIMATFIT
 70
     3
  9
$DIMFRAC
 70
     0
  9
$DIMLDRBLK
  1

  9
$DIMLUNIT
 70
     2
  9
$DIMLWD
 70
    -2
  9
$DIMLWE
 70
    -2
  9
$DIMTMOVE
 70
     0
  9
$DIMFXL
 40
1.0
  9
$DIMFXLON
 70
     0
  9
$DIMJOGANG
 40
0.7853981633974483
  9
$DIMTFILL
 70
     0
  9
$DIMTFILLCLR
 70
     0
  9
$DIMARCSYM
 70
     0
  9
$DIMLTYPE
  6

  9
$DIMLTEX1
  6

  9
$DIMLTEX2
  6

  9
$DIMTXTDIRECTION
 70
     0
  9
$LUNITS
 70
     2
  9
$LUPREC
 70
     4
  9
$SKETCHINC
 40
0.1
  9
$FILLETRAD
 40
0.5
  9
$AUNITS
 70
     0
  9
$AUPREC
 70
     0
  9
$MENU
  1
.
  9
$ELEVATION
 40
0.0
  9
$PELEVATION
 40
0.0
  9
$THICKNESS
 40
0.0
  9
$LIMCHECK
 70
     0
  9
$CHAMFERA
 40
0.0
  9
$CHAMFERB
 40
0.0
  9
$CHAMFERC
 40
0.0
  9
$CHAMFERD
 40
0.0
  9
$SKPOLY
 70
     0
  9
$TDCREATE
 40
2458168.993451308
  9
$TDUCREATE
 40
2458168.951784641
  9
$TDUPDATE
 40
2458168.993451482
  9
$TDUUPDATE
 40
2458168.951784815
  9
$TDINDWG
 40
0.0000000116
  9
$TDUSRTIMER
 40
0.0000000116
  9
$USRTIMER
 70
     1
  9
$ANGBASE
 50
0.0
  9
$ANGDIR
 70
     0
  9
$PDMODE
 70
     0
  9
$PDSIZE
 40
0.0
  9
$PLINEWID
 40
0.0
  9
$SPLFRAME
 70
     0
  9
$SPLINETYPE
 70
     6
  9
$SPLINESEGS
 70
     8
  9
$HANDSEED
  5
27D
  9
$SURFTAB1
 70
     6
  9
$SURFTAB2
 70
     6
  9
$SURFTYPE
 70
     6
  9
$SURFU
 70
     6
  9
$SURFV
 70
     6
  9
$UCSBASE
  2

  9
$UCSNAME
  2

  9
$UCSORG
 10
0.0
 20
0.0
 30
0.0
  9
$UCSXDIR
 10
1.0
 20
0.0
 30
0.0
  9
$UCSYDIR
 10
0.0
 20
1.0
 30
0.0
  9
$UCSORTHOREF
  2

  9
$UCSORTHOVIEW
 70
     0
  9
$UCSORGTOP
 10
0.0
 20
0.0
 30
0.0
  9
$UCSORGBOTTOM
 10
0.0
 20
0.0
 30
0.0
  9
$UCSORGLEFT
 10
0.0
 20
0.0
 30
0.0
  9
$UCSORGRIGHT
 10
0.0
 20
0.0
 30
0.0
  9
$UCSORGFRONT
 10
0.0
 20
0.0
 30
0.0
  9
$UCSORGBACK
 10
0.0
 20
0.0
 30
0.0
  9
$PUCSBASE
  2

  9
$PUCSNAME
  2

  9
$PUCSORG
 10
0.0
 20
0.0
 30
0.0
  9
$PUCSXDIR
 10
1.0
 20
0.0
 30
0.0
  9
$PUCSYDIR
 10
0.0
 20
1.0
 30
0.0
  9
$PUCSORTHOREF
  2

  9
$PUCSORTHOVIEW
 70
     0
  9
$PUCSORGTOP
 10
0.0
 20
0.0
 30
0.0
  9
$PUCSORGBOTTOM
 10
0.0
 20
0.0
 30
0.0
  9
$PUCSORGLEFT
 10
0.0
 20
0.0
 30
0.0
  9
$PUCSORGRIGHT
 10
0.0
 20
0.0
 30
0.0
  9
$PUCSORGFRONT
 10
0.0
 20
0.0
 30
0.0
  9
$PUCSORGBACK
 10
0.0
 20
0.0
 30
0.0
  9
$USERI1
 70
     0
  9
$USERI2
 70
     0
  9
$USERI3
 70
     0
  9
$USERI4
 70
     0
  9
$USERI5
 70
     0
  9
$USERR1
 40
0.0
  9
$USERR2
 40
0.0
  9
$USERR3
 40
0.0
  9
$USERR4
 40
0.0
  9
$USERR5
 40
0.0
  9
$WORLDVIEW
 70
     1
  9
$SHADEDGE
 70
     3
  9
$SHADEDIF
 70
    70
  9
$TILEMODE
 70
     1
  9
$MAXACTVP
 70
    64
  9
$PINSBASE
 10
0.0
 20
0.0
 30
0.0
  9
$PLIMCHECK
 70
     0
  9
$PEXTMIN
 10
1.000000000000000E+20
 20
1.000000000000000E+20
 30
1.000000000000000E+20
  9
$PEXTMAX
 10
-1.000000000000000E+20
 20
-1.000000000000000E+20
 30
-1.000000000000000E+20
  9
$PLIMMIN
 10
0.0
 20
0.0
  9
$PLIMMAX
 10
12.0
 20
9.0
  9
$UNITMODE
 70
     0
  9
$VISRETAIN
 70
     1
  9
$PLINEGEN
 70
     0
  9
$PSLTSCALE
 70
     1
  9
$TREEDEPTH
 70
  3020
  9
$CMLSTYLE
  2
Standard
  9
$CMLJUST
 70
     0
  9
$CMLSCALE
 40
1.0
  9
$PROXYGRAPHICS
 70
     1
  9
$MEASUREMENT
 70
     0
  9
$CELWEIGHT
370
    -1
  9
$ENDCAPS
280
     0
  9
$JOINSTYLE
280
     0
  9
$LWDISPLAY
290
     0
  9
$INSUNITS
 70
     1
  9
$HYPERLINKBASE
  1

  9
$STYLESHEET
  1

  9
$XEDIT
290
     1
  9
$CEPSNTYPE
380
     0
  9
$PSTYLEMODE
290
     1
  9
$FINGERPRINTGUID
  2
{4AC1F646-32FF-4671-B286-098862787C56}
  9
$VERSIONGUID
  2
{FAEB1C32-E019-11D5-929B-00C0DF256EC4}
  9
$EXTNAMES
290
     1
  9
$PSVPSCALE
 40
0.0
  9
$OLESTARTUP
290
     0
  9
$SORTENTS
280
   127
  9
$INDEXCTL
280
     0
  9
$HIDETEXT
280
     1
  9
$XCLIPFRAME
280
     2
  9
$HALOGAP
280
     0
  9
$OBSCOLOR
 70
   257
  9
$OBSLTYPE
280
     0
  9
$INTERSECTIONDISPLAY
280
     0
  9
$INTERSECTIONCOLOR
 70
   257
  9
$DIMASSOC
280
     2
  9
$PROJECTNAME
  1

  9
$CAMERADISPLAY
290
     0
  9
$LENSLENGTH
 40
50.0
  9
$CAMERAHEIGHT
 40
0.0
  9
$STEPSPERSEC
 40
2.0
  9
$STEPSIZE
 40
6.0
  9
$3DDWFPREC
 40
2.0
  9
$PSOLWIDTH
 40
0.25
  9
$PSOLHEIGHT
 40
4.0
  9
$LOFTANG1
 40
1.570796326794897
  9
$LOFTANG2
 40
1.570796326794897
  9
$LOFTMAG1
 40
0.0
  9
$LOFTMAG2
 40
0.0
  9
$LOFTPARAM
 70
     7
  9
$LOFTNORMALS
280
     1
  9
$LATITUDE
 40
37.795
  9
$LONGITUDE
 40
-122.394
  9
$NORTHDIRECTION
 40
0.0
  9
$TIMEZONE
 70
 -8000
  9
$LIGHTGLYPHDISPLAY
280
     1
  9
$TILEMODELIGHTSYNCH
280
     1
  9
$CMATERIAL
347
44
  9
$SOLIDHIST
280
     0
  9
$SHOWHIST
280
     1
  9
$DWFFRAME
280
     2
  9
$DGNFRAME
280
     2
  9
$REALWORLDSCALE
290
     1
  9
$INTERFERECOLOR
 62
   256
  9
$CSHADOW
280
     0
  9
$SHADOWPLANELOCATION
 40
0.0
  0
ENDSEC
  0
SECTION
  2
CLASSES
  0
CLASS
  1
ACDBDICTIONARYWDFLT
  2
AcDbDictionaryWithDefault
  3
ObjectDBX Classes
 90
        0
 91
        4
280
     0
281
     0
  0
CLASS
  1
VISUALSTYLE
  2
AcDbVisualStyle
  3
ObjectDBX Classes
 90
     4095
 91
        4
280
     0
281
     0
  0
CLASS
  1
MATERIAL
  2
AcDbMaterial
  3
ObjectDBX Classes
 90
     1153
 91
        4
280
     0
281
     0
  0
CLASS
  1
SCALE
  2
AcDbScale
  3
ObjectDBX Classes
 90
     1153
 91
        4
280
     0
281
     0
  0
CLASS
  1
TABLESTYLE
  2
AcDbTableStyle
  3
ObjectDBX Classes
 90
     4095
 91
        4
280
     0
281
     0
  0
CLASS
  1
MLEADERSTYLE
  2
AcDbMLeaderStyle
  3
ACDB_MLEADERSTYLE_CLASS
 90
     4095
 91
        4
280
     0
281
     0
  0
CLASS
  1
SUN
  2
AcDbSun
  3
SCENEOE
 90
     1153
 91
        4
280
     0
281
     0
  0
CLASS
  1
DICTIONARYVAR
  2
AcDbDictionaryVar
  3
ObjectDBX Classes
 90
        0
 91
        4
280
     0
281
     0
  0
CLASS
  1
CELLSTYLEMAP
  2
AcDbCellStyleMap
  3
ObjectDBX Classes
 90
     1152
 91
        4
280
     0
281
     0
  0
ENDSEC
  0
SECTION
  2
TABLES
  0
TABLE
  2
VPORT
  5
8
330
0
100
AcDbSymbolTable
 70
     1
  0
VPORT
  5
29
330
8
100
AcDbSymbolTableRecord
100
AcDbViewportTableRecord
  2
*Active
 70
     0
 10
0.0
 20
0.0
 11
1.0
 21
1.0
 12
0.0
 22
-0.1023437499999993
 13
0.0
 23
0.0
 14
0.5
 24
0.5
 15
0.5
 25
0.5
 16
0.0
 26
0.0
 36
1.0
 17
0.0
 27
0.0
 37
0.0
 40
2.15475
 41
2.958579881656804
 42
50.0
 43
0.0
 44
0.0
 50
0.0
 51
0.0
 71
     0
 72
   100
 73
     1
 74
     3
 75
     0
 76
     0
 77
     0
 78
     0
281
     0
 65
     1
110
0.0
120
0.0
130
0.0
111
1.0
121
0.0
131
0.0
112
0.0
122
1.0
132
0.0
 79
     0
146
0.0
348
2F
 60
     3
 61
     5
292
     1
282
     1
141
0.0
142
0.0
 63
   250
361
6D
  0
ENDTAB
  0
TABLE
  2
LTYPE
  5
5
330
0
100
AcDbSymbolTable
 70
     3
  0
LTYPE
  5
14
330
5
100
AcDbSymbolTableRecord
100
AcDbLinetypeTableRecord
  2
ByBlock
 70
     0
  3

 72
    65
 73
     0
 40
0.0
  0
LTYPE
  5
15
330
5
100
AcDbSymbolTableRecord
100
AcDbLinetypeTableRecord
  2
ByLayer
 70
     0
  3

 72
    65
 73
     0
 40
0.0
  0
LTYPE
  5
16
330
5
100
AcDbSymbolTableRecord
100
AcDbLinetypeTableRecord
  2
Continuous
 70
     0
  3
Solid line
 72
    65
 73
     0
 40
0.0
  0
LTYPE
  5
A5
330
5
100
AcDbSymbolTableRecord
100
AcDbLinetypeTableRecord
  2
Dashed
 70
     0
  3

 72
    65
 73
     2
 40
2.0
 49
1.0
 74
     0
 49
-1.0
 74
     0
  0
LTYPE
  5
115
330
5
100
AcDbSymbolTableRecord
100
AcDbLinetypeTableRecord
  2
Center
 70
     0
  3

 72
    65
 73
     4
 40
1.5
 49
0.45
 74
     0
 49
-0.5
 74
     0
 49
0.05
 74
     0
 49
-0.5
 74
     0
  0
ENDTAB
  0
TABLE
  2
LAYER
  5
2
330
0
100
AcDbSymbolTable
 70
     7
  0
LAYER
  5
10
330
2
100
AcDbSymbolTableRecord
100
AcDbLayerTableRecord
  2
0
 70
     0
 62
     7
  6
Continuous
370
    -3
390
F
347
46
348
0
  0
LAYER
  5
72
330
2
100
AcDbSymbolTableRecord
100
AcDbLayerTableRecord
  2
AM_6
 70
     0
 62
    -2
  6
Continuous
370
    35
390
F
347
46
348
0
  0
LAYER
  5
A6
330
2
100
AcDbSymbolTableRecord
100
AcDbLayerTableRecord
  2
AM_9
 70
     0
 62
     6
  6
Dashed
370
    25
390
F
347
46
348
0
  0
LAYER
  5
112
330
2
100
AcDbSymbolTableRecord
100
AcDbLayerTableRecord
  2
AM_5
 70
     0
 62
     3
  6
Continuous
370
    25
390
F
347
46
348
0
  0
LAYER
  5
116
330
2
100
AcDbSymbolTableRecord
100
AcDbLayerTableRecord
  2
AM_7
 70
     0
 62
     7
  6
Center
370
    25
390
F
347
46
348
0
  0
LAYER
  5
118
330
2
100
AcDbSymbolTableRecord
100
AcDbLayerTableRecord
  2
AM_4
 70
     0
 62
     7
  6
Continuous
370
    50
390
F
347
46
348
0
  0
LAYER
  5
26F
330
2
100
AcDbSymbolTableRecord
100
AcDbLayerTableRecord
  2
ConnectionPoints
 70
     0
 62
     7
  6
Continuous
370
    50
390
F
347
46
348
0
  0
ENDTAB
  0
TABLE
  2
STYLE
  5
3
330
0
100
AcDbSymbolTable
 70
     1
  0
STYLE
  5
11
330
3
100
AcDbSymbolTableRecord
100
AcDbTextStyleTableRecord
  2
Standard
 70
     0
 40
0.0
 41
1.0
 50
0.0
 71
     0
 42
0.2
  3
txt
  4

  0
ENDTAB
  0
TABLE
  2
VIEW
  5
6
330
0
100
AcDbSymbolTable
 70
     0
  0
ENDTAB
  0
TABLE
  2
UCS
  5
7
330
0
100
AcDbSymbolTable
 70
     0
  0
ENDTAB
  0
TABLE
  2
APPID
  5
9
330
0
100
AcDbSymbolTable
 70
     1
  0
APPID
  5
12
330
9
100
AcDbSymbolTableRecord
100
AcDbRegAppTableRecord
  2
ACAD
 70
     0
  0
ENDTAB
  0
TABLE
  2
DIMSTYLE
  5
A
330
0
100
AcDbSymbolTable
 70
     1
100
AcDbDimStyleTable
  0
DIMSTYLE
105
27
330
A
100
AcDbSymbolTableRecord
100
AcDbDimStyleTableRecord
  2
Standard
 70
     0
178
     0
340
11
  0
ENDTAB
  0
TABLE
  2
BLOCK_RECORD
  5
1
330
0
100
AcDbSymbolTable
 70
     5
  0
BLOCK_RECORD
  5
1F
330
1
100
AcDbSymbolTableRecord
100
AcDbBlockTableRecord
  2
*Model_Space
340
22
 70
     0
280
     1
281
     0
  0
BLOCK_RECORD
  5
1B
330
1
100
AcDbSymbolTableRecord
100
AcDbBlockTableRecord
  2
*Paper_Space
340
1E
 70
     0
280
     1
281
     0
  0
BLOCK_RECORD
  5
23
330
1
100
AcDbSymbolTableRecord
100
AcDbBlockTableRecord
  2
*Paper_Space0
340
26
 70
     0
280
     1
281
     0
  0
BLOCK_RECORD
  5
6E
330
1
100
AcDbSymbolTableRecord
100
AcDbBlockTableRecord
  2
1_129234_4
340
0
102
{BLKREFS
331
6F
102
}
 70
     0
280
     1
281
     0
  0
BLOCK_RECORD
  5
8F
330
1
100
AcDbSymbolTableRecord
100
AcDbBlockTableRecord
  2
2_129519I_0_in_129234_4
340
0
102
{BLKREFS
331
90
102
}
 70
     0
280
     1
281
     0
  0
BLOCK_RECORD
  5
D4
330
1
100
AcDbSymbolTableRecord
100
AcDbBlockTableRecord
  2
3_129925_0_in_129234_4
340
0
102
{BLKREFS
331
D5
102
}
 70
     0
280
     1
281
     0
  0
BLOCK_RECORD
  5
12B
330
1
100
AcDbSymbolTableRecord
100
AcDbBlockTableRecord
  2
4_129399I_0_in_129234_4
340
0
102
{BLKREFS
331
12C
102
}
 70
     0
280
     1
281
     0
  0
ENDTAB
  0
ENDSEC
  0
SECTION
  2
BLOCKS
  0
BLOCK
  5
20
330
1F
100
AcDbEntity
  8
0
100
AcDbBlockBegin
  2
*Model_Space
 70
     0
 10
0.0
 20
0.0
 30
0.0
  3
*Model_Space
  1

  0
ENDBLK
  5
21
330
1F
100
AcDbEntity
  8
0
100
AcDbBlockEnd
  0
BLOCK
  5
1C
330
1B
100
AcDbEntity
 67
     1
  8
0
100
AcDbBlockBegin
  2
*Paper_Space
 70
     0
 10
0.0
 20
0.0
 30
0.0
  3
*Paper_Space
  1

  0
ENDBLK
  5
1D
330
1B
100
AcDbEntity
 67
     1
  8
0
100
AcDbBlockEnd
  0
BLOCK
  5
24
330
23
100
AcDbEntity
  8
0
100
AcDbBlockBegin
  2
*Paper_Space0
 70
     0
 10
0.0
 20
0.0
 30
0.0
  3
*Paper_Space0
  1

  0
ENDBLK
  5
25
330
23
100
AcDbEntity
  8
0
100
AcDbBlockEnd
  0
BLOCK
  5
70
330
6E
100
AcDbEntity
  8
0
100
AcDbBlockBegin
  2
1_129234_4
 70
     2
 10
0.0
 20
0.0
 30
0.0
  3
1_129234_4
  1

  0
ATTDEF
  5
73
330
6E
100
AcDbEntity
  8
AM_6
100
AcDbText
 10
8.125
 20
0.95390625
 30
0.0
 40
0.5
  1
Grip Tight Medium Duty Air-Handling Two-Bolt Pillow Block Inch Bore
100
AcDbAttributeDefinition
  3

  2
NN
 70
     8
280
     0
  0
ATTDEF
  5
74
330
6E
100
AcDbEntity
  8
AM_6
100
AcDbText
 10
8.125
 20
0.45390625
 30
0.0
 40
0.5
  1
GTMAH Air Handling Medium Duty Pillow Blocks
100
AcDbAttributeDefinition
  3

  2
NT
 70
     8
280
     0
  0
ATTDEF
  5
75
330
6E
100
AcDbEntity
  8
AM_6
100
AcDbText
 10
8.125
 20
-0.04609375
 30
0.0
 40
0.5
  1
129234
100
AcDbAttributeDefinition
  3

  2
NB
 70
     8
280
     0
  0
ATTDEF
  5
76
330
6E
100
AcDbEntity
  8
AM_6
100
AcDbText
 10
8.125
 20
-0.54609375
 30
0.0
 40
0.5
  1
$PN.$LUBE.
100
AcDbAttributeDefinition
  3

  2
NBSYN
 70
     8
280
     0
  0
ATTDEF
  5
77
330
6E
100
AcDbEntity
  8
AM_6
100
AcDbText
 10
8.125
 20
-1.04609375
 30
0.0
 40
0.5
  1
129234
100
AcDbAttributeDefinition
  3

  2
LINA
 70
     8
280
     0
  0
ATTDEF
  5
78
330
6E
100
AcDbEntity
  8
AM_6
100
AcDbText
 10
8.125
 20
-1.54609375
 30
0.0
 40
0.5
  1
206
100
AcDbAttributeDefinition
  3

  2
SERIES
 70
     8
280
     0
  0
ATTDEF
  5
79
330
6E
100
AcDbEntity
  8
AM_6
100
AcDbText
 10
8.125
 20
-2.04609375
 30
0.0
 40
0.5
  1
1
100
AcDbAttributeDefinition
  3

  2
SS
 70
     8
280
     0
  0
ATTDEF
  5
7A
330
6E
100
AcDbEntity
  8
AM_6
100
AcDbText
 10
8.125
 20
-2.54609375
 30
0.0
 40
0.5
  1
129234
100
AcDbAttributeDefinition
  3

  2
PN
 70
     8
280
     0
  0
ATTDEF
  5
7B
330
6E
100
AcDbEntity
  8
AM_6
100
AcDbText
 10
8.125
 20
-3.04609375
 30
0.0
 40
0.5
  1
P2B-GTMAH-100
100
AcDbAttributeDefinition
  3

  2
DESCRIPTION
 70
     8
280
     0
  0
ATTDEF
  5
7C
330
6E
100
AcDbEntity
  8
AM_6
100
AcDbText
 10
8.125
 20
-3.54609375
 30
0.0
 40
0.5
  1
1-39/64
100
AcDbAttributeDefinition
  3

  2
A
 70
     8
280
     0
  0
ATTDEF
  5
7D
330
6E
100
AcDbEntity
  8
AM_6
100
AcDbText
 10
8.125
 20
-4.04609375
 30
0.0
 40
0.5
  1
6-1/4
100
AcDbAttributeDefinition
  3

  2
B
 70
     8
280
     0
  0
ATTDEF
  5
7E
330
6E
100
AcDbEntity
  8
AM_6
100
AcDbText
 10
8.125
 20
-4.54609375
 30
0.0
 40
0.5
  1
1-47/64
100
AcDbAttributeDefinition
  3

  2
C
 70
     8
280
     0
  0
ATTDEF
  5
7F
330
6E
100
AcDbEntity
  8
AM_6
100
AcDbText
 10
8.125
 20
-5.04609375
 30
0.0
 40
0.5
  1
4-1/4
100
AcDbAttributeDefinition
  3

  2
DMIN
 70
     8
280
     0
  0
ATTDEF
  5
80
330
6E
100
AcDbEntity
  8
AM_6
100
AcDbText
 10
8.125
 20
-5.54609375
 30
0.0
 40
0.5
  1
5
100
AcDbAttributeDefinition
  3

  2
DMAX
 70
     8
280
     0
  0
ATTDEF
  5
81
330
6E
100
AcDbEntity
  8
AM_6
100
AcDbText
 10
8.125
 20
-6.04609375
 30
0.0
 40
0.5
  1
1/2
100
AcDbAttributeDefinition
  3

  2
F
 70
     8
280
     0
  0
ATTDEF
  5
82
330
6E
100
AcDbEntity
  8
AM_6
100
AcDbText
 10
8.125
 20
-6.54609375
 30
0.0
 40
0.5
  1
15/16
100
AcDbAttributeDefinition
  3

  2
G
 70
     8
280
     0
  0
ATTDEF
  5
83
330
6E
100
AcDbEntity
  8
AM_6
100
AcDbText
 10
8.125
 20
-7.04609375
 30
0.0
 40
0.5
  1
5/8
100
AcDbAttributeDefinition
  3

  2
H
 70
     8
280
     0
  0
ATTDEF
  5
84
330
6E
100
AcDbEntity
  8
AM_6
100
AcDbText
 10
8.125
 20
-7.54609375
 30
0.0
 40
0.5
  1
3-1/4
100
AcDbAttributeDefinition
  3

  2
J
 70
     8
280
     0
  0
ATTDEF
  5
85
330
6E
100
AcDbEntity
  8
AM_6
100
AcDbText
 10
8.125
 20
-8.04609375
 30
0.0
 40
0.5
  1
2
100
AcDbAttributeDefinition
  3

  2
L
 70
     8
280
     0
  0
ATTDEF
  5
86
330
6E
100
AcDbEntity
  8
AM_6
100
AcDbText
 10
8.125
 20
-8.54609375
 30
0.0
 40
0.5
  1
1-5/8
100
AcDbAttributeDefinition
  3

  2
M
 70
     8
280
     0
  0
ATTDEF
  5
87
330
6E
100
AcDbEntity
  8
AM_6
100
AcDbText
 10
8.125
 20
-9.04609375
 30
0.0
 40
0.5
  1
17/32
100
AcDbAttributeDefinition
  3

  2
R
 70
     8
280
     0
  0
ATTDEF
  5
88
330
6E
100
AcDbEntity
  8
AM_6
100
AcDbText
 10
8.125
 20
-9.54609375
 30
0.0
 40
0.5
  1
1-5/64
100
AcDbAttributeDefinition
  3

  2
S
 70
     8
280
     0
  0
ATTDEF
  5
89
330
6E
100
AcDbEntity
  8
AM_6
100
AcDbText
 10
8.125
 20
-10.04609375
 30
0.0
 40
0.5
  1
2-7/8
100
AcDbAttributeDefinition
  3

  2
U
 70
     8
280
     0
  0
ATTDEF
  5
8A
330
6E
100
AcDbEntity
  8
AM_6
100
AcDbText
 10
8.125
 20
-10.54609375
 30
0.0
 40
0.5
  1
5-3/4
100
AcDbAttributeDefinition
  3

  2
V
 70
     8
280
     0
  0
ATTDEF
  5
8B
330
6E
100
AcDbEntity
  8
AM_6
100
AcDbText
 10
8.125
 20
-11.04609375
 30
0.0
 40
0.5
  1
9/16
100
AcDbAttributeDefinition
  3

  2
W
 70
     8
280
     0
  0
ATTDEF
  5
8C
330
6E
100
AcDbEntity
  8
AM_6
100
AcDbText
 10
8.125
 20
-11.54609375
 30
0.0
 40
0.5
  1
3/16
100
AcDbAttributeDefinition
  3

  2
X
 70
     8
280
     0
  0
ATTDEF
  5
8D
330
6E
100
AcDbEntity
  8
AM_6
100
AcDbText
 10
8.125
 20
-12.04609375
 30
0.0
 40
0.5
  1
1-1/32
100
AcDbAttributeDefinition
  3

  2
Z
 70
     8
280
     0
  0
ATTDEF
  5
8E
330
6E
100
AcDbEntity
  8
AM_6
100
AcDbText
 10
8.125
 20
-12.54609375
 30
0.0
 40
0.5
  1
baldor
100
AcDbAttributeDefinition
  3

  2
COMPANY
 70
     8
280
     0
  0
INSERT
  5
90
330
6E
100
AcDbEntity
  8
0
100
AcDbBlockReference
  2
2_129519I_0_in_129234_4
 10
0.0
 20
0.0
 30
0.0
  0
INSERT
  5
D5
330
6E
100
AcDbEntity
  8
0
100
AcDbBlockReference
  2
3_129925_0_in_129234_4
 10
0.0
 20
0.0
 30
0.0
  0
INSERT
  5
12C
330
6E
100
AcDbEntity
  8
0
100
AcDbBlockReference
  2
4_129399I_0_in_129234_4
 10
0.0
 20
0.0
 30
0.0
  0
ENDBLK
  5
71
330
6E
100
AcDbEntity
  8
0
100
AcDbBlockEnd
  0
BLOCK
  5
91
330
8F
100
AcDbEntity
  8
0
100
AcDbBlockBegin
  2
2_129519I_0_in_129234_4
 70
     2
 10
0.0
 20
0.0
 30
0.0
  3
2_129519I_0_in_129234_4
  1

  0
ATTDEF
  5
93
330
8F
100
AcDbEntity
  8
AM_6
100
AcDbText
 10
6.219944037690783
 20
0.4680000000000001
 30
0.0
 40
0.5
  1
INS-GT B
100
AcDbAttributeDefinition
  3

  2
NN
 70
     8
280
     0
  0
ATTDEF
  5
94
330
8F
100
AcDbEntity
  8
AM_6
100
AcDbText
 10
6.219944037690783
 20
-0.0319999999999999
 30
0.0
 40
0.5
  1
GT Normal Duty Bearing Inserts
100
AcDbAttributeDefinition
  3

  2
NT
 70
     8
280
     0
  0
ATTDEF
  5
95
330
8F
100
AcDbEntity
  8
AM_6
100
AcDbText
 10
6.219944037690783
 20
-0.5319999999999999
 30
0.0
 40
0.5
  1
129519I
100
AcDbAttributeDefinition
  3

  2
NB
 70
     8
280
     0
  0
ATTDEF
  5
96
330
8F
100
AcDbEntity
  8
AM_6
100
AcDbText
 10
6.219944037690783
 20
-1.032
 30
0.0
 40
0.5
  1
$PN.I
100
AcDbAttributeDefinition
  3

  2
NBSYN
 70
     8
280
     0
  0
ATTDEF
  5
97
330
8F
100
AcDbEntity
  8
AM_6
100
AcDbText
 10
6.219944037690783
 20
-1.532
 30
0.0
 40
0.5
  1
129519
100
AcDbAttributeDefinition
  3

  2
LINA
 70
     8
280
     0
  0
ATTDEF
  5
98
330
8F
100
AcDbEntity
  8
AM_6
100
AcDbText
 10
6.219944037690783
 20
-2.032
 30
0.0
 40
0.5
  1
206
100
AcDbAttributeDefinition
  3

  2
SERIES
 70
     8
280
     0
  0
ATTDEF
  5
99
330
8F
100
AcDbEntity
  8
AM_6
100
AcDbText
 10
6.219944037690783
 20
-2.532
 30
0.0
 40
0.5
  1
129519
100
AcDbAttributeDefinition
  3

  2
PN
 70
     8
280
     0
  0
ATTDEF
  5
9A
330
8F
100
AcDbEntity
  8
AM_6
100
AcDbText
 10
6.219944037690783
 20
-3.032
 30
0.0
 40
0.5
  1
INS-GT-06
100
AcDbAttributeDefinition
  3

  2
DESCRIPTION
 70
     8
280
     0
  0
ATTDEF
  5
9B
330
8F
100
AcDbEntity
  8
AM_6
100
AcDbText
 10
6.219944037690783
 20
-3.532
 30
0.0
 40
0.5
  1
1.61
100
AcDbAttributeDefinition
  3

  2
A
 70
     8
280
     0
  0
ATTDEF
  5
9C
330
8F
100
AcDbEntity
  8
AM_6
100
AcDbText
 10
6.219944037690783
 20
-4.032
 30
0.0
 40
0.5
  1
0.69
100
AcDbAttributeDefinition
  3

  2
C
 70
     8
280
     0
  0
ATTDEF
  5
9D
330
8F
100
AcDbEntity
  8
AM_6
100
AcDbText
 10
6.219944037690783
 20
-4.532
 30
0.0
 40
0.5
  1
2.4409
100
AcDbAttributeDefinition
  3

  2
D
 70
     8
280
     0
  0
ATTDEF
  5
9E
330
8F
100
AcDbEntity
  8
AM_6
100
AcDbText
 10
6.219944037690783
 20
-5.032
 30
0.0
 40
0.5
  1
0.16
100
AcDbAttributeDefinition
  3

  2
J
 70
     8
280
     0
  0
ATTDEF
  5
9F
330
8F
100
AcDbEntity
  8
AM_6
100
AcDbText
 10
6.219944037690783
 20
-5.532
 30
0.0
 40
0.5
  1
2.08
100
AcDbAttributeDefinition
  3

  2
L
 70
     8
280
     0
  0
ATTDEF
  5
A0
330
8F
100
AcDbEntity
  8
AM_6
100
AcDbText
 10
6.219944037690783
 20
-6.032
 30
0.0
 40
0.5
  1
#10 - 32 x 1/4
100
AcDbAttributeDefinition
  3

  2
N
 70
     8
280
     0
  0
ATTDEF
  5
A1
330
8F
100
AcDbEntity
  8
AM_6
100
AcDbText
 10
6.219944037690783
 20
-6.532
 30
0.0
 40
0.5
  1
0.52000
100
AcDbAttributeDefinition
  3

  2
W
 70
     8
280
     0
  0
ATTDEF
  5
A2
330
8F
100
AcDbEntity
  8
AM_6
100
AcDbText
 10
6.219944037690783
 20
-7.032
 30
0.0
 40
0.5
  1
1.13
100
AcDbAttributeDefinition
  3

  2
X
 70
     8
280
     0
  0
ATTDEF
  5
A3
330
8F
100
AcDbEntity
  8
AM_6
100
AcDbText
 10
6.219944037690783
 20
-7.532
 30
0.0
 40
0.5
  1
1.09
100
AcDbAttributeDefinition
  3

  2
Y
 70
     8
280
     0
  0
ATTDEF
  5
A4
330
8F
100
AcDbEntity
  8
AM_6
100
AcDbText
 10
6.219944037690783
 20
-8.032
 30
0.0
 40
0.5
  1
baldor
100
AcDbAttributeDefinition
  3

  2
COMPANY
 70
     8
280
     0
  0
LINE
  5
A7
330
8F
100
AcDbEntity
  8
AM_9
100
AcDbLine
 10
0.7758729564444445
 20
-0.8474992824485647
 30
0.0
 11
0.7758729564444445
 21
-0.4237492824485647
 31
0.0
  0
LINE
  5
A8
330
8F
100
AcDbEntity
  8
AM_9
100
AcDbLine
 10
-0.7758729564444445
 20
-0.4237492824485647
 30
0.0
 11
-0.7758729564444445
 21
-0.8474992824485647
 31
0.0
  0
LINE
  5
A9
330
8F
100
AcDbEntity
  8
AM_9
100
AcDbLine
 10
-0.7758729564444445
 20
-0.4237492824485647
 30
0.0
 11
0.7758729564444445
 21
-0.4237492824485647
 31
0.0
  0
LINE
  5
AA
330
8F
100
AcDbEntity
  8
AM_9
100
AcDbLine
 10
0.7758729564444445
 20
-0.4237492824485647
 30
0.0
 11
0.8070135275812623
 21
0.4680000000000001
 31
0.0
  0
LINE
  5
AB
330
8F
100
AcDbEntity
  8
AM_9
100
AcDbLine
 10
-0.8070135275812623
 20
0.4680000000000001
 30
0.0
 11
-0.7758729564444445
 21
-0.4237492824485647
 31
0.0
  0
LINE
  5
AC
330
8F
100
AcDbEntity
  8
AM_9
100
AcDbLine
 10
0.8501587004444445
 20
-0.7062492824485647
 30
0.0
 11
0.8501587004444445
 21
-0.5649992824485646
 31
0.0
  0
LINE
  5
AD
330
8F
100
AcDbEntity
  8
AM_9
100
AcDbLine
 10
-0.8501587004444445
 20
-0.5649992824485646
 30
0.0
 11
-0.8501587004444445
 21
-0.7062492824485647
 31
0.0
  0
LINE
  5
AE
330
8F
100
AcDbEntity
  8
AM_9
100
AcDbLine
 10
0.8968444444444446
 20
-0.8474992824485647
 30
0.0
 11
0.9244444444444444
 21
-0.8198992824485647
 31
0.0
  0
LINE
  5
AF
330
8F
100
AcDbEntity
  8
AM_9
100
AcDbLine
 10
-0.9244444444444444
 20
-0.8198992824485647
 30
0.0
 11
-0.8968444444444446
 21
-0.8474992824485647
 31
0.0
  0
LINE
  5
B0
330
8F
100
AcDbEntity
  8
AM_9
100
AcDbLine
 10
-0.8960514991031976
 20
-0.8474992824485647
 30
0.0
 11
0.8968444444444446
 21
-0.8474992824485647
 31
0.0
  0
LINE
  5
B1
330
8F
100
AcDbEntity
  8
AM_9
100
AcDbLine
 10
-0.8968444444444446
 20
0.4680000000000001
 30
0.0
 11
0.8968444444444446
 21
0.4680000000000001
 31
0.0
  0
LINE
  5
B2
330
8F
100
AcDbEntity
  8
AM_9
100
AcDbLine
 10
-0.8968444444444446
 20
0.4680000000000001
 30
0.0
 11
-0.9244444444444444
 21
0.4404
 31
0.0
  0
LINE
  5
B3
330
8F
100
AcDbEntity
  8
AM_9
100
AcDbLine
 10
0.9244444444444444
 20
0.4404
 30
0.0
 11
0.8968444444444446
 21
0.4680000000000001
 31
0.0
  0
LINE
  5
B4
330
8F
100
AcDbEntity
  8
AM_9
100
AcDbLine
 10
0.9244444444444444
 20
-0.8198992824485647
 30
0.0
 11
0.9244444444444444
 21
-0.7062492824485647
 31
0.0
  0
LINE
  5
B5
330
8F
100
AcDbEntity
  8
AM_9
100
AcDbLine
 10
-0.9244444444444444
 20
-0.7062492824485647
 30
0.0
 11
-0.9244444444444444
 21
-0.8198992824485647
 31
0.0
  0
LINE
  5
B6
330
8F
100
AcDbEntity
  8
AM_9
100
AcDbLine
 10
-0.9244444444444444
 20
-0.8198992824485647
 30
0.0
 11
0.9244444444444444
 21
-0.8198992824485647
 31
0.0
  0
LINE
  5
B7
330
8F
100
AcDbEntity
  8
AM_9
100
AcDbLine
 10
-0.9244444444444444
 20
-0.7062492824485647
 30
0.0
 11
0.9244444444444444
 21
-0.7062492824485647
 31
0.0
  0
LINE
  5
B8
330
8F
100
AcDbEntity
  8
AM_9
100
AcDbLine
 10
0.9244444444444446
 20
-0.5649992824485646
 30
0.0
 11
0.9244444444444446
 21
-0.3449999999999999
 31
0.0
  0
LINE
  5
B9
330
8F
100
AcDbEntity
  8
AM_9
100
AcDbLine
 10
-0.9244444444444446
 20
-0.3449999999999999
 30
0.0
 11
-0.9244444444444446
 21
-0.5649992824485646
 31
0.0
  0
LINE
  5
BA
330
8F
100
AcDbEntity
  8
AM_9
100
AcDbLine
 10
-0.9244444444444446
 20
-0.5649992824485646
 30
0.0
 11
0.9244444444444446
 21
-0.5649992824485646
 31
0.0
  0
LINE
  5
BB
330
8F
100
AcDbEntity
  8
AM_9
100
AcDbLine
 10
-0.9244444444444446
 20
0.4404
 30
0.0
 11
0.9244444444444446
 21
0.4404
 31
0.0
  0
LINE
  5
BC
330
8F
100
AcDbEntity
  8
AM_9
100
AcDbLine
 10
0.9244444444444446
 20
0.3449999999999999
 30
0.0
 11
0.9244444444444446
 21
0.4404
 31
0.0
  0
LINE
  5
BD
330
8F
100
AcDbEntity
  8
AM_9
100
AcDbLine
 10
-0.9244444444444446
 20
0.4404
 30
0.0
 11
-0.9244444444444446
 21
0.3449999999999999
 31
0.0
  0
LINE
  5
BE
330
8F
100
AcDbEntity
  8
AM_9
100
AcDbLine
 10
1.15145
 20
-0.1920000000000001
 30
0.0
 11
1.15145
 21
-0.128
 31
0.0
  0
LINE
  5
BF
330
8F
100
AcDbEntity
  8
AM_9
100
AcDbLine
 10
-1.15145
 20
-0.128
 30
0.0
 11
-1.15145
 21
-0.1920000000000001
 31
0.0
  0
LINE
  5
C0
330
8F
100
AcDbEntity
  8
AM_9
100
AcDbLine
 10
-1.13284088208356
 20
-0.3449999999999999
 30
0.0
 11
1.13284088208356
 21
-0.3449999999999999
 31
0.0
  0
ARC
  5
C1
330
8F
100
AcDbEntity
  8
AM_9
100
AcDbCircle
 10
1.13284088208356
 20
-0.3173999999999998
 30
0.0
 40
0.0276
100
AcDbArc
 50
270.0
 51
338.5875110795952
  0
ARC
  5
C2
330
8F
100
AcDbEntity
  8
AM_9
100
AcDbCircle
 10
-1.13284088208356
 20
-0.3173999999999998
 30
0.0
 40
0.0276
100
AcDbArc
 50
201.4124889204048
 51
270.0
  0
LINE
  5
C3
330
8F
100
AcDbEntity
  8
AM_9
100
AcDbLine
 10
-1.132840882083558
 20
0.3449999999999999
 30
0.0
 11
1.132840882083558
 21
0.3449999999999999
 31
0.0
  0
ARC
  5
C4
330
8F
100
AcDbEntity
  8
AM_9
100
AcDbCircle
 10
1.132840882083558
 20
0.3173999999999991
 30
0.0
 40
0.0276000000000006
100
AcDbArc
 50
21.41247796226357
 51
90.0
  0
ARC
  5
C5
330
8F
100
AcDbEntity
  8
AM_9
100
AcDbCircle
 10
-1.132840882083558
 20
0.3173999999999991
 30
0.0
 40
0.0276000000000008
100
AcDbArc
 50
90.0
 51
158.5875220377364
  0
LINE
  5
C6
330
8F
100
AcDbEntity
  8
AM_9
100
AcDbLine
 10
-1.158535826874395
 20
-0.3274762002856205
 30
0.0
 11
1.158535826874395
 21
-0.3274762002856205
 31
0.0
  0
ARC
  5
C7
330
8F
100
AcDbEntity
  8
AM_9
100
AcDbCircle
 10
0.3234499999998808
 20
0.0000000000000381
 30
0.0
 40
0.8970000000001247
100
AcDbArc
 50
338.5875322800852
 51
347.0877781677902
  0
ARC
  5
C8
330
8F
100
AcDbEntity
  8
AM_9
100
AcDbCircle
 10
-0.3234499999998809
 20
0.000000000000038
 30
0.0
 40
0.8970000000001245
100
AcDbArc
 50
192.9122218322098
 51
201.4124677199149
  0
LINE
  5
C9
330
8F
100
AcDbEntity
  8
AM_9
100
AcDbLine
 10
-1.197768054584991
 20
-0.2004418604651163
 30
0.0
 11
1.197768054584991
 21
-0.2004418604651163
 31
0.0
  0
LINE
  5
CA
330
8F
100
AcDbEntity
  8
AM_9
100
AcDbLine
 10
-1.191042531088183
 20
-0.1920000000000001
 30
0.0
 11
1.191042531088183
 21
-0.1920000000000001
 31
0.0
  0
ARC
  5
CB
330
8F
100
AcDbEntity
  8
AM_9
100
AcDbCircle
 10
1.191042531088183
 20
-0.1988999999999999
 30
0.0
 40
0.0069
100
AcDbArc
 50
347.0877781677898
 51
90.0
  0
ARC
  5
CC
330
8F
100
AcDbEntity
  8
AM_9
100
AcDbCircle
 10
-1.191042531088183
 20
-0.1988999999999999
 30
0.0
 40
0.0068999999999998
100
AcDbArc
 50
90.0
 51
192.9122218322102
  0
LINE
  5
CD
330
8F
100
AcDbEntity
  8
AM_9
100
AcDbLine
 10
-1.205273565119463
 20
-0.1280000000000001
 30
0.0
 11
1.205273565119463
 21
-0.1280000000000001
 31
0.0
  0
ARC
  5
CE
330
8F
100
AcDbEntity
  8
AM_9
100
AcDbCircle
 10
1.205273565119463
 20
-0.1211000000000006
 30
0.0
 40
0.0068999999999995
100
AcDbArc
 50
270.0
 51
352.1805361994656
  0
ARC
  5
CF
330
8F
100
AcDbEntity
  8
AM_9
100
AcDbCircle
 10
-1.205273565119463
 20
-0.1211000000000006
 30
0.0
 40
0.0068999999999996
100
AcDbArc
 50
187.8194638005344
 51
270.0
  0
LINE
  5
D0
330
8F
100
AcDbEntity
  8
AM_9
100
AcDbLine
 10
-1.158535828801523
 20
0.3274761953713166
 30
0.0
 11
1.158535828801523
 21
0.3274761953713166
 31
0.0
  0
ARC
  5
D1
330
8F
100
AcDbEntity
  8
AM_9
100
AcDbCircle
 10
0.3234499999999665
 20
-0.0000000000000044
 30
0.0
 40
0.8970000000000327
100
AcDbArc
 50
352.1805361994589
 51
21.41246738274132
  0
ARC
  5
D2
330
8F
100
AcDbEntity
  8
AM_9
100
AcDbCircle
 10
-0.3234499999999704
 20
-0.0000000000000039
 30
0.0
 40
0.8970000000000289
100
AcDbArc
 50
158.5875326172586
 51
187.8194638005412
  0
LINE
  5
D3
330
8F
100
AcDbEntity
  8
AM_9
100
AcDbLine
 10
-1.212109406709537
 20
-0.1220387596899222
 30
0.0
 11
1.212109406709537
 21
-0.1220387596899222
 31
0.0
  0
ENDBLK
  5
92
330
8F
100
AcDbEntity
  8
0
100
AcDbBlockEnd
  0
BLOCK
  5
D6
330
D4
100
AcDbEntity
  8
0
100
AcDbBlockBegin
  2
3_129925_0_in_129234_4
 70
     2
 10
0.0
 20
0.0
 30
0.0
  3
3_129925_0_in_129234_4
  1

  0
ATTDEF
  5
D8
330
D4
100
AcDbEntity
  8
AM_6
100
AcDbText
 10
5.995477272467835
 20
0.53125
 30
0.0
 40
0.5
  1
Grip Tight Normal Duty Adapter and Nut Inch Bore
100
AcDbAttributeDefinition
  3

  2
NN
 70
     8
280
     0
  0
ATTDEF
  5
D9
330
D4
100
AcDbEntity
  8
AM_6
100
AcDbText
 10
5.995477272467835
 20
0.03125
 30
0.0
 40
0.5
  1
GT and GTM Adapter & Lock Nut Assemblies
100
AcDbAttributeDefinition
  3

  2
NT
 70
     8
280
     0
  0
ATTDEF
  5
DA
330
D4
100
AcDbEntity
  8
AM_6
100
AcDbText
 10
5.995477272467835
 20
-0.46875
 30
0.0
 40
0.5
  1
129925
100
AcDbAttributeDefinition
  3

  2
NB
 70
     8
280
     0
  0
ATTDEF
  5
DB
330
D4
100
AcDbEntity
  8
AM_6
100
AcDbText
 10
5.995477272467835
 20
-0.96875
 30
0.0
 40
0.5
  1
$PN.
100
AcDbAttributeDefinition
  3

  2
NBSYN
 70
     8
280
     0
  0
ATTDEF
  5
DC
330
D4
100
AcDbEntity
  8
AM_6
100
AcDbText
 10
5.995477272467835
 20
-1.46875
 30
0.0
 40
0.5
  1
129925
100
AcDbAttributeDefinition
  3

  2
LINA
 70
     8
280
     0
  0
ATTDEF
  5
DD
330
D4
100
AcDbEntity
  8
AM_6
100
AcDbText
 10
5.995477272467835
 20
-1.96875
 30
0.0
 40
0.5
  1
206
100
AcDbAttributeDefinition
  3

  2
SERIES
 70
     8
280
     0
  0
ATTDEF
  5
DE
330
D4
100
AcDbEntity
  8
AM_6
100
AcDbText
 10
5.995477272467835
 20
-2.46875
 30
0.0
 40
0.5
  1
1
100
AcDbAttributeDefinition
  3

  2
SS
 70
     8
280
     0
  0
ATTDEF
  5
DF
330
D4
100
AcDbEntity
  8
AM_6
100
AcDbText
 10
5.995477272467835
 20
-2.96875
 30
0.0
 40
0.5
  1
129925
100
AcDbAttributeDefinition
  3

  2
PN
 70
     8
280
     0
  0
ATTDEF
  5
E0
330
D4
100
AcDbEntity
  8
AM_6
100
AcDbText
 10
5.995477272467835
 20
-3.46875
 30
0.0
 40
0.5
  1
AN-GTM-06-100
100
AcDbAttributeDefinition
  3

  2
DESCRIPTION
 70
     8
280
     0
  0
ATTDEF
  5
E1
330
D4
100
AcDbEntity
  8
AM_6
100
AcDbText
 10
5.995477272467835
 20
-3.96875
 30
0.0
 40
0.5
  1
1-39/64
100
AcDbAttributeDefinition
  3

  2
A
 70
     8
280
     0
  0
ATTDEF
  5
E2
330
D4
100
AcDbEntity
  8
AM_6
100
AcDbText
 10
5.995477272467835
 20
-4.46875
 30
0.0
 40
0.5
  1
0.7087
100
AcDbAttributeDefinition
  3

  2
C
 70
     8
280
     0
  0
ATTDEF
  5
E3
330
D4
100
AcDbEntity
  8
AM_6
100
AcDbText
 10
5.995477272467835
 20
-4.96875
 30
0.0
 40
0.5
  1
2.4409
100
AcDbAttributeDefinition
  3

  2
D
 70
     8
280
     0
  0
ATTDEF
  5
E4
330
D4
100
AcDbEntity
  8
AM_6
100
AcDbText
 10
5.995477272467835
 20
-5.46875
 30
0.0
 40
0.5
  1
0.190
100
AcDbAttributeDefinition
  3

  2
J
 70
     8
280
     0
  0
ATTDEF
  5
E5
330
D4
100
AcDbEntity
  8
AM_6
100
AcDbText
 10
5.995477272467835
 20
-5.96875
 30
0.0
 40
0.5
  1
2
100
AcDbAttributeDefinition
  3

  2
L
 70
     8
280
     0
  0
ATTDEF
  5
E6
330
D4
100
AcDbEntity
  8
AM_6
100
AcDbText
 10
5.995477272467835
 20
-6.46875
 30
0.0
 40
0.5
  1
10 - 32 x 1/4
100
AcDbAttributeDefinition
  3

  2
N
 70
     8
280
     0
  0
ATTDEF
  5
E7
330
D4
100
AcDbEntity
  8
AM_6
100
AcDbText
 10
5.995477272467835
 20
-6.96875
 30
0.0
 40
0.5
  1
17/32
100
AcDbAttributeDefinition
  3

  2
W
 70
     8
280
     0
  0
ATTDEF
  5
E8
330
D4
100
AcDbEntity
  8
AM_6
100
AcDbText
 10
5.995477272467835
 20
-7.46875
 30
0.0
 40
0.5
  1
1-1/32
100
AcDbAttributeDefinition
  3

  2
X
 70
     8
280
     0
  0
ATTDEF
  5
E9
330
D4
100
AcDbEntity
  8
AM_6
100
AcDbText
 10
5.995477272467835
 20
-7.96875
 30
0.0
 40
0.5
  1
1-5/64
100
AcDbAttributeDefinition
  3

  2
Y
 70
     8
280
     0
  0
ATTDEF
  5
EA
330
D4
100
AcDbEntity
  8
AM_6
100
AcDbText
 10
5.995477272467835
 20
-8.46875
 30
0.0
 40
0.5
  1
baldor
100
AcDbAttributeDefinition
  3

  2
COMPANY
 70
     8
280
     0
  0
LINE
  5
EB
330
D4
100
AcDbEntity
  8
AM_9
100
AcDbLine
 10
-0.9774499999999999
 20
-0.9818147333418
 30
0.0
 11
-0.77255
 21
-0.9818147333418
 31
0.0
  0
LINE
  5
EC
330
D4
100
AcDbEntity
  8
AM_9
100
AcDbLine
 10
-0.77255
 20
-0.8369147333418001
 30
0.0
 11
-0.9774499999999999
 21
-0.8369147333418001
 31
0.0
  0
LINE
  5
ED
330
D4
100
AcDbEntity
  8
AM_9
100
AcDbLine
 10
-0.77255
 20
-0.9818147333418
 30
0.0
 11
-0.7499999999999999
 21
-1.0043647333418
 31
0.0
  0
LINE
  5
EE
330
D4
100
AcDbEntity
  8
AM_9
100
AcDbLine
 10
-0.7499999999999999
 20
-0.8143647333418002
 30
0.0
 11
-0.77255
 21
-0.8369147333418001
 31
0.0
  0
LINE
  5
EF
330
D4
100
AcDbEntity
  8
AM_9
100
AcDbLine
 10
-0.7499999999999999
 20
-0.8143647333418002
 30
0.0
 11
-0.7499999999999999
 21
-1.0043647333418
 31
0.0
  0
LINE
  5
F0
330
D4
100
AcDbEntity
  8
AM_9
100
AcDbLine
 10
-0.77255
 20
-0.8369147333418001
 30
0.0
 11
-0.77255
 21
-0.9818147333418
 31
0.0
  0
LINE
  5
F1
330
D4
100
AcDbEntity
  8
AM_9
100
AcDbLine
 10
0.9333331639996614
 20
-0.515625
 30
0.0
 11
0.9333331639996614
 21
-1.03125
 31
0.0
  0
LINE
  5
F2
330
D4
100
AcDbEntity
  8
AM_9
100
AcDbLine
 10
-0.9774499999999999
 20
-0.8369147333418001
 30
0.0
 11
-0.9998579351655761
 21
-0.8145067981762241
 31
0.0
  0
LINE
  5
F3
330
D4
100
AcDbEntity
  8
AM_9
100
AcDbLine
 10
-0.9992681838790302
 20
-1.00363291722083
 30
0.0
 11
-0.9774499999999999
 21
-0.9818147333418
 31
0.0
  0
LINE
  5
F4
330
D4
100
AcDbEntity
  8
AM_9
100
AcDbLine
 10
-0.9774499999999999
 20
-0.8369147333418001
 30
0.0
 11
-0.9774499999999999
 21
-0.9818147333418
 31
0.0
  0
LINE
  5
F5
330
D4
100
AcDbEntity
  8
AM_9
100
AcDbLine
 10
0.5
 20
-1.078125
 30
0.0
 11
0.5
 21
0.5312499999999998
 31
0.0
  0
LINE
  5
F6
330
D4
100
AcDbEntity
  8
AM_9
100
AcDbLine
 10
-0.5
 20
0.5312499999999998
 30
0.0
 11
-0.5
 21
-1.078125
 31
0.0
  0
LINE
  5
F7
330
D4
100
AcDbEntity
  8
AM_9
100
AcDbLine
 10
0.7460317460317463
 20
-0.7734374999999999
 30
0.0
 11
0.7460317460317463
 21
-0.3867187500000001
 31
0.0
  0
LINE
  5
F8
330
D4
100
AcDbEntity
  8
AM_9
100
AcDbLine
 10
-0.7460317460317463
 20
-0.3867187500000001
 30
0.0
 11
-0.7460317460317463
 21
-0.7734374999999999
 31
0.0
  0
LINE
  5
F9
330
D4
100
AcDbEntity
  8
AM_9
100
AcDbLine
 10
0.05
 20
0.53125
 30
0.0
 11
0.05
 21
-1.03125
 31
0.0
  0
LINE
  5
FA
330
D4
100
AcDbEntity
  8
AM_9
100
AcDbLine
 10
-0.05
 20
0.53125
 30
0.0
 11
-0.05
 21
-1.03125
 31
0.0
  0
LINE
  5
FB
330
D4
100
AcDbEntity
  8
AM_9
100
AcDbLine
 10
0.7460317460317459
 20
-0.3867187500000001
 30
0.0
 11
0.7780879211511239
 21
0.53125
 31
0.0
  0
LINE
  5
FC
330
D4
100
AcDbEntity
  8
AM_9
100
AcDbLine
 10
-0.7780879211511239
 20
0.53125
 30
0.0
 11
-0.7460317460317459
 21
-0.3867187500000001
 31
0.0
  0
LINE
  5
FD
330
D4
100
AcDbEntity
  8
AM_9
100
AcDbLine
 10
-0.7460317460317459
 20
-0.3867187500000001
 30
0.0
 11
0.7460317460317459
 21
-0.3867187500000001
 31
0.0
  0
LINE
  5
FE
330
D4
100
AcDbEntity
  8
AM_9
100
AcDbLine
 10
-0.7780879211511239
 20
0.53125
 30
0.0
 11
0.7780879211511239
 21
0.53125
 31
0.0
  0
LINE
  5
FF
330
D4
100
AcDbEntity
  8
AM_9
100
AcDbLine
 10
-0.971652
 20
-0.515625
 30
0.0
 11
-1.0
 21
-0.5439730000000002
 31
0.0
  0
LINE
  5
100
330
D4
100
AcDbEntity
  8
AM_9
100
AcDbLine
 10
-1.0
 20
-0.5439730000000002
 30
0.0
 11
-1.0
 21
-0.680024224448255
 31
0.0
  0
LINE
  5
101
330
D4
100
AcDbEntity
  8
AM_9
100
AcDbLine
 10
-1.0
 20
-0.5439730000000002
 30
0.0
 11
-0.5800110495934394
 21
-0.543973
 31
0.0
  0
LINE
  5
102
330
D4
100
AcDbEntity
  8
AM_9
100
AcDbLine
 10
-0.5657707611085088
 20
-0.515625
 30
0.0
 11
-0.5800110495934394
 21
-0.543973
 31
0.0
  0
LINE
  5
103
330
D4
100
AcDbEntity
  8
AM_9
100
AcDbLine
 10
-0.5800110495934394
 20
-0.543973
 30
0.0
 11
-0.5800110495934394
 21
-0.6388201654180138
 31
0.0
  0
LINE
  5
104
330
D4
100
AcDbEntity
  8
AM_9
100
AcDbLine
 10
0.8174603174603172
 20
-0.64453125
 30
0.0
 11
0.8174603174603172
 21
-0.515625
 31
0.0
  0
LINE
  5
105
330
D4
100
AcDbEntity
  8
AM_9
100
AcDbLine
 10
-0.8174603174603172
 20
-0.515625
 30
0.0
 11
-0.8174603174603172
 21
-0.64453125
 31
0.0
  0
LINE
  5
106
330
D4
100
AcDbEntity
  8
AM_9
100
AcDbLine
 10
-0.3843941686403093
 20
-0.5156249999999999
 30
0.0
 11
-0.3843941686403093
 21
-1.03125
 31
0.0
  0
LINE
  5
107
330
D4
100
AcDbEntity
  8
AM_9
100
AcDbLine
 10
-0.5489389953593525
 20
-0.5156249999999999
 30
0.0
 11
-0.5489389953593525
 21
-0.6370349881760429
 31
0.0
  0
LINE
  5
108
330
D4
100
AcDbEntity
  8
AM_9
100
AcDbLine
 10
-0.8888888888888888
 20
-0.64453125
 30
0.0
 11
0.8888888888888888
 21
-0.64453125
 31
0.0
  0
LINE
  5
109
330
D4
100
AcDbEntity
  8
AM_9
100
AcDbLine
 10
-0.8888888888888888
 20
-0.7734374999999999
 30
0.0
 11
0.8888888888888888
 21
-0.7734374999999999
 31
0.0
  0
LINE
  5
10A
330
D4
100
AcDbEntity
  8
AM_9
100
AcDbLine
 10
0.8888888888888888
 20
-0.7734374999999999
 30
0.0
 11
0.8888888888888888
 21
-0.64453125
 31
0.0
  0
LINE
  5
10B
330
D4
100
AcDbEntity
  8
AM_9
100
AcDbLine
 10
-0.8888888888888888
 20
-0.64453125
 30
0.0
 11
-0.8888888888888888
 21
-0.7734374999999999
 31
0.0
  0
LINE
  5
10C
330
D4
100
AcDbEntity
  8
AM_9
100
AcDbLine
 10
0.9669966954979732
 20
-0.515625
 30
0.0
 11
0.9954772724678349
 21
-0.5439730000000002
 31
0.0
  0
LINE
  5
10D
330
D4
100
AcDbEntity
  8
AM_9
100
AcDbLine
 10
-0.971652
 20
-0.515625
 30
0.0
 11
0.9669966954979732
 21
-0.515625
 31
0.0
  0
LINE
  5
10E
330
D4
100
AcDbEntity
  8
AM_9
100
AcDbLine
 10
-0.4154662228743963
 20
-0.543973
 30
0.0
 11
-0.4012259343894655
 21
-0.515625
 31
0.0
  0
LINE
  5
10F
330
D4
100
AcDbEntity
  8
AM_9
100
AcDbLine
 10
0.9954772724678349
 20
-0.5439730000000002
 30
0.0
 11
0.9954772724678349
 21
-0.6793172285714866
 31
0.0
  0
LINE
  5
110
330
D4
100
AcDbEntity
  8
AM_9
100
AcDbLine
 10
-0.4154662228743963
 20
-0.543973
 30
0.0
 11
0.9954772724678349
 21
-0.5439730000000002
 31
0.0
  0
LINE
  5
111
330
D4
100
AcDbEntity
  8
AM_9
100
AcDbLine
 10
-0.4154662228743963
 20
-0.6307001457661572
 30
0.0
 11
-0.4154662228743963
 21
-0.543973
 31
0.0
  0
LINE
  5
113
330
D4
100
AcDbEntity
  8
AM_5
100
AcDbLine
 10
-0.9985372666581999
 20
-1.0043647333418
 30
0.0
 11
-0.7499999999999999
 21
-1.0043647333418
 31
0.0
  0
LINE
  5
114
330
D4
100
AcDbEntity
  8
AM_5
100
AcDbLine
 10
-0.9244444444444444
 20
-0.8143647333417999
 30
0.0
 11
-0.7758729564444445
 21
-0.8143647333417999
 31
0.0
  0
LINE
  5
117
330
D4
100
AcDbEntity
  8
AM_7
100
AcDbLine
 10
-0.7374999999999999
 20
-0.9093647333418
 30
0.0
 11
-1.0125
 21
-0.9093647333418
 31
0.0
  0
LINE
  5
119
330
D4
100
AcDbEntity
  8
AM_4
100
AcDbLine
 10
0.05
 20
-1.078125
 30
0.0
 11
0.05
 21
-1.03125
 31
0.0
  0
LINE
  5
11A
330
D4
100
AcDbEntity
  8
AM_4
100
AcDbLine
 10
-0.05
 20
-1.078125
 30
0.0
 11
-0.05
 21
-1.03125
 31
0.0
  0
LINE
  5
11B
330
D4
100
AcDbEntity
  8
AM_4
100
AcDbLine
 10
0.7460317460317459
 20
-1.078125
 30
0.0
 11
0.7460317460317459
 21
-1.03125
 31
0.0
  0
LINE
  5
11C
330
D4
100
AcDbEntity
  8
AM_4
100
AcDbLine
 10
-0.7460317460317459
 20
-1.03125
 30
0.0
 11
-0.7460317460317459
 21
-1.078125
 31
0.0
  0
LINE
  5
11D
330
D4
100
AcDbEntity
  8
AM_4
100
AcDbLine
 10
-0.7460317460317459
 20
-1.078125
 30
0.0
 11
0.7460317460317459
 21
-1.078125
 31
0.0
  0
LINE
  5
11E
330
D4
100
AcDbEntity
  8
AM_4
100
AcDbLine
 10
-0.9992686333291
 20
-1.0036333666709
 30
0.0
 11
-0.971652
 21
-1.03125
 31
0.0
  0
LINE
  5
11F
330
D4
100
AcDbEntity
  8
AM_4
100
AcDbLine
 10
-0.9998740586901647
 20
-1.002902
 30
0.0
 11
-0.5800110495934396
 21
-1.002902
 31
0.0
  0
LINE
  5
120
330
D4
100
AcDbEntity
  8
AM_4
100
AcDbLine
 10
-1.0
 20
-0.680024224448255
 30
0.0
 11
-1.0
 21
-0.8146264319223536
 31
0.0
  0
LWPOLYLINE
  5
121
330
D4
100
AcDbEntity
  8
AM_4
100
AcDbPolyline
 90
       21
 70
     0
 43
0.0
 10
-0.9999999999999967
 20
-0.8143647333418392
 10
-0.9999919540302019
 20
-0.8144575183599186
 10
-0.9998324452714662
 20
-0.8163157607860242
 10
-0.9994722729581027
 20
-0.8206526441436178
 10
-0.9989676059084103
 20
-0.8271078879455717
 10
-0.9983472187042113
 20
-0.8358061013925444
 10
-0.9976842878305199
 20
-0.8464019237273747
 10
-0.997034751708831
 20
-0.858880165034281
 10
-0.9964758542286121
 20
-0.8728687066060479
 10
-0.9960693475663225
 20
-0.888204127789149
 10
-0.995875596485803
 20
-0.9042093756815947
 10
-0.9959235940607528
 20
-0.9208061127958608
 10
-0.996211120766831
 20
-0.9368613820657307
 10
-0.9967221441495053
 20
-0.9525849180402686
 10
-0.9972277170583684
 20
-0.9638539200052462
 10
-0.9978010479740566
 20
-0.9743182947971836
 10
-0.9984040315848939
 20
-0.9837617991527677
 10
-0.9989819030510961
 20
-0.9918113265078925
 10
-0.9995068763495097
 20
-0.9985025230120376
 10
-0.9998677179544927
 20
-1.002827759814401
 10
-0.9998740586901643
 20
-1.002902
  0
LINE
  5
122
330
D4
100
AcDbEntity
  8
AM_4
100
AcDbLine
 10
-0.5800110495934394
 20
-0.6388201654180138
 30
0.0
 11
-0.5800110495934396
 21
-1.002902
 31
0.0
  0
LINE
  5
123
330
D4
100
AcDbEntity
  8
AM_4
100
AcDbLine
 10
-0.5800110495934396
 20
-1.002902
 30
0.0
 11
-0.5657707611085089
 21
-1.03125
 31
0.0
  0
LINE
  5
124
330
D4
100
AcDbEntity
  8
AM_4
100
AcDbLine
 10
-0.5489389953593525
 20
-0.6370349881760429
 30
0.0
 11
-0.5489389953593525
 21
-1.03125
 31
0.0
  0
LINE
  5
125
330
D4
100
AcDbEntity
  8
AM_4
100
AcDbLine
 10
0.9954772724678349
 20
-1.002902
 30
0.0
 11
0.9669966954979732
 21
-1.03125
 31
0.0
  0
LINE
  5
126
330
D4
100
AcDbEntity
  8
AM_4
100
AcDbLine
 10
-0.4012259343894653
 20
-1.03125
 30
0.0
 11
-0.4154662228743962
 21
-1.002902
 31
0.0
  0
LINE
  5
127
330
D4
100
AcDbEntity
  8
AM_4
100
AcDbLine
 10
-0.971652
 20
-1.03125
 30
0.0
 11
0.9669966954979732
 21
-1.03125
 31
0.0
  0
LINE
  5
128
330
D4
100
AcDbEntity
  8
AM_4
100
AcDbLine
 10
0.9954772724678349
 20
-0.6793172285714866
 30
0.0
 11
0.9954772724678349
 21
-1.002902
 31
0.0
  0
LINE
  5
129
330
D4
100
AcDbEntity
  8
AM_4
100
AcDbLine
 10
-0.4154662228743962
 20
-1.002902
 30
0.0
 11
-0.4154662228743963
 21
-0.6307001457661572
 31
0.0
  0
LINE
  5
12A
330
D4
100
AcDbEntity
  8
AM_4
100
AcDbLine
 10
-0.4154662228743962
 20
-1.002902
 30
0.0
 11
0.9954772724678349
 21
-1.002902
 31
0.0
  0
ENDBLK
  5
D7
330
D4
100
AcDbEntity
  8
0
100
AcDbBlockEnd
  0
BLOCK
  5
12D
330
12B
100
AcDbEntity
  8
0
100
AcDbBlockBegin
  2
4_129399I_0_in_129234_4
 70
     2
 10
0.0
 20
0.0
 30
0.0
  3
4_129399I_0_in_129234_4
  1

  0
ATTDEF
  5
12F
330
12B
100
AcDbEntity
  8
AM_6
100
AcDbText
 10
8.125
 20
0.95390625
 30
0.0
 40
0.5
  1
GTAH-I
100
AcDbAttributeDefinition
  3

  2
NN
 70
     8
280
     0
  0
ATTDEF
  5
130
330
12B
100
AcDbEntity
  8
AM_6
100
AcDbText
 10
8.125
 20
0.45390625
 30
0.0
 40
0.5
  1
GTAH Air Handling Normal and Medium Duty Pillow Blocks
100
AcDbAttributeDefinition
  3

  2
NT
 70
     8
280
     0
  0
ATTDEF
  5
131
330
12B
100
AcDbEntity
  8
AM_6
100
AcDbText
 10
8.125
 20
-0.04609375
 30
0.0
 40
0.5
  1
129399I
100
AcDbAttributeDefinition
  3

  2
NB
 70
     8
280
     0
  0
ATTDEF
  5
132
330
12B
100
AcDbEntity
  8
AM_6
100
AcDbText
 10
8.125
 20
-0.54609375
 30
0.0
 40
0.5
  1
$PN.$LUBE.I
100
AcDbAttributeDefinition
  3

  2
NBSYN
 70
     8
280
     0
  0
ATTDEF
  5
133
330
12B
100
AcDbEntity
  8
AM_6
100
AcDbText
 10
8.125
 20
-1.04609375
 30
0.0
 40
0.5
  1
129399
100
AcDbAttributeDefinition
  3

  2
LINA
 70
     8
280
     0
  0
ATTDEF
  5
134
330
12B
100
AcDbEntity
  8
AM_6
100
AcDbText
 10
8.125
 20
-1.54609375
 30
0.0
 40
0.5
  1
206
100
AcDbAttributeDefinition
  3

  2
SERIES
 70
     8
280
     0
  0
ATTDEF
  5
135
330
12B
100
AcDbEntity
  8
AM_6
100
AcDbText
 10
8.125
 20
-2.04609375
 30
0.0
 40
0.5
  1
129399
100
AcDbAttributeDefinition
  3

  2
PN
 70
     8
280
     0
  0
ATTDEF
  5
136
330
12B
100
AcDbEntity
  8
AM_6
100
AcDbText
 10
8.125
 20
-2.54609375
 30
0.0
 40
0.5
  1
P2B-GTAH-06
100
AcDbAttributeDefinition
  3

  2
DESCRIPTION
 70
     8
280
     0
  0
ATTDEF
  5
137
330
12B
100
AcDbEntity
  8
AM_6
100
AcDbText
 10
8.125
 20
-3.04609375
 30
0.0
 40
0.5
  1
1-39/64
100
AcDbAttributeDefinition
  3

  2
A
 70
     8
280
     0
  0
ATTDEF
  5
138
330
12B
100
AcDbEntity
  8
AM_6
100
AcDbText
 10
8.125
 20
-3.54609375
 30
0.0
 40
0.5
  1
6-1/4
100
AcDbAttributeDefinition
  3

  2
B
 70
     8
280
     0
  0
ATTDEF
  5
139
330
12B
100
AcDbEntity
  8
AM_6
100
AcDbText
 10
8.125
 20
-4.04609375
 30
0.0
 40
0.5
  1
1-47/64
100
AcDbAttributeDefinition
  3

  2
C
 70
     8
280
     0
  0
ATTDEF
  5
13A
330
12B
100
AcDbEntity
  8
AM_6
100
AcDbText
 10
8.125
 20
-4.54609375
 30
0.0
 40
0.5
  1
4-1/4
100
AcDbAttributeDefinition
  3

  2
DMIN
 70
     8
280
     0
  0
ATTDEF
  5
13B
330
12B
100
AcDbEntity
  8
AM_6
100
AcDbText
 10
8.125
 20
-5.04609375
 30
0.0
 40
0.5
  1
5
100
AcDbAttributeDefinition
  3

  2
DMAX
 70
     8
280
     0
  0
ATTDEF
  5
13C
330
12B
100
AcDbEntity
  8
AM_6
100
AcDbText
 10
8.125
 20
-5.54609375
 30
0.0
 40
0.5
  1
1/2
100
AcDbAttributeDefinition
  3

  2
F
 70
     8
280
     0
  0
ATTDEF
  5
13D
330
12B
100
AcDbEntity
  8
AM_6
100
AcDbText
 10
8.125
 20
-6.04609375
 30
0.0
 40
0.5
  1
15/16
100
AcDbAttributeDefinition
  3

  2
G
 70
     8
280
     0
  0
ATTDEF
  5
13E
330
12B
100
AcDbEntity
  8
AM_6
100
AcDbText
 10
8.125
 20
-6.54609375
 30
0.0
 40
0.5
  1
5/8
100
AcDbAttributeDefinition
  3

  2
H
 70
     8
280
     0
  0
ATTDEF
  5
13F
330
12B
100
AcDbEntity
  8
AM_6
100
AcDbText
 10
8.125
 20
-7.04609375
 30
0.0
 40
0.5
  1
3-1/4
100
AcDbAttributeDefinition
  3

  2
J
 70
     8
280
     0
  0
ATTDEF
  5
140
330
12B
100
AcDbEntity
  8
AM_6
100
AcDbText
 10
8.125
 20
-7.54609375
 30
0.0
 40
0.5
  1
2
100
AcDbAttributeDefinition
  3

  2
L
 70
     8
280
     0
  0
ATTDEF
  5
141
330
12B
100
AcDbEntity
  8
AM_6
100
AcDbText
 10
8.125
 20
-8.04609375
 30
0.0
 40
0.5
  1
1-5/8
100
AcDbAttributeDefinition
  3

  2
M
 70
     8
280
     0
  0
ATTDEF
  5
142
330
12B
100
AcDbEntity
  8
AM_6
100
AcDbText
 10
8.125
 20
-8.54609375
 30
0.0
 40
0.5
  1
17/32
100
AcDbAttributeDefinition
  3

  2
R
 70
     8
280
     0
  0
ATTDEF
  5
143
330
12B
100
AcDbEntity
  8
AM_6
100
AcDbText
 10
8.125
 20
-9.04609375
 30
0.0
 40
0.5
  1
1-5/64
100
AcDbAttributeDefinition
  3

  2
S
 70
     8
280
     0
  0
ATTDEF
  5
144
330
12B
100
AcDbEntity
  8
AM_6
100
AcDbText
 10
8.125
 20
-9.54609375
 30
0.0
 40
0.5
  1
2-7/8
100
AcDbAttributeDefinition
  3

  2
U
 70
     8
280
     0
  0
ATTDEF
  5
145
330
12B
100
AcDbEntity
  8
AM_6
100
AcDbText
 10
8.125
 20
-10.04609375
 30
0.0
 40
0.5
  1
5-3/4
100
AcDbAttributeDefinition
  3

  2
V
 70
     8
280
     0
  0
ATTDEF
  5
146
330
12B
100
AcDbEntity
  8
AM_6
100
AcDbText
 10
8.125
 20
-10.54609375
 30
0.0
 40
0.5
  1
9/16
100
AcDbAttributeDefinition
  3

  2
W
 70
     8
280
     0
  0
ATTDEF
  5
147
330
12B
100
AcDbEntity
  8
AM_6
100
AcDbText
 10
8.125
 20
-11.04609375
 30
0.0
 40
0.5
  1
3/16
100
AcDbAttributeDefinition
  3

  2
X
 70
     8
280
     0
  0
ATTDEF
  5
148
330
12B
100
AcDbEntity
  8
AM_6
100
AcDbText
 10
8.125
 20
-11.54609375
 30
0.0
 40
0.5
  1
1-1/32
100
AcDbAttributeDefinition
  3

  2
Z
 70
     8
280
     0
  0
ATTDEF
  5
149
330
12B
100
AcDbEntity
  8
AM_6
100
AcDbText
 10
8.125
 20
-12.04609375
 30
0.0
 40
0.5
  1
baldor
100
AcDbAttributeDefinition
  3

  2
COMPANY
 70
     8
280
     0
  0
LINE
  5
14A
330
12B
100
AcDbEntity
  8
AM_9
100
AcDbLine
 10
1.25625
 20
-0.8671875000000001
 30
0.0
 11
1.25625
 21
0.8671874999999999
 31
0.0
  0
LINE
  5
14B
330
12B
100
AcDbEntity
  8
AM_9
100
AcDbLine
 10
1.1971949
 20
-0.7400000578125
 30
0.0
 11
1.1971949
 21
0.7400000578125
 31
0.0
  0
LINE
  5
14C
330
12B
100
AcDbEntity
  8
AM_9
100
AcDbLine
 10
-1.1971949
 20
-0.7400000578125003
 30
0.0
 11
-1.1971949
 21
0.7400000578124998
 31
0.0
  0
LINE
  5
14D
330
12B
100
AcDbEntity
  8
AM_9
100
AcDbLine
 10
-1.25625
 20
-0.8671875000000001
 30
0.0
 11
-1.25625
 21
0.8671874999999999
 31
0.0
  0
LWPOLYLINE
  5
14E
330
12B
100
AcDbEntity
  8
AM_9
100
AcDbPolyline
 90
        5
 70
     0
 43
0.0
 10
1.278939472486297
 20
-0.0909214090671168
 10
1.275575643829917
 20
-0.0460980447457687
 10
1.274324035981276
 20
-0.0008744807129145
 10
1.275518939166416
 20
0.045021122606794
 10
1.278939472486297
 20
0.0909214090671169
  0
LINE
  5
14F
330
12B
100
AcDbEntity
  8
AM_9
100
AcDbLine
 10
1.278939472486297
 20
0.0909214090671169
 30
0.0
 11
1.367143975985652
 21
0.0909214090671169
 31
0.0
  0
LINE
  5
150
330
12B
100
AcDbEntity
  8
AM_9
100
AcDbLine
 10
1.278939472486297
 20
-0.0909214090671168
 30
0.0
 11
1.367143975985652
 21
-0.0909214090671168
 31
0.0
  0
LINE
  5
151
330
12B
100
AcDbEntity
  8
AM_9
100
AcDbLine
 10
1.22045
 20
-0.7400000578124999
 30
0.0
 11
1.22045
 21
0.7400000578124999
 31
0.0
  0
LINE
  5
152
330
12B
100
AcDbEntity
  8
AM_9
100
AcDbLine
 10
-1.22045
 20
0.7400000578124999
 30
0.0
 11
-1.22045
 21
-0.7400000578125002
 31
0.0
  0
LINE
  5
153
330
12B
100
AcDbEntity
  8
AM_9
100
AcDbLine
 10
0.9954772724678349
 20
-0.7400000578125
 30
0.0
 11
-1.0
 21
-0.7400000578125002
 31
0.0
  0
LINE
  5
154
330
12B
100
AcDbEntity
  8
AM_9
100
AcDbLine
 10
1.162967951771136
 20
0.1102360000000003
 30
0.0
 11
1.149031554252889
 21
0.1102360000000003
 31
0.0
  0
LINE
  5
155
330
12B
100
AcDbEntity
  8
AM_9
100
AcDbLine
 10
1.149045456121579
 20
-0.1102360000000002
 30
0.0
 11
1.162967951771136
 21
-0.1102360000000002
 31
0.0
  0
LWPOLYLINE
  5
156
330
12B
100
AcDbEntity
  8
AM_9
100
AcDbPolyline
 90
       20
 70
     0
 43
0.0
 10
1.149055918299431
 20
0.1102359995033962
 10
1.14007446055323
 20
0.1095086938873926
 10
1.127059143153724
 20
0.1058330324149579
 10
1.114533510831262
 20
0.0991887446336125
 10
1.102875084368633
 20
0.0897158298803086
 10
1.092441911807989
 20
0.0777241455884814
 10
1.083567417116433
 20
0.0634882790330299
 10
1.076538210887503
 20
0.0474603121309345
 10
1.071615379775681
 20
0.0300703209373292
 10
1.068933506741288
 20
0.0118289228517705
 10
1.068616478942932
 20
-0.0067153705096783
 10
1.070632518545189
 20
-0.0250700739588208
 10
1.074942182886506
 20
-0.0426911313772755
 10
1.081368988912399
 20
-0.0591117248646841
 10
1.089744003094645
 20
-0.0738710907484053
 10
1.099760467700578
 20
-0.0865522946531814
 10
1.111138983019772
 20
-0.096780544327566
 10
1.123492401268897
 20
-0.1042785564897236
 10
1.136441117600307
 20
-0.1087892785862501
 10
1.149052040879957
 20
-0.1102359998875093
  0
LWPOLYLINE
  5
157
330
12B
100
AcDbEntity
  8
AM_9
100
AcDbPolyline
 90
       11
 70
     0
 43
0.0
 10
1.149052040879957
 20
-0.1102359998875093
 10
1.149605315301405
 20
-0.1102331862556544
 10
1.162576641491743
 20
-0.1085314700963072
 10
1.175026890147427
 20
-0.1037825290392653
 10
1.186610102925647
 20
-0.0960806187415979
 10
1.197043532993728
 20
-0.0856838835143641
 10
1.206065987036811
 20
-0.0728226026614444
 10
1.213459326865846
 20
-0.0579095335347354
 10
1.219030739093382
 20
-0.041323752035907
 10
1.222668949392632
 20
-0.0235683171780001
 10
1.224350172393616
 20
0.0000000000000001
  0
LWPOLYLINE
  5
158
330
12B
100
AcDbEntity
  8
AM_9
100
AcDbPolyline
 90
        5
 70
     0
 43
0.0
 10
1.167583943031649
 20
-0.1818428181342337
 10
1.191668707160813
 20
-0.1594311359735597
 10
1.218110763369815
 20
-0.1368193539571325
 10
1.247410868947574
 20
-0.1138715522972781
 10
1.278939472486297
 20
-0.0909214090671168
  0
LWPOLYLINE
  5
159
330
12B
100
AcDbEntity
  8
AM_9
100
AcDbPolyline
 90
        5
 70
     0
 43
0.0
 10
1.278939472486297
 20
0.0909214090671169
 10
1.248127051044373
 20
0.1133330912277909
 10
1.219181779138088
 20
0.135944873244218
 10
1.192271479930611
 20
0.1588926749040723
 10
1.167583943031649
 20
0.1818428181342338
  0
ELLIPSE
  5
15A
330
12B
100
AcDbEntity
  8
AM_9
100
AcDbEllipse
 10
1.162967951771136
 20
0.0000000000000001
 30
0.0
 11
-2.892860668945859E-17
 21
-0.157479999999999
 31
0.0
210
0.0
220
0.0
230
1.0
 40
0.7071067811865487
 41
0.0
 42
6.283185307179586
  0
ELLIPSE
  5
15B
330
12B
100
AcDbEntity
  8
AM_9
100
AcDbEllipse
 10
1.260404437791518
 20
0.0000000000000006
 30
0.0
 11
6.750008227540337E-18
 21
0.1102359999999993
 31
0.0
210
0.0
220
0.0
230
1.0
 40
0.7071067811865511
 41
3.141592653589793
 42
6.283185307179586
  0
ELLIPSE
  5
15C
330
12B
100
AcDbEntity
  8
AM_9
100
AcDbEllipse
 10
1.274323834779157
 20
0.0000000000000053
 30
0.0
 11
6.750008227539239E-18
 21
0.1102359999999813
 31
0.0
210
0.0
220
0.0
230
1.0
 40
0.7071067811868191
 41
4.71238898038469
 42
5.033924910050597
  0
ELLIPSE
  5
15D
330
12B
100
AcDbEntity
  8
AM_9
100
AcDbEllipse
 10
1.274323834779172
 20
-0.0000000000000048
 30
0.0
 11
6.750008227540814E-18
 21
0.1102360000000071
 31
0.0
210
0.0
220
0.0
230
1.0
 40
0.7071067811865314
 41
5.242968300280225
 42
5.688265813986889
  0
LINE
  5
15E
330
12B
100
AcDbEntity
  8
AM_9
100
AcDbLine
 10
1.367143975985652
 20
-0.0909214090671168
 30
0.0
 11
1.351603920448962
 21
-0.105581080695233
 31
0.0
  0
LWPOLYLINE
  5
15F
330
12B
100
AcDbEntity
  8
AM_9
100
AcDbPolyline
 90
        5
 70
     0
 43
0.0
 10
1.367143975985652
 20
0.0909214090671169
 10
1.370507804642031
 20
0.0460980447457688
 10
1.371759412490672
 20
0.0008744807129146
 10
1.370564509305532
 20
-0.0450211226067939
 10
1.367143975985652
 20
-0.0909214090671168
  0
LINE
  5
160
330
12B
100
AcDbEntity
  8
AM_9
100
AcDbLine
 10
1.35169913720259
 20
0.1054934469255285
 30
0.0
 11
1.367143975985652
 21
0.0909214090671169
 31
0.0
  0
ELLIPSE
  5
161
330
12B
100
AcDbEntity
  8
AM_9
100
AcDbEllipse
 10
1.260404437791515
 20
-0.0000000000000008
 30
0.0
 11
9.642868896486368E-18
 21
0.1574800000000018
 31
0.0
210
0.0
220
0.0
230
1.0
 40
0.7071067811865517
 41
3.987262705848597
 42
5.434500691846822
  0
ELLIPSE
  5
162
330
12B
100
AcDbEntity
  8
AM_9
100
AcDbEllipse
 10
1.274323834779175
 20
-0.0000000000000051
 30
0.0
 11
6.750008227539915E-18
 21
0.1102359999999924
 31
0.0
210
0.0
220
0.0
230
1.0
 40
0.7071067811865711
 41
3.737676472534821
 42
4.102524391137411
  0
LWPOLYLINE
  5
163
330
12B
100
AcDbEntity
  8
AM_9
100
AcDbPolyline
 90
        3
 70
     0
 43
0.0
 10
1.299649295126584
 20
-0.0712616804260606
 10
1.298168169087772
 20
-0.0690988382098533
 10
1.296548003646274
 20
-0.0665368299905929
  0
LWPOLYLINE
  5
164
330
12B
100
AcDbEntity
  8
AM_9
100
AcDbPolyline
 90
        3
 70
     0
 43
0.0
 10
1.305228505818412
 20
-0.0780586732003774
 10
1.302013956567653
 20
-0.0743906561345134
 10
1.299649295126584
 20
-0.0712616804260606
  0
LWPOLYLINE
  5
165
330
12B
100
AcDbEntity
  8
AM_9
100
AcDbPolyline
 90
       23
 70
     0
 43
0.0
 10
1.352267246621618
 20
0.0000000000000001
 10
1.352177783265058
 20
-0.0052637405261766
 10
1.351428502680505
 20
-0.0160675309202012
 10
1.349942933222646
 20
-0.0265822949038185
 10
1.347777222267588
 20
-0.0366062068784036
 10
1.345015448874784
 20
-0.0459577561901777
 10
1.3417683320923
 20
-0.0544760914125896
 10
1.338170676706645
 20
-0.0620279001335736
 10
1.334377451385258
 20
-0.0685143321832438
 10
1.330558284647293
 20
-0.0738774443203598
 10
1.326898871425143
 20
-0.0780966715315933
 10
1.323577773914188
 20
-0.0812133136359995
 10
1.320757647315783
 20
-0.0833243496706993
 10
1.318571368229017
 20
-0.0845799566793104
 10
1.317100415850573
 20
-0.0851800234752563
 10
1.316327397147669
 20
-0.0853663746438098
 10
1.315966050716927
 20
-0.0853805316344899
 10
1.315263626473413
 20
-0.0852401287610081
 10
1.313896657833709
 20
-0.0847231268723024
 10
1.311828292749582
 20
-0.0835948831432032
 10
1.309171940330024
 20
-0.0816934286036193
 10
1.305737581397046
 20
-0.0785808551768657
 10
1.305228505818412
 20
-0.0780586732003774
  0
LWPOLYLINE
  5
166
330
12B
100
AcDbEntity
  8
AM_9
100
AcDbPolyline
 90
       21
 70
     0
 43
0.0
 10
1.307301744026384
 20
0.0800871524749757
 10
1.308300063688899
 20
0.0809711799084753
 10
1.311172252825891
 20
0.0831689901447478
 10
1.313421063162309
 20
0.0844954583796728
 10
1.31495897471157
 20
0.0851461187370079
 10
1.315790659238884
 20
0.0853596330983531
 10
1.316160065716791
 20
0.08538300116692
 10
1.316711772388681
 20
0.0852902049437331
 10
1.31792720824804
 20
0.0848724230722304
 10
1.319860658886857
 20
0.0838840083804317
 10
1.322406910329335
 20
0.0821516041854825
 10
1.325771459029407
 20
0.0792294840979425
 10
1.329455438216425
 20
0.0752385116666916
 10
1.333290893111806
 20
0.0701485664252527
 10
1.337117665000414
 20
0.0639611134565749
 10
1.340779195549054
 20
0.0567166862431449
 10
1.344123721532257
 20
0.0485051475316451
 10
1.347021047052181
 20
0.0394387668291109
 10
1.349360004642814
 20
0.0296562575872747
 10
1.351050660375958
 20
0.0193208707679186
 10
1.351398265970269
 20
0.016352541707002
  0
LINE
  5
167
330
12B
100
AcDbEntity
  8
AM_9
100
AcDbLine
 10
1.299023261597495
 20
0.0703674702140379
 30
0.0
 11
1.301080202950379
 21
0.0732007252430797
 31
0.0
  0
LWPOLYLINE
  5
168
330
12B
100
AcDbEntity
  8
AM_9
100
AcDbPolyline
 90
        3
 70
     0
 43
0.0
 10
1.29693526748957
 20
0.0671688481888865
 10
1.29743505374932
 20
0.0679660068289148
 10
1.299023261597495
 20
0.0703674702140379
  0
ELLIPSE
  5
169
330
12B
100
AcDbEntity
  8
AM_9
100
AcDbEllipse
 10
1.351406032383467
 20
0.0000000000000002
 30
0.0
 11
6.258279876480438E-18
 21
0.102205466602088
 31
0.0
210
0.0
220
0.0
230
1.0
 40
0.7071067811865481
 41
2.279421096990403
 42
7.034631133302069
  0
ELLIPSE
  5
16A
330
12B
100
AcDbEntity
  8
AM_9
100
AcDbEllipse
 10
1.351406032383317
 20
0.0000000000000171
 30
0.0
 11
6.258279876478947E-18
 21
0.1022054666020636
 31
0.0
210
0.0
220
0.0
230
1.0
 40
0.7071067811855717
 41
0.771638514129732
 42
0.8520110755630432
  0
ELLIPSE
  5
16B
330
12B
100
AcDbEntity
  8
AM_9
100
AcDbEllipse
 10
1.366295196670319
 20
-0.0000000000000001
 30
0.0
 11
6.365617546288483E-18
 21
0.1039584237793374
 31
0.0
210
0.0
220
0.0
230
1.0
 40
0.7071067811865475
 41
3.694304707716622
 42
5.730473253052758
  0
ELLIPSE
  5
16C
330
12B
100
AcDbEntity
  8
AM_9
100
AcDbEllipse
 10
1.410538111260315
 20
-0.0000000000000002
 30
0.0
 11
4.354225479598992E-18
 21
0.07110989850511304
 31
0.0
210
0.0
220
0.0
230
1.0
 40
0.7071067811865472
 41
3.766626590235902
 42
5.658260265012705
  0
LWPOLYLINE
  5
16D
330
12B
100
AcDbEntity
  8
AM_9
100
AcDbPolyline
 90
       11
 70
     0
 43
0.0
 10
1.224350172393616
 20
0.0000000000000001
 10
1.22331441981182
 20
0.018481336748056
 10
1.220257464642531
 20
0.0364411472734587
 10
1.215222949617782
 20
0.0533578954963563
 10
1.20835139475515
 20
0.0687732317180811
 10
1.199765290930895
 20
0.08224681343019
 10
1.189700525452354
 20
0.0934044327510596
 10
1.178374140175343
 20
0.1019022799130627
 10
1.166102393681815
 20
0.107524459520715
 10
1.153220493721572
 20
0.1100661454123314
 10
1.149055918299431
 20
0.1102359995033962
  0
ELLIPSE
  5
16E
330
12B
100
AcDbEntity
  8
AM_9
100
AcDbEllipse
 10
1.162967951771136
 20
0.0000000000000003
 30
0.0
 11
6.750008227540409E-18
 21
0.1102360000000005
 31
0.0
210
0.0
220
0.0
230
1.0
 40
0.7071067811865476
 41
0.0
 42
6.283185307179586
  0
LINE
  5
16F
330
12B
100
AcDbEntity
  8
AM_7
100
AcDbLine
 10
-2.9734375
 20
-0.5625000000000002
 30
0.0
 11
-2.7765625
 21
-0.5625000000000002
 31
0.0
  0
LINE
  5
170
330
12B
100
AcDbEntity
  8
AM_7
100
AcDbLine
 10
-2.875
 20
-0.6609375000000002
 30
0.0
 11
-2.875
 21
-0.4640625000000003
 31
0.0
  0
LINE
  5
171
330
12B
100
AcDbEntity
  8
AM_7
100
AcDbLine
 10
2.7765625
 20
-0.5624999999999998
 30
0.0
 11
2.9734375
 21
-0.5624999999999998
 31
0.0
  0
LINE
  5
172
330
12B
100
AcDbEntity
  8
AM_7
100
AcDbLine
 10
2.875
 20
-0.6609374999999997
 30
0.0
 11
2.875
 21
-0.4640624999999998
 31
0.0
  0
LINE
  5
173
330
12B
100
AcDbEntity
  8
AM_7
100
AcDbLine
 10
0.0
 20
0.95390625
 30
0.0
 11
0.0
 21
-1.15859375
 31
0.0
  0
LINE
  5
174
330
12B
100
AcDbEntity
  8
AM_7
100
AcDbLine
 10
-2.795312500000001
 20
0.0000000000000001
 30
0.0
 11
-1.8296875
 21
0.0000000000000001
 31
0.0
  0
LINE
  5
175
330
12B
100
AcDbEntity
  8
AM_7
100
AcDbLine
 10
-2.5
 20
-0.2953125000000004
 30
0.0
 11
-2.5
 21
0.2953125000000005
 31
0.0
  0
LINE
  5
176
330
12B
100
AcDbEntity
  8
AM_7
100
AcDbLine
 10
1.8296875
 20
0.0
 30
0.0
 11
2.795312500000001
 21
0.0000000000000001
 31
0.0
  0
LINE
  5
177
330
12B
100
AcDbEntity
  8
AM_7
100
AcDbLine
 10
2.5
 20
-0.2953125000000003
 30
0.0
 11
2.5
 21
0.2953125000000006
 31
0.0
  0
LINE
  5
178
330
12B
100
AcDbEntity
  8
AM_7
100
AcDbLine
 10
2.125
 20
-0.2953125000000003
 30
0.0
 11
2.125
 21
0.2953125000000003
 31
0.0
  0
LINE
  5
179
330
12B
100
AcDbEntity
  8
AM_7
100
AcDbLine
 10
-2.125
 20
-0.2953125000000001
 30
0.0
 11
-2.125
 21
0.2953125000000004
 31
0.0
  0
LINE
  5
17A
330
12B
100
AcDbEntity
  8
AM_4
100
AcDbLine
 10
2.9446875
 20
0.8671874999999999
 30
0.0
 11
1.250000000000002
 21
0.8671874999999999
 31
0.0
  0
LINE
  5
17B
330
12B
100
AcDbEntity
  8
AM_4
100
AcDbLine
 10
3.125
 20
-0.6868749999999996
 30
0.0
 11
3.125
 21
0.6868749999999996
 31
0.0
  0
LINE
  5
17C
330
12B
100
AcDbEntity
  8
AM_4
100
AcDbLine
 10
3.125
 20
0.6868749999999996
 30
0.0
 11
2.9446875
 21
0.8671874999999999
 31
0.0
  0
LINE
  5
17D
330
12B
100
AcDbEntity
  8
AM_4
100
AcDbLine
 10
-1.249999999999998
 20
0.8671874999999999
 30
0.0
 11
-2.944687500000001
 21
0.8671874999999999
 31
0.0
  0
LINE
  5
17E
330
12B
100
AcDbEntity
  8
AM_4
100
AcDbLine
 10
-3.125
 20
0.6868749999999999
 30
0.0
 11
-3.125
 21
-0.686875
 31
0.0
  0
LINE
  5
17F
330
12B
100
AcDbEntity
  8
AM_4
100
AcDbLine
 10
-2.944687500000001
 20
0.8671874999999999
 30
0.0
 11
-3.125
 21
0.6868749999999999
 31
0.0
  0
LWPOLYLINE
  5
180
330
12B
100
AcDbEntity
  8
AM_4
100
AcDbPolyline
 90
       10
 70
     0
 43
0.0
 10
-3.0659449
 20
0.2652006224803973
 10
-3.077767327747527
 20
0.2383483060302329
 10
-3.08833844713506
 20
0.2109096290421693
 10
-3.097690509779598
 20
0.1827321934400303
 10
-3.105667668622904
 20
0.1542455029649064
 10
-3.114046718917391
 20
0.1164973260928661
 10
-3.120060795447818
 20
0.078419448790586
 10
-3.123732889125568
 20
0.0397779213015588
 10
-3.124999280574764
 20
0.0009483042905776
 10
-3.125
 20
0.0000000000000026
  0
LINE
  5
181
330
12B
100
AcDbEntity
  8
AM_4
100
AcDbLine
 10
-3.125
 20
-0.686875
 30
0.0
 11
-2.9446875
 21
-0.8671875000000001
 31
0.0
  0
LINE
  5
182
330
12B
100
AcDbEntity
  8
AM_4
100
AcDbLine
 10
2.944687499999999
 20
-0.8671875000000001
 30
0.0
 11
3.125
 21
-0.6868749999999996
 31
0.0
  0
LWPOLYLINE
  5
183
330
12B
100
AcDbEntity
  8
AM_4
100
AcDbPolyline
 90
       10
 70
     0
 43
0.0
 10
3.125
 20
-0.0000000000000001
 10
3.124999280574764
 20
0.00094830429059
 10
3.123779972251696
 20
0.0390326301659712
 10
3.120213054115414
 20
0.0772060069219433
 10
3.114193660309184
 20
0.1157201263221128
 10
3.105667668622903
 20
0.1542455029649085
 10
3.097900613381956
 20
0.1820435566491743
 10
3.088750718361448
 20
0.2097560288260607
 10
3.078081226754634
 20
0.2375859744889347
 10
3.065944899999999
 20
0.2652006224803997
  0
LINE
  5
184
330
12B
100
AcDbEntity
  8
AM_4
100
AcDbLine
 10
-1.249999999999998
 20
-0.8671875000000001
 30
0.0
 11
-2.9446875
 21
-0.8671875000000001
 31
0.0
  0
CIRCLE
  5
185
330
12B
100
AcDbEntity
  8
AM_4
100
AcDbCircle
 10
-2.875
 20
-0.5625000000000002
 30
0.0
 40
0.09375
  0
LINE
  5
186
330
12B
100
AcDbEntity
  8
AM_4
100
AcDbLine
 10
-2.125
 20
0.2812500000000002
 30
0.0
 11
-2.5
 21
0.2812500000000001
 31
0.0
  0
ARC
  5
187
330
12B
100
AcDbEntity
  8
AM_4
100
AcDbCircle
 10
-2.125
 20
0.0000000000000001
 30
0.0
 40
0.28125
100
AcDbArc
 50
270.0
 51
90.0
  0
LINE
  5
188
330
12B
100
AcDbEntity
  8
AM_4
100
AcDbLine
 10
-2.5
 20
-0.2812500000000001
 30
0.0
 11
-2.125
 21
-0.2812499999999999
 31
0.0
  0
ARC
  5
189
330
12B
100
AcDbEntity
  8
AM_4
100
AcDbCircle
 10
-2.5
 20
0.0000000000000001
 30
0.0
 40
0.2812500000000001
100
AcDbArc
 50
90.0
 51
270.0
  0
LINE
  5
18A
330
12B
100
AcDbEntity
  8
AM_4
100
AcDbLine
 10
-2.5
 20
0.6250000000000001
 30
0.0
 11
-2.0337402
 21
0.625
 31
0.0
  0
ARC
  5
18B
330
12B
100
AcDbEntity
  8
AM_4
100
AcDbCircle
 10
-2.5
 20
0.0000000000000003
 30
0.0
 40
0.6249999999999998
100
AcDbArc
 50
90.0
 51
154.8923077609762
  0
LINE
  5
18C
330
12B
100
AcDbEntity
  8
AM_4
100
AcDbLine
 10
-3.0659449
 20
-0.7459301000000003
 30
0.0
 11
-3.065944899999999
 21
0.2652006224803974
 31
0.0
  0
ARC
  5
18D
330
12B
100
AcDbEntity
  8
AM_4
100
AcDbCircle
 10
-2.0337402
 20
0.7037401999999994
 30
0.0
 40
0.0787401999999994
100
AcDbArc
 50
270.0
 51
0.0
  0
LINE
  5
18E
330
12B
100
AcDbEntity
  8
AM_4
100
AcDbLine
 10
2.944687499999999
 20
-0.8671875000000001
 30
0.0
 11
1.250000000000002
 21
-0.8671875000000001
 31
0.0
  0
CIRCLE
  5
18F
330
12B
100
AcDbEntity
  8
AM_4
100
AcDbCircle
 10
2.875
 20
-0.5624999999999998
 30
0.0
 40
0.09375
  0
LINE
  5
190
330
12B
100
AcDbEntity
  8
AM_4
100
AcDbLine
 10
2.5
 20
0.2812500000000002
 30
0.0
 11
2.125
 21
0.2812500000000001
 31
0.0
  0
ARC
  5
191
330
12B
100
AcDbEntity
  8
AM_4
100
AcDbCircle
 10
2.5
 20
0.0000000000000001
 30
0.0
 40
0.28125
100
AcDbArc
 50
270.0
 51
90.0
  0
LINE
  5
192
330
12B
100
AcDbEntity
  8
AM_4
100
AcDbLine
 10
2.125
 20
-0.2812500000000001
 30
0.0
 11
2.5
 21
-0.2812499999999999
 31
0.0
  0
ARC
  5
193
330
12B
100
AcDbEntity
  8
AM_4
100
AcDbCircle
 10
2.125
 20
0.0
 30
0.0
 40
0.28125
100
AcDbArc
 50
90.0
 51
270.0
  0
ARC
  5
194
330
12B
100
AcDbEntity
  8
AM_4
100
AcDbCircle
 10
2.0337402
 20
0.7037402000000003
 30
0.0
 40
0.0787402000000004
100
AcDbArc
 50
180.0
 51
270.0
  0
LINE
  5
195
330
12B
100
AcDbEntity
  8
AM_4
100
AcDbLine
 10
3.065944899999999
 20
-0.745930100000001
 30
0.0
 11
3.065944899999998
 21
0.2652006224803996
 31
0.0
  0
ARC
  5
196
330
12B
100
AcDbEntity
  8
AM_4
100
AcDbCircle
 10
2.5
 20
0.0000000000000016
 30
0.0
 40
0.6249999999999983
100
AcDbArc
 50
25.10769223902393
 51
90.0
  0
LINE
  5
197
330
12B
100
AcDbEntity
  8
AM_4
100
AcDbLine
 10
2.0337402
 20
0.6249999999999999
 30
0.0
 11
2.5
 21
0.625
 31
0.0
  0
LWPOLYLINE
  5
198
330
12B
100
AcDbEntity
  8
AM_4
100
AcDbPolyline
 90
       11
 70
     0
 43
0.0
 10
1.955
 20
0.6014357821081151
 10
1.903228319019752
 20
0.5843306611116648
 10
1.853144454441165
 20
0.5627784309556547
 10
1.805129574715148
 20
0.5369431171251647
 10
1.759549102068592
 20
0.5070213419582338
 10
1.71674993142058
 20
0.4732408282311439
 10
1.677057790302588
 20
0.4358586660505904
 10
1.640774759875295
 20
0.3951593562427337
 10
1.608176975908544
 20
0.3514526451301268
 10
1.579512527221404
 20
0.3050711671751705
 10
1.56831951531774
 20
0.2841334861890169
  0
LINE
  5
199
330
12B
100
AcDbEntity
  8
AM_4
100
AcDbLine
 10
1.955
 20
0.6014357821081152
 30
0.0
 11
1.955
 21
0.8671874999999999
 31
0.0
  0
LWPOLYLINE
  5
19A
330
12B
100
AcDbEntity
  8
AM_4
100
AcDbPolyline
 90
       11
 70
     0
 43
0.0
 10
1.56831951531774
 20
-0.2841334861890167
 10
1.595201717656675
 20
-0.3315701736074313
 10
1.626116004825191
 20
-0.3764834117971487
 10
1.660827100431381
 20
-0.4185313838961903
 10
1.699070832078547
 20
-0.4573940794476229
 10
1.740556141876658
 20
-0.4927757298723631
 10
1.784967301568637
 20
-0.5244070594466533
 10
1.831966315413035
 20
-0.5520473346529148
 10
1.881195492535716
 20
-0.5754861963071731
 10
1.932280169173388
 20
-0.5945452605194679
 10
1.955
 20
-0.601435782108115
  0
LINE
  5
19B
330
12B
100
AcDbEntity
  8
AM_4
100
AcDbLine
 10
1.954999999999999
 20
-0.8671875000000001
 30
0.0
 11
1.955
 21
-0.6014357821081149
 31
0.0
  0
LWPOLYLINE
  5
19C
330
12B
100
AcDbEntity
  8
AM_4
100
AcDbPolyline
 90
       11
 70
     0
 43
0.0
 10
-1.56831951531774
 20
0.2841334861890163
 10
-1.595201717656674
 20
0.3315701736074309
 10
-1.626116004825191
 20
0.3764834117971483
 10
-1.66082710043138
 20
0.4185313838961899
 10
-1.699070832078546
 20
0.4573940794476225
 10
-1.740556141876658
 20
0.4927757298723626
 10
-1.784967301568637
 20
0.524407059446653
 10
-1.831966315413035
 20
0.5520473346529144
 10
-1.881195492535716
 20
0.5754861963071728
 10
-1.932280169173387
 20
0.5945452605194675
 10
-1.955
 20
0.6014357821081149
  0
LINE
  5
19D
330
12B
100
AcDbEntity
  8
AM_4
100
AcDbLine
 10
-1.955
 20
0.6014357821081149
 30
0.0
 11
-1.955
 21
0.8671874999999999
 31
0.0
  0
LWPOLYLINE
  5
19E
330
12B
100
AcDbEntity
  8
AM_4
100
AcDbPolyline
 90
       11
 70
     0
 43
0.0
 10
-1.955
 20
-0.6014357821081153
 10
-1.903228319019752
 20
-0.584330661111665
 10
-1.853144454441166
 20
-0.5627784309556549
 10
-1.805129574715149
 20
-0.5369431171251648
 10
-1.759549102068593
 20
-0.5070213419582339
 10
-1.71674993142058
 20
-0.4732408282311441
 10
-1.677057790302588
 20
-0.4358586660505906
 10
-1.640774759875295
 20
-0.3951593562427339
 10
-1.608176975908544
 20
-0.3514526451301271
 10
-1.579512527221404
 20
-0.3050711671751707
 10
-1.56831951531774
 20
-0.2841334861890166
  0
LINE
  5
19F
330
12B
100
AcDbEntity
  8
AM_4
100
AcDbLine
 10
-1.954999999999998
 20
-0.8671875000000001
 30
0.0
 11
-1.955
 21
-0.6014357821081152
 31
0.0
  0
LINE
  5
1A0
330
12B
100
AcDbEntity
  8
AM_4
100
AcDbLine
 10
-1.0
 20
-0.7400000578125002
 30
0.0
 11
-1.25
 21
-0.7400000578125002
 31
0.0
  0
LINE
  5
1A1
330
12B
100
AcDbEntity
  8
AM_4
100
AcDbLine
 10
1.250000000000001
 20
-0.7400000578124999
 30
0.0
 11
0.9954772724678349
 21
-0.7400000578125
 31
0.0
  0
LINE
  5
1A2
330
12B
100
AcDbEntity
  8
AM_4
100
AcDbLine
 10
1.274323834779174
 20
0.1102359999999999
 30
0.0
 11
1.260404437791517
 21
0.1102359999999999
 31
0.0
  0
LINE
  5
1A3
330
12B
100
AcDbEntity
  8
AM_4
100
AcDbLine
 10
1.260404437791517
 20
-0.1102359999999997
 30
0.0
 11
1.274323834779174
 21
-0.1102359999999997
 31
0.0
  0
ELLIPSE
  5
1A4
330
12B
100
AcDbEntity
  8
AM_4
100
AcDbEllipse
 10
1.260404437791517
 20
0.0000000000000001
 30
0.0
 11
6.750008227540371E-18
 21
0.1102359999999998
 31
0.0
210
0.0
220
0.0
230
1.0
 40
0.7071067811865475
 41
0.0
 42
3.141592653589793
  0
ELLIPSE
  5
1A5
330
12B
100
AcDbEntity
  8
AM_4
100
AcDbEllipse
 10
1.274323834779174
 20
0.0
 30
0.0
 11
6.750008227540371E-18
 21
0.1102359999999998
 31
0.0
210
0.0
220
0.0
230
1.0
 40
0.7071067811865496
 41
5.688265813986897
 42
10.0208617797144
  0
LWPOLYLINE
  5
1A6
330
12B
100
AcDbEntity
  8
AM_4
100
AcDbPolyline
 90
        5
 70
     0
 43
0.0
 10
1.056228413577001
 20
-0.0909214090671168
 10
1.080313177706165
 20
-0.1133330912277909
 10
1.106755233915168
 20
-0.1359448732442181
 10
1.136055339492926
 20
-0.1588926749040724
 10
1.167583943031649
 20
-0.1818428181342337
  0
LINE
  5
1A7
330
12B
100
AcDbEntity
  8
AM_4
100
AcDbLine
 10
1.167583943031649
 20
-0.1818428181342337
 30
0.0
 11
1.255788446531003
 21
-0.1818428181342337
 31
0.0
  0
LINE
  5
1A8
330
12B
100
AcDbEntity
  8
AM_4
100
AcDbLine
 10
1.167583943031649
 20
0.1818428181342338
 30
0.0
 11
1.255788446531003
 21
0.1818428181342338
 31
0.0
  0
LWPOLYLINE
  5
1A9
330
12B
100
AcDbEntity
  8
AM_4
100
AcDbPolyline
 90
        5
 70
     0
 43
0.0
 10
1.167583943031649
 20
0.1818428181342338
 10
1.136771521589726
 20
0.1594311359735598
 10
1.107826249683441
 20
0.1368193539571328
 10
1.080915950475963
 20
0.1138715522972785
 10
1.056228413577001
 20
0.0909214090671169
  0
LINE
  5
1AA
330
12B
100
AcDbEntity
  8
AM_4
100
AcDbLine
 10
1.056228413577001
 20
0.0909214090671169
 30
0.0
 11
1.144432917076355
 21
0.0909214090671169
 31
0.0
  0
LWPOLYLINE
  5
1AB
330
12B
100
AcDbEntity
  8
AM_4
100
AcDbPolyline
 90
        5
 70
     0
 43
0.0
 10
1.056228413577001
 20
0.0909214090671169
 10
1.052864584920622
 20
0.0460980447457688
 10
1.05161297707198
 20
0.0008744807129146
 10
1.05280788025712
 20
-0.045021122606794
 10
1.056228413577001
 20
-0.0909214090671168
  0
LINE
  5
1AC
330
12B
100
AcDbEntity
  8
AM_4
100
AcDbLine
 10
1.056228413577001
 20
-0.0909214090671168
 30
0.0
 11
1.144432917076355
 21
-0.0909214090671168
 31
0.0
  0
LWPOLYLINE
  5
1AD
330
12B
100
AcDbEntity
  8
AM_4
100
AcDbPolyline
 90
        5
 70
     0
 43
0.0
 10
1.351603920448962
 20
-0.105581080695233
 10
1.343059211856487
 20
-0.1133330912277908
 10
1.316617155647485
 20
-0.1359448732442178
 10
1.287317050069727
 20
-0.1588926749040721
 10
1.255788446531003
 20
-0.1818428181342337
  0
LWPOLYLINE
  5
1AE
330
12B
100
AcDbEntity
  8
AM_4
100
AcDbPolyline
 90
        5
 70
     0
 43
0.0
 10
1.255788446531003
 20
0.1818428181342338
 10
1.286600867972927
 20
0.1594311359735598
 10
1.315546139879212
 20
0.1368193539571326
 10
1.34245643908669
 20
0.1138715522972782
 10
1.35169913720259
 20
0.1054934469255285
  0
LWPOLYLINE
  5
1AF
330
12B
100
AcDbEntity
  8
AM_4
100
AcDbPolyline
 90
        5
 70
     0
 43
0.0
 10
1.144432917076355
 20
0.0909214090671169
 10
1.175245338518279
 20
0.113333091227791
 10
1.204190610424564
 20
0.1359448732442181
 10
1.231100909632042
 20
0.1588926749040725
 10
1.255788446531003
 20
0.1818428181342338
  0
LWPOLYLINE
  5
1B0
330
12B
100
AcDbEntity
  8
AM_4
100
AcDbPolyline
 90
        5
 70
     0
 43
0.0
 10
1.144432917076355
 20
-0.0909214090671168
 10
1.147796745732735
 20
-0.0460980447457687
 10
1.149048353581376
 20
-0.0008744807129145
 10
1.147853450396236
 20
0.0450211226067941
 10
1.144432917076355
 20
0.0909214090671169
  0
LWPOLYLINE
  5
1B1
330
12B
100
AcDbEntity
  8
AM_4
100
AcDbPolyline
 90
        5
 70
     0
 43
0.0
 10
1.255788446531003
 20
-0.1818428181342337
 10
1.231703682401839
 20
-0.1594311359735597
 10
1.205261626192837
 20
-0.1368193539571327
 10
1.175961520615078
 20
-0.1138715522972783
 10
1.144432917076355
 20
-0.0909214090671168
  0
ELLIPSE
  5
1B2
330
12B
100
AcDbEntity
  8
AM_4
100
AcDbEllipse
 10
1.260404437791517
 20
0.0000000000000001
 30
0.0
 11
9.642868896486263E-18
 21
0.1574800000000001
 31
0.0
210
0.0
220
0.0
230
1.0
 40
0.7071067811865481
 41
5.434500691846824
 42
10.27044801302817
  0
ELLIPSE
  5
1B3
330
12B
100
AcDbEntity
  8
AM_4
100
AcDbEllipse
 10
1.351406032382761
 20
0.0000000000008607
 30
0.0
 11
6.258279876562008E-18
 21
0.1022054666034201
 31
0.0
210
0.0
220
0.0
230
1.0
 40
0.7071067811759217
 41
-4.021418729938123
 42
-4.00376421018386
  0
LINE
  5
1B4
330
12B
100
AcDbEntity
  8
AM_4
100
AcDbLine
 10
1.293754278948715
 20
0.0616434303866103
 30
0.0
 11
1.293089421865063
 21
0.0603859078685739
 31
0.0
  0
LWPOLYLINE
  5
1B5
330
12B
100
AcDbEntity
  8
AM_4
100
AcDbPolyline
 90
       15
 70
     0
 43
0.0
 10
1.396761969512261
 20
0.0946955220765789
 10
1.395164278666069
 20
0.0957289522795787
 10
1.386219962683562
 20
0.1005123261075582
 10
1.376947551970518
 20
0.1038567621997872
 10
1.367509091004834
 20
0.1057442097559015
 10
1.358049326351617
 20
0.1061892997645117
 10
1.348691436079971
 20
0.1052246790051175
 10
1.339553357744342
 20
0.1028930456811173
 10
1.330729546403405
 20
0.0992388921073553
 10
1.322302142043068
 20
0.0943019117450266
 10
1.314357331840333
 20
0.0881236811973336
 10
1.306990276186866
 20
0.0807592926685637
 10
1.300302982991144
 20
0.0722886366229657
 10
1.294396019633235
 20
0.0628212116372699
 10
1.293754278948715
 20
0.0616434303866103
  0
LWPOLYLINE
  5
1B6
330
12B
100
AcDbEntity
  8
AM_4
100
AcDbPolyline
 90
        3
 70
     0
 43
0.0
 10
1.407069250383221
 20
0.0865068759008926
 10
1.403613897595578
 20
0.089567707851006
 10
1.39739043747889
 20
0.0942730158988484
  0
LWPOLYLINE
  5
1B7
330
12B
100
AcDbEntity
  8
AM_4
100
AcDbPolyline
 90
       15
 70
     0
 43
0.0
 10
1.29607740222465
 20
-0.0657531641815799
 10
1.301157259812241
 20
-0.0734860666703766
 10
1.308177026945984
 20
-0.0820696319195976
 10
1.315972720720165
 20
-0.0895145945001278
 10
1.324417858528315
 20
-0.0956862073748739
 10
1.33335896208841
 20
-0.1004806006709658
 10
1.342629460997631
 20
-0.1038363579038014
 10
1.352067215832919
 20
-0.1057351226728815
 10
1.361527317933413
 20
-0.1061913275244646
 10
1.370886424975492
 20
-0.1052375330425702
 10
1.380026620578924
 20
-0.1029163645825791
 10
1.388853196592579
 20
-0.0992723523123331
 10
1.397284010599421
 20
-0.0943452097163108
 10
1.405232934076529
 20
-0.088176457571412
 10
1.406032056413777
 20
-0.0874621677478648
  0
ELLIPSE
  5
1B8
330
12B
100
AcDbEntity
  8
AM_4
100
AcDbEllipse
 10
1.351406032383468
 20
0.0000000000000001
 30
0.0
 11
6.258279876480465E-18
 21
0.1022054666020884
 31
0.0
210
0.0
220
0.0
230
1.0
 40
0.7071067811865559
 41
0.9359652649702461
 42
2.261766577236132
  0
ELLIPSE
  5
1B9
330
12B
100
AcDbEntity
  8
AM_4
100
AcDbEllipse
 10
1.351406032383547
 20
-0.0000000000000911
 30
0.0
 11
6.258279876489340E-18
 21
0.1022054666022334
 31
0.0
210
0.0
220
0.0
230
1.0
 40
0.7071067811865482
 41
0.8520110755636541
 42
0.9359652649701831
  0
LINE
  5
1BA
330
12B
100
AcDbEntity
  8
AM_4
100
AcDbLine
 10
1.436936183357727
 20
0.0605219071451577
 30
0.0
 11
1.404887601156214
 21
0.0884794128974553
 31
0.0
  0
LINE
  5
1BB
330
12B
100
AcDbEntity
  8
AM_4
100
AcDbLine
 10
1.404887601156214
 20
-0.0884794128974551
 30
0.0
 11
1.436936183357727
 21
-0.0605219071451576
 31
0.0
  0
ELLIPSE
  5
1BC
330
12B
100
AcDbEntity
  8
AM_4
100
AcDbEllipse
 10
1.366295196670319
 20
0.0000000000000001
 30
0.0
 11
6.365617546288483E-18
 21
0.1039584237793374
 31
0.0
210
0.0
220
0.0
230
1.0
 40
0.7071067811865475
 41
5.730473253052756
 42
9.977490014896205
  0
ELLIPSE
  5
1BD
330
12B
100
AcDbEntity
  8
AM_4
100
AcDbEllipse
 10
1.410538111260315
 20
0.0000000000000001
 30
0.0
 11
4.354225479598981E-18
 21
0.07110989850511286
 31
0.0
210
0.0
220
0.0
230
1.0
 40
0.707106781186546
 41
5.730473253052761
 42
9.977490014896205
  0
ELLIPSE
  5
1BE
330
12B
100
AcDbEntity
  8
AM_4
100
AcDbEllipse
 10
1.410538111260255
 20
0.0000000000000545
 30
0.0
 11
4.354225479595025E-18
 21
0.07110989850504826
 31
0.0
210
0.0
220
0.0
230
1.0
 40
0.7071067811872289
 41
-0.6249250421678489
 42
-0.5527120541278219
  0
ELLIPSE
  5
1BF
330
12B
100
AcDbEntity
  8
AM_4
100
AcDbEllipse
 10
1.413517804655746
 20
0.0000000000000001
 30
0.0
 11
-1.178200542891334E-17
 21
-0.06413825024007701
 31
0.0
210
0.0
220
0.0
230
1.0
 40
0.7071067811865492
 41
0.0
 42
6.283185307179586
  0
LWPOLYLINE
  5
1C0
330
12B
100
AcDbEntity
  8
AM_4
100
AcDbPolyline
 90
        9
 70
     0
 43
0.0
 10
1.461176643396746
 20
0.0000000000000001
 10
1.461028102655033
 20
0.0054077437163068
 10
1.459959947808794
 20
0.0153961249159407
 10
1.457874288433246
 20
0.02510327444933
 10
1.454800784760409
 20
0.0343394570279633
 10
1.450783036711261
 20
0.0429260721684476
 10
1.445880210308881
 20
0.0506896596244412
 10
1.44017473831535
 20
0.0574582681829482
 10
1.440092416267138
 20
0.0575423654186649
  0
LWPOLYLINE
  5
1C1
330
12B
100
AcDbEntity
  8
AM_4
100
AcDbPolyline
 90
        9
 70
     0
 43
0.0
 10
1.442402441076685
 20
-0.0550466959071407
 10
1.44298021570341
 20
-0.0543759314184182
 10
1.448222716742217
 20
-0.0472600076385767
 10
1.452683331362397
 20
-0.0391981616977173
 10
1.456268055588524
 20
-0.030357800786861
 10
1.458906078177988
 20
-0.0209229711728984
 10
1.460549739494922
 20
-0.0110835433581254
 10
1.461164391741289
 20
-0.0015541005933763
 10
1.461176643396746
 20
0.0000000000000001
  0
LINE
  5
1C2
330
12B
100
AcDbEntity
  8
AM_4
100
AcDbLine
 10
1.440127613473314
 20
-0.0575064511500083
 30
0.0
 11
1.441952113560911
 21
-0.0555560929558873
 31
0.0
  0
ELLIPSE
  5
1C3
330
12B
100
AcDbEntity
  8
AM_4
100
AcDbEllipse
 10
1.410538111260251
 20
-0.0000000000000453
 30
0.0
 11
4.354225479595656E-18
 21
0.07110989850505856
 31
0.0
210
0.0
220
0.0
230
1.0
 40
0.7071067811872296
 41
3.694304707717604
 42
3.766626590236841
  0
LINE
  5
1C4
330
12B
100
AcDbEntity
  8
AM_4
100
AcDbLine
 10
-0.243339895183
 20
0.0218509000000001
 30
0.0
 11
-0.243339895183
 21
-0.0218508779411999
 31
0.0
  0
LINE
  5
1C5
330
12B
100
AcDbEntity
  8
AM_4
100
AcDbLine
 10
-0.2433398951830002
 20
-0.0218508779412004
 30
0.0
 11
-0.2464009204580001
 21
-0.0335047031319002
 31
0.0
  0
LINE
  5
1C6
330
12B
100
AcDbEntity
  8
AM_4
100
AcDbLine
 10
-0.3290446658729999
 20
-0.050985460603
 30
0.0
 11
-0.3290446658729999
 21
0.0509854000000001
 31
0.0
  0
LINE
  5
1C7
330
12B
100
AcDbEntity
  8
AM_4
100
AcDbLine
 10
-0.273948573129
 20
-0.050985460603
 30
0.0
 11
-0.3290446658729999
 21
-0.050985460603
 31
0.0
  0
LINE
  5
1C8
330
12B
100
AcDbEntity
  8
AM_4
100
AcDbLine
 10
-0.261705259431
 20
-0.048072073203
 30
0.0
 11
-0.273948573129
 21
-0.050985460603
 31
0.0
  0
LINE
  5
1C9
330
12B
100
AcDbEntity
  8
AM_4
100
AcDbLine
 10
-0.252522577307
 20
-0.042244904702
 30
0.0
 11
-0.261705259431
 21
-0.0480720732029999
 31
0.0
  0
LINE
  5
1CA
330
12B
100
AcDbEntity
  8
AM_4
100
AcDbLine
 10
-0.2464009204580001
 20
-0.0335047031318998
 30
0.0
 11
-0.252522577307
 21
-0.0422449047019997
 31
0.0
  0
LINE
  5
1CB
330
12B
100
AcDbEntity
  8
AM_4
100
AcDbLine
 10
-0.2464009204580001
 20
0.0335047000000003
 30
0.0
 11
-0.2433398951830001
 21
0.0218509000000003
 31
0.0
  0
LINE
  5
1CC
330
12B
100
AcDbEntity
  8
AM_4
100
AcDbLine
 10
-0.2525225773069999
 20
0.0422449
 30
0.0
 11
-0.246400920458
 21
0.0335047000000001
 31
0.0
  0
LINE
  5
1CD
330
12B
100
AcDbEntity
  8
AM_4
100
AcDbLine
 10
-0.2617052594309998
 20
0.048072
 30
0.0
 11
-0.2525225773069999
 21
0.0422449000000001
 31
0.0
  0
LINE
  5
1CE
330
12B
100
AcDbEntity
  8
AM_4
100
AcDbLine
 10
-0.2739485731290001
 20
0.0509854
 30
0.0
 11
-0.2617052594310001
 21
0.048072
 31
0.0
  0
LINE
  5
1CF
330
12B
100
AcDbEntity
  8
AM_4
100
AcDbLine
 10
-0.3290446658729999
 20
0.0509854000000001
 30
0.0
 11
-0.273948573129
 21
0.0509854000000001
 31
0.0
  0
LINE
  5
1D0
330
12B
100
AcDbEntity
  8
AM_4
100
AcDbLine
 10
-0.18212214559
 20
0.0218509000000002
 30
0.0
 11
-0.1790615140160001
 21
0.0335046999999999
 31
0.0
  0
LINE
  5
1D1
330
12B
100
AcDbEntity
  8
AM_4
100
AcDbLine
 10
-0.18212214559
 20
-0.0218508779411999
 30
0.0
 11
-0.18212214559
 21
0.0218509000000001
 31
0.0
  0
LINE
  5
1D2
330
12B
100
AcDbEntity
  8
AM_4
100
AcDbLine
 10
-0.1790615140159995
 20
-0.033504703131902
 30
0.0
 11
-0.1821221455899994
 21
-0.0218508779412022
 31
0.0
  0
LINE
  5
1D3
330
12B
100
AcDbEntity
  8
AM_4
100
AcDbLine
 10
-0.1729394634659998
 20
-0.0422449047020001
 30
0.0
 11
-0.1790615140159995
 21
-0.0335047031319006
 31
0.0
  0
LINE
  5
1D4
330
12B
100
AcDbEntity
  8
AM_4
100
AcDbLine
 10
-0.163757175043
 20
-0.048072073203
 30
0.0
 11
-0.1729394634659998
 21
-0.0422449047020001
 31
0.0
  0
LINE
  5
1D5
330
12B
100
AcDbEntity
  8
AM_4
100
AcDbLine
 10
-0.1515134676439995
 20
-0.050985460603
 30
0.0
 11
-0.163757175043
 21
-0.048072073203
 31
0.0
  0
LINE
  5
1D6
330
12B
100
AcDbEntity
  8
AM_4
100
AcDbLine
 10
-0.127026446547
 20
-0.050985460603
 30
0.0
 11
-0.151513467644
 21
-0.0509854606029999
 31
0.0
  0
LINE
  5
1D7
330
12B
100
AcDbEntity
  8
AM_4
100
AcDbLine
 10
-0.1147831328490001
 20
-0.0480720732030001
 30
0.0
 11
-0.1270264465469999
 21
-0.050985460603
 31
0.0
  0
LINE
  5
1D8
330
12B
100
AcDbEntity
  8
AM_4
100
AcDbLine
 10
-0.1056004507249998
 20
-0.0422449047019997
 30
0.0
 11
-0.1147831328490001
 21
-0.0480720732029999
 31
0.0
  0
LINE
  5
1D9
330
12B
100
AcDbEntity
  8
AM_4
100
AcDbLine
 10
-0.0994784001749999
 20
-0.0335047031318997
 30
0.0
 11
-0.1056004507249999
 21
-0.0422449047019996
 31
0.0
  0
LINE
  5
1DA
330
12B
100
AcDbEntity
  8
AM_4
100
AcDbLine
 10
-0.0964177686010001
 20
-0.0218508779412001
 30
0.0
 11
-0.0994784001749999
 21
-0.0335047031318994
 31
0.0
  0
LINE
  5
1DB
330
12B
100
AcDbEntity
  8
AM_4
100
AcDbLine
 10
-0.096417768601
 20
0.0218509000000001
 30
0.0
 11
-0.096417768601
 21
-0.0218508779411999
 31
0.0
  0
LINE
  5
1DC
330
12B
100
AcDbEntity
  8
AM_4
100
AcDbLine
 10
-0.0994784001750001
 20
0.0335047000000006
 30
0.0
 11
-0.0964177686009999
 21
0.0218508999999999
 31
0.0
  0
LINE
  5
1DD
330
12B
100
AcDbEntity
  8
AM_4
100
AcDbLine
 10
-0.1056004507250001
 20
0.0422449000000002
 30
0.0
 11
-0.0994784001750001
 21
0.0335047000000002
 31
0.0
  0
LINE
  5
1DE
330
12B
100
AcDbEntity
  8
AM_4
100
AcDbLine
 10
-0.114783132849
 20
0.0480720000000001
 30
0.0
 11
-0.1056004507250001
 21
0.0422449000000001
 31
0.0
  0
LINE
  5
1DF
330
12B
100
AcDbEntity
  8
AM_4
100
AcDbLine
 10
-0.1270264465470001
 20
0.0509854
 30
0.0
 11
-0.1147831328489999
 21
0.048072
 31
0.0
  0
LINE
  5
1E0
330
12B
100
AcDbEntity
  8
AM_4
100
AcDbLine
 10
-0.151513467644
 20
0.0509854000000001
 30
0.0
 11
-0.127026446547
 21
0.0509854000000001
 31
0.0
  0
LINE
  5
1E1
330
12B
100
AcDbEntity
  8
AM_4
100
AcDbLine
 10
-0.1637571750430006
 20
0.0480719999999999
 30
0.0
 11
-0.1515134676440001
 21
0.0509854
 31
0.0
  0
LINE
  5
1E2
330
12B
100
AcDbEntity
  8
AM_4
100
AcDbLine
 10
-0.1729394634660004
 20
0.0422448999999998
 30
0.0
 11
-0.1637571750430006
 21
0.0480719999999997
 31
0.0
  0
LINE
  5
1E3
330
12B
100
AcDbEntity
  8
AM_4
100
AcDbLine
 10
-0.179061514016
 20
0.0335047000000002
 30
0.0
 11
-0.1729394634660004
 21
0.0422448999999996
 31
0.0
  0
LINE
  5
1E4
330
12B
100
AcDbEntity
  8
AM_4
100
AcDbLine
 10
-0.053565383256
 20
0.0684661000000001
 30
0.0
 11
0.0198957
 21
0.0684661000000001
 31
0.0
  0
LINE
  5
1E5
330
12B
100
AcDbEntity
  8
AM_4
100
AcDbLine
 10
0.0198957
 20
-0.0684661787039999
 30
0.0
 11
-0.053565383256
 21
-0.068466178704
 31
0.0
  0
LINE
  5
1E6
330
12B
100
AcDbEntity
  8
AM_4
100
AcDbLine
 10
0.347409
 20
-0.0684661787039999
 30
0.0
 11
0.237218
 21
-0.068466178704
 31
0.0
  0
LINE
  5
1E7
330
12B
100
AcDbEntity
  8
AM_4
100
AcDbLine
 10
0.237218
 20
-0.068466178704
 30
0.0
 11
0.237218
 21
0.0684661000000001
 31
0.0
  0
LINE
  5
1E8
330
12B
100
AcDbEntity
  8
AM_4
100
AcDbLine
 10
0.237218
 20
0.0684661000000001
 30
0.0
 11
0.347409
 21
0.0684661000000001
 31
0.0
  0
LINE
  5
1E9
330
12B
100
AcDbEntity
  8
AM_4
100
AcDbLine
 10
0.347409
 20
0.0684661000000001
 30
0.0
 11
0.347409
 21
0.0509854000000001
 31
0.0
  0
LINE
  5
1EA
330
12B
100
AcDbEntity
  8
AM_4
100
AcDbLine
 10
0.347409
 20
0.0509854000000001
 30
0.0
 11
0.255583
 21
0.0509854000000001
 31
0.0
  0
LINE
  5
1EB
330
12B
100
AcDbEntity
  8
AM_4
100
AcDbLine
 10
0.255583
 20
0.0509854000000001
 30
0.0
 11
0.255583
 21
0.0131105000000001
 31
0.0
  0
LINE
  5
1EC
330
12B
100
AcDbEntity
  8
AM_4
100
AcDbLine
 10
0.255583
 20
0.0131105000000001
 30
0.0
 11
0.335166
 21
0.0131105000000001
 31
0.0
  0
LINE
  5
1ED
330
12B
100
AcDbEntity
  8
AM_4
100
AcDbLine
 10
0.335166
 20
0.0131105000000001
 30
0.0
 11
0.335166
 21
-0.0043701598401999
 31
0.0
  0
LINE
  5
1EE
330
12B
100
AcDbEntity
  8
AM_4
100
AcDbLine
 10
0.335166
 20
-0.0043701598401999
 30
0.0
 11
0.255583
 21
-0.0043701598401999
 31
0.0
  0
LINE
  5
1EF
330
12B
100
AcDbEntity
  8
AM_4
100
AcDbLine
 10
0.255583
 20
-0.0043701598401999
 30
0.0
 11
0.255583
 21
-0.0509854606029999
 31
0.0
  0
LINE
  5
1F0
330
12B
100
AcDbEntity
  8
AM_4
100
AcDbLine
 10
0.255583
 20
-0.0509854606029999
 30
0.0
 11
0.347409
 21
-0.050985460603
 31
0.0
  0
LINE
  5
1F1
330
12B
100
AcDbEntity
  8
AM_4
100
AcDbLine
 10
0.347409
 20
-0.050985460603
 30
0.0
 11
0.347409
 21
-0.0684661787039999
 31
0.0
  0
LINE
  5
1F2
330
12B
100
AcDbEntity
  8
AM_4
100
AcDbLine
 10
0.0933567
 20
-0.0218508779411999
 30
0.0
 11
0.0933567
 21
0.0218509000000001
 31
0.0
  0
LINE
  5
1F3
330
12B
100
AcDbEntity
  8
AM_4
100
AcDbLine
 10
0.0933566999999999
 20
0.0218508999999996
 30
0.0
 11
0.0964176999999992
 21
0.0364180999999965
 31
0.0
  0
LINE
  5
1F4
330
12B
100
AcDbEntity
  8
AM_4
100
AcDbLine
 10
0.0964176999999992
 20
0.0364180999999984
 30
0.0
 11
0.1025390000000002
 21
0.0480720000000002
 31
0.0
  0
LINE
  5
1F5
330
12B
100
AcDbEntity
  8
AM_4
100
AcDbLine
 10
0.1025389999999988
 20
0.048071999999999
 30
0.0
 11
0.1147829999999998
 21
0.0597256
 31
0.0
  0
LINE
  5
1F6
330
12B
100
AcDbEntity
  8
AM_4
100
AcDbLine
 10
0.1147829999999998
 20
0.0597256
 30
0.0
 11
0.1270259999999999
 21
0.0655528
 31
0.0
  0
LINE
  5
1F7
330
12B
100
AcDbEntity
  8
AM_4
100
AcDbLine
 10
0.1270259999999999
 20
0.0655528
 30
0.0
 11
0.1423309999999993
 21
0.0684660999999999
 31
0.0
  0
LINE
  5
1F8
330
12B
100
AcDbEntity
  8
AM_4
100
AcDbLine
 10
0.142331
 20
0.0684661000000001
 30
0.0
 11
0.169879
 21
0.0684661000000001
 31
0.0
  0
LINE
  5
1F9
330
12B
100
AcDbEntity
  8
AM_4
100
AcDbLine
 10
0.1698789999999999
 20
0.0684660999999999
 30
0.0
 11
0.185183
 21
0.0655527999999999
 31
0.0
  0
LINE
  5
1FA
330
12B
100
AcDbEntity
  8
AM_4
100
AcDbLine
 10
0.185183
 20
0.0655528000000001
 30
0.0
 11
0.1974269999999999
 21
0.0597256000000002
 31
0.0
  0
LINE
  5
1FB
330
12B
100
AcDbEntity
  8
AM_4
100
AcDbLine
 10
0.1974269999999999
 20
0.0597256000000001
 30
0.0
 11
0.2096699999999999
 21
0.0480720000000001
 31
0.0
  0
LINE
  5
1FC
330
12B
100
AcDbEntity
  8
AM_4
100
AcDbLine
 10
0.2096700000000002
 20
0.048071999999999
 30
0.0
 11
0.2127309999999998
 21
0.0335047000000009
 31
0.0
  0
LINE
  5
1FD
330
12B
100
AcDbEntity
  8
AM_4
100
AcDbLine
 10
0.212731
 20
0.0335047000000001
 30
0.0
 11
0.194366
 21
0.0335047
 31
0.0
  0
LINE
  5
1FE
330
12B
100
AcDbEntity
  8
AM_4
100
AcDbLine
 10
0.1943660000000007
 20
0.0335046999999981
 30
0.0
 11
0.1913050000000001
 21
0.0422448999999997
 31
0.0
  0
LINE
  5
1FF
330
12B
100
AcDbEntity
  8
AM_4
100
AcDbLine
 10
0.1913050000000001
 20
0.0422449
 30
0.0
 11
0.1821220000000001
 21
0.0480720000000001
 31
0.0
  0
LINE
  5
200
330
12B
100
AcDbEntity
  8
AM_4
100
AcDbLine
 10
0.1821220000000001
 20
0.0480719999999999
 30
0.0
 11
0.169879
 21
0.0509853999999999
 31
0.0
  0
LINE
  5
201
330
12B
100
AcDbEntity
  8
AM_4
100
AcDbLine
 10
0.169879
 20
0.0509854000000001
 30
0.0
 11
0.142331
 21
0.0509854000000001
 31
0.0
  0
LINE
  5
202
330
12B
100
AcDbEntity
  8
AM_4
100
AcDbLine
 10
0.1423310000000001
 20
0.0509854000000002
 30
0.0
 11
0.130087
 21
0.0480720000000002
 31
0.0
  0
LINE
  5
203
330
12B
100
AcDbEntity
  8
AM_4
100
AcDbLine
 10
0.130087
 20
0.0480720000000001
 30
0.0
 11
0.1209050000000001
 21
0.0422449000000002
 31
0.0
  0
LINE
  5
204
330
12B
100
AcDbEntity
  8
AM_4
100
AcDbLine
 10
0.1209050000000001
 20
0.0422449000000001
 30
0.0
 11
0.1147830000000002
 21
0.0335047000000003
 31
0.0
  0
LINE
  5
205
330
12B
100
AcDbEntity
  8
AM_4
100
AcDbLine
 10
0.1147829999999999
 20
0.0335046999999997
 30
0.0
 11
0.1117220000000002
 21
0.0218509000000008
 31
0.0
  0
LINE
  5
206
330
12B
100
AcDbEntity
  8
AM_4
100
AcDbLine
 10
0.111722
 20
0.0218509000000001
 30
0.0
 11
0.111722
 21
-0.0218508779411999
 31
0.0
  0
LINE
  5
207
330
12B
100
AcDbEntity
  8
AM_4
100
AcDbLine
 10
0.111722
 20
-0.0218508779411999
 30
0.0
 11
0.1147830000000001
 21
-0.0335047031319003
 31
0.0
  0
LINE
  5
208
330
12B
100
AcDbEntity
  8
AM_4
100
AcDbLine
 10
0.1147830000000001
 20
-0.0335047031319
 30
0.0
 11
0.1209049999999998
 21
-0.0422449047019997
 31
0.0
  0
LINE
  5
209
330
12B
100
AcDbEntity
  8
AM_4
100
AcDbLine
 10
0.1209049999999999
 20
-0.0422449047019999
 30
0.0
 11
0.1300870000000001
 21
-0.0480720732030001
 31
0.0
  0
LINE
  5
20A
330
12B
100
AcDbEntity
  8
AM_4
100
AcDbLine
 10
0.1300870000000001
 20
-0.0480720732030001
 30
0.0
 11
0.1423309999999998
 21
-0.050985460603
 31
0.0
  0
LINE
  5
20B
330
12B
100
AcDbEntity
  8
AM_4
100
AcDbLine
 10
0.142331
 20
-0.0509854606029999
 30
0.0
 11
0.169879
 21
-0.050985460603
 31
0.0
  0
LINE
  5
20C
330
12B
100
AcDbEntity
  8
AM_4
100
AcDbLine
 10
0.1698789999999994
 20
-0.0509854606030002
 30
0.0
 11
0.1821219999999995
 21
-0.0480720732030002
 31
0.0
  0
LINE
  5
20D
330
12B
100
AcDbEntity
  8
AM_4
100
AcDbLine
 10
0.1821219999999995
 20
-0.0480720732030003
 30
0.0
 11
0.1913049999999996
 21
-0.0422449047020002
 31
0.0
  0
LINE
  5
20E
330
12B
100
AcDbEntity
  8
AM_4
100
AcDbLine
 10
0.1913049999999995
 20
-0.0422449047020012
 30
0.0
 11
0.1943660000000001
 21
-0.0335047031318996
 31
0.0
  0
LINE
  5
20F
330
12B
100
AcDbEntity
  8
AM_4
100
AcDbLine
 10
0.194366
 20
-0.0335047031318999
 30
0.0
 11
0.194366
 21
-0.0101970921205999
 31
0.0
  0
LINE
  5
210
330
12B
100
AcDbEntity
  8
AM_4
100
AcDbLine
 10
0.194366
 20
-0.0101970921205999
 30
0.0
 11
0.166818
 21
-0.0101970921206
 31
0.0
  0
LINE
  5
211
330
12B
100
AcDbEntity
  8
AM_4
100
AcDbLine
 10
0.166818
 20
-0.0101970921206
 30
0.0
 11
0.166818
 21
0.0072836200000001
 31
0.0
  0
LINE
  5
212
330
12B
100
AcDbEntity
  8
AM_4
100
AcDbLine
 10
0.166818
 20
0.0072836200000001
 30
0.0
 11
0.212731
 21
0.0072836200000001
 31
0.0
  0
LINE
  5
213
330
12B
100
AcDbEntity
  8
AM_4
100
AcDbLine
 10
0.212731
 20
0.0072836200000001
 30
0.0
 11
0.212731
 21
-0.0364181299019999
 31
0.0
  0
LINE
  5
214
330
12B
100
AcDbEntity
  8
AM_4
100
AcDbLine
 10
0.2127310000000001
 20
-0.0364181299019997
 30
0.0
 11
0.20967
 21
-0.0480720732029997
 31
0.0
  0
LINE
  5
215
330
12B
100
AcDbEntity
  8
AM_4
100
AcDbLine
 10
0.2096700000000001
 20
-0.0480720732029999
 30
0.0
 11
0.1974270000000001
 21
-0.0597256228029999
 31
0.0
  0
LINE
  5
216
330
12B
100
AcDbEntity
  8
AM_4
100
AcDbLine
 10
0.1974270000000001
 20
-0.0597256228029998
 30
0.0
 11
0.1851829999999998
 21
-0.0655527913039999
 31
0.0
  0
LINE
  5
217
330
12B
100
AcDbEntity
  8
AM_4
100
AcDbLine
 10
0.1851829999999998
 20
-0.065552791304
 30
0.0
 11
0.1698790000000002
 21
-0.0684661787039999
 31
0.0
  0
LINE
  5
218
330
12B
100
AcDbEntity
  8
AM_4
100
AcDbLine
 10
0.169879
 20
-0.0684661787039999
 30
0.0
 11
0.142331
 21
-0.068466178704
 31
0.0
  0
LINE
  5
219
330
12B
100
AcDbEntity
  8
AM_4
100
AcDbLine
 10
0.1423309999999999
 20
-0.0684661787039998
 30
0.0
 11
0.1270260000000005
 21
-0.0655527913039999
 31
0.0
  0
LINE
  5
21A
330
12B
100
AcDbEntity
  8
AM_4
100
AcDbLine
 10
0.1270260000000005
 20
-0.0655527913040002
 30
0.0
 11
0.1147830000000004
 21
-0.0597256228030001
 31
0.0
  0
LINE
  5
21B
330
12B
100
AcDbEntity
  8
AM_4
100
AcDbLine
 10
0.1147830000000004
 20
-0.0597256228030002
 30
0.0
 11
0.1025390000000008
 21
-0.0480720732030006
 31
0.0
  0
LINE
  5
21C
330
12B
100
AcDbEntity
  8
AM_4
100
AcDbLine
 10
0.1025390000000008
 20
-0.0480720732030016
 30
0.0
 11
0.0964176999999998
 21
-0.0364181299019997
 31
0.0
  0
LINE
  5
21D
330
12B
100
AcDbEntity
  8
AM_4
100
AcDbLine
 10
0.0964177000000013
 20
-0.0364181299020062
 30
0.0
 11
0.0933567000000005
 21
-0.0218508779412024
 31
0.0
  0
LINE
  5
21E
330
12B
100
AcDbEntity
  8
AM_4
100
AcDbLine
 10
-0.053565383256
 20
-0.068466178704
 30
0.0
 11
-0.053565383256
 21
0.0684661000000001
 31
0.0
  0
LINE
  5
21F
330
12B
100
AcDbEntity
  8
AM_4
100
AcDbLine
 10
0.0198957000000001
 20
0.0684661
 30
0.0
 11
0.0352000999999998
 21
0.0655528
 31
0.0
  0
LINE
  5
220
330
12B
100
AcDbEntity
  8
AM_4
100
AcDbLine
 10
0.0352001000000002
 20
0.0655528
 30
0.0
 11
0.0474437
 21
0.0597256000000001
 31
0.0
  0
LINE
  5
221
330
12B
100
AcDbEntity
  8
AM_4
100
AcDbLine
 10
0.0474437
 20
0.0597256000000001
 30
0.0
 11
0.0596869999999999
 21
0.0480720000000002
 31
0.0
  0
LINE
  5
222
330
12B
100
AcDbEntity
  8
AM_4
100
AcDbLine
 10
0.0596869999999999
 20
0.0480720000000003
 30
0.0
 11
0.0658090999999999
 21
0.0364181000000002
 31
0.0
  0
LINE
  5
223
330
12B
100
AcDbEntity
  8
AM_4
100
AcDbLine
 10
0.0658090999999999
 20
0.0364181000000004
 30
0.0
 11
0.0688696999999999
 21
0.0218509000000005
 31
0.0
  0
LINE
  5
224
330
12B
100
AcDbEntity
  8
AM_4
100
AcDbLine
 10
0.0688697
 20
0.0218509000000001
 30
0.0
 11
0.0688697
 21
-0.0218508779411999
 31
0.0
  0
LINE
  5
225
330
12B
100
AcDbEntity
  8
AM_4
100
AcDbLine
 10
0.0688697000000001
 20
-0.0218508779411994
 30
0.0
 11
0.0658091000000001
 21
-0.0364181299019993
 31
0.0
  0
LINE
  5
226
330
12B
100
AcDbEntity
  8
AM_4
100
AcDbLine
 10
0.0658091000000001
 20
-0.0364181299019996
 30
0.0
 11
0.0596870000000001
 21
-0.0480720732029997
 31
0.0
  0
LINE
  5
227
330
12B
100
AcDbEntity
  8
AM_4
100
AcDbLine
 10
0.0596870000000001
 20
-0.0480720732029999
 30
0.0
 11
0.0474437000000002
 21
-0.0597256228029997
 31
0.0
  0
LINE
  5
228
330
12B
100
AcDbEntity
  8
AM_4
100
AcDbLine
 10
0.0474437000000002
 20
-0.0597256228029999
 30
0.0
 11
0.0352001
 21
-0.065552791304
 31
0.0
  0
LINE
  5
229
330
12B
100
AcDbEntity
  8
AM_4
100
AcDbLine
 10
0.0352001
 20
-0.065552791304
 30
0.0
 11
0.0198957
 21
-0.068466178704
 31
0.0
  0
LINE
  5
22A
330
12B
100
AcDbEntity
  8
AM_4
100
AcDbLine
 10
-0.200487509838
 20
-0.0218508779411999
 30
0.0
 11
-0.200487509838
 21
0.0218509000000001
 31
0.0
  0
LINE
  5
22B
330
12B
100
AcDbEntity
  8
AM_4
100
AcDbLine
 10
-0.2004875098380007
 20
0.0218508999999968
 30
0.0
 11
-0.1974268782640005
 21
0.0364180999999978
 31
0.0
  0
LINE
  5
22C
330
12B
100
AcDbEntity
  8
AM_4
100
AcDbLine
 10
-0.1974268782640005
 20
0.0364180999999991
 30
0.0
 11
-0.1913048277140001
 21
0.0480719999999999
 31
0.0
  0
LINE
  5
22D
330
12B
100
AcDbEntity
  8
AM_4
100
AcDbLine
 10
-0.1913048277140001
 20
0.0480720000000002
 30
0.0
 11
-0.179061514016
 21
0.0597256000000002
 31
0.0
  0
LINE
  5
22E
330
12B
100
AcDbEntity
  8
AM_4
100
AcDbLine
 10
-0.179061514016
 20
0.0597256000000001
 30
0.0
 11
-0.1668178066170002
 21
0.0655528
 31
0.0
  0
LINE
  5
22F
330
12B
100
AcDbEntity
  8
AM_4
100
AcDbLine
 10
-0.1668178066170002
 20
0.0655528
 30
0.0
 11
-0.1515134676440001
 21
0.0684661000000001
 31
0.0
  0
LINE
  5
230
330
12B
100
AcDbEntity
  8
AM_4
100
AcDbLine
 10
-0.151513467644
 20
0.0684661000000001
 30
0.0
 11
-0.127026446547
 21
0.0684661000000001
 31
0.0
  0
LINE
  5
231
330
12B
100
AcDbEntity
  8
AM_4
100
AcDbLine
 10
-0.1270264465470001
 20
0.0684661000000001
 30
0.0
 11
-0.1117221075739999
 21
0.0655528000000001
 31
0.0
  0
LINE
  5
232
330
12B
100
AcDbEntity
  8
AM_4
100
AcDbLine
 10
-0.1117221075739999
 20
0.0655528000000002
 30
0.0
 11
-0.0994784001750001
 21
0.0597256000000003
 31
0.0
  0
LINE
  5
233
330
12B
100
AcDbEntity
  8
AM_4
100
AcDbLine
 10
-0.0994784001750001
 20
0.0597256000000001
 30
0.0
 11
-0.087235086477
 21
0.0480720000000001
 31
0.0
  0
LINE
  5
234
330
12B
100
AcDbEntity
  8
AM_4
100
AcDbLine
 10
-0.0872350864770001
 20
0.0480720000000003
 30
0.0
 11
-0.081113429628
 21
0.0364181000000002
 31
0.0
  0
LINE
  5
235
330
12B
100
AcDbEntity
  8
AM_4
100
AcDbLine
 10
-0.081113429628
 20
0.0364181000000002
 30
0.0
 11
-0.0780524043529999
 21
0.0218508999999996
 31
0.0
  0
LINE
  5
236
330
12B
100
AcDbEntity
  8
AM_4
100
AcDbLine
 10
-0.078052404353
 20
0.0218509000000001
 30
0.0
 11
-0.078052404353
 21
-0.0218508779411999
 31
0.0
  0
LINE
  5
237
330
12B
100
AcDbEntity
  8
AM_4
100
AcDbLine
 10
-0.078052404353
 20
-0.0218508779412002
 30
0.0
 11
-0.0811134296280002
 21
-0.0364181299020008
 31
0.0
  0
LINE
  5
238
330
12B
100
AcDbEntity
  8
AM_4
100
AcDbLine
 10
-0.0811134296280002
 20
-0.0364181299020002
 30
0.0
 11
-0.0872350864769999
 21
-0.0480720732029996
 31
0.0
  0
LINE
  5
239
330
12B
100
AcDbEntity
  8
AM_4
100
AcDbLine
 10
-0.0872350864769999
 20
-0.0480720732029997
 30
0.0
 11
-0.0994784001749999
 21
-0.0597256228029998
 31
0.0
  0
LINE
  5
23A
330
12B
100
AcDbEntity
  8
AM_4
100
AcDbLine
 10
-0.0994784001749999
 20
-0.0597256228029999
 30
0.0
 11
-0.1117221075740001
 21
-0.0655527913039999
 31
0.0
  0
LINE
  5
23B
330
12B
100
AcDbEntity
  8
AM_4
100
AcDbLine
 10
-0.1117221075740001
 20
-0.065552791304
 30
0.0
 11
-0.1270264465469999
 21
-0.068466178704
 31
0.0
  0
LINE
  5
23C
330
12B
100
AcDbEntity
  8
AM_4
100
AcDbLine
 10
-0.127026446547
 20
-0.0684661787039999
 30
0.0
 11
-0.151513467644
 21
-0.068466178704
 31
0.0
  0
LINE
  5
23D
330
12B
100
AcDbEntity
  8
AM_4
100
AcDbLine
 10
-0.1515134676439995
 20
-0.0684661787039998
 30
0.0
 11
-0.1668178066169997
 21
-0.0655527913039998
 31
0.0
  0
LINE
  5
23E
330
12B
100
AcDbEntity
  8
AM_4
100
AcDbLine
 10
-0.1668178066169996
 20
-0.065552791304
 30
0.0
 11
-0.1790615140159994
 21
-0.0597256228030001
 31
0.0
  0
LINE
  5
23F
330
12B
100
AcDbEntity
  8
AM_4
100
AcDbLine
 10
-0.1790615140159995
 20
-0.0597256228030003
 30
0.0
 11
-0.1913048277139995
 21
-0.0480720732030003
 31
0.0
  0
LINE
  5
240
330
12B
100
AcDbEntity
  8
AM_4
100
AcDbLine
 10
-0.1913048277139995
 20
-0.0480720732030009
 30
0.0
 11
-0.1974268782639999
 21
-0.0364181299020002
 31
0.0
  0
LINE
  5
241
330
12B
100
AcDbEntity
  8
AM_4
100
AcDbLine
 10
-0.1974268782639999
 20
-0.0364181299020002
 30
0.0
 11
-0.2004875098380002
 21
-0.021850877941199
 31
0.0
  0
LINE
  5
242
330
12B
100
AcDbEntity
  8
AM_4
100
AcDbLine
 10
-0.3474096364199999
 20
-0.0684661787039999
 30
0.0
 11
-0.3474096364199999
 21
0.0684661000000001
 31
0.0
  0
LINE
  5
243
330
12B
100
AcDbEntity
  8
AM_4
100
AcDbLine
 10
-0.3474096364199999
 20
0.0684661000000001
 30
0.0
 11
-0.273948573129
 21
0.0684661000000001
 31
0.0
  0
LINE
  5
244
330
12B
100
AcDbEntity
  8
AM_4
100
AcDbLine
 10
-0.2739485731289998
 20
0.0684660999999999
 30
0.0
 11
-0.2586442341559998
 21
0.0655527999999999
 31
0.0
  0
LINE
  5
245
330
12B
100
AcDbEntity
  8
AM_4
100
AcDbLine
 10
-0.2586442341559998
 20
0.0655528000000001
 30
0.0
 11
-0.246400920458
 21
0.0597256000000002
 31
0.0
  0
LINE
  5
246
330
12B
100
AcDbEntity
  8
AM_4
100
AcDbLine
 10
-0.2464009204579999
 20
0.0597255999999999
 30
0.0
 11
-0.2341572130590001
 21
0.0480720000000001
 31
0.0
  0
LINE
  5
247
330
12B
100
AcDbEntity
  8
AM_4
100
AcDbLine
 10
-0.2341572130590001
 20
0.0480720000000004
 30
0.0
 11
-0.22803555621
 21
0.0364181000000002
 31
0.0
  0
LINE
  5
248
330
12B
100
AcDbEntity
  8
AM_4
100
AcDbLine
 10
-0.22803555621
 20
0.0364181000000003
 30
0.0
 11
-0.224974530935
 21
0.0218509000000002
 31
0.0
  0
LINE
  5
249
330
12B
100
AcDbEntity
  8
AM_4
100
AcDbLine
 10
-0.224974530935
 20
0.0218509000000001
 30
0.0
 11
-0.224974530935
 21
-0.0218508779411999
 31
0.0
  0
LINE
  5
24A
330
12B
100
AcDbEntity
  8
AM_4
100
AcDbLine
 10
-0.2249745309349998
 20
-0.0218508779411996
 30
0.0
 11
-0.2280355562099999
 21
-0.0364181299019996
 31
0.0
  0
LINE
  5
24B
330
12B
100
AcDbEntity
  8
AM_4
100
AcDbLine
 10
-0.2280355562099999
 20
-0.0364181299019997
 30
0.0
 11
-0.234157213059
 21
-0.0480720732029999
 31
0.0
  0
LINE
  5
24C
330
12B
100
AcDbEntity
  8
AM_4
100
AcDbLine
 10
-0.2341572130589999
 20
-0.0480720732029999
 30
0.0
 11
-0.2464009204580001
 21
-0.0597256228030001
 31
0.0
  0
LINE
  5
24D
330
12B
100
AcDbEntity
  8
AM_4
100
AcDbLine
 10
-0.2464009204580001
 20
-0.0597256228030001
 30
0.0
 11
-0.258644234156
 21
-0.0655527913040001
 31
0.0
  0
LINE
  5
24E
330
12B
100
AcDbEntity
  8
AM_4
100
AcDbLine
 10
-0.258644234156
 20
-0.0655527913039999
 30
0.0
 11
-0.273948573129
 21
-0.0684661787039999
 31
0.0
  0
LINE
  5
24F
330
12B
100
AcDbEntity
  8
AM_4
100
AcDbLine
 10
-0.273948573129
 20
-0.0684661787039999
 30
0.0
 11
-0.3474096364199999
 21
-0.0684661787039999
 31
0.0
  0
LWPOLYLINE
  5
250
330
12B
100
AcDbEntity
  8
AM_4
100
AcDbPolyline
 90
       22
 70
     0
 43
0.0
 10
-1.56831951531774
 20
-0.2841334861890177
 10
-1.558837068906031
 20
-0.264747091561001
 10
-1.5490930043936
 20
-0.2428225337860265
 10
-1.539345615710105
 20
-0.2182520152530749
 10
-1.52975593330768
 20
-0.1905325875231231
 10
-1.520770359590777
 20
-0.1597638315897889
 10
-1.512874209449365
 20
-0.12620228422164
 10
-1.508086452423897
 20
-0.100142976743784
 10
-1.504263924183465
 20
-0.0727838204333735
 10
-1.501589985803282
 20
-0.0445528248178355
 10
-1.500211712499647
 20
-0.0155466078472879
 10
-1.500170479955689
 20
0.0137901744208774
 10
-1.501468663443376
 20
0.0428214003964271
 10
-1.503855567482332
 20
0.0692334727699079
 10
-1.507258253492356
 20
0.0949154514535561
 10
-1.511531640939955
 20
0.1195055330609257
 10
-1.518395286300483
 20
0.1504943306752816
 10
-1.526255376167723
 20
0.1792285984920565
 10
-1.534735997910701
 20
0.2054590174159418
 10
-1.545951624916284
 20
0.2352433313681364
 10
-1.557288607654775
 20
0.2614190114121507
 10
-1.56831951531774
 20
0.2841334861890274
  0
LINE
  5
251
330
12B
100
AcDbEntity
  8
AM_4
100
AcDbLine
 10
-1.56831951531774
 20
-0.7102191290980863
 30
0.0
 11
-1.56831951531774
 21
-0.2841334861890177
 31
0.0
  0
LINE
  5
252
330
12B
100
AcDbEntity
  8
AM_4
100
AcDbLine
 10
1.56831951531774
 20
-0.7102191290980864
 30
0.0
 11
1.56831951531774
 21
-0.2841334861890175
 31
0.0
  0
LWPOLYLINE
  5
253
330
12B
100
AcDbEntity
  8
AM_4
100
AcDbPolyline
 90
       22
 70
     0
 43
0.0
 10
1.56831951531774
 20
0.2841334861890175
 10
1.558837068906031
 20
0.2647470915610006
 10
1.5490930043936
 20
0.2428225337860259
 10
1.539345615710105
 20
0.218252015253074
 10
1.52975593330768
 20
0.1905325875231224
 10
1.520770359590777
 20
0.1597638315897882
 10
1.512874209449364
 20
0.1262022842216394
 10
1.508086452423896
 20
0.1001429767437832
 10
1.504263924183465
 20
0.0727838204333725
 10
1.501589985803282
 20
0.0445528248178343
 10
1.500211712499647
 20
0.0155466078472867
 10
1.500170479955689
 20
-0.0137901744208787
 10
1.501468663443377
 20
-0.0428214003964284
 10
1.503855567482333
 20
-0.0692334727699092
 10
1.507258253492356
 20
-0.0949154514535573
 10
1.511531640939955
 20
-0.1195055330609269
 10
1.518395286300484
 20
-0.1504943306752828
 10
1.526255376167723
 20
-0.1792285984920578
 10
1.534735997910701
 20
-0.205459017415943
 10
1.545951624916284
 20
-0.2352433313681373
 10
1.557288607654776
 20
-0.2614190114121512
 10
1.56831951531774
 20
-0.2841334861890276
  0
LINE
  5
254
330
12B
100
AcDbEntity
  8
AM_4
100
AcDbLine
 10
1.56831951531774
 20
0.284133486189017
 30
0.0
 11
1.56831951531774
 21
0.7102191290980863
 31
0.0
  0
LINE
  5
255
330
12B
100
AcDbEntity
  8
AM_4
100
AcDbLine
 10
-1.56831951531774
 20
0.2841334861890161
 30
0.0
 11
-1.56831951531774
 21
0.7102191290980865
 31
0.0
  0
LINE
  5
256
330
12B
100
AcDbEntity
  8
AM_4
100
AcDbLine
 10
1.56831951531774
 20
0.7102191290980863
 30
0.0
 11
1.955
 21
0.8671874999999999
 31
0.0
  0
LINE
  5
257
330
12B
100
AcDbEntity
  8
AM_4
100
AcDbLine
 10
1.250000000000002
 20
0.8671874999999999
 30
0.0
 11
1.25
 21
0.7400000578125002
 31
0.0
  0
LINE
  5
258
330
12B
100
AcDbEntity
  8
AM_4
100
AcDbLine
 10
1.25
 20
0.7400000578125002
 30
0.0
 11
-1.25
 21
0.7400000578124999
 31
0.0
  0
LWPOLYLINE
  5
259
330
12B
100
AcDbEntity
  8
AM_4
100
AcDbPolyline
 90
       35
 70
     0
 43
0.0
 10
-1.210567669046305
 20
0.7400000578124998
 10
-1.192452200545361
 20
0.7284465519871782
 10
-1.165261450775942
 20
0.7171108744300843
 10
-1.129202357762018
 20
0.7060792964920969
 10
-1.084549352974498
 20
0.6954357751423728
 10
-1.031642272742039
 20
0.6852613140051174
 10
-0.9708837718913769
 20
0.6756333468730928
 10
-0.9027362593009718
 20
0.6666251483896993
 10
-0.8277183786902298
 20
0.6583052763846945
 10
-0.7464010614276335
 20
0.6507370501077123
 10
-0.6594031813982897
 20
0.6439780683305407
 10
-0.5673868449999779
 20
0.638079770985689
 10
-0.4710523521136724
 20
0.6330870476774403
 10
-0.3711328663985949
 20
0.6290378960448596
 10
-0.2683888354740726
 20
0.6259631325768151
 10
-0.1636022034539827
 20
0.6238861580798917
 10
-0.0575704598798968
 20
0.6228227795841225
 10
0.0488994296558693
 20
0.6227810900419457
 10
0.1549971650056712
 20
0.6237614067359504
 10
0.2599152783399331
 20
0.6257562688641632
 10
0.3628552794648919
 20
0.6287504943212585
 10
0.4630337328151149
 20
0.6327212952435445
 10
0.5596882198712028
 20
0.6376384514383676
 10
0.6520831416250837
 20
0.6434645403780251
 10
0.7395153169326318
 20
0.6501552220077976
 10
0.8213193341467655
 20
0.6576595762005384
 10
0.8968726153018693
 20
0.6659204902895878
 10
0.9656001543080349
 20
0.6748750937306519
 10
1.026978893094602
 20
0.6844552365846068
 10
1.080541702397908
 20
0.6945880081796855
 10
1.125880936897049
 20
0.7051962920057145
 10
1.162651537640906
 20
0.716199352617321
 10
1.190573658155123
 20
0.7275134500794211
 10
1.209434794242749
 20
0.7390524772786892
 10
1.210567669046305
 20
0.7400000578125
  0
LINE
  5
25A
330
12B
100
AcDbEntity
  8
AM_4
100
AcDbLine
 10
-1.25
 20
0.7400000578124999
 30
0.0
 11
-1.249999999999998
 21
0.8671874999999999
 31
0.0
  0
LINE
  5
25B
330
12B
100
AcDbEntity
  8
AM_4
100
AcDbLine
 10
-1.955
 20
0.8671874999999999
 30
0.0
 11
-1.56831951531774
 21
0.7102191290980865
 31
0.0
  0
LWPOLYLINE
  5
25C
330
12B
100
AcDbEntity
  8
AM_4
100
AcDbPolyline
 90
       31
 70
     0
 43
0.0
 10
-1.568319515317741
 20
0.7102191290980864
 10
-1.525272077170096
 20
0.6953454158436688
 10
-1.470616397530727
 20
0.6809414504905436
 10
-1.40476843912369
 20
0.6671168559124
 10
-1.328229344672547
 20
0.6539768456214963
 10
-1.24158162290164
 20
0.6416214230303011
 10
-1.145484715292969
 20
0.6301446203651416
 10
-1.040669977338338
 20
0.6196337830241828
 10
-0.9279351124824498
 20
0.6101689048262064
 10
-0.8081381011180298
 20
0.6018220192093487
 10
-0.6821906708369744
 20
0.5946566510131414
 10
-0.5510513576328605
 20
0.5887273330161251
 10
-0.4157182108632535
 20
0.5840791909084772
 10
-0.2772211974914584
 20
0.580747599858262
 10
-0.1366143634160176
 20
0.5787579152850411
 10
0.0050321884550271
 20
0.5781252798898212
 10
0.1466404423334105
 20
0.5788545084099557
 10
0.2871326739017168
 20
0.5809400509760861
 10
0.4254396524461821
 20
0.5843660353499991
 10
0.5605087783480465
 20
0.5891063877219431
 10
0.6913120940022283
 20
0.595125031148065
 10
0.8168541071953981
 20
0.6023761601177355
 10
0.9361793674028155
 20
0.6108045891611441
 10
1.04837973734374
 20
0.6203461728440458
 10
1.152601304454486
 20
0.630928293953248
 10
1.248050879678638
 20
0.6424704161574503
 10
1.33400203411471
 20
0.6548846969373546
 10
1.409800627578717
 20
0.6680766561202783
 10
1.474869787005958
 20
0.6819458949313166
 10
1.528714296803357
 20
0.6963868600886423
 10
1.568319515317741
 20
0.7102191290980865
  0
LINE
  5
25D
330
12B
100
AcDbEntity
  8
AM_4
100
AcDbLine
 10
1.954999999999999
 20
-0.8671875000000001
 30
0.0
 11
1.56831951531774
 21
-0.7102191290980864
 31
0.0
  0
LWPOLYLINE
  5
25E
330
12B
100
AcDbEntity
  8
AM_4
100
AcDbPolyline
 90
       31
 70
     0
 43
0.0
 10
1.568319515317741
 20
-0.7102191290980864
 10
1.525272077170097
 20
-0.6953454158436688
 10
1.470616397530728
 20
-0.6809414504905436
 10
1.404768439123691
 20
-0.6671168559124
 10
1.328229344672547
 20
-0.6539768456214962
 10
1.24158162290164
 20
-0.6416214230303009
 10
1.145484715292971
 20
-0.6301446203651415
 10
1.04066997733834
 20
-0.6196337830241827
 10
0.9279351124824513
 20
-0.6101689048262062
 10
0.8081381011180312
 20
-0.6018220192093486
 10
0.6821906708369762
 20
-0.5946566510131411
 10
0.5510513576328623
 20
-0.5887273330161248
 10
0.4157182108632554
 20
-0.5840791909084769
 10
0.2772211974914603
 20
-0.5807475998582616
 10
0.1366143634160196
 20
-0.5787579152850407
 10
-0.005032188455025
 20
-0.5781252798898208
 10
-0.1466404423334084
 20
-0.5788545084099552
 10
-0.2871326739017147
 20
-0.5809400509760856
 10
-0.42543965244618
 20
-0.5843660353499985
 10
-0.5605087783480444
 20
-0.5891063877219428
 10
-0.6913120940022263
 20
-0.5951250311480646
 10
-0.8168541071953961
 20
-0.602376160117735
 10
-0.9361793674028137
 20
-0.6108045891611436
 10
-1.048379737343738
 20
-0.6203461728440453
 10
-1.152601304454484
 20
-0.6309282939532476
 10
-1.248050879678636
 20
-0.6424704161574497
 10
-1.334002034114708
 20
-0.6548846969373541
 10
-1.409800627578716
 20
-0.6680766561202778
 10
-1.474869787005956
 20
-0.6819458949313161
 10
-1.528714296803356
 20
-0.6963868600886417
 10
-1.56831951531774
 20
-0.7102191290980862
  0
LINE
  5
25F
330
12B
100
AcDbEntity
  8
AM_4
100
AcDbLine
 10
-1.56831951531774
 20
-0.7102191290980863
 30
0.0
 11
-1.954999999999998
 21
-0.8671875000000001
 31
0.0
  0
LINE
  5
260
330
12B
100
AcDbEntity
  8
AM_4
100
AcDbLine
 10
-1.249999999999998
 20
-0.8671875000000001
 30
0.0
 11
-1.25
 21
-0.7400000578125002
 31
0.0
  0
LWPOLYLINE
  5
261
330
12B
100
AcDbEntity
  8
AM_4
100
AcDbPolyline
 90
       35
 70
     0
 43
0.0
 10
1.210567669046305
 20
-0.7400000578124999
 10
1.192452200545361
 20
-0.7284465519871783
 10
1.165261450775943
 20
-0.7171108744300844
 10
1.129202357762018
 20
-0.7060792964920969
 10
1.084549352974499
 20
-0.6954357751423728
 10
1.03164227274204
 20
-0.6852613140051174
 10
0.9708837718913778
 20
-0.6756333468730928
 10
0.9027362593009728
 20
-0.6666251483896993
 10
0.827718378690231
 20
-0.6583052763846944
 10
0.7464010614276347
 20
-0.6507370501077123
 10
0.659403181398291
 20
-0.6439780683305407
 10
0.5673868449999794
 20
-0.6380797709856889
 10
0.4710523521136739
 20
-0.6330870476774402
 10
0.3711328663985965
 20
-0.6290378960448595
 10
0.2683888354740742
 20
-0.6259631325768148
 10
0.1636022034539844
 20
-0.6238861580798916
 10
0.0575704598798985
 20
-0.6228227795841224
 10
-0.0488994296558675
 20
-0.6227810900419455
 10
-0.1549971650056694
 20
-0.62376140673595
 10
-0.2599152783399312
 20
-0.6257562688641631
 10
-0.3628552794648901
 20
-0.6287504943212582
 10
-0.4630337328151132
 20
-0.6327212952435441
 10
-0.5596882198712011
 20
-0.6376384514383673
 10
-0.6520831416250821
 20
-0.6434645403780249
 10
-0.7395153169326304
 20
-0.6501552220077972
 10
-0.821319334146764
 20
-0.657659576200538
 10
-0.8968726153018679
 20
-0.6659204902895876
 10
-0.9656001543080331
 20
-0.6748750937306517
 10
-1.0269788930946
 20
-0.6844552365846064
 10
-1.080541702397907
 20
-0.694588008179685
 10
-1.125880936897047
 20
-0.7051962920057141
 10
-1.162651537640905
 20
-0.7161993526173208
 10
-1.190573658155122
 20
-0.7275134500794208
 10
-1.209434794242749
 20
-0.739052477278689
 10
-1.210567669046305
 20
-0.7400000578125
  0
LINE
  5
262
330
12B
100
AcDbEntity
  8
AM_4
100
AcDbLine
 10
1.250000000000001
 20
-0.7400000578124999
 30
0.0
 11
1.250000000000002
 21
-0.8671875000000001
 31
0.0
  0
LINE
  5
263
330
12B
100
AcDbEntity
  8
AM_4
100
AcDbLine
 10
0.0198957
 20
-0.050985460603
 30
0.0
 11
-0.0352000977482
 21
-0.050985460603
 31
0.0
  0
LINE
  5
264
330
12B
100
AcDbEntity
  8
AM_4
100
AcDbLine
 10
-0.0352000977482
 20
0.0509854000000001
 30
0.0
 11
0.0198957
 21
0.0509854000000001
 31
0.0
  0
LINE
  5
265
330
12B
100
AcDbEntity
  8
AM_4
100
AcDbLine
 10
0.0321392000000002
 20
-0.0480720732029999
 30
0.0
 11
0.0198957
 21
-0.050985460603
 31
0.0
  0
LINE
  5
266
330
12B
100
AcDbEntity
  8
AM_4
100
AcDbLine
 10
0.0413217000000001
 20
-0.0422449047019998
 30
0.0
 11
0.0321391999999998
 21
-0.048072073203
 31
0.0
  0
LINE
  5
267
330
12B
100
AcDbEntity
  8
AM_4
100
AcDbLine
 10
0.0474436999999998
 20
-0.0335047031319
 30
0.0
 11
0.0413217000000001
 21
-0.0422449047019996
 31
0.0
  0
LINE
  5
268
330
12B
100
AcDbEntity
  8
AM_4
100
AcDbLine
 10
0.0505042999999999
 20
-0.0218508779412003
 30
0.0
 11
0.0474436999999998
 21
-0.0335047031319005
 31
0.0
  0
LINE
  5
269
330
12B
100
AcDbEntity
  8
AM_4
100
AcDbLine
 10
0.0505043
 20
0.0218509000000001
 30
0.0
 11
0.0505043
 21
-0.0218508779411999
 31
0.0
  0
LINE
  5
26A
330
12B
100
AcDbEntity
  8
AM_4
100
AcDbLine
 10
0.0474437
 20
0.0335047000000001
 30
0.0
 11
0.0505043000000001
 21
0.0218508999999999
 31
0.0
  0
LINE
  5
26B
330
12B
100
AcDbEntity
  8
AM_4
100
AcDbLine
 10
0.0413216999999999
 20
0.0422449000000001
 30
0.0
 11
0.0474437
 21
0.0335047
 31
0.0
  0
LINE
  5
26C
330
12B
100
AcDbEntity
  8
AM_4
100
AcDbLine
 10
0.0321392
 20
0.0480720000000001
 30
0.0
 11
0.0413216999999999
 21
0.0422449000000002
 31
0.0
  0
LINE
  5
26D
330
12B
100
AcDbEntity
  8
AM_4
100
AcDbLine
 10
0.0198957000000001
 20
0.0509854
 30
0.0
 11
0.0321392
 21
0.048072
 31
0.0
  0
LINE
  5
26E
330
12B
100
AcDbEntity
  8
AM_4
100
AcDbLine
 10
-0.0352000977482
 20
-0.050985460603
 30
0.0
 11
-0.0352000977482
 21
0.0509854000000001
 31
0.0
  0
ENDBLK
  5
12E
330
12B
100
AcDbEntity
  8
0
100
AcDbBlockEnd
  0
ENDSEC
  0
SECTION
  2
ENTITIES
  0
INSERT
  5
6F
330
1F
100
AcDbEntity
  8
0
100
AcDbBlockReference
  2
1_129234_4
 10
0.0
 20
0.0
 30
0.0
  0
POINT
  5
270
330
1F
100
AcDbEntity
  8
ConnectionPoints
100
AcDbPoint
 10
0.0
 20
0.0
 30
0.0
  0
POINT
  5
271
330
1F
100
AcDbEntity
  8
ConnectionPoints
100
AcDbPoint
 10
0.0
 20
0.53125
 30
0.0
  0
POINT
  5
272
330
1F
100
AcDbEntity
  8
ConnectionPoints
100
AcDbPoint
 10
0.0
 20
0.0
 30
0.0
  0
POINT
  5
273
330
1F
100
AcDbEntity
  8
ConnectionPoints
100
AcDbPoint
 10
0.0
 20
0.0
 30
0.0
  0
ENDSEC
  0
SECTION
  2
OBJECTS
  0
DICTIONARY
  5
C
330
0
100
AcDbDictionary
281
     1
  3
ACAD_DETAILVIEWSTYLE
350
27B
  3
ACAD_GROUP
350
D
  3
ACAD_LAYOUT
350
1A
  3
ACAD_MATERIAL
350
43
  3
ACAD_MLEADERSTYLE
350
6B
  3
ACAD_MLINESTYLE
350
17
  3
ACAD_PLOTSETTINGS
350
19
  3
ACAD_PLOTSTYLENAME
350
E
  3
ACAD_SCALELIST
350
47
  3
ACAD_SECTIONVIEWSTYLE
350
27C
  3
ACAD_TABLESTYLE
350
69
  3
ACAD_VISUALSTYLE
350
2A
  3
ACDB_RECOMPOSE_DATA
350
278
  3
AcDbVariableDictionary
350
274
  0
SUN
  5
6D
330
29
100
AcDbSun
 90
        1
290
     0
 63
     7
421
 16777215
 40
1.0
291
     1
 91
  2455826
 92
 54000000
292
     0
 70
     2
 71
   256
280
     1
  0
DICTIONARY
  5
27B
102
{ACAD_REACTORS
330
C
102
}
330
C
100
AcDbDictionary
281
     1
  0
DICTIONARY
  5
D
102
{ACAD_REACTORS
330
C
102
}
330
C
100
AcDbDictionary
281
     1
  0
DICTIONARY
  5
1A
102
{ACAD_REACTORS
330
C
102
}
330
C
100
AcDbDictionary
281
     1
  3
Layout1
350
1E
  3
Layout2
350
26
  3
Model
350
22
  0
DICTIONARY
  5
43
102
{ACAD_REACTORS
330
C
102
}
330
C
100
AcDbDictionary
281
     1
  3
ByBlock
350
45
  3
ByLayer
350
44
  3
Global
350
46
  0
DICTIONARY
  5
6B
102
{ACAD_REACTORS
330
C
102
}
330
C
100
AcDbDictionary
281
     1
  3
Standard
350
6C
  0
DICTIONARY
  5
17
102
{ACAD_REACTORS
330
C
102
}
330
C
100
AcDbDictionary
281
     1
  3
Standard
350
18
  0
DICTIONARY
  5
19
102
{ACAD_REACTORS
330
C
102
}
330
C
100
AcDbDictionary
281
     1
  0
ACDBDICTIONARYWDFLT
  5
E
102
{ACAD_REACTORS
330
C
102
}
330
C
100
AcDbDictionary
281
     1
  3
Normal
350
F
100
AcDbDictionaryWithDefault
340
F
  0
DICTIONARY
  5
47
102
{ACAD_REACTORS
330
C
102
}
330
C
100
AcDbDictionary
281
     1
  3
A0
350
48
  3
A1
350
49
  3
A2
350
4A
  3
A3
350
4B
  3
A4
350
4C
  3
A5
350
4D
  3
A6
350
4E
  3
A7
350
4F
  3
A8
350
50
  3
A9
350
51
  3
B0
350
52
  3
B1
350
53
  3
B2
350
54
  3
B3
350
55
  3
B4
350
56
  3
B5
350
57
  3
B6
350
58
  3
B7
350
59
  3
B8
350
5A
  3
B9
350
5B
  3
C0
350
5C
  3
C1
350
5D
  3
C2
350
5E
  3
C3
350
5F
  3
C4
350
60
  3
C5
350
61
  3
C6
350
62
  3
C7
350
63
  3
C8
350
64
  3
C9
350
65
  3
D0
350
66
  3
D1
350
67
  3
D2
350
68
  0
DICTIONARY
  5
27C
102
{ACAD_REACTORS
330
C
102
}
330
C
100
AcDbDictionary
281
     1
  0
DICTIONARY
  5
69
102
{ACAD_REACTORS
330
C
102
}
330
C
100
AcDbDictionary
281
     1
  3
Standard
350
6A
  0
DICTIONARY
  5
2A
102
{ACAD_REACTORS
330
C
102
}
330
C
100
AcDbDictionary
281
     1
  3
2dWireframe
350
2F
  3
Basic
350
32
  3
Brighten
350
36
  3
ColorChange
350
3A
  3
Conceptual
350
34
  3
Dim
350
35
  3
EdgeColorOff
350
3D
  3
Facepattern
350
39
  3
Flat
350
2B
  3
FlatWithEdges
350
2C
  3
Gouraud
350
2D
  3
GouraudWithEdges
350
2E
  3
Hidden
350
31
  3
JitterOff
350
3B
  3
Linepattern
350
38
  3
OverhangOff
350
3C
  3
Realistic
350
33
  3
Shaded
350
42
  3
Shaded with edges
350
41
  3
Shades of Gray
350
3E
  3
Sketchy
350
3F
  3
Thicken
350
37
  3
Wireframe
350
30
  3
X-Ray
350
40
  0
XRECORD
  5
278
102
{ACAD_REACTORS
330
C
102
}
330
C
100
AcDbXrecord
280
     1
 90
        1
330
6A
  0
DICTIONARY
  5
274
102
{ACAD_REACTORS
330
C
102
}
330
C
100
AcDbDictionary
281
     1
  3
CANNOSCALE
350
275
  3
CMLEADERSTYLE
350
27A
  3
CTABLESTYLE
350
279
  0
LAYOUT
  5
1E
102
{ACAD_REACTORS
330
1A
102
}
330
1A
100
AcDbPlotSettings
  1

  2
none_device
  4

  6

 40
0.0
 41
0.0
 42
0.0
 43
0.0
 44
0.0
 45
0.0
 46
0.0
 47
0.0
 48
0.0
 49
0.0
140
0.0
141
0.0
142
1.0
143
1.0
 70
   688
 72
     0
 73
     0
 74
     5
  7

 75
    16
 76
     0
 77
     2
 78
   300
147
1.0
148
0.0
149
0.0
100
AcDbLayout
  1
Layout1
 70
     1
 71
     1
 10
0.0
 20
0.0
 11
12.0
 21
9.0
 12
0.0
 22
0.0
 32
0.0
 14
1.000000000000000E+20
 24
1.000000000000000E+20
 34
1.000000000000000E+20
 15
-1.000000000000000E+20
 25
-1.000000000000000E+20
 35
-1.000000000000000E+20
146
0.0
 13
0.0
 23
0.0
 33
0.0
 16
1.0
 26
0.0
 36
0.0
 17
0.0
 27
1.0
 37
0.0
 76
     0
330
1B
  0
LAYOUT
  5
26
102
{ACAD_REACTORS
330
1A
102
}
330
1A
100
AcDbPlotSettings
  1

  2
none_device
  4

  6

 40
0.0
 41
0.0
 42
0.0
 43
0.0
 44
0.0
 45
0.0
 46
0.0
 47
0.0
 48
0.0
 49
0.0
140
0.0
141
0.0
142
1.0
143
1.0
 70
   688
 72
     0
 73
     0
 74
     5
  7

 75
    16
 76
     0
 77
     2
 78
   300
147
1.0
148
0.0
149
0.0
100
AcDbLayout
  1
Layout2
 70
     1
 71
     2
 10
0.0
 20
0.0
 11
0.0
 21
0.0
 12
0.0
 22
0.0
 32
0.0
 14
0.0
 24
0.0
 34
0.0
 15
0.0
 25
0.0
 35
0.0
146
0.0
 13
0.0
 23
0.0
 33
0.0
 16
1.0
 26
0.0
 36
0.0
 17
0.0
 27
1.0
 37
0.0
 76
     0
330
23
  0
LAYOUT
  5
22
102
{ACAD_REACTORS
330
1A
102
}
330
1A
100
AcDbPlotSettings
  1

  2
none_device
  4
Letter_(8.50_x_11.00_Inches)
  6

 40
6.35
 41
6.35
 42
6.35000508
 43
6.35000508
 44
215.9
 45
279.4
 46
0.0
 47
0.0
 48
0.0
 49
0.0
140
0.0
141
0.0
142
1.0
143
1.0
 70
  1712
 72
     0
 73
     0
 74
     0
  7

 75
     0
 76
     0
 77
     2
 78
   300
147
1.0
148
0.0
149
0.0
100
AcDbLayout
  1
Model
 70
     1
 71
     0
 10
0.0
 20
0.0
 11
12.0
 21
9.0
 12
0.0
 22
0.0
 32
0.0
 14
1.000000000000000E+20
 24
1.000000000000000E+20
 34
1.000000000000000E+20
 15
-1.000000000000000E+20
 25
-1.000000000000000E+20
 35
-1.000000000000000E+20
146
0.0
 13
0.0
 23
0.0
 33
0.0
 16
1.0
 26
0.0
 36
0.0
 17
0.0
 27
1.0
 37
0.0
 76
     0
330
1F
331
29
  0
MATERIAL
  5
45
102
{ACAD_REACTORS
330
43
102
}
330
43
100
AcDbMaterial
  1
ByBlock
 72
     1
 94
      127
  0
MATERIAL
  5
44
102
{ACAD_REACTORS
330
43
102
}
330
43
100
AcDbMaterial
  1
ByLayer
 72
     1
 94
      127
  0
MATERIAL
  5
46
102
{ACAD_REACTORS
330
43
102
}
330
43
100
AcDbMaterial
  1
Global
 72
     1
 94
      127
  0
MLEADERSTYLE
  5
6C
102
{ACAD_REACTORS
330
6B
102
}
330
6B
100
AcDbMLeaderStyle
179
     2
170
     2
171
     1
172
     0
 90
        2
 40
0.0
 41
0.0
173
     1
 91
-1056964608
340
14
 92
       -2
290
     1
 42
0.09
291
     1
 43
0.36
  3
Standard
341
0
 44
0.18
300

342
11
174
     1
178
     6
175
     1
176
     0
 93
-1056964608
 45
0.18
292
     0
297
     0
 46
0.18
343
0
 94
-1056964608
 47
1.0
 49
1.0
140
1.0
293
     1
141
0.0
294
     1
177
     0
142
1.0
295
     0
296
     0
143
0.125
271
     0
272
     9
273
     9
298
     0
  0
MLINESTYLE
  5
18
102
{ACAD_REACTORS
330
17
102
}
330
17
100
AcDbMlineStyle
  2
Standard
 70
     0
  3

 62
   256
 51
90.0
 52
90.0
 71
     2
 49
0.5
 62
   256
  6
BYLAYER
 49
-0.5
 62
   256
  6
BYLAYER
  0
ACDBPLACEHOLDER
  5
F
102
{ACAD_REACTORS
330
E
102
}
330
E
  0
SCALE
  5
48
102
{ACAD_REACTORS
330
47
102
}
330
47
100
AcDbScale
 70
     0
300
1:1
140
1.0
141
1.0
290
     1
  0
SCALE
  5
49
102
{ACAD_REACTORS
330
47
102
}
330
47
100
AcDbScale
 70
     0
300
1:2
140
1.0
141
2.0
290
     0
  0
SCALE
  5
4A
102
{ACAD_REACTORS
330
47
102
}
330
47
100
AcDbScale
 70
     0
300
1:4
140
1.0
141
4.0
290
     0
  0
SCALE
  5
4B
102
{ACAD_REACTORS
330
47
102
}
330
47
100
AcDbScale
 70
     0
300
1:5
140
1.0
141
5.0
290
     0
  0
SCALE
  5
4C
102
{ACAD_REACTORS
330
47
102
}
330
47
100
AcDbScale
 70
     0
300
1:8
140
1.0
141
8.0
290
     0
  0
SCALE
  5
4D
102
{ACAD_REACTORS
330
47
102
}
330
47
100
AcDbScale
 70
     0
300
1:10
140
1.0
141
10.0
290
     0
  0
SCALE
  5
4E
102
{ACAD_REACTORS
330
47
102
}
330
47
100
AcDbScale
 70
     0
300
1:16
140
1.0
141
16.0
290
     0
  0
SCALE
  5
4F
102
{ACAD_REACTORS
330
47
102
}
330
47
100
AcDbScale
 70
     0
300
1:20
140
1.0
141
20.0
290
     0
  0
SCALE
  5
50
102
{ACAD_REACTORS
330
47
102
}
330
47
100
AcDbScale
 70
     0
300
1:30
140
1.0
141
30.0
290
     0
  0
SCALE
  5
51
102
{ACAD_REACTORS
330
47
102
}
330
47
100
AcDbScale
 70
     0
300
1:40
140
1.0
141
40.0
290
     0
  0
SCALE
  5
52
102
{ACAD_REACTORS
330
47
102
}
330
47
100
AcDbScale
 70
     0
300
1:50
140
1.0
141
50.0
290
     0
  0
SCALE
  5
53
102
{ACAD_REACTORS
330
47
102
}
330
47
100
AcDbScale
 70
     0
300
1:100
140
1.0
141
100.0
290
     0
  0
SCALE
  5
54
102
{ACAD_REACTORS
330
47
102
}
330
47
100
AcDbScale
 70
     0
300
2:1
140
2.0
141
1.0
290
     0
  0
SCALE
  5
55
102
{ACAD_REACTORS
330
47
102
}
330
47
100
AcDbScale
 70
     0
300
4:1
140
4.0
141
1.0
290
     0
  0
SCALE
  5
56
102
{ACAD_REACTORS
330
47
102
}
330
47
100
AcDbScale
 70
     0
300
8:1
140
8.0
141
1.0
290
     0
  0
SCALE
  5
57
102
{ACAD_REACTORS
330
47
102
}
330
47
100
AcDbScale
 70
     0
300
10:1
140
10.0
141
1.0
290
     0
  0
SCALE
  5
58
102
{ACAD_REACTORS
330
47
102
}
330
47
100
AcDbScale
 70
     0
300
100:1
140
100.0
141
1.0
290
     0
  0
SCALE
  5
59
102
{ACAD_REACTORS
330
47
102
}
330
47
100
AcDbScale
 70
     0
300
1/128" = 1'-0"
140
0.0078125
141
12.0
290
     0
  0
SCALE
  5
5A
102
{ACAD_REACTORS
330
47
102
}
330
47
100
AcDbScale
 70
     0
300
1/64" = 1'-0"
140
0.015625
141
12.0
290
     0
  0
SCALE
  5
5B
102
{ACAD_REACTORS
330
47
102
}
330
47
100
AcDbScale
 70
     0
300
1/32" = 1'-0"
140
0.03125
141
12.0
290
     0
  0
SCALE
  5
5C
102
{ACAD_REACTORS
330
47
102
}
330
47
100
AcDbScale
 70
     0
300
1/16" = 1'-0"
140
0.0625
141
12.0
290
     0
  0
SCALE
  5
5D
102
{ACAD_REACTORS
330
47
102
}
330
47
100
AcDbScale
 70
     0
300
3/32" = 1'-0"
140
0.09375
141
12.0
290
     0
  0
SCALE
  5
5E
102
{ACAD_REACTORS
330
47
102
}
330
47
100
AcDbScale
 70
     0
300
1/8" = 1'-0"
140
0.125
141
12.0
290
     0
  0
SCALE
  5
5F
102
{ACAD_REACTORS
330
47
102
}
330
47
100
AcDbScale
 70
     0
300
3/16" = 1'-0"
140
0.1875
141
12.0
290
     0
  0
SCALE
  5
60
102
{ACAD_REACTORS
330
47
102
}
330
47
100
AcDbScale
 70
     0
300
1/4" = 1'-0"
140
0.25
141
12.0
290
     0
  0
SCALE
  5
61
102
{ACAD_REACTORS
330
47
102
}
330
47
100
AcDbScale
 70
     0
300
3/8" = 1'-0"
140
0.375
141
12.0
290
     0
  0
SCALE
  5
62
102
{ACAD_REACTORS
330
47
102
}
330
47
100
AcDbScale
 70
     0
300
1/2" = 1'-0"
140
0.5
141
12.0
290
     0
  0
SCALE
  5
63
102
{ACAD_REACTORS
330
47
102
}
330
47
100
AcDbScale
 70
     0
300
3/4" = 1'-0"
140
0.75
141
12.0
290
     0
  0
SCALE
  5
64
102
{ACAD_REACTORS
330
47
102
}
330
47
100
AcDbScale
 70
     0
300
1" = 1'-0"
140
1.0
141
12.0
290
     0
  0
SCALE
  5
65
102
{ACAD_REACTORS
330
47
102
}
330
47
100
AcDbScale
 70
     0
300
1-1/2" = 1'-0"
140
1.5
141
12.0
290
     0
  0
SCALE
  5
66
102
{ACAD_REACTORS
330
47
102
}
330
47
100
AcDbScale
 70
     0
300
3" = 1'-0"
140
3.0
141
12.0
290
     0
  0
SCALE
  5
67
102
{ACAD_REACTORS
330
47
102
}
330
47
100
AcDbScale
 70
     0
300
6" = 1'-0"
140
6.0
141
12.0
290
     0
  0
SCALE
  5
68
102
{ACAD_REACTORS
330
47
102
}
330
47
100
AcDbScale
 70
     0
300
1'-0" = 1'-0"
140
12.0
141
12.0
290
     0
  0
TABLESTYLE
  5
6A
102
{ACAD_REACTORS
330
69
102
}
102
{ACAD_XDICTIONARY
360
276
102
}
330
69
100
AcDbTableStyle
  3
Standard
 70
     0
 71
     0
 40
0.06
 41
0.06
280
     0
281
     0
  7
Standard
140
0.18
170
     2
 62
     0
 63
   257
283
     0
 90
        4
 91
        0
  1

274
    -2
284
     1
 64
     0
275
    -2
285
     1
 65
     0
276
    -2
286
     1
 66
     0
277
    -2
287
     1
 67
     0
278
    -2
288
     1
 68
     0
279
    -2
289
     1
 69
     0
  7
Standard
140
0.25
170
     5
 62
     0
 63
   257
283
     0
 90
        4
 91
        0
  1

274
    -2
284
     1
 64
     0
275
    -2
285
     1
 65
     0
276
    -2
286
     1
 66
     0
277
    -2
287
     1
 67
     0
278
    -2
288
     1
 68
     0
279
    -2
289
     1
 69
     0
  7
Standard
140
0.18
170
     5
 62
     0
 63
   257
283
     0
 90
        4
 91
        0
  1

274
    -2
284
     1
 64
     0
275
    -2
285
     1
 65
     0
276
    -2
286
     1
 66
     0
277
    -2
287
     1
 67
     0
278
    -2
288
     1
 68
     0
279
    -2
289
     1
 69
     0
  0
VISUALSTYLE
  5
2F
102
{ACAD_REACTORS
330
2A
102
}
330
2A
100
AcDbVisualStyle
  2
2dWireframe
 70
     4
177
     3
291
     0
 70
    58
 90
        0
176
     1
 90
        2
176
     1
 90
        0
176
     1
 90
        0
176
     1
 40
0.6
176
     1
 40
30.0
176
     1
 62
     7
420
 16777215
176
     1
 90
        1
176
     1
 90
        4
176
     1
 62
     7
176
     1
 62
   257
176
     1
 90
        1
176
     1
 90
        1
176
     1
 40
1.0
176
     1
 90
        0
176
     1
 62
   257
176
     1
 40
1.0
176
     1
 90
        1
176
     1
 90
        6
176
     1
 90
        2
176
     1
 62
     7
176
     1
 90
        5
176
     1
 90
        0
176
     1
 90
        0
176
     1
290
     0
176
     1
 90
        1
176
     1
 40
0.0
176
     1
 90
        0
176
     1
290
     1
176
     1
290
     1
176
     1
290
     0
176
     1
290
     0
176
     1
290
     0
176
     1
290
     0
176
     1
290
     0
176
     1
290
     0
176
     1
290
     0
176
     1
 90
       50
176
     1
 40
0.0
176
     1
 40
1.0
176
     1
 90
        0
176
     1
 62
    18
420
        0
176
     1
 90
       50
176
     1
 90
        3
176
     1
 62
     5
420
      255
176
     1
290
     0
176
     1
 90
       50
176
     1
 90
       50
176
     1
 90
       50
176
     1
290
     0
176
     1
 90
       50
176
     1
 62
   256
176
     0
 40
1.0
176
     0
 90
        2
176
     1
  1
strokes_ogs.tif
176
     1
290
     0
176
     1
 40
1.0
176
     1
 40
1.0
176
     1
  0
VISUALSTYLE
  5
32
102
{ACAD_REACTORS
330
2A
102
}
330
2A
100
AcDbVisualStyle
  2
Basic
 70
     7
177
     3
291
     1
 70
    58
 90
        1
176
     1
 90
        0
176
     1
 90
        1
176
     1
 90
        0
176
     1
 40
0.6
176
     1
 40
30.0
176
     1
 62
     7
420
 16777215
176
     1
 90
        0
176
     1
 90
        4
176
     1
 62
     7
176
     1
 62
   257
176
     1
 90
        1
176
     1
 90
        1
176
     1
 40
1.0
176
     1
 90
        8
176
     1
 62
     7
176
     1
 40
1.0
176
     1
 90
        1
176
     1
 90
        6
176
     1
 90
        2
176
     1
 62
     7
176
     1
 90
        5
176
     1
 90
        0
176
     1
 90
        0
176
     1
290
     0
176
     1
 90
        1
176
     1
 40
0.0
176
     1
 90
        0
176
     1
290
     0
176
     1
290
     1
176
     1
290
     1
176
     1
290
     0
176
     1
290
     0
176
     1
290
     0
176
     1
290
     0
176
     1
290
     0
176
     1
290
     0
176
     1
 90
       50
176
     1
 40
0.0
176
     1
 40
1.0
176
     1
 90
        0
176
     1
 62
    18
420
        0
176
     1
 90
       50
176
     1
 90
        3
176
     1
 62
     5
420
      255
176
     1
290
     0
176
     1
 90
       50
176
     1
 90
       50
176
     1
 90
       50
176
     1
290
     0
176
     1
 90
       50
176
     1
 62
   256
176
     0
 40
1.0
176
     0
 90
        2
176
     1
  1
strokes_ogs.tif
176
     1
290
     0
176
     1
 40
1.0
176
     1
 40
1.0
176
     1
  0
VISUALSTYLE
  5
36
102
{ACAD_REACTORS
330
2A
102
}
330
2A
100
AcDbVisualStyle
  2
Brighten
 70
    12
177
     3
291
     1
 70
    58
 90
        2
176
     1
 90
        2
176
     1
 90
        0
176
     1
 90
        0
176
     1
 40
0.6
176
     1
 40
30.0
176
     1
 62
     7
420
 16777215
176
     1
 90
        1
176
     1
 90
        4
176
     1
 62
     7
176
     1
 62
   257
176
     1
 90
        1
176
     1
 90
        1
176
     1
 40
1.0
176
     1
 90
        8
176
     1
 62
     7
176
     1
 40
1.0
176
     1
 90
        1
176
     1
 90
        6
176
     1
 90
        2
176
     1
 62
     7
176
     1
 90
        5
176
     1
 90
        0
176
     1
 90
        0
176
     1
290
     0
176
     1
 90
        1
176
     1
 40
50.0
176
     1
 90
        0
176
     1
290
     0
176
     1
290
     1
176
     1
290
     1
176
     1
290
     0
176
     1
290
     0
176
     1
290
     0
176
     1
290
     0
176
     1
290
     0
176
     1
290
     0
176
     1
 90
       50
176
     1
 40
0.0
176
     1
 40
1.0
176
     1
 90
        0
176
     1
 62
    18
420
        0
176
     1
 90
       50
176
     1
 90
        3
176
     1
 62
     5
420
      255
176
     1
290
     0
176
     1
 90
       50
176
     1
 90
       50
176
     1
 90
       50
176
     1
290
     0
176
     1
 90
       50
176
     1
 62
   256
176
     0
 40
1.0
176
     0
 90
        2
176
     1
  1
strokes_ogs.tif
176
     1
290
     0
176
     1
 40
1.0
176
     1
 40
1.0
176
     1
  0
VISUALSTYLE
  5
3A
102
{ACAD_REACTORS
330
2A
102
}
330
2A
100
AcDbVisualStyle
  2
ColorChange
 70
    16
177
     3
291
     1
 70
    58
 90
        2
176
     1
 90
        2
176
     1
 90
        3
176
     1
 90
        0
176
     1
 40
0.6
176
     1
 40
30.0
176
     1
 62
     8
420
  8421504
176
     1
 90
        1
176
     1
 90
        4
176
     1
 62
     7
176
     1
 62
   257
176
     1
 90
        1
176
     1
 90
        1
176
     1
 40
1.0
176
     1
 90
        8
176
     1
 62
     8
420
  8421504
176
     1
 40
1.0
176
     1
 90
        1
176
     1
 90
        6
176
     1
 90
        2
176
     1
 62
     7
176
     1
 90
        5
176
     1
 90
        0
176
     1
 90
        0
176
     1
290
     0
176
     1
 90
        1
176
     1
 40
0.0
176
     1
 90
        0
176
     1
290
     0
176
     1
290
     1
176
     1
290
     1
176
     1
290
     0
176
     1
290
     0
176
     1
290
     0
176
     1
290
     0
176
     1
290
     0
176
     1
290
     0
176
     1
 90
       50
176
     1
 40
0.0
176
     1
 40
1.0
176
     1
 90
        0
176
     1
 62
    18
420
        0
176
     1
 90
       50
176
     1
 90
        3
176
     1
 62
     5
420
      255
176
     1
290
     0
176
     1
 90
       50
176
     1
 90
       50
176
     1
 90
       50
176
     1
290
     0
176
     1
 90
       50
176
     1
 62
   256
176
     0
 40
1.0
176
     0
 90
        2
176
     1
  1
strokes_ogs.tif
176
     1
290
     0
176
     1
 40
1.0
176
     1
 40
1.0
176
     1
  0
VISUALSTYLE
  5
34
102
{ACAD_REACTORS
330
2A
102
}
330
2A
100
AcDbVisualStyle
  2
Conceptual
 70
     9
177
     3
291
     0
 70
    58
 90
        3
176
     1
 90
        2
176
     1
 90
        0
176
     1
 90
        0
176
     1
 40
0.6
176
     1
 40
30.0
176
     1
 62
     7
420
 16777215
176
     1
 90
        2
176
     1
 90
        2
176
     1
 62
     7
176
     1
 62
   257
176
     1
 90
        1
176
     1
 90
        1
176
     1
 40
179.0
176
     1
 90
        8
176
     1
 62
     7
176
     1
 40
1.0
176
     1
 90
        1
176
     1
 90
        6
176
     1
 90
        2
176
     1
 62
     7
176
     1
 90
        3
176
     1
 90
        0
176
     1
 90
        0
176
     1
290
     0
176
     1
 90
        1
176
     1
 40
0.0
176
     1
 90
        0
176
     1
290
     0
176
     1
290
     1
176
     1
290
     1
176
     1
290
     0
176
     1
290
     0
176
     1
290
     0
176
     1
290
     0
176
     1
290
     0
176
     1
290
     0
176
     1
 90
       50
176
     1
 40
0.0
176
     1
 40
1.0
176
     1
 90
        0
176
     1
 62
    18
420
        0
176
     1
 90
       50
176
     1
 90
        3
176
     1
 62
     5
420
      255
176
     1
290
     0
176
     1
 90
       50
176
     1
 90
       50
176
     1
 90
       50
176
     1
290
     0
176
     1
 90
       50
176
     1
 62
   256
176
     0
 40
1.0
176
     0
 90
        2
176
     1
  1
strokes_ogs.tif
176
     1
290
     0
176
     1
 40
1.0
176
     1
 40
1.0
176
     1
  0
VISUALSTYLE
  5
35
102
{ACAD_REACTORS
330
2A
102
}
330
2A
100
AcDbVisualStyle
  2
Dim
 70
    11
177
     3
291
     1
 70
    58
 90
        2
176
     1
 90
        2
176
     1
 90
        0
176
     1
 90
        0
176
     1
 40
0.6
176
     1
 40
30.0
176
     1
 62
     7
420
 16777215
176
     1
 90
        1
176
     1
 90
        4
176
     1
 62
     7
176
     1
 62
   257
176
     1
 90
        1
176
     1
 90
        1
176
     1
 40
1.0
176
     1
 90
        8
176
     1
 62
     7
176
     1
 40
1.0
176
     1
 90
        1
176
     1
 90
        6
176
     1
 90
        2
176
     1
 62
     7
176
     1
 90
        5
176
     1
 90
        0
176
     1
 90
        0
176
     1
290
     0
176
     1
 90
        1
176
     1
 40
-50.0
176
     1
 90
        0
176
     1
290
     0
176
     1
290
     1
176
     1
290
     1
176
     1
290
     0
176
     1
290
     0
176
     1
290
     0
176
     1
290
     0
176
     1
290
     0
176
     1
290
     0
176
     1
 90
       50
176
     1
 40
0.0
176
     1
 40
1.0
176
     1
 90
        0
176
     1
 62
    18
420
        0
176
     1
 90
       50
176
     1
 90
        3
176
     1
 62
     5
420
      255
176
     1
290
     0
176
     1
 90
       50
176
     1
 90
       50
176
     1
 90
       50
176
     1
290
     0
176
     1
 90
       50
176
     1
 62
   256
176
     0
 40
1.0
176
     0
 90
        2
176
     1
  1
strokes_ogs.tif
176
     1
290
     0
176
     1
 40
1.0
176
     1
 40
1.0
176
     1
  0
VISUALSTYLE
  5
3D
102
{ACAD_REACTORS
330
2A
102
}
330
2A
100
AcDbVisualStyle
  2
EdgeColorOff
 70
    22
177
     3
291
     1
 70
    58
 90
        2
176
     0
 90
        2
176
     0
 90
        0
176
     0
 90
        0
176
     0
 40
0.6
176
     0
 40
30.0
176
     0
 62
     7
420
 16777215
176
     0
 90
        1
176
     0
 90
        4
176
     0
 62
     7
176
     0
 62
   257
176
     0
 90
        1
176
     0
 90
        1
176
     0
 40
1.0
176
     0
 90
        8
176
     2
 62
     7
176
     0
 40
1.0
176
     0
 90
        1
176
     0
 90
        6
176
     0
 90
        2
176
     0
 62
     7
176
     0
 90
        5
176
     0
 90
        0
176
     0
 90
        0
176
     0
290
     0
176
     0
 90
        1
176
     0
 40
0.0
176
     0
 90
        0
176
     0
290
     0
176
     0
290
     1
176
     0
290
     1
176
     0
290
     0
176
     0
290
     0
176
     0
290
     0
176
     0
290
     0
176
     0
290
     0
176
     0
290
     0
176
     0
 90
       50
176
     0
 40
0.0
176
     0
 40
1.0
176
     0
 90
        0
176
     0
 62
    18
420
        0
176
     0
 90
       50
176
     0
 90
        3
176
     0
 62
     5
420
      255
176
     0
290
     0
176
     0
 90
       50
176
     0
 90
       50
176
     0
 90
       50
176
     0
290
     0
176
     0
 90
       50
176
     0
 62
   256
176
     0
 40
1.0
176
     0
 90
        2
176
     0
  1
strokes_ogs.tif
176
     0
290
     0
176
     0
 40
1.0
176
     0
 40
1.0
176
     0
  0
VISUALSTYLE
  5
39
102
{ACAD_REACTORS
330
2A
102
}
330
2A
100
AcDbVisualStyle
  2
Facepattern
 70
    15
177
     3
291
     1
 70
    58
 90
        2
176
     1
 90
        2
176
     1
 90
        0
176
     1
 90
        0
176
     1
 40
0.6
176
     1
 40
30.0
176
     1
 62
     7
420
 16777215
176
     1
 90
        1
176
     1
 90
        4
176
     1
 62
     7
176
     1
 62
   257
176
     1
 90
        1
176
     1
 90
        1
176
     1
 40
1.0
176
     1
 90
        8
176
     1
 62
     7
176
     1
 40
1.0
176
     1
 90
        1
176
     1
 90
        6
176
     1
 90
        2
176
     1
 62
     7
176
     1
 90
        5
176
     1
 90
        0
176
     1
 90
        0
176
     1
290
     0
176
     1
 90
        1
176
     1
 40
0.0
176
     1
 90
        0
176
     1
290
     0
176
     1
290
     1
176
     1
290
     1
176
     1
290
     0
176
     1
290
     0
176
     1
290
     0
176
     1
290
     0
176
     1
290
     0
176
     1
290
     0
176
     1
 90
       50
176
     1
 40
0.0
176
     1
 40
1.0
176
     1
 90
        0
176
     1
 62
    18
420
        0
176
     1
 90
       50
176
     1
 90
        3
176
     1
 62
     5
420
      255
176
     1
290
     0
176
     1
 90
       50
176
     1
 90
       50
176
     1
 90
       50
176
     1
290
     0
176
     1
 90
       50
176
     1
 62
   256
176
     0
 40
1.0
176
     0
 90
        2
176
     1
  1
strokes_ogs.tif
176
     1
290
     0
176
     1
 40
1.0
176
     1
 40
1.0
176
     1
  0
VISUALSTYLE
  5
2B
102
{ACAD_REACTORS
330
2A
102
}
330
2A
100
AcDbVisualStyle
  2
Flat
 70
     0
177
     3
291
     1
 70
    58
 90
        2
176
     1
 90
        1
176
     1
 90
        1
176
     1
 90
        2
176
     1
 40
0.6
176
     1
 40
30.0
176
     1
 62
     7
420
 16777215
176
     1
 90
        0
176
     1
 90
        0
176
     1
 62
     7
176
     1
 62
   257
176
     1
 90
        1
176
     1
 90
        1
176
     1
 40
1.0
176
     1
 90
        8
176
     1
 62
     7
176
     1
 40
1.0
176
     1
 90
        1
176
     1
 90
        6
176
     1
 90
        2
176
     1
 62
     7
176
     1
 90
        5
176
     1
 90
        0
176
     1
 90
        0
176
     1
290
     0
176
     1
 90
       13
176
     1
 40
0.0
176
     1
 90
        0
176
     1
290
     0
176
     1
290
     1
176
     1
290
     1
176
     1
290
     0
176
     1
290
     0
176
     1
290
     0
176
     1
290
     0
176
     1
290
     0
176
     1
290
     0
176
     1
 90
       50
176
     1
 40
0.0
176
     1
 40
1.0
176
     1
 90
        0
176
     1
 62
    18
420
        0
176
     1
 90
       50
176
     1
 90
        3
176
     1
 62
     5
420
      255
176
     1
290
     0
176
     1
 90
       50
176
     1
 90
       50
176
     1
 90
       50
176
     1
290
     0
176
     1
 90
       50
176
     1
 62
   256
176
     0
 40
1.0
176
     0
 90
        2
176
     1
  1
strokes_ogs.tif
176
     1
290
     0
176
     1
 40
1.0
176
     1
 40
1.0
176
     1
  0
VISUALSTYLE
  5
2C
102
{ACAD_REACTORS
330
2A
102
}
330
2A
100
AcDbVisualStyle
  2
FlatWithEdges
 70
     1
177
     3
291
     1
 70
    58
 90
        2
176
     1
 90
        1
176
     1
 90
        1
176
     1
 90
        2
176
     1
 40
0.6
176
     1
 40
30.0
176
     1
 62
     7
420
 16777215
176
     1
 90
        1
176
     1
 90
        0
176
     1
 62
     7
176
     1
 62
   257
176
     1
 90
        1
176
     1
 90
        1
176
     1
 40
1.0
176
     1
 90
        0
176
     1
 62
   257
176
     1
 40
1.0
176
     1
 90
        1
176
     1
 90
        6
176
     1
 90
        2
176
     1
 62
     7
176
     1
 90
        5
176
     1
 90
        0
176
     1
 90
        0
176
     1
290
     0
176
     1
 90
       13
176
     1
 40
0.0
176
     1
 90
        0
176
     1
290
     0
176
     1
290
     1
176
     1
290
     1
176
     1
290
     0
176
     1
290
     0
176
     1
290
     0
176
     1
290
     0
176
     1
290
     0
176
     1
290
     0
176
     1
 90
       50
176
     1
 40
0.0
176
     1
 40
1.0
176
     1
 90
        0
176
     1
 62
    18
420
        0
176
     1
 90
       50
176
     1
 90
        3
176
     1
 62
     5
420
      255
176
     1
290
     0
176
     1
 90
       50
176
     1
 90
       50
176
     1
 90
       50
176
     1
290
     0
176
     1
 90
       50
176
     1
 62
   256
176
     0
 40
1.0
176
     0
 90
        2
176
     1
  1
strokes_ogs.tif
176
     1
290
     0
176
     1
 40
1.0
176
     1
 40
1.0
176
     1
  0
VISUALSTYLE
  5
2D
102
{ACAD_REACTORS
330
2A
102
}
330
2A
100
AcDbVisualStyle
  2
Gouraud
 70
     2
177
     3
291
     1
 70
    58
 90
        2
176
     1
 90
        2
176
     1
 90
        1
176
     1
 90
        2
176
     1
 40
0.6
176
     1
 40
30.0
176
     1
 62
     7
420
 16777215
176
     1
 90
        0
176
     1
 90
        0
176
     1
 62
     7
176
     1
 62
   257
176
     1
 90
        1
176
     1
 90
        1
176
     1
 40
1.0
176
     1
 90
        0
176
     1
 62
     7
176
     1
 40
1.0
176
     1
 90
        1
176
     1
 90
        6
176
     1
 90
        2
176
     1
 62
     7
176
     1
 90
        5
176
     1
 90
        0
176
     1
 90
        0
176
     1
290
     0
176
     1
 90
       13
176
     1
 40
0.0
176
     1
 90
        0
176
     1
290
     0
176
     1
290
     1
176
     1
290
     1
176
     1
290
     0
176
     1
290
     0
176
     1
290
     0
176
     1
290
     0
176
     1
290
     0
176
     1
290
     0
176
     1
 90
       50
176
     1
 40
0.0
176
     1
 40
1.0
176
     1
 90
        0
176
     1
 62
    18
420
        0
176
     1
 90
       50
176
     1
 90
        3
176
     1
 62
     5
420
      255
176
     1
290
     0
176
     1
 90
       50
176
     1
 90
       50
176
     1
 90
       50
176
     1
290
     0
176
     1
 90
       50
176
     1
 62
   256
176
     0
 40
1.0
176
     0
 90
        2
176
     1
  1
strokes_ogs.tif
176
     1
290
     0
176
     1
 40
1.0
176
     1
 40
1.0
176
     1
  0
VISUALSTYLE
  5
2E
102
{ACAD_REACTORS
330
2A
102
}
330
2A
100
AcDbVisualStyle
  2
GouraudWithEdges
 70
     3
177
     3
291
     1
 70
    58
 90
        2
176
     1
 90
        2
176
     1
 90
        1
176
     1
 90
        2
176
     1
 40
0.6
176
     1
 40
30.0
176
     1
 62
     7
420
 16777215
176
     1
 90
        1
176
     1
 90
        0
176
     1
 62
     7
176
     1
 62
   257
176
     1
 90
        1
176
     1
 90
        1
176
     1
 40
1.0
176
     1
 90
        0
176
     1
 62
   257
176
     1
 40
1.0
176
     1
 90
        1
176
     1
 90
        6
176
     1
 90
        2
176
     1
 62
     7
176
     1
 90
        5
176
     1
 90
        0
176
     1
 90
        0
176
     1
290
     0
176
     1
 90
       13
176
     1
 40
0.0
176
     1
 90
        0
176
     1
290
     0
176
     1
290
     1
176
     1
290
     1
176
     1
290
     0
176
     1
290
     0
176
     1
290
     0
176
     1
290
     0
176
     1
290
     0
176
     1
290
     0
176
     1
 90
       50
176
     1
 40
0.0
176
     1
 40
1.0
176
     1
 90
        0
176
     1
 62
    18
420
        0
176
     1
 90
       50
176
     1
 90
        3
176
     1
 62
     5
420
      255
176
     1
290
     0
176
     1
 90
       50
176
     1
 90
       50
176
     1
 90
       50
176
     1
290
     0
176
     1
 90
       50
176
     1
 62
   256
176
     0
 40
1.0
176
     0
 90
        2
176
     1
  1
strokes_ogs.tif
176
     1
290
     0
176
     1
 40
1.0
176
     1
 40
1.0
176
     1
  0
VISUALSTYLE
  5
31
102
{ACAD_REACTORS
330
2A
102
}
330
2A
100
AcDbVisualStyle
  2
Hidden
 70
     6
177
     3
291
     0
 70
    58
 90
        1
176
     1
 90
        2
176
     1
 90
        2
176
     1
 90
        0
176
     1
 40
0.6
176
     1
 40
30.0
176
     1
 62
     7
420
 16777215
176
     1
 90
        2
176
     1
 90
        2
176
     1
 62
     7
176
     1
 62
   257
176
     1
 90
        2
176
     1
 90
        1
176
     1
 40
40.0
176
     1
 90
        0
176
     1
 62
   257
176
     1
 40
1.0
176
     1
 90
        1
176
     1
 90
        6
176
     1
 90
        2
176
     1
 62
     7
176
     1
 90
        3
176
     1
 90
        0
176
     1
 90
        0
176
     1
290
     0
176
     1
 90
        1
176
     1
 40
0.0
176
     1
 90
        0
176
     1
290
     0
176
     1
290
     1
176
     1
290
     1
176
     1
290
     0
176
     1
290
     0
176
     1
290
     0
176
     1
290
     0
176
     1
290
     0
176
     1
290
     0
176
     1
 90
       50
176
     1
 40
0.0
176
     1
 40
1.0
176
     1
 90
        0
176
     1
 62
    18
420
        0
176
     1
 90
       50
176
     1
 90
        3
176
     1
 62
     5
420
      255
176
     1
290
     0
176
     1
 90
       50
176
     1
 90
       50
176
     1
 90
       50
176
     1
290
     0
176
     1
 90
       50
176
     1
 62
   256
176
     0
 40
1.0
176
     0
 90
        2
176
     1
  1
strokes_ogs.tif
176
     1
290
     0
176
     1
 40
1.0
176
     1
 40
1.0
176
     1
  0
VISUALSTYLE
  5
3B
102
{ACAD_REACTORS
330
2A
102
}
330
2A
100
AcDbVisualStyle
  2
JitterOff
 70
    20
177
     3
291
     1
 70
    58
 90
        2
176
     0
 90
        2
176
     0
 90
        0
176
     0
 90
        0
176
     0
 40
0.6
176
     0
 40
30.0
176
     0
 62
     7
420
 16777215
176
     0
 90
        1
176
     0
 90
        4
176
     0
 62
     7
176
     0
 62
   257
176
     0
 90
        1
176
     0
 90
        1
176
     0
 40
1.0
176
     0
 90
       10
176
     2
 62
     7
176
     0
 40
1.0
176
     0
 90
        1
176
     0
 90
        6
176
     0
 90
        2
176
     0
 62
     7
176
     0
 90
        5
176
     0
 90
        0
176
     0
 90
        0
176
     0
290
     0
176
     0
 90
        1
176
     0
 40
0.0
176
     0
 90
        0
176
     0
290
     0
176
     0
290
     1
176
     0
290
     1
176
     0
290
     0
176
     0
290
     0
176
     0
290
     0
176
     0
290
     0
176
     0
290
     0
176
     0
290
     0
176
     0
 90
       50
176
     0
 40
0.0
176
     0
 40
1.0
176
     0
 90
        0
176
     0
 62
    18
420
        0
176
     0
 90
       50
176
     0
 90
        3
176
     0
 62
     5
420
      255
176
     0
290
     0
176
     0
 90
       50
176
     0
 90
       50
176
     0
 90
       50
176
     0
290
     0
176
     0
 90
       50
176
     0
 62
   256
176
     0
 40
1.0
176
     0
 90
        2
176
     0
  1
strokes_ogs.tif
176
     0
290
     0
176
     0
 40
1.0
176
     0
 40
1.0
176
     0
  0
VISUALSTYLE
  5
38
102
{ACAD_REACTORS
330
2A
102
}
330
2A
100
AcDbVisualStyle
  2
Linepattern
 70
    14
177
     3
291
     1
 70
    58
 90
        2
176
     1
 90
        2
176
     1
 90
        0
176
     1
 90
        0
176
     1
 40
0.6
176
     1
 40
30.0
176
     1
 62
     7
420
 16777215
176
     1
 90
        1
176
     1
 90
        4
176
     1
 62
     7
176
     1
 62
   257
176
     1
 90
        7
176
     1
 90
        7
176
     1
 40
1.0
176
     1
 90
        8
176
     1
 62
     7
176
     1
 40
1.0
176
     1
 90
        1
176
     1
 90
        6
176
     1
 90
        2
176
     1
 62
     7
176
     1
 90
        5
176
     1
 90
        0
176
     1
 90
        0
176
     1
290
     0
176
     1
 90
        1
176
     1
 40
0.0
176
     1
 90
        0
176
     1
290
     0
176
     1
290
     1
176
     1
290
     1
176
     1
290
     0
176
     1
290
     0
176
     1
290
     0
176
     1
290
     0
176
     1
290
     0
176
     1
290
     0
176
     1
 90
       50
176
     1
 40
0.0
176
     1
 40
1.0
176
     1
 90
        0
176
     1
 62
    18
420
        0
176
     1
 90
       50
176
     1
 90
        3
176
     1
 62
     5
420
      255
176
     1
290
     0
176
     1
 90
       50
176
     1
 90
       50
176
     1
 90
       50
176
     1
290
     0
176
     1
 90
       50
176
     1
 62
   256
176
     0
 40
1.0
176
     0
 90
        2
176
     1
  1
strokes_ogs.tif
176
     1
290
     0
176
     1
 40
1.0
176
     1
 40
1.0
176
     1
  0
VISUALSTYLE
  5
3C
102
{ACAD_REACTORS
330
2A
102
}
330
2A
100
AcDbVisualStyle
  2
OverhangOff
 70
    21
177
     3
291
     1
 70
    58
 90
        2
176
     0
 90
        2
176
     0
 90
        0
176
     0
 90
        0
176
     0
 40
0.6
176
     0
 40
30.0
176
     0
 62
     7
420
 16777215
176
     0
 90
        1
176
     0
 90
        4
176
     0
 62
     7
176
     0
 62
   257
176
     0
 90
        1
176
     0
 90
        1
176
     0
 40
1.0
176
     0
 90
        9
176
     2
 62
     7
176
     0
 40
1.0
176
     0
 90
        1
176
     0
 90
        6
176
     0
 90
        2
176
     0
 62
     7
176
     0
 90
        5
176
     0
 90
        0
176
     0
 90
        0
176
     0
290
     0
176
     0
 90
        1
176
     0
 40
0.0
176
     0
 90
        0
176
     0
290
     0
176
     0
290
     1
176
     0
290
     1
176
     0
290
     0
176
     0
290
     0
176
     0
290
     0
176
     0
290
     0
176
     0
290
     0
176
     0
290
     0
176
     0
 90
       50
176
     0
 40
0.0
176
     0
 40
1.0
176
     0
 90
        0
176
     0
 62
    18
420
        0
176
     0
 90
       50
176
     0
 90
        3
176
     0
 62
     5
420
      255
176
     0
290
     0
176
     0
 90
       50
176
     0
 90
       50
176
     0
 90
       50
176
     0
290
     0
176
     0
 90
       50
176
     0
 62
   256
176
     0
 40
1.0
176
     0
 90
        2
176
     0
  1
strokes_ogs.tif
176
     0
290
     0
176
     0
 40
1.0
176
     0
 40
1.0
176
     0
  0
VISUALSTYLE
  5
33
102
{ACAD_REACTORS
330
2A
102
}
330
2A
100
AcDbVisualStyle
  2
Realistic
 70
     8
177
     3
291
     0
 70
    58
 90
        2
176
     1
 90
        3
176
     1
 90
        0
176
     1
 90
        2
176
     1
 40
0.6
176
     1
 40
30.0
176
     1
 62
     7
420
 16777215
176
     1
 90
        0
176
     1
 90
        0
176
     1
 62
     7
176
     1
 62
   257
176
     1
 90
        1
176
     1
 90
        1
176
     1
 40
1.0
176
     1
 90
        8
176
     1
 62
   257
176
     1
 40
1.0
176
     1
 90
        1
176
     1
 90
        6
176
     1
 90
        2
176
     1
 62
     7
176
     1
 90
        3
176
     1
 90
        0
176
     1
 90
        0
176
     1
290
     0
176
     1
 90
       13
176
     1
 40
0.0
176
     1
 90
        0
176
     1
290
     0
176
     1
290
     1
176
     1
290
     1
176
     1
290
     0
176
     1
290
     0
176
     1
290
     0
176
     1
290
     0
176
     1
290
     0
176
     1
290
     0
176
     1
 90
       50
176
     1
 40
0.0
176
     1
 40
1.0
176
     1
 90
        0
176
     1
 62
    18
420
        0
176
     1
 90
       50
176
     1
 90
        3
176
     1
 62
     5
420
      255
176
     1
290
     0
176
     1
 90
       50
176
     1
 90
       50
176
     1
 90
       50
176
     1
290
     0
176
     1
 90
       50
176
     1
 62
   256
176
     0
 40
1.0
176
     0
 90
        2
176
     1
  1
strokes_ogs.tif
176
     1
290
     0
176
     1
 40
1.0
176
     1
 40
1.0
176
     1
  0
VISUALSTYLE
  5
42
102
{ACAD_REACTORS
330
2A
102
}
330
2A
100
AcDbVisualStyle
  2
Shaded
 70
    27
177
     3
291
     0
 70
    58
 90
        2
176
     1
 90
        2
176
     1
 90
        1
176
     1
 90
        2
176
     1
 40
0.6
176
     1
 40
30.0
176
     1
 62
     7
420
 16777215
176
     1
 90
        0
176
     1
 90
        4
176
     1
 62
     7
176
     1
 62
   257
176
     1
 90
        1
176
     1
 90
        1
176
     1
 40
1.0
176
     1
 90
        8
176
     1
 62
   257
176
     1
 40
1.0
176
     1
 90
        1
176
     1
 90
        6
176
     1
 90
        2
176
     1
 62
     8
420
  7895160
176
     1
 90
        3
176
     1
 90
        0
176
     1
 90
        0
176
     1
290
     0
176
     1
 90
        5
176
     1
 40
0.0
176
     1
 90
        0
176
     1
290
     0
176
     1
290
     1
176
     1
290
     1
176
     1
290
     0
176
     1
290
     0
176
     1
290
     0
176
     1
290
     0
176
     1
290
     0
176
     1
290
     0
176
     1
 90
       50
176
     1
 40
0.0
176
     1
 40
1.0
176
     1
 90
        0
176
     1
 62
    18
420
        0
176
     1
 90
       50
176
     1
 90
        3
176
     1
 62
     5
420
      255
176
     1
290
     0
176
     1
 90
       50
176
     1
 90
       50
176
     1
 90
       50
176
     1
290
     0
176
     1
 90
       50
176
     1
 62
   256
176
     0
 40
1.0
176
     0
 90
        2
176
     1
  1
strokes_ogs.tif
176
     1
290
     0
176
     1
 40
1.0
176
     1
 40
1.0
176
     1
  0
VISUALSTYLE
  5
41
102
{ACAD_REACTORS
330
2A
102
}
330
2A
100
AcDbVisualStyle
  2
Shaded with edges
 70
    26
177
     3
291
     0
 70
    58
 90
        2
176
     1
 90
        2
176
     1
 90
        1
176
     1
 90
        2
176
     1
 40
0.6
176
     1
 40
30.0
176
     1
 62
     7
420
 16777215
176
     1
 90
        1
176
     1
 90
       10
176
     1
 62
     7
176
     1
 62
   257
176
     1
 90
        2
176
     1
 90
        1
176
     1
 40
1.0
176
     1
 90
        8
176
     1
 62
   257
176
     1
 40
1.0
176
     1
 90
        1
176
     1
 90
        6
176
     1
 90
        2
176
     1
 62
     7
176
     1
 90
        3
176
     1
 90
        0
176
     1
 90
        0
176
     1
290
     0
176
     1
 90
        5
176
     1
 40
0.0
176
     1
 90
        0
176
     1
290
     0
176
     1
290
     1
176
     1
290
     1
176
     1
290
     0
176
     1
290
     0
176
     1
290
     0
176
     1
290
     0
176
     1
290
     0
176
     1
290
     0
176
     1
 90
       50
176
     1
 40
0.0
176
     1
 40
1.0
176
     1
 90
        0
176
     1
 62
    18
420
        0
176
     1
 90
       50
176
     1
 90
        3
176
     1
 62
     5
420
      255
176
     1
290
     0
176
     1
 90
       50
176
     1
 90
       50
176
     1
 90
       50
176
     1
290
     0
176
     1
 90
       50
176
     1
 62
   256
176
     0
 40
1.0
176
     0
 90
        2
176
     1
  1
strokes_ogs.tif
176
     1
290
     0
176
     1
 40
1.0
176
     1
 40
1.0
176
     1
  0
VISUALSTYLE
  5
3E
102
{ACAD_REACTORS
330
2A
102
}
330
2A
100
AcDbVisualStyle
  2
Shades of Gray
 70
    23
177
     3
291
     0
 70
    58
 90
        2
176
     1
 90
        2
176
     1
 90
        3
176
     1
 90
        0
176
     1
 40
0.6
176
     1
 40
30.0
176
     1
 62
     7
420
 16777215
176
     1
 90
        2
176
     1
 90
        2
176
     1
 62
     7
176
     1
 62
     7
176
     1
 90
        1
176
     1
 90
        1
176
     1
 40
40.0
176
     1
 90
        8
176
     1
 62
     7
176
     1
 40
1.0
176
     1
 90
        1
176
     1
 90
        6
176
     1
 90
        2
176
     1
 62
     7
176
     1
 90
        3
176
     1
 90
        0
176
     1
 90
        0
176
     1
290
     0
176
     1
 90
        1
176
     1
 40
0.0
176
     1
 90
        0
176
     1
290
     0
176
     1
290
     1
176
     1
290
     1
176
     1
290
     0
176
     1
290
     0
176
     1
290
     0
176
     1
290
     0
176
     1
290
     0
176
     1
290
     0
176
     1
 90
       50
176
     1
 40
0.0
176
     1
 40
1.0
176
     1
 90
        0
176
     1
 62
    18
420
        0
176
     1
 90
       50
176
     1
 90
        3
176
     1
 62
     5
420
      255
176
     1
290
     0
176
     1
 90
       50
176
     1
 90
       50
176
     1
 90
       50
176
     1
290
     0
176
     1
 90
       50
176
     1
 62
   256
176
     0
 40
1.0
176
     0
 90
        2
176
     1
  1
strokes_ogs.tif
176
     1
290
     0
176
     1
 40
1.0
176
     1
 40
1.0
176
     1
  0
VISUALSTYLE
  5
3F
102
{ACAD_REACTORS
330
2A
102
}
330
2A
100
AcDbVisualStyle
  2
Sketchy
 70
    24
177
     3
291
     0
 70
    58
 90
        1
176
     1
 90
        2
176
     1
 90
        2
176
     1
 90
        0
176
     1
 40
0.6
176
     1
 40
30.0
176
     1
 62
     7
420
 16777215
176
     1
 90
        2
176
     1
 90
        2
176
     1
 62
     7
176
     1
 62
     7
176
     1
 90
        1
176
     1
 90
        1
176
     1
 40
40.0
176
     1
 90
       11
176
     1
 62
     7
176
     1
 40
1.0
176
     1
 90
        1
176
     1
 90
        6
176
     1
 90
        2
176
     1
 62
     7
176
     1
 90
        6
176
     1
 90
        0
176
     1
 90
        0
176
     1
290
     0
176
     1
 90
        1
176
     1
 40
0.0
176
     1
 90
        0
176
     1
290
     0
176
     1
290
     1
176
     1
290
     1
176
     1
290
     0
176
     1
290
     0
176
     1
290
     0
176
     1
290
     0
176
     1
290
     0
176
     1
290
     0
176
     1
 90
       50
176
     1
 40
0.0
176
     1
 40
1.0
176
     1
 90
        0
176
     1
 62
    18
420
        0
176
     1
 90
       50
176
     1
 90
        3
176
     1
 62
     5
420
      255
176
     1
290
     0
176
     1
 90
       50
176
     1
 90
       50
176
     1
 90
       50
176
     1
290
     0
176
     1
 90
       50
176
     1
 62
   256
176
     0
 40
1.0
176
     0
 90
        2
176
     1
  1
strokes_ogs.tif
176
     1
290
     0
176
     1
 40
1.0
176
     1
 40
1.0
176
     1
  0
VISUALSTYLE
  5
37
102
{ACAD_REACTORS
330
2A
102
}
330
2A
100
AcDbVisualStyle
  2
Thicken
 70
    13
177
     3
291
     1
 70
    58
 90
        2
176
     1
 90
        2
176
     1
 90
        0
176
     1
 90
        0
176
     1
 40
0.6
176
     1
 40
30.0
176
     1
 62
     7
420
 16777215
176
     1
 90
        1
176
     1
 90
        4
176
     1
 62
     7
176
     1
 62
   257
176
     1
 90
        1
176
     1
 90
        1
176
     1
 40
1.0
176
     1
 90
       12
176
     1
 62
     7
176
     1
 40
1.0
176
     1
 90
        1
176
     1
 90
        6
176
     1
 90
        2
176
     1
 62
     7
176
     1
 90
        5
176
     1
 90
        0
176
     1
 90
        0
176
     1
290
     0
176
     1
 90
        1
176
     1
 40
0.0
176
     1
 90
        0
176
     1
290
     0
176
     1
290
     1
176
     1
290
     1
176
     1
290
     0
176
     1
290
     0
176
     1
290
     0
176
     1
290
     0
176
     1
290
     0
176
     1
290
     0
176
     1
 90
       50
176
     1
 40
0.0
176
     1
 40
1.0
176
     1
 90
        0
176
     1
 62
    18
420
        0
176
     1
 90
       50
176
     1
 90
        3
176
     1
 62
     5
420
      255
176
     1
290
     0
176
     1
 90
       50
176
     1
 90
       50
176
     1
 90
       50
176
     1
290
     0
176
     1
 90
       50
176
     1
 62
   256
176
     0
 40
1.0
176
     0
 90
        2
176
     1
  1
strokes_ogs.tif
176
     1
290
     0
176
     1
 40
1.0
176
     1
 40
1.0
176
     1
  0
VISUALSTYLE
  5
30
102
{ACAD_REACTORS
330
2A
102
}
330
2A
100
AcDbVisualStyle
  2
Wireframe
 70
     5
177
     3
291
     0
 70
    58
 90
        0
176
     1
 90
        2
176
     1
 90
        0
176
     1
 90
        0
176
     1
 40
0.6
176
     1
 40
30.0
176
     1
 62
     7
420
 16777215
176
     1
 90
        1
176
     1
 90
        4
176
     1
 62
     7
176
     1
 62
   257
176
     1
 90
        1
176
     1
 90
        1
176
     1
 40
1.0
176
     1
 90
        0
176
     1
 62
   257
176
     1
 40
1.0
176
     1
 90
        1
176
     1
 90
        6
176
     1
 90
        2
176
     1
 62
     7
176
     1
 90
        3
176
     1
 90
        0
176
     1
 90
        0
176
     1
290
     0
176
     1
 90
        1
176
     1
 40
0.0
176
     1
 90
        0
176
     1
290
     0
176
     1
290
     1
176
     1
290
     1
176
     1
290
     0
176
     1
290
     0
176
     1
290
     0
176
     1
290
     0
176
     1
290
     0
176
     1
290
     0
176
     1
 90
       50
176
     1
 40
0.0
176
     1
 40
1.0
176
     1
 90
        0
176
     1
 62
    18
420
        0
176
     1
 90
       50
176
     1
 90
        3
176
     1
 62
     5
420
      255
176
     1
290
     0
176
     1
 90
       50
176
     1
 90
       50
176
     1
 90
       50
176
     1
290
     0
176
     1
 90
       50
176
     1
 62
   256
176
     0
 40
1.0
176
     0
 90
        2
176
     1
  1
strokes_ogs.tif
176
     1
290
     0
176
     1
 40
1.0
176
     1
 40
1.0
176
     1
  0
VISUALSTYLE
  5
40
102
{ACAD_REACTORS
330
2A
102
}
330
2A
100
AcDbVisualStyle
  2
X-Ray
 70
    25
177
     3
291
     0
 70
    58
 90
        2
176
     1
 90
        2
176
     1
 90
        1
176
     1
 90
        1
176
     1
 40
0.5
176
     1
 40
30.0
176
     1
 62
     7
420
 16777215
176
     1
 90
        1
176
     1
 90
        0
176
     1
 62
     7
176
     1
 62
   257
176
     1
 90
        1
176
     1
 90
        1
176
     1
 40
1.0
176
     1
 90
        8
176
     1
 62
     7
176
     1
 40
1.0
176
     1
 90
        1
176
     1
 90
        6
176
     1
 90
        2
176
     1
 62
     7
176
     1
 90
        3
176
     1
 90
        0
176
     1
 90
        0
176
     1
290
     0
176
     1
 90
       13
176
     1
 40
0.0
176
     1
 90
        0
176
     1
290
     0
176
     1
290
     1
176
     1
290
     1
176
     1
290
     0
176
     1
290
     0
176
     1
290
     0
176
     1
290
     0
176
     1
290
     0
176
     1
290
     0
176
     1
 90
       50
176
     1
 40
0.0
176
     1
 40
1.0
176
     1
 90
        0
176
     1
 62
    18
420
        0
176
     1
 90
       50
176
     1
 90
        3
176
     1
 62
     5
420
      255
176
     1
290
     0
176
     1
 90
       50
176
     1
 90
       50
176
     1
 90
       50
176
     1
290
     0
176
     1
 90
       50
176
     1
 62
   256
176
     0
 40
1.0
176
     0
 90
        2
176
     1
  1
strokes_ogs.tif
176
     1
290
     0
176
     1
 40
1.0
176
     1
 40
1.0
176
     1
  0
DICTIONARYVAR
  5
275
102
{ACAD_REACTORS
330
274
102
}
330
274
100
DictionaryVariables
280
     0
  1
1:1
  0
DICTIONARYVAR
  5
27A
102
{ACAD_REACTORS
330
274
102
}
330
274
100
DictionaryVariables
280
     0
  1
Standard
  0
DICTIONARYVAR
  5
279
102
{ACAD_REACTORS
330
274
102
}
330
274
100
DictionaryVariables
280
     0
  1
Standard
  0
DICTIONARY
  5
276
330
6A
100
AcDbDictionary
280
     1
281
     1
  3
ACAD_ROUNDTRIP_2008_TABLESTYLE_CELLSTYLEMAP
360
277
  0
CELLSTYLEMAP
  5
277
102
{ACAD_REACTORS
330
276
102
}
330
276
100
AcDbCellStyleMap
 90
        3
300
CELLSTYLE
  1
TABLEFORMAT_BEGIN
 90
        5
170
     1
 91
        0
 92
    32768
 62
   257
 93
        1
300
CONTENTFORMAT
  1
CONTENTFORMAT_BEGIN
 90
        0
 91
        0
 92
        4
 93
        0
300

 40
0.0
140
1.0
 94
        5
 62
     0
340
11
144
0.25
309
CONTENTFORMAT_END
171
     1
301
MARGIN
  1
CELLMARGIN_BEGIN
 40
0.06
 40
0.06
 40
0.06
 40
0.06
 40
0.06
 40
0.06
309
CELLMARGIN_END
 94
        6
 95
        1
302
GRIDFORMAT
  1
GRIDFORMAT_BEGIN
 90
        0
 91
        1
 62
     0
 92
       -2
340
14
 93
        0
 40
0.045
309
GRIDFORMAT_END
 95
        2
302
GRIDFORMAT
  1
GRIDFORMAT_BEGIN
 90
        0
 91
        1
 62
     0
 92
       -2
340
14
 93
        0
 40
0.045
309
GRIDFORMAT_END
 95
        4
302
GRIDFORMAT
  1
GRIDFORMAT_BEGIN
 90
        0
 91
        1
 62
     0
 92
       -2
340
14
 93
        0
 40
0.045
309
GRIDFORMAT_END
 95
        8
302
GRIDFORMAT
  1
GRIDFORMAT_BEGIN
 90
        0
 91
        1
 62
     0
 92
       -2
340
14
 93
        0
 40
0.045
309
GRIDFORMAT_END
 95
       16
302
GRIDFORMAT
  1
GRIDFORMAT_BEGIN
 90
        0
 91
        1
 62
     0
 92
       -2
340
14
 93
        0
 40
0.045
309
GRIDFORMAT_END
 95
       32
302
GRIDFORMAT
  1
GRIDFORMAT_BEGIN
 90
        0
 91
        1
 62
     0
 92
       -2
340
14
 93
        0
 40
0.045
309
GRIDFORMAT_END
309
TABLEFORMAT_END
  1
CELLSTYLE_BEGIN
 90
        1
 91
        1
300
_TITLE
309
CELLSTYLE_END
300
CELLSTYLE
  1
TABLEFORMAT_BEGIN
 90
        5
170
     1
 91
        0
 92
        0
 62
   257
 93
        1
300
CONTENTFORMAT
  1
CONTENTFORMAT_BEGIN
 90
        0
 91
        0
 92
        4
 93
        0
300

 40
0.0
140
1.0
 94
        5
 62
     0
340
11
144
0.18
309
CONTENTFORMAT_END
171
     1
301
MARGIN
  1
CELLMARGIN_BEGIN
 40
0.06
 40
0.06
 40
0.06
 40
0.06
 40
0.06
 40
0.06
309
CELLMARGIN_END
 94
        6
 95
        1
302
GRIDFORMAT
  1
GRIDFORMAT_BEGIN
 90
        0
 91
        1
 62
     0
 92
       -2
340
14
 93
        0
 40
0.045
309
GRIDFORMAT_END
 95
        2
302
GRIDFORMAT
  1
GRIDFORMAT_BEGIN
 90
        0
 91
        1
 62
     0
 92
       -2
340
14
 93
        0
 40
0.045
309
GRIDFORMAT_END
 95
        4
302
GRIDFORMAT
  1
GRIDFORMAT_BEGIN
 90
        0
 91
        1
 62
     0
 92
       -2
340
14
 93
        0
 40
0.045
309
GRIDFORMAT_END
 95
        8
302
GRIDFORMAT
  1
GRIDFORMAT_BEGIN
 90
        0
 91
        1
 62
     0
 92
       -2
340
14
 93
        0
 40
0.045
309
GRIDFORMAT_END
 95
       16
302
GRIDFORMAT
  1
GRIDFORMAT_BEGIN
 90
        0
 91
        1
 62
     0
 92
       -2
340
14
 93
        0
 40
0.045
309
GRIDFORMAT_END
 95
       32
302
GRIDFORMAT
  1
GRIDFORMAT_BEGIN
 90
        0
 91
        1
 62
     0
 92
       -2
340
14
 93
        0
 40
0.045
309
GRIDFORMAT_END
309
TABLEFORMAT_END
  1
CELLSTYLE_BEGIN
 90
        2
 91
        1
300
_HEADER
309
CELLSTYLE_END
300
CELLSTYLE
  1
TABLEFORMAT_BEGIN
 90
        5
170
     1
 91
        0
 92
        0
 62
   257
 93
        1
300
CONTENTFORMAT
  1
CONTENTFORMAT_BEGIN
 90
        0
 91
        0
 92
        4
 93
        0
300

 40
0.0
140
1.0
 94
        2
 62
     0
340
11
144
0.18
309
CONTENTFORMAT_END
171
     1
301
MARGIN
  1
CELLMARGIN_BEGIN
 40
0.06
 40
0.06
 40
0.06
 40
0.06
 40
0.06
 40
0.06
309
CELLMARGIN_END
 94
        6
 95
        1
302
GRIDFORMAT
  1
GRIDFORMAT_BEGIN
 90
        0
 91
        1
 62
     0
 92
       -2
340
14
 93
        0
 40
0.045
309
GRIDFORMAT_END
 95
        2
302
GRIDFORMAT
  1
GRIDFORMAT_BEGIN
 90
        0
 91
        1
 62
     0
 92
       -2
340
14
 93
        0
 40
0.045
309
GRIDFORMAT_END
 95
        4
302
GRIDFORMAT
  1
GRIDFORMAT_BEGIN
 90
        0
 91
        1
 62
     0
 92
       -2
340
14
 93
        0
 40
0.045
309
GRIDFORMAT_END
 95
        8
302
GRIDFORMAT
  1
GRIDFORMAT_BEGIN
 90
        0
 91
        1
 62
     0
 92
       -2
340
14
 93
        0
 40
0.045
309
GRIDFORMAT_END
 95
       16
302
GRIDFORMAT
  1
GRIDFORMAT_BEGIN
 90
        0
 91
        1
 62
     0
 92
       -2
340
14
 93
        0
 40
0.045
309
GRIDFORMAT_END
 95
       32
302
GRIDFORMAT
  1
GRIDFORMAT_BEGIN
 90
        0
 91
        1
 62
     0
 92
       -2
340
14
 93
        0
 40
0.045
309
GRIDFORMAT_END
309
TABLEFORMAT_END
  1
CELLSTYLE_BEGIN
 90
        3
 91
        2
300
_DATA
309
CELLSTYLE_END
  0
ENDSEC
  0
EOF