0
SECTION
  2
HEADER
  9
$ACADVER
  1
AC1027
  9
$ACADMAINTVER
 70
     8
  9
$DWGCODEPAGE
  3
ANSI_1252
  9
$REQUIREDVERSIONS
160
                 0
  9
$COMMENTS
  1
File was created by Cadenas
  9
$CUSTOMPROPERTYTAG
  1
NN
  9
$CUSTOMPROPERTY
  1
Grip Tight Two-Bolt Pillow Block Metric Bore
  9
$CUSTOMPROPERTYTAG
  1
NT
  9
$CUSTOMPROPERTY
  1
GT Normal Duty Pillow Blocks
  9
$CUSTOMPROPERTYTAG
  1
NB
  9
$CUSTOMPROPERTY
  1
129213
  9
$CUSTOMPROPERTYTAG
  1
NBSYN
  9
$CUSTOMPROPERTY
  1
$PN.$LUBE.
  9
$CUSTOMPROPERTYTAG
  1
LINA
  9
$CUSTOMPROPERTY
  1
129213
  9
$CUSTOMPROPERTYTAG
  1
SERIES
  9
$CUSTOMPROPERTY
  1
211
  9
$CUSTOMPROPERTYTAG
  1
SS
  9
$CUSTOMPROPERTY
  1
55
  9
$CUSTOMPROPERTYTAG
  1
PN
  9
$CUSTOMPROPERTY
  1
129213
  9
$CUSTOMPROPERTYTAG
  1
DESCRIPTION
  9
$CUSTOMPROPERTY
  1
P2B-GT-55M
  9
$CUSTOMPROPERTYTAG
  1
A
  9
$CUSTOMPROPERTY
  1
48.8
  9
$CUSTOMPROPERTYTAG
  1
B
  9
$CUSTOMPROPERTY
  1
225.4
  9
$CUSTOMPROPERTYTAG
  1
C
  9
$CUSTOMPROPERTY
  1
58.7
  9
$CUSTOMPROPERTYTAG
  1
DMIN
  9
$CUSTOMPROPERTY
  1
161.9
  9
$CUSTOMPROPERTYTAG
  1
DMAX
  9
$CUSTOMPROPERTY
  1
188.9
  9
$CUSTOMPROPERTYTAG
  1
F
  9
$CUSTOMPROPERTY
  1
M16
  9
$CUSTOMPROPERTYTAG
  1
G
  9
$CUSTOMPROPERTY
  1
31.0
  9
$CUSTOMPROPERTYTAG
  1
H
  9
$CUSTOMPROPERTY
  1
22.2
  9
$CUSTOMPROPERTYTAG
  1
J
  9
$CUSTOMPROPERTY
  1
125.4
  9
$CUSTOMPROPERTYTAG
  1
L
  9
$CUSTOMPROPERTY
  1
82.6
  9
$CUSTOMPROPERTYTAG
  1
M
  9
$CUSTOMPROPERTY
  1
63.5
  9
$CUSTOMPROPERTYTAG
  1
R
  9
$CUSTOMPROPERTY
  1
17.9
  9
$CUSTOMPROPERTYTAG
  1
S
  9
$CUSTOMPROPERTY
  1
31.0
  9
$CUSTOMPROPERTYTAG
  1
U
  9
$CUSTOMPROPERTY
  1
100.0
  9
$CUSTOMPROPERTYTAG
  1
V
  9
$CUSTOMPROPERTY
  1
200.0
  9
$CUSTOMPROPERTYTAG
  1
W
  9
$CUSTOMPROPERTY
  1
20.6
  9
$CUSTOMPROPERTYTAG
  1
X
  9
$CUSTOMPROPERTY
  1
4.8
  9
$CUSTOMPROPERTYTAG
  1
Z
  9
$CUSTOMPROPERTY
  1
30.2
  9
$CUSTOMPROPERTYTAG
  1
COMPANY
  9
$CUSTOMPROPERTY
  1
baldor
  9
$INSBASE
 10
0.0
 20
0.0
 30
0.0
  9
$EXTMIN
 10
1.000000000000000E+20
 20
1.000000000000000E+20
 30
1.000000000000000E+20
  9
$EXTMAX
 10
-1.000000000000000E+20
 20
-1.000000000000000E+20
 30
-1.000000000000000E+20
  9
$LIMMIN
 10
0.0
 20
0.0
  9
$LIMMAX
 10
420.0
 20
297.0
  9
$ORTHOMODE
 70
     0
  9
$REGENMODE
 70
     1
  9
$FILLMODE
 70
     1
  9
$QTEXTMODE
 70
     0
  9
$MIRRTEXT
 70
     1
  9
$LTSCALE
 40
1.0
  9
$ATTMODE
 70
     1
  9
$TEXTSIZE
 40
2.5
  9
$TRACEWID
 40
1.0
  9
$TEXTSTYLE
  7
Standard
  9
$CLAYER
  8
0
  9
$CELTYPE
  6
ByLayer
  9
$CECOLOR
 62
   256
  9
$CELTSCALE
 40
1.0
  9
$DISPSILH
 70
     0
  9
$DIMSCALE
 40
1.0
  9
$DIMASZ
 40
2.5
  9
$DIMEXO
 40
0.625
  9
$DIMDLI
 40
3.75
  9
$DIMRND
 40
0.0
  9
$DIMDLE
 40
0.0
  9
$DIMEXE
 40
1.25
  9
$DIMTP
 40
0.0
  9
$DIMTM
 40
0.0
  9
$DIMTXT
 40
2.5
  9
$DIMCEN
 40
2.5
  9
$DIMTSZ
 40
0.0
  9
$DIMTOL
 70
     0
  9
$DIMLIM
 70
     0
  9
$DIMTIH
 70
     0
  9
$DIMTOH
 70
     0
  9
$DIMSE1
 70
     0
  9
$DIMSE2
 70
     0
  9
$DIMTAD
 70
     1
  9
$DIMZIN
 70
     8
  9
$DIMBLK
  1

  9
$DIMASO
 70
     1
  9
$DIMSHO
 70
     1
  9
$DIMPOST
  1

  9
$DIMAPOST
  1

  9
$DIMALT
 70
     0
  9
$DIMALTD
 70
     3
  9
$DIMALTF
 40
0.03937007874016
  9
$DIMLFAC
 40
1.0
  9
$DIMTOFL
 70
     1
  9
$DIMTVP
 40
0.0
  9
$DIMTIX
 70
     0
  9
$DIMSOXD
 70
     0
  9
$DIMSAH
 70
     0
  9
$DIMBLK1
  1

  9
$DIMBLK2
  1

  9
$DIMSTYLE
  2
ISO-25
  9
$DIMCLRD
 70
     0
  9
$DIMCLRE
 70
     0
  9
$DIMCLRT
 70
     0
  9
$DIMTFAC
 40
1.0
  9
$DIMGAP
 40
0.625
  9
$DIMJUST
 70
     0
  9
$DIMSD1
 70
     0
  9
$DIMSD2
 70
     0
  9
$DIMTOLJ
 70
     0
  9
$DIMTZIN
 70
     8
  9
$DIMALTZ
 70
     0
  9
$DIMALTTZ
 70
     0
  9
$DIMUPT
 70
     0
  9
$DIMDEC
 70
     2
  9
$DIMTDEC
 70
     2
  9
$DIMALTU
 70
     2
  9
$DIMALTTD
 70
     3
  9
$DIMTXSTY
  7
Standard
  9
$DIMAUNIT
 70
     0
  9
$DIMADEC
 70
     0
  9
$DIMALTRND
 40
0.0
  9
$DIMAZIN
 70
     0
  9
$DIMDSEP
 70
    44
  9
$DIMATFIT
 70
     3
  9
$DIMFRAC
 70
     0
  9
$DIMLDRBLK
  1

  9
$DIMLUNIT
 70
     2
  9
$DIMLWD
 70
    -2
  9
$DIMLWE
 70
    -2
  9
$DIMTMOVE
 70
     0
  9
$DIMFXL
 40
1.0
  9
$DIMFXLON
 70
     0
  9
$DIMJOGANG
 40
0.7853981633974483
  9
$DIMTFILL
 70
     0
  9
$DIMTFILLCLR
 70
     0
  9
$DIMARCSYM
 70
     0
  9
$DIMLTYPE
  6

  9
$DIMLTEX1
  6

  9
$DIMLTEX2
  6

  9
$DIMTXTDIRECTION
 70
     0
  9
$LUNITS
 70
     2
  9
$LUPREC
 70
     4
  9
$SKETCHINC
 40
1.0
  9
$FILLETRAD
 40
10.0
  9
$AUNITS
 70
     0
  9
$AUPREC
 70
     0
  9
$MENU
  1
.
  9
$ELEVATION
 40
0.0
  9
$PELEVATION
 40
0.0
  9
$THICKNESS
 40
0.0
  9
$LIMCHECK
 70
     0
  9
$CHAMFERA
 40
0.0
  9
$CHAMFERB
 40
0.0
  9
$CHAMFERC
 40
0.0
  9
$CHAMFERD
 40
0.0
  9
$SKPOLY
 70
     0
  9
$TDCREATE
 40
2458168.995319641
  9
$TDUCREATE
 40
2458168.953652975
  9
$TDUPDATE
 40
2458168.995319827
  9
$TDUUPDATE
 40
2458168.95365316
  9
$TDINDWG
 40
0.0000000116
  9
$TDUSRTIMER
 40
0.0000000116
  9
$USRTIMER
 70
     1
  9
$ANGBASE
 50
0.0
  9
$ANGDIR
 70
     0
  9
$PDMODE
 70
     0
  9
$PDSIZE
 40
0.0
  9
$PLINEWID
 40
0.0
  9
$SPLFRAME
 70
     0
  9
$SPLINETYPE
 70
     6
  9
$SPLINESEGS
 70
     8
  9
$HANDSEED
  5
28C
  9
$SURFTAB1
 70
     6
  9
$SURFTAB2
 70
     6
  9
$SURFTYPE
 70
     6
  9
$SURFU
 70
     6
  9
$SURFV
 70
     6
  9
$UCSBASE
  2

  9
$UCSNAME
  2

  9
$UCSORG
 10
0.0
 20
0.0
 30
0.0
  9
$UCSXDIR
 10
1.0
 20
0.0
 30
0.0
  9
$UCSYDIR
 10
0.0
 20
1.0
 30
0.0
  9
$UCSORTHOREF
  2

  9
$UCSORTHOVIEW
 70
     0
  9
$UCSORGTOP
 10
0.0
 20
0.0
 30
0.0
  9
$UCSORGBOTTOM
 10
0.0
 20
0.0
 30
0.0
  9
$UCSORGLEFT
 10
0.0
 20
0.0
 30
0.0
  9
$UCSORGRIGHT
 10
0.0
 20
0.0
 30
0.0
  9
$UCSORGFRONT
 10
0.0
 20
0.0
 30
0.0
  9
$UCSORGBACK
 10
0.0
 20
0.0
 30
0.0
  9
$PUCSBASE
  2

  9
$PUCSNAME
  2

  9
$PUCSORG
 10
0.0
 20
0.0
 30
0.0
  9
$PUCSXDIR
 10
1.0
 20
0.0
 30
0.0
  9
$PUCSYDIR
 10
0.0
 20
1.0
 30
0.0
  9
$PUCSORTHOREF
  2

  9
$PUCSORTHOVIEW
 70
     0
  9
$PUCSORGTOP
 10
0.0
 20
0.0
 30
0.0
  9
$PUCSORGBOTTOM
 10
0.0
 20
0.0
 30
0.0
  9
$PUCSORGLEFT
 10
0.0
 20
0.0
 30
0.0
  9
$PUCSORGRIGHT
 10
0.0
 20
0.0
 30
0.0
  9
$PUCSORGFRONT
 10
0.0
 20
0.0
 30
0.0
  9
$PUCSORGBACK
 10
0.0
 20
0.0
 30
0.0
  9
$USERI1
 70
     0
  9
$USERI2
 70
     0
  9
$USERI3
 70
     0
  9
$USERI4
 70
     0
  9
$USERI5
 70
     0
  9
$USERR1
 40
0.0
  9
$USERR2
 40
0.0
  9
$USERR3
 40
0.0
  9
$USERR4
 40
0.0
  9
$USERR5
 40
0.0
  9
$WORLDVIEW
 70
     1
  9
$SHADEDGE
 70
     3
  9
$SHADEDIF
 70
    70
  9
$TILEMODE
 70
     1
  9
$MAXACTVP
 70
    64
  9
$PINSBASE
 10
0.0
 20
0.0
 30
0.0
  9
$PLIMCHECK
 70
     0
  9
$PEXTMIN
 10
1.000000000000000E+20
 20
1.000000000000000E+20
 30
1.000000000000000E+20
  9
$PEXTMAX
 10
-1.000000000000000E+20
 20
-1.000000000000000E+20
 30
-1.000000000000000E+20
  9
$PLIMMIN
 10
0.0
 20
0.0
  9
$PLIMMAX
 10
420.0
 20
297.0
  9
$UNITMODE
 70
     0
  9
$VISRETAIN
 70
     1
  9
$PLINEGEN
 70
     0
  9
$PSLTSCALE
 70
     1
  9
$TREEDEPTH
 70
  3020
  9
$CMLSTYLE
  2
Standard
  9
$CMLJUST
 70
     0
  9
$CMLSCALE
 40
20.0
  9
$PROXYGRAPHICS
 70
     1
  9
$MEASUREMENT
 70
     1
  9
$CELWEIGHT
370
    -1
  9
$ENDCAPS
280
     0
  9
$JOINSTYLE
280
     0
  9
$LWDISPLAY
290
     0
  9
$INSUNITS
 70
     4
  9
$HYPERLINKBASE
  1

  9
$STYLESHEET
  1

  9
$XEDIT
290
     1
  9
$CEPSNTYPE
380
     0
  9
$PSTYLEMODE
290
     1
  9
$FINGERPRINTGUID
  2
{15B1A484-CFA6-449B-AD01-280BCF974342}
  9
$VERSIONGUID
  2
{FAEB1C32-E019-11D5-929B-00C0DF256EC4}
  9
$EXTNAMES
290
     1
  9
$PSVPSCALE
 40
0.0
  9
$OLESTARTUP
290
     0
  9
$SORTENTS
280
   127
  9
$INDEXCTL
280
     0
  9
$HIDETEXT
280
     1
  9
$XCLIPFRAME
280
     2
  9
$HALOGAP
280
     0
  9
$OBSCOLOR
 70
   257
  9
$OBSLTYPE
280
     0
  9
$INTERSECTIONDISPLAY
280
     0
  9
$INTERSECTIONCOLOR
 70
   257
  9
$DIMASSOC
280
     2
  9
$PROJECTNAME
  1

  9
$CAMERADISPLAY
290
     0
  9
$LENSLENGTH
 40
50.0
  9
$CAMERAHEIGHT
 40
0.0
  9
$STEPSPERSEC
 40
2.0
  9
$STEPSIZE
 40
6.0
  9
$3DDWFPREC
 40
2.0
  9
$PSOLWIDTH
 40
5.0
  9
$PSOLHEIGHT
 40
80.0
  9
$LOFTANG1
 40
1.570796326794897
  9
$LOFTANG2
 40
1.570796326794897
  9
$LOFTMAG1
 40
0.0
  9
$LOFTMAG2
 40
0.0
  9
$LOFTPARAM
 70
     7
  9
$LOFTNORMALS
280
     1
  9
$LATITUDE
 40
37.795
  9
$LONGITUDE
 40
-122.394
  9
$NORTHDIRECTION
 40
0.0
  9
$TIMEZONE
 70
 -8000
  9
$LIGHTGLYPHDISPLAY
280
     1
  9
$TILEMODELIGHTSYNCH
280
     1
  9
$CMATERIAL
347
44
  9
$SOLIDHIST
280
     0
  9
$SHOWHIST
280
     1
  9
$DWFFRAME
280
     2
  9
$DGNFRAME
280
     2
  9
$REALWORLDSCALE
290
     1
  9
$INTERFERECOLOR
 62
   256
  9
$CSHADOW
280
     0
  9
$SHADOWPLANELOCATION
 40
0.0
  0
ENDSEC
  0
SECTION
  2
CLASSES
  0
CLASS
  1
ACDBDICTIONARYWDFLT
  2
AcDbDictionaryWithDefault
  3
ObjectDBX Classes
 90
        0
 91
        4
280
     0
281
     0
  0
CLASS
  1
VISUALSTYLE
  2
AcDbVisualStyle
  3
ObjectDBX Classes
 90
     4095
 91
        4
280
     0
281
     0
  0
CLASS
  1
MATERIAL
  2
AcDbMaterial
  3
ObjectDBX Classes
 90
     1153
 91
        4
280
     0
281
     0
  0
CLASS
  1
SCALE
  2
AcDbScale
  3
ObjectDBX Classes
 90
     1153
 91
        4
280
     0
281
     0
  0
CLASS
  1
TABLESTYLE
  2
AcDbTableStyle
  3
ObjectDBX Classes
 90
     4095
 91
        4
280
     0
281
     0
  0
CLASS
  1
MLEADERSTYLE
  2
AcDbMLeaderStyle
  3
ACDB_MLEADERSTYLE_CLASS
 90
     4095
 91
        4
280
     0
281
     0
  0
CLASS
  1
SUN
  2
AcDbSun
  3
SCENEOE
 90
     1153
 91
        4
280
     0
281
     0
  0
CLASS
  1
DICTIONARYVAR
  2
AcDbDictionaryVar
  3
ObjectDBX Classes
 90
        0
 91
        4
280
     0
281
     0
  0
CLASS
  1
CELLSTYLEMAP
  2
AcDbCellStyleMap
  3
ObjectDBX Classes
 90
     1152
 91
        4
280
     0
281
     0
  0
ENDSEC
  0
SECTION
  2
TABLES
  0
TABLE
  2
VPORT
  5
8
330
0
100
AcDbSymbolTable
 70
     1
  0
VPORT
  5
29
330
8
100
AcDbSymbolTableRecord
100
AcDbViewportTableRecord
  2
*Active
 70
     0
 10
0.0
 20
0.0
 11
1.0
 21
1.0
 12
0.0
 22
-0.5275000000000034
 13
0.0
 23
0.0
 14
10.0
 24
10.0
 15
10.0
 25
10.0
 16
0.0
 26
0.0
 36
1.0
 17
0.0
 27
0.0
 37
0.0
 40
66.9375
 41
3.434666666666667
 42
50.0
 43
0.0
 44
0.0
 50
0.0
 51
0.0
 71
     0
 72
   100
 73
     1
 74
     3
 75
     0
 76
     0
 77
     0
 78
     0
281
     0
 65
     1
110
0.0
120
0.0
130
0.0
111
1.0
121
0.0
131
0.0
112
0.0
122
1.0
132
0.0
 79
     0
146
0.0
348
2F
 60
     3
 61
     5
292
     1
282
     1
141
0.0
142
0.0
 63
   250
361
6D
  0
ENDTAB
  0
TABLE
  2
LTYPE
  5
5
330
0
100
AcDbSymbolTable
 70
     3
  0
LTYPE
  5
14
330
5
100
AcDbSymbolTableRecord
100
AcDbLinetypeTableRecord
  2
ByBlock
 70
     0
  3

 72
    65
 73
     0
 40
0.0
  0
LTYPE
  5
15
330
5
100
AcDbSymbolTableRecord
100
AcDbLinetypeTableRecord
  2
ByLayer
 70
     0
  3

 72
    65
 73
     0
 40
0.0
  0
LTYPE
  5
16
330
5
100
AcDbSymbolTableRecord
100
AcDbLinetypeTableRecord
  2
Continuous
 70
     0
  3
Solid line
 72
    65
 73
     0
 40
0.0
  0
LTYPE
  5
A5
330
5
100
AcDbSymbolTableRecord
100
AcDbLinetypeTableRecord
  2
Dashed
 70
     0
  3

 72
    65
 73
     2
 40
2.0
 49
1.0
 74
     0
 49
-1.0
 74
     0
  0
LTYPE
  5
118
330
5
100
AcDbSymbolTableRecord
100
AcDbLinetypeTableRecord
  2
Center
 70
     0
  3

 72
    65
 73
     4
 40
1.5
 49
0.45
 74
     0
 49
-0.5
 74
     0
 49
0.05
 74
     0
 49
-0.5
 74
     0
  0
ENDTAB
  0
TABLE
  2
LAYER
  5
2
330
0
100
AcDbSymbolTable
 70
     7
  0
LAYER
  5
10
330
2
100
AcDbSymbolTableRecord
100
AcDbLayerTableRecord
  2
0
 70
     0
 62
     7
  6
Continuous
370
    -3
390
F
347
46
348
0
  0
LAYER
  5
72
330
2
100
AcDbSymbolTableRecord
100
AcDbLayerTableRecord
  2
AM_6
 70
     0
 62
    -2
  6
Continuous
370
    35
390
F
347
46
348
0
  0
LAYER
  5
A6
330
2
100
AcDbSymbolTableRecord
100
AcDbLayerTableRecord
  2
AM_9
 70
     0
 62
     6
  6
Dashed
370
    25
390
F
347
46
348
0
  0
LAYER
  5
D5
330
2
100
AcDbSymbolTableRecord
100
AcDbLayerTableRecord
  2
AM_4
 70
     0
 62
     7
  6
Continuous
370
    50
390
F
347
46
348
0
  0
LAYER
  5
115
330
2
100
AcDbSymbolTableRecord
100
AcDbLayerTableRecord
  2
AM_5
 70
     0
 62
     3
  6
Continuous
370
    25
390
F
347
46
348
0
  0
LAYER
  5
119
330
2
100
AcDbSymbolTableRecord
100
AcDbLayerTableRecord
  2
AM_7
 70
     0
 62
     7
  6
Center
370
    25
390
F
347
46
348
0
  0
LAYER
  5
27E
330
2
100
AcDbSymbolTableRecord
100
AcDbLayerTableRecord
  2
ConnectionPoints
 70
     0
 62
     7
  6
Continuous
370
    50
390
F
347
46
348
0
  0
ENDTAB
  0
TABLE
  2
STYLE
  5
3
330
0
100
AcDbSymbolTable
 70
     1
  0
STYLE
  5
11
330
3
100
AcDbSymbolTableRecord
100
AcDbTextStyleTableRecord
  2
Standard
 70
     0
 40
0.0
 41
1.0
 50
0.0
 71
     0
 42
2.5
  3
txt
  4

  0
ENDTAB
  0
TABLE
  2
VIEW
  5
6
330
0
100
AcDbSymbolTable
 70
     0
  0
ENDTAB
  0
TABLE
  2
UCS
  5
7
330
0
100
AcDbSymbolTable
 70
     0
  0
ENDTAB
  0
TABLE
  2
APPID
  5
9
330
0
100
AcDbSymbolTable
 70
     1
  0
APPID
  5
12
330
9
100
AcDbSymbolTableRecord
100
AcDbRegAppTableRecord
  2
ACAD
 70
     0
  0
ENDTAB
  0
TABLE
  2
DIMSTYLE
  5
A
330
0
100
AcDbSymbolTable
 70
     1
100
AcDbDimStyleTable
  0
DIMSTYLE
105
27
330
A
100
AcDbSymbolTableRecord
100
AcDbDimStyleTableRecord
  2
ISO-25
 70
     0
 41
2.5
 42
0.625
 43
3.75
 44
1.25
 73
     0
 74
     0
 77
     1
 78
     8
140
2.5
141
2.5
143
0.03937007874016
147
0.625
171
     3
172
     1
178
     0
271
     2
272
     2
274
     3
278
    44
283
     0
284
     8
340
11
  0
ENDTAB
  0
TABLE
  2
BLOCK_RECORD
  5
1
330
0
100
AcDbSymbolTable
 70
     5
  0
BLOCK_RECORD
  5
1F
330
1
100
AcDbSymbolTableRecord
100
AcDbBlockTableRecord
  2
*Model_Space
340
22
 70
     0
280
     1
281
     0
  0
BLOCK_RECORD
  5
1B
330
1
100
AcDbSymbolTableRecord
100
AcDbBlockTableRecord
  2
*Paper_Space
340
1E
 70
     0
280
     1
281
     0
  0
BLOCK_RECORD
  5
23
330
1
100
AcDbSymbolTableRecord
100
AcDbBlockTableRecord
  2
*Paper_Space0
340
26
 70
     0
280
     1
281
     0
  0
BLOCK_RECORD
  5
6E
330
1
100
AcDbSymbolTableRecord
100
AcDbBlockTableRecord
  2
1_129213_4
340
0
102
{BLKREFS
331
6F
102
}
 70
     0
280
     1
281
     0
  0
BLOCK_RECORD
  5
8F
330
1
100
AcDbSymbolTableRecord
100
AcDbBlockTableRecord
  2
2_129524_0_in_129213_4
340
0
102
{BLKREFS
331
90
102
}
 70
     0
280
     1
281
     0
  0
BLOCK_RECORD
  5
D7
330
1
100
AcDbSymbolTableRecord
100
AcDbBlockTableRecord
  2
3_129950_0_in_129213_4
340
0
102
{BLKREFS
331
D8
102
}
 70
     0
280
     1
281
     0
  0
BLOCK_RECORD
  5
12E
330
1
100
AcDbSymbolTableRecord
100
AcDbBlockTableRecord
  2
4_129428_0_in_129213_4
340
0
102
{BLKREFS
331
12F
102
}
 70
     0
280
     1
281
     0
  0
ENDTAB
  0
ENDSEC
  0
SECTION
  2
BLOCKS
  0
BLOCK
  5
20
330
1F
100
AcDbEntity
  8
0
100
AcDbBlockBegin
  2
*Model_Space
 70
     0
 10
0.0
 20
0.0
 30
0.0
  3
*Model_Space
  1

  0
ENDBLK
  5
21
330
1F
100
AcDbEntity
  8
0
100
AcDbBlockEnd
  0
BLOCK
  5
1C
330
1B
100
AcDbEntity
 67
     1
  8
0
100
AcDbBlockBegin
  2
*Paper_Space
 70
     0
 10
0.0
 20
0.0
 30
0.0
  3
*Paper_Space
  1

  0
ENDBLK
  5
1D
330
1B
100
AcDbEntity
 67
     1
  8
0
100
AcDbBlockEnd
  0
BLOCK
  5
24
330
23
100
AcDbEntity
  8
0
100
AcDbBlockBegin
  2
*Paper_Space0
 70
     0
 10
0.0
 20
0.0
 30
0.0
  3
*Paper_Space0
  1

  0
ENDBLK
  5
25
330
23
100
AcDbEntity
  8
0
100
AcDbBlockEnd
  0
BLOCK
  5
70
330
6E
100
AcDbEntity
  8
0
100
AcDbBlockBegin
  2
1_129213_4
 70
     2
 10
0.0
 20
0.0
 30
0.0
  3
1_129213_4
  1

  0
ATTDEF
  5
73
330
6E
100
AcDbEntity
  8
AM_6
100
AcDbText
 10
117.7
 20
32.285
 30
0.0
 40
0.5
  1
Grip Tight Two-Bolt Pillow Block Metric Bore
100
AcDbAttributeDefinition
  3

  2
NN
 70
     8
280
     0
  0
ATTDEF
  5
74
330
6E
100
AcDbEntity
  8
AM_6
100
AcDbText
 10
117.7
 20
31.785
 30
0.0
 40
0.5
  1
GT Normal Duty Pillow Blocks
100
AcDbAttributeDefinition
  3

  2
NT
 70
     8
280
     0
  0
ATTDEF
  5
75
330
6E
100
AcDbEntity
  8
AM_6
100
AcDbText
 10
117.7
 20
31.285
 30
0.0
 40
0.5
  1
129213
100
AcDbAttributeDefinition
  3

  2
NB
 70
     8
280
     0
  0
ATTDEF
  5
76
330
6E
100
AcDbEntity
  8
AM_6
100
AcDbText
 10
117.7
 20
30.785
 30
0.0
 40
0.5
  1
$PN.$LUBE.
100
AcDbAttributeDefinition
  3

  2
NBSYN
 70
     8
280
     0
  0
ATTDEF
  5
77
330
6E
100
AcDbEntity
  8
AM_6
100
AcDbText
 10
117.7
 20
30.285
 30
0.0
 40
0.5
  1
129213
100
AcDbAttributeDefinition
  3

  2
LINA
 70
     8
280
     0
  0
ATTDEF
  5
78
330
6E
100
AcDbEntity
  8
AM_6
100
AcDbText
 10
117.7
 20
29.785
 30
0.0
 40
0.5
  1
211
100
AcDbAttributeDefinition
  3

  2
SERIES
 70
     8
280
     0
  0
ATTDEF
  5
79
330
6E
100
AcDbEntity
  8
AM_6
100
AcDbText
 10
117.7
 20
29.285
 30
0.0
 40
0.5
  1
55
100
AcDbAttributeDefinition
  3

  2
SS
 70
     8
280
     0
  0
ATTDEF
  5
7A
330
6E
100
AcDbEntity
  8
AM_6
100
AcDbText
 10
117.7
 20
28.785
 30
0.0
 40
0.5
  1
129213
100
AcDbAttributeDefinition
  3

  2
PN
 70
     8
280
     0
  0
ATTDEF
  5
7B
330
6E
100
AcDbEntity
  8
AM_6
100
AcDbText
 10
117.7
 20
28.285
 30
0.0
 40
0.5
  1
P2B-GT-55M
100
AcDbAttributeDefinition
  3

  2
DESCRIPTION
 70
     8
280
     0
  0
ATTDEF
  5
7C
330
6E
100
AcDbEntity
  8
AM_6
100
AcDbText
 10
117.7
 20
27.785
 30
0.0
 40
0.5
  1
48.8
100
AcDbAttributeDefinition
  3

  2
A
 70
     8
280
     0
  0
ATTDEF
  5
7D
330
6E
100
AcDbEntity
  8
AM_6
100
AcDbText
 10
117.7
 20
27.285
 30
0.0
 40
0.5
  1
225.4
100
AcDbAttributeDefinition
  3

  2
B
 70
     8
280
     0
  0
ATTDEF
  5
7E
330
6E
100
AcDbEntity
  8
AM_6
100
AcDbText
 10
117.7
 20
26.785
 30
0.0
 40
0.5
  1
58.7
100
AcDbAttributeDefinition
  3

  2
C
 70
     8
280
     0
  0
ATTDEF
  5
7F
330
6E
100
AcDbEntity
  8
AM_6
100
AcDbText
 10
117.7
 20
26.285
 30
0.0
 40
0.5
  1
161.9
100
AcDbAttributeDefinition
  3

  2
DMIN
 70
     8
280
     0
  0
ATTDEF
  5
80
330
6E
100
AcDbEntity
  8
AM_6
100
AcDbText
 10
117.7
 20
25.785
 30
0.0
 40
0.5
  1
188.9
100
AcDbAttributeDefinition
  3

  2
DMAX
 70
     8
280
     0
  0
ATTDEF
  5
81
330
6E
100
AcDbEntity
  8
AM_6
100
AcDbText
 10
117.7
 20
25.285
 30
0.0
 40
0.5
  1
M16
100
AcDbAttributeDefinition
  3

  2
F
 70
     8
280
     0
  0
ATTDEF
  5
82
330
6E
100
AcDbEntity
  8
AM_6
100
AcDbText
 10
117.7
 20
24.785
 30
0.0
 40
0.5
  1
31.0
100
AcDbAttributeDefinition
  3

  2
G
 70
     8
280
     0
  0
ATTDEF
  5
83
330
6E
100
AcDbEntity
  8
AM_6
100
AcDbText
 10
117.7
 20
24.285
 30
0.0
 40
0.5
  1
22.2
100
AcDbAttributeDefinition
  3

  2
H
 70
     8
280
     0
  0
ATTDEF
  5
84
330
6E
100
AcDbEntity
  8
AM_6
100
AcDbText
 10
117.7
 20
23.785
 30
0.0
 40
0.5
  1
125.4
100
AcDbAttributeDefinition
  3

  2
J
 70
     8
280
     0
  0
ATTDEF
  5
85
330
6E
100
AcDbEntity
  8
AM_6
100
AcDbText
 10
117.7
 20
23.285
 30
0.0
 40
0.5
  1
82.6
100
AcDbAttributeDefinition
  3

  2
L
 70
     8
280
     0
  0
ATTDEF
  5
86
330
6E
100
AcDbEntity
  8
AM_6
100
AcDbText
 10
117.7
 20
22.785
 30
0.0
 40
0.5
  1
63.5
100
AcDbAttributeDefinition
  3

  2
M
 70
     8
280
     0
  0
ATTDEF
  5
87
330
6E
100
AcDbEntity
  8
AM_6
100
AcDbText
 10
117.7
 20
22.285
 30
0.0
 40
0.5
  1
17.9
100
AcDbAttributeDefinition
  3

  2
R
 70
     8
280
     0
  0
ATTDEF
  5
88
330
6E
100
AcDbEntity
  8
AM_6
100
AcDbText
 10
117.7
 20
21.785
 30
0.0
 40
0.5
  1
31.0
100
AcDbAttributeDefinition
  3

  2
S
 70
     8
280
     0
  0
ATTDEF
  5
89
330
6E
100
AcDbEntity
  8
AM_6
100
AcDbText
 10
117.7
 20
21.285
 30
0.0
 40
0.5
  1
100.0
100
AcDbAttributeDefinition
  3

  2
U
 70
     8
280
     0
  0
ATTDEF
  5
8A
330
6E
100
AcDbEntity
  8
AM_6
100
AcDbText
 10
117.7
 20
20.785
 30
0.0
 40
0.5
  1
200.0
100
AcDbAttributeDefinition
  3

  2
V
 70
     8
280
     0
  0
ATTDEF
  5
8B
330
6E
100
AcDbEntity
  8
AM_6
100
AcDbText
 10
117.7
 20
20.285
 30
0.0
 40
0.5
  1
20.6
100
AcDbAttributeDefinition
  3

  2
W
 70
     8
280
     0
  0
ATTDEF
  5
8C
330
6E
100
AcDbEntity
  8
AM_6
100
AcDbText
 10
117.7
 20
19.785
 30
0.0
 40
0.5
  1
4.8
100
AcDbAttributeDefinition
  3

  2
X
 70
     8
280
     0
  0
ATTDEF
  5
8D
330
6E
100
AcDbEntity
  8
AM_6
100
AcDbText
 10
117.7
 20
19.285
 30
0.0
 40
0.5
  1
30.2
100
AcDbAttributeDefinition
  3

  2
Z
 70
     8
280
     0
  0
ATTDEF
  5
8E
330
6E
100
AcDbEntity
  8
AM_6
100
AcDbText
 10
117.7
 20
18.785
 30
0.0
 40
0.5
  1
baldor
100
AcDbAttributeDefinition
  3

  2
COMPANY
 70
     8
280
     0
  0
INSERT
  5
90
330
6E
100
AcDbEntity
  8
0
100
AcDbBlockReference
  2
2_129524_0_in_129213_4
 10
0.0
 20
0.0
 30
0.0
  0
INSERT
  5
D8
330
6E
100
AcDbEntity
  8
0
100
AcDbBlockReference
  2
3_129950_0_in_129213_4
 10
0.0
 20
0.0
 30
0.0
  0
INSERT
  5
12F
330
6E
100
AcDbEntity
  8
0
100
AcDbBlockReference
  2
4_129428_0_in_129213_4
 10
0.0
 20
0.0
 30
0.0
  0
ENDBLK
  5
71
330
6E
100
AcDbEntity
  8
0
100
AcDbBlockEnd
  0
BLOCK
  5
91
330
8F
100
AcDbEntity
  8
0
100
AcDbBlockBegin
  2
2_129524_0_in_129213_4
 70
     2
 10
0.0
 20
0.0
 30
0.0
  3
2_129524_0_in_129213_4
  1

  0
ATTDEF
  5
93
330
8F
100
AcDbEntity
  8
AM_6
100
AcDbText
 10
54.99605174500509
 20
15.3
 30
0.0
 40
0.5
  1
INS-GT-M B
100
AcDbAttributeDefinition
  3

  2
NN
 70
     8
280
     0
  0
ATTDEF
  5
94
330
8F
100
AcDbEntity
  8
AM_6
100
AcDbText
 10
54.99605174500509
 20
14.8
 30
0.0
 40
0.5
  1
GT Normal Duty Bearing Inserts
100
AcDbAttributeDefinition
  3

  2
NT
 70
     8
280
     0
  0
ATTDEF
  5
95
330
8F
100
AcDbEntity
  8
AM_6
100
AcDbText
 10
54.99605174500509
 20
14.3
 30
0.0
 40
0.5
  1
129524
100
AcDbAttributeDefinition
  3

  2
NB
 70
     8
280
     0
  0
ATTDEF
  5
96
330
8F
100
AcDbEntity
  8
AM_6
100
AcDbText
 10
54.99605174500509
 20
13.8
 30
0.0
 40
0.5
  1
$PN.
100
AcDbAttributeDefinition
  3

  2
NBSYN
 70
     8
280
     0
  0
ATTDEF
  5
97
330
8F
100
AcDbEntity
  8
AM_6
100
AcDbText
 10
54.99605174500509
 20
13.3
 30
0.0
 40
0.5
  1
129524
100
AcDbAttributeDefinition
  3

  2
LINA
 70
     8
280
     0
  0
ATTDEF
  5
98
330
8F
100
AcDbEntity
  8
AM_6
100
AcDbText
 10
54.99605174500509
 20
12.8
 30
0.0
 40
0.5
  1
211
100
AcDbAttributeDefinition
  3

  2
SERIES
 70
     8
280
     0
  0
ATTDEF
  5
99
330
8F
100
AcDbEntity
  8
AM_6
100
AcDbText
 10
54.99605174500509
 20
12.3
 30
0.0
 40
0.5
  1
129524
100
AcDbAttributeDefinition
  3

  2
PN
 70
     8
280
     0
  0
ATTDEF
  5
9A
330
8F
100
AcDbEntity
  8
AM_6
100
AcDbText
 10
54.99605174500509
 20
11.8
 30
0.0
 40
0.5
  1
INS-GT-11
100
AcDbAttributeDefinition
  3

  2
DESCRIPTION
 70
     8
280
     0
  0
ATTDEF
  5
9B
330
8F
100
AcDbEntity
  8
AM_6
100
AcDbText
 10
54.99605174500509
 20
11.3
 30
0.0
 40
0.5
  1
49.0
100
AcDbAttributeDefinition
  3

  2
A
 70
     8
280
     0
  0
ATTDEF
  5
9C
330
8F
100
AcDbEntity
  8
AM_6
100
AcDbText
 10
54.99605174500509
 20
10.8
 30
0.0
 40
0.5
  1
22.1
100
AcDbAttributeDefinition
  3

  2
C
 70
     8
280
     0
  0
ATTDEF
  5
9D
330
8F
100
AcDbEntity
  8
AM_6
100
AcDbText
 10
54.99605174500509
 20
10.3
 30
0.0
 40
0.5
  1
100.0
100
AcDbAttributeDefinition
  3

  2
D
 70
     8
280
     0
  0
ATTDEF
  5
9E
330
8F
100
AcDbEntity
  8
AM_6
100
AcDbText
 10
54.99605174500509
 20
9.8
 30
0.0
 40
0.5
  1
6.4
100
AcDbAttributeDefinition
  3

  2
J
 70
     8
280
     0
  0
ATTDEF
  5
9F
330
8F
100
AcDbEntity
  8
AM_6
100
AcDbText
 10
54.99605174500509
 20
9.3
 30
0.0
 40
0.5
  1
87.1
100
AcDbAttributeDefinition
  3

  2
L
 70
     8
280
     0
  0
ATTDEF
  5
A0
330
8F
100
AcDbEntity
  8
AM_6
100
AcDbText
 10
54.99605174500509
 20
8.8
 30
0.0
 40
0.5
  1
#10 - 32 x 1/4
100
AcDbAttributeDefinition
  3

  2
N
 70
     8
280
     0
  0
ATTDEF
  5
A1
330
8F
100
AcDbEntity
  8
AM_6
100
AcDbText
 10
54.99605174500509
 20
8.3
 30
0.0
 40
0.5
  1
17.0
100
AcDbAttributeDefinition
  3

  2
W
 70
     8
280
     0
  0
ATTDEF
  5
A2
330
8F
100
AcDbEntity
  8
AM_6
100
AcDbText
 10
54.99605174500509
 20
7.800000000000001
 30
0.0
 40
0.5
  1
33.5
100
AcDbAttributeDefinition
  3

  2
X
 70
     8
280
     0
  0
ATTDEF
  5
A3
330
8F
100
AcDbEntity
  8
AM_6
100
AcDbText
 10
54.99605174500509
 20
7.300000000000001
 30
0.0
 40
0.5
  1
32.0
100
AcDbAttributeDefinition
  3

  2
Y
 70
     8
280
     0
  0
ATTDEF
  5
A4
330
8F
100
AcDbEntity
  8
AM_6
100
AcDbText
 10
54.99605174500509
 20
6.800000000000001
 30
0.0
 40
0.5
  1
baldor
100
AcDbAttributeDefinition
  3

  2
COMPANY
 70
     8
280
     0
  0
LINE
  5
A7
330
8F
100
AcDbEntity
  8
AM_9
100
AcDbLine
 10
32.48968253968254
 20
-25.125
 30
0.0
 11
32.48968253968254
 21
-12.5625
 31
0.0
  0
LINE
  5
A8
330
8F
100
AcDbEntity
  8
AM_9
100
AcDbLine
 10
-32.48968253968254
 20
-12.5625
 30
0.0
 11
-32.48968253968254
 21
-25.125
 31
0.0
  0
LINE
  5
A9
330
8F
100
AcDbEntity
  8
AM_9
100
AcDbLine
 10
-32.48968253968254
 20
-12.5625
 30
0.0
 11
32.48968253968254
 21
-12.5625
 31
0.0
  0
LINE
  5
AA
330
8F
100
AcDbEntity
  8
AM_9
100
AcDbLine
 10
32.48968253968254
 20
-12.5625
 30
0.0
 11
33.46266247964636
 21
15.3
 31
0.0
  0
LINE
  5
AB
330
8F
100
AcDbEntity
  8
AM_9
100
AcDbLine
 10
-33.46266247964636
 20
15.3
 30
0.0
 11
-32.48968253968254
 21
-12.5625
 31
0.0
  0
LINE
  5
AC
330
8F
100
AcDbEntity
  8
AM_9
100
AcDbLine
 10
35.60039682539682
 20
-20.9375
 30
0.0
 11
35.60039682539682
 21
-16.74999999999999
 31
0.0
  0
LINE
  5
AD
330
8F
100
AcDbEntity
  8
AM_9
100
AcDbLine
 10
-35.60039682539682
 20
-16.74999999999999
 30
0.0
 11
-35.60039682539682
 21
-20.9375
 31
0.0
  0
LINE
  5
AE
330
8F
100
AcDbEntity
  8
AM_9
100
AcDbLine
 10
38.71111111111112
 20
11.05
 30
0.0
 11
38.71111111111112
 21
14.416
 31
0.0
  0
LINE
  5
AF
330
8F
100
AcDbEntity
  8
AM_9
100
AcDbLine
 10
-38.71111111111112
 20
14.416
 30
0.0
 11
-38.71111111111112
 21
11.05
 31
0.0
  0
LINE
  5
B0
330
8F
100
AcDbEntity
  8
AM_9
100
AcDbLine
 10
-38.71111111111112
 20
14.416
 30
0.0
 11
38.71111111111112
 21
14.416
 31
0.0
  0
LINE
  5
B1
330
8F
100
AcDbEntity
  8
AM_9
100
AcDbLine
 10
-37.82711111111111
 20
15.3
 30
0.0
 11
37.82711111111111
 21
15.3
 31
0.0
  0
LINE
  5
B2
330
8F
100
AcDbEntity
  8
AM_9
100
AcDbLine
 10
-37.82711111111111
 20
15.3
 30
0.0
 11
-38.71111111111112
 21
14.416
 31
0.0
  0
LINE
  5
B3
330
8F
100
AcDbEntity
  8
AM_9
100
AcDbLine
 10
38.71111111111112
 20
14.416
 30
0.0
 11
37.82711111111111
 21
15.3
 31
0.0
  0
LINE
  5
B4
330
8F
100
AcDbEntity
  8
AM_9
100
AcDbLine
 10
38.71111111111112
 20
-16.74999999999999
 30
0.0
 11
38.71111111111112
 21
-11.05
 31
0.0
  0
LINE
  5
B5
330
8F
100
AcDbEntity
  8
AM_9
100
AcDbLine
 10
-38.71111111111112
 20
-11.05
 30
0.0
 11
-38.71111111111112
 21
-16.74999999999999
 31
0.0
  0
LINE
  5
B6
330
8F
100
AcDbEntity
  8
AM_9
100
AcDbLine
 10
-38.71111111111112
 20
-16.74999999999999
 30
0.0
 11
38.71111111111112
 21
-16.74999999999999
 31
0.0
  0
LINE
  5
B7
330
8F
100
AcDbEntity
  8
AM_9
100
AcDbLine
 10
37.82711111111111
 20
-25.125
 30
0.0
 11
38.71111111111112
 21
-24.24099999999999
 31
0.0
  0
LINE
  5
B8
330
8F
100
AcDbEntity
  8
AM_9
100
AcDbLine
 10
-38.71111111111112
 20
-24.24099999999999
 30
0.0
 11
-37.82711111111111
 21
-25.125
 31
0.0
  0
LINE
  5
B9
330
8F
100
AcDbEntity
  8
AM_9
100
AcDbLine
 10
-37.82711111111111
 20
-25.125
 30
0.0
 11
37.82711111111111
 21
-25.125
 31
0.0
  0
LINE
  5
BA
330
8F
100
AcDbEntity
  8
AM_9
100
AcDbLine
 10
-17.63541887472821
 20
-24.24099999999999
 30
0.0
 11
38.71111111111112
 21
-24.24099999999999
 31
0.0
  0
LINE
  5
BB
330
8F
100
AcDbEntity
  8
AM_9
100
AcDbLine
 10
38.71111111111112
 20
-24.24099999999999
 30
0.0
 11
38.71111111111112
 21
-20.9375
 31
0.0
  0
LINE
  5
BC
330
8F
100
AcDbEntity
  8
AM_9
100
AcDbLine
 10
-38.71111111111112
 20
-20.9375
 30
0.0
 11
-38.71111111111112
 21
-24.24099999999999
 31
0.0
  0
LINE
  5
BD
330
8F
100
AcDbEntity
  8
AM_9
100
AcDbLine
 10
-38.71111111111112
 20
-24.24099999999999
 30
0.0
 11
-22.22524182653639
 21
-24.24099999999999
 31
0.0
  0
LINE
  5
BE
330
8F
100
AcDbEntity
  8
AM_9
100
AcDbLine
 10
-38.71111111111112
 20
-20.9375
 30
0.0
 11
38.71111111111112
 21
-20.9375
 31
0.0
  0
LINE
  5
BF
330
8F
100
AcDbEntity
  8
AM_9
100
AcDbLine
 10
47.79
 20
-7.679999999999996
 30
0.0
 11
47.79
 21
-5.119999999999999
 31
0.0
  0
LINE
  5
C0
330
8F
100
AcDbEntity
  8
AM_9
100
AcDbLine
 10
-47.79
 20
-5.119999999999999
 30
0.0
 11
-47.79
 21
-7.679999999999996
 31
0.0
  0
LINE
  5
C1
330
8F
100
AcDbEntity
  8
AM_9
100
AcDbLine
 10
-47.19396883195165
 20
-11.05
 30
0.0
 11
47.19396883195165
 21
-11.05
 31
0.0
  0
ARC
  5
C2
330
8F
100
AcDbEntity
  8
AM_9
100
AcDbCircle
 10
47.19396883195165
 20
-10.16600000000002
 30
0.0
 40
0.883999999999979
100
AcDbArc
 50
270.0
 51
338.5875329531165
  0
ARC
  5
C3
330
8F
100
AcDbEntity
  8
AM_9
100
AcDbCircle
 10
-47.19396883195165
 20
-10.16600000000002
 30
0.0
 40
0.8839999999999781
100
AcDbArc
 50
201.4124670468835
 51
270.0
  0
LINE
  5
C4
330
8F
100
AcDbEntity
  8
AM_9
100
AcDbLine
 10
-47.19396883195164
 20
11.05
 30
0.0
 11
47.19396883195164
 21
11.05
 31
0.0
  0
ARC
  5
C5
330
8F
100
AcDbEntity
  8
AM_9
100
AcDbCircle
 10
47.19396883195164
 20
10.16600000000001
 30
0.0
 40
0.8839999999999877
100
AcDbArc
 50
21.41246175693917
 51
90.0
  0
ARC
  5
C6
330
8F
100
AcDbEntity
  8
AM_9
100
AcDbCircle
 10
-47.19396883195164
 20
10.16600000000001
 30
0.0
 40
0.8839999999999861
100
AcDbArc
 50
90.0
 51
158.5875382430608
  0
LINE
  5
C7
330
8F
100
AcDbEntity
  8
AM_9
100
AcDbLine
 10
-48.01695196947391
 20
-10.48873015873016
 30
0.0
 11
48.01695196947391
 21
-10.48873015873016
 31
0.0
  0
ARC
  5
C8
330
8F
100
AcDbEntity
  8
AM_9
100
AcDbCircle
 10
21.26999999999962
 20
0.0000000000000728
 30
0.0
 40
28.73000000000038
100
AcDbArc
 50
338.5875329531161
 51
343.9103823492321
  0
ARC
  5
C9
330
8F
100
AcDbEntity
  8
AM_9
100
AcDbCircle
 10
-21.27000000000539
 20
-0.0000000000018865
 30
0.0
 40
28.72999999999429
100
AcDbArc
 50
196.0896176507674
 51
201.4124670468845
  0
LINE
  5
CA
330
8F
100
AcDbEntity
  8
AM_9
100
AcDbLine
 10
-48.87462836067637
 20
-7.962247990921996
 30
0.0
 11
48.87462836067637
 21
-7.962247990921996
 31
0.0
  0
LINE
  5
CB
330
8F
100
AcDbEntity
  8
AM_9
100
AcDbLine
 10
-48.66228504524587
 20
-7.679999999999996
 30
0.0
 11
48.66228504524587
 21
-7.679999999999996
 31
0.0
  0
ARC
  5
CC
330
8F
100
AcDbEntity
  8
AM_9
100
AcDbCircle
 10
48.66228504524588
 20
-7.900999999999982
 30
0.0
 40
0.2209999999999879
100
AcDbArc
 50
343.9104013845542
 51
90.0
  0
ARC
  5
CD
330
8F
100
AcDbEntity
  8
AM_9
100
AcDbCircle
 10
-48.66228504524588
 20
-7.900999999999982
 30
0.0
 40
0.2209999999999859
100
AcDbArc
 50
90.0
 51
196.0895986154457
  0
LINE
  5
CE
330
8F
100
AcDbEntity
  8
AM_9
100
AcDbLine
 10
-49.3549226454338
 20
-5.119999999999999
 30
0.0
 11
49.3549226454338
 21
-5.119999999999999
 31
0.0
  0
ARC
  5
CF
330
8F
100
AcDbEntity
  8
AM_9
100
AcDbCircle
 10
49.3549226454338
 20
-4.899000000000005
 30
0.0
 40
0.2209999999999948
100
AcDbArc
 50
270.0
 51
350.1051547772587
  0
ARC
  5
D0
330
8F
100
AcDbEntity
  8
AM_9
100
AcDbCircle
 10
-49.3549226454338
 20
-4.899000000000005
 30
0.0
 40
0.2209999999999932
100
AcDbArc
 50
189.8948452227413
 51
270.0
  0
LINE
  5
D1
330
8F
100
AcDbEntity
  8
AM_9
100
AcDbLine
 10
-49.57263522408057
 20
-4.936976744186042
 30
0.0
 11
49.57263522408057
 21
-4.936976744186042
 31
0.0
  0
LINE
  5
D2
330
8F
100
AcDbEntity
  8
AM_9
100
AcDbLine
 10
-48.0169519992706
 20
10.48873008274664
 30
0.0
 11
48.0169519992706
 21
10.48873008274664
 31
0.0
  0
ARC
  5
D3
330
8F
100
AcDbEntity
  8
AM_9
100
AcDbCircle
 10
21.27000000000008
 20
-0.0000000000000069
 30
0.0
 40
28.72999999999992
100
AcDbArc
 50
350.1051547772565
 51
21.4124668841166
  0
ARC
  5
D4
330
8F
100
AcDbEntity
  8
AM_9
100
AcDbCircle
 10
-21.27000000000008
 20
-0.0000000000000044
 30
0.0
 40
28.72999999999992
100
AcDbArc
 50
158.5875331158834
 51
189.8948452227435
  0
LINE
  5
D6
330
8F
100
AcDbEntity
  8
AM_4
100
AcDbLine
 10
-22.22524182653639
 20
-24.24099999999999
 30
0.0
 11
-17.63541887472821
 21
-24.24099999999999
 31
0.0
  0
ENDBLK
  5
92
330
8F
100
AcDbEntity
  8
0
100
AcDbBlockEnd
  0
BLOCK
  5
D9
330
D7
100
AcDbEntity
  8
0
100
AcDbBlockBegin
  2
3_129950_0_in_129213_4
 70
     2
 10
0.0
 20
0.0
 30
0.0
  3
3_129950_0_in_129213_4
  1

  0
ATTDEF
  5
DB
330
D7
100
AcDbEntity
  8
AM_6
100
AcDbText
 10
46.15981049519058
 20
17.9
 30
0.0
 40
0.5
  1
Grip Tight Normal Duty Adapter and Nut Metric Bore
100
AcDbAttributeDefinition
  3

  2
NN
 70
     8
280
     0
  0
ATTDEF
  5
DC
330
D7
100
AcDbEntity
  8
AM_6
100
AcDbText
 10
46.15981049519058
 20
17.4
 30
0.0
 40
0.5
  1
GT and GTM Adapter & Lock Nut Assemblies
100
AcDbAttributeDefinition
  3

  2
NT
 70
     8
280
     0
  0
ATTDEF
  5
DD
330
D7
100
AcDbEntity
  8
AM_6
100
AcDbText
 10
46.15981049519058
 20
16.9
 30
0.0
 40
0.5
  1
129950
100
AcDbAttributeDefinition
  3

  2
NB
 70
     8
280
     0
  0
ATTDEF
  5
DE
330
D7
100
AcDbEntity
  8
AM_6
100
AcDbText
 10
46.15981049519058
 20
16.4
 30
0.0
 40
0.5
  1
$PN.
100
AcDbAttributeDefinition
  3

  2
NBSYN
 70
     8
280
     0
  0
ATTDEF
  5
DF
330
D7
100
AcDbEntity
  8
AM_6
100
AcDbText
 10
46.15981049519058
 20
15.9
 30
0.0
 40
0.5
  1
129950
100
AcDbAttributeDefinition
  3

  2
LINA
 70
     8
280
     0
  0
ATTDEF
  5
E0
330
D7
100
AcDbEntity
  8
AM_6
100
AcDbText
 10
46.15981049519058
 20
15.4
 30
0.0
 40
0.5
  1
211
100
AcDbAttributeDefinition
  3

  2
SERIES
 70
     8
280
     0
  0
ATTDEF
  5
E1
330
D7
100
AcDbEntity
  8
AM_6
100
AcDbText
 10
46.15981049519058
 20
14.9
 30
0.0
 40
0.5
  1
55
100
AcDbAttributeDefinition
  3

  2
SS
 70
     8
280
     0
  0
ATTDEF
  5
E2
330
D7
100
AcDbEntity
  8
AM_6
100
AcDbText
 10
46.15981049519058
 20
14.4
 30
0.0
 40
0.5
  1
129950
100
AcDbAttributeDefinition
  3

  2
PN
 70
     8
280
     0
  0
ATTDEF
  5
E3
330
D7
100
AcDbEntity
  8
AM_6
100
AcDbText
 10
46.15981049519058
 20
13.9
 30
0.0
 40
0.5
  1
AN-GT-11-55M
100
AcDbAttributeDefinition
  3

  2
DESCRIPTION
 70
     8
280
     0
  0
ATTDEF
  5
E4
330
D7
100
AcDbEntity
  8
AM_6
100
AcDbText
 10
46.15981049519058
 20
13.4
 30
0.0
 40
0.5
  1
48.8
100
AcDbAttributeDefinition
  3

  2
A
 70
     8
280
     0
  0
ATTDEF
  5
E5
330
D7
100
AcDbEntity
  8
AM_6
100
AcDbText
 10
46.15981049519058
 20
12.9
 30
0.0
 40
0.5
  1
24.0
100
AcDbAttributeDefinition
  3

  2
C
 70
     8
280
     0
  0
ATTDEF
  5
E6
330
D7
100
AcDbEntity
  8
AM_6
100
AcDbText
 10
46.15981049519058
 20
12.4
 30
0.0
 40
0.5
  1
100.0
100
AcDbAttributeDefinition
  3

  2
D
 70
     8
280
     0
  0
ATTDEF
  5
E7
330
D7
100
AcDbEntity
  8
AM_6
100
AcDbText
 10
46.15981049519058
 20
11.9
 30
0.0
 40
0.5
  1
6.8
100
AcDbAttributeDefinition
  3

  2
J
 70
     8
280
     0
  0
ATTDEF
  5
E8
330
D7
100
AcDbEntity
  8
AM_6
100
AcDbText
 10
46.15981049519058
 20
11.4
 30
0.0
 40
0.5
  1
82.6
100
AcDbAttributeDefinition
  3

  2
L
 70
     8
280
     0
  0
ATTDEF
  5
E9
330
D7
100
AcDbEntity
  8
AM_6
100
AcDbText
 10
46.15981049519058
 20
10.9
 30
0.0
 40
0.5
  1
10 - 32 x 1/4
100
AcDbAttributeDefinition
  3

  2
N
 70
     8
280
     0
  0
ATTDEF
  5
EA
330
D7
100
AcDbEntity
  8
AM_6
100
AcDbText
 10
46.15981049519058
 20
10.4
 30
0.0
 40
0.5
  1
17.9
100
AcDbAttributeDefinition
  3

  2
W
 70
     8
280
     0
  0
ATTDEF
  5
EB
330
D7
100
AcDbEntity
  8
AM_6
100
AcDbText
 10
46.15981049519058
 20
9.900000000000002
 30
0.0
 40
0.5
  1
30.2
100
AcDbAttributeDefinition
  3

  2
X
 70
     8
280
     0
  0
ATTDEF
  5
EC
330
D7
100
AcDbEntity
  8
AM_6
100
AcDbText
 10
46.15981049519058
 20
9.400000000000002
 30
0.0
 40
0.5
  1
31.0
100
AcDbAttributeDefinition
  3

  2
Y
 70
     8
280
     0
  0
ATTDEF
  5
ED
330
D7
100
AcDbEntity
  8
AM_6
100
AcDbText
 10
46.15981049519058
 20
8.900000000000002
 30
0.0
 40
0.5
  1
baldor
100
AcDbAttributeDefinition
  3

  2
COMPANY
 70
     8
280
     0
  0
LINE
  5
EE
330
D7
100
AcDbEntity
  8
AM_9
100
AcDbLine
 10
-40.8682
 20
-29.4312
 30
0.0
 11
-31.4068
 21
-29.4312
 31
0.0
  0
LINE
  5
EF
330
D7
100
AcDbEntity
  8
AM_9
100
AcDbLine
 10
-31.4068
 20
-25.46879999999999
 30
0.0
 11
-40.8682
 21
-25.46879999999999
 31
0.0
  0
LINE
  5
F0
330
D7
100
AcDbEntity
  8
AM_9
100
AcDbLine
 10
-31.4068
 20
-29.4312
 30
0.0
 11
-30.975
 21
-29.863
 31
0.0
  0
LINE
  5
F1
330
D7
100
AcDbEntity
  8
AM_9
100
AcDbLine
 10
-30.975
 20
-25.037
 30
0.0
 11
-31.4068
 21
-25.46879999999999
 31
0.0
  0
LINE
  5
F2
330
D7
100
AcDbEntity
  8
AM_9
100
AcDbLine
 10
-30.975
 20
-25.037
 30
0.0
 11
-30.975
 21
-29.863
 31
0.0
  0
LINE
  5
F3
330
D7
100
AcDbEntity
  8
AM_9
100
AcDbLine
 10
-31.4068
 20
-25.46879999999999
 30
0.0
 11
-31.4068
 21
-29.4312
 31
0.0
  0
LINE
  5
F4
330
D7
100
AcDbEntity
  8
AM_9
100
AcDbLine
 10
-40.8682
 20
-25.46879999999999
 30
0.0
 11
-41.29848596142059
 21
-25.0385140385794
 31
0.0
  0
LINE
  5
F5
330
D7
100
AcDbEntity
  8
AM_9
100
AcDbLine
 10
-40.98805604412781
 20
-29.55105604412781
 30
0.0
 11
-40.8682
 21
-29.4312
 31
0.0
  0
LINE
  5
F6
330
D7
100
AcDbEntity
  8
AM_9
100
AcDbLine
 10
-40.8682
 20
-25.46879999999999
 30
0.0
 11
-40.8682
 21
-29.4312
 31
0.0
  0
LINE
  5
F7
330
D7
100
AcDbEntity
  8
AM_9
100
AcDbLine
 10
38.54665748885829
 20
-15.1
 30
0.0
 11
38.54665748885829
 21
-30.2
 31
0.0
  0
LINE
  5
F8
330
D7
100
AcDbEntity
  8
AM_9
100
AcDbLine
 10
27.5
 20
-30.9
 30
0.0
 11
27.5
 21
17.9
 31
0.0
  0
LINE
  5
F9
330
D7
100
AcDbEntity
  8
AM_9
100
AcDbLine
 10
-27.5
 20
17.9
 30
0.0
 11
-27.5
 21
-30.9
 31
0.0
  0
LINE
  5
FA
330
D7
100
AcDbEntity
  8
AM_9
100
AcDbLine
 10
30.81111111111111
 20
-22.65
 30
0.0
 11
30.81111111111111
 21
-11.32500000000018
 31
0.0
  0
LINE
  5
FB
330
D7
100
AcDbEntity
  8
AM_9
100
AcDbLine
 10
-30.81111111111111
 20
-11.32500000000018
 30
0.0
 11
-30.81111111111111
 21
-22.65
 31
0.0
  0
LINE
  5
FC
330
D7
100
AcDbEntity
  8
AM_9
100
AcDbLine
 10
-1.25
 20
17.9
 30
0.0
 11
-1.250000000000001
 21
-30.2
 31
0.0
  0
LINE
  5
FD
330
D7
100
AcDbEntity
  8
AM_9
100
AcDbLine
 10
1.25
 20
17.9
 30
0.0
 11
1.25
 21
-30.2
 31
0.0
  0
LINE
  5
FE
330
D7
100
AcDbEntity
  8
AM_9
100
AcDbLine
 10
-30.81111111111111
 20
-11.32500000000018
 30
0.0
 11
30.81111111111111
 21
-11.32500000000018
 31
0.0
  0
LINE
  5
FF
330
D7
100
AcDbEntity
  8
AM_9
100
AcDbLine
 10
30.81111111111111
 20
-11.32500000000018
 30
0.0
 11
31.83167059950744
 21
17.9
 31
0.0
  0
LINE
  5
100
330
D7
100
AcDbEntity
  8
AM_9
100
AcDbLine
 10
-31.83167059950744
 20
17.9
 30
0.0
 11
-30.81111111111111
 21
-11.32500000000018
 31
0.0
  0
LINE
  5
101
330
D7
100
AcDbEntity
  8
AM_9
100
AcDbLine
 10
-31.83167059950744
 20
17.9
 30
0.0
 11
31.83167059950744
 21
17.9
 31
0.0
  0
LINE
  5
102
330
D7
100
AcDbEntity
  8
AM_9
100
AcDbLine
 10
33.76111111111113
 20
-18.875
 30
0.0
 11
33.76111111111113
 21
-15.1
 31
0.0
  0
LINE
  5
103
330
D7
100
AcDbEntity
  8
AM_9
100
AcDbLine
 10
-33.76111111111113
 20
-15.1
 30
0.0
 11
-33.76111111111113
 21
-18.875
 31
0.0
  0
LINE
  5
104
330
D7
100
AcDbEntity
  8
AM_9
100
AcDbLine
 10
-23.5243916204624
 20
-16.06
 30
0.0
 11
-23.5243916204624
 21
-21.25217534754237
 31
0.0
  0
LINE
  5
105
330
D7
100
AcDbEntity
  8
AM_9
100
AcDbLine
 10
-41.3
 20
-16.06
 30
0.0
 11
-41.3
 21
-22.76298160317287
 31
0.0
  0
LINE
  5
106
330
D7
100
AcDbEntity
  8
AM_9
100
AcDbLine
 10
-23.04271763832926
 20
-15.1
 30
0.0
 11
-23.5243916204624
 21
-16.06
 31
0.0
  0
LINE
  5
107
330
D7
100
AcDbEntity
  8
AM_9
100
AcDbLine
 10
-40.34000000000002
 20
-15.1
 30
0.0
 11
-41.30000000000001
 21
-16.06
 31
0.0
  0
LINE
  5
108
330
D7
100
AcDbEntity
  8
AM_9
100
AcDbLine
 10
-41.30000000000001
 20
-16.06
 30
0.0
 11
-23.5243916204624
 21
-16.06
 31
0.0
  0
LINE
  5
109
330
D7
100
AcDbEntity
  8
AM_9
100
AcDbLine
 10
-16.32884237156207
 20
-15.1
 30
0.0
 11
-16.32884237156207
 21
-30.2
 31
0.0
  0
LINE
  5
10A
330
D7
100
AcDbEntity
  8
AM_9
100
AcDbLine
 10
-22.21781511729625
 20
-15.1
 30
0.0
 11
-22.21781511729625
 21
-24.25579599502602
 31
0.0
  0
LINE
  5
10B
330
D7
100
AcDbEntity
  8
AM_9
100
AcDbLine
 10
-37.12411111111111
 20
-22.65
 30
0.0
 11
37.12411111111111
 21
-22.65
 31
0.0
  0
LINE
  5
10C
330
D7
100
AcDbEntity
  8
AM_9
100
AcDbLine
 10
-37.12411111111111
 20
-18.875
 30
0.0
 11
37.12411111111111
 21
-18.875
 31
0.0
  0
LINE
  5
10D
330
D7
100
AcDbEntity
  8
AM_9
100
AcDbLine
 10
37.12411111111111
 20
-22.65
 30
0.0
 11
37.12411111111111
 21
-18.875
 31
0.0
  0
LINE
  5
10E
330
D7
100
AcDbEntity
  8
AM_9
100
AcDbLine
 10
-37.12411111111111
 20
-18.875
 30
0.0
 11
-37.12411111111111
 21
-22.65
 31
0.0
  0
LINE
  5
10F
330
D7
100
AcDbEntity
  8
AM_9
100
AcDbLine
 10
41.15981049519058
 20
-16.06
 30
0.0
 11
41.15981049519058
 21
-22.74360987331833
 31
0.0
  0
LINE
  5
110
330
D7
100
AcDbEntity
  8
AM_9
100
AcDbLine
 10
-17.63541887472821
 20
-20.99940694039291
 30
0.0
 11
-17.63541887472821
 21
-16.06
 31
0.0
  0
LINE
  5
111
330
D7
100
AcDbEntity
  8
AM_9
100
AcDbLine
 10
40.1964625309243
 20
-15.1
 30
0.0
 11
41.15981049519058
 21
-16.06
 31
0.0
  0
LINE
  5
112
330
D7
100
AcDbEntity
  8
AM_9
100
AcDbLine
 10
-40.34000000000002
 20
-15.1
 30
0.0
 11
40.1964625309243
 21
-15.1
 31
0.0
  0
LINE
  5
113
330
D7
100
AcDbEntity
  8
AM_9
100
AcDbLine
 10
-17.63541887472821
 20
-16.06
 30
0.0
 11
-17.15374489259507
 21
-15.1
 31
0.0
  0
LINE
  5
114
330
D7
100
AcDbEntity
  8
AM_9
100
AcDbLine
 10
-17.63541887472821
 20
-16.06
 30
0.0
 11
41.15981049519058
 21
-16.06
 31
0.0
  0
LINE
  5
116
330
D7
100
AcDbEntity
  8
AM_5
100
AcDbLine
 10
-40.677
 20
-29.863
 30
0.0
 11
-30.975
 21
-29.863
 31
0.0
  0
LINE
  5
117
330
D7
100
AcDbEntity
  8
AM_5
100
AcDbLine
 10
-37.91511111111112
 20
-25.037
 30
0.0
 11
-32.48968253968254
 21
-25.037
 31
0.0
  0
LINE
  5
11A
330
D7
100
AcDbEntity
  8
AM_7
100
AcDbLine
 10
-30.45875
 20
-27.45
 30
0.0
 11
-41.81625
 21
-27.45
 31
0.0
  0
LINE
  5
11B
330
D7
100
AcDbEntity
  8
AM_4
100
AcDbLine
 10
-1.25
 20
-30.9
 30
0.0
 11
-1.250000000000001
 21
-30.2
 31
0.0
  0
LINE
  5
11C
330
D7
100
AcDbEntity
  8
AM_4
100
AcDbLine
 10
1.25
 20
-30.9
 30
0.0
 11
1.250000000000001
 21
-30.2
 31
0.0
  0
LINE
  5
11D
330
D7
100
AcDbEntity
  8
AM_4
100
AcDbLine
 10
30.81111111111111
 20
-30.9
 30
0.0
 11
30.81111111111111
 21
-30.2
 31
0.0
  0
LINE
  5
11E
330
D7
100
AcDbEntity
  8
AM_4
100
AcDbLine
 10
-30.81111111111111
 20
-30.2
 30
0.0
 11
-30.81111111111111
 21
-30.9
 31
0.0
  0
LINE
  5
11F
330
D7
100
AcDbEntity
  8
AM_4
100
AcDbLine
 10
-30.81111111111111
 20
-30.9
 30
0.0
 11
30.81111111111111
 21
-30.9
 31
0.0
  0
LINE
  5
120
330
D7
100
AcDbEntity
  8
AM_4
100
AcDbLine
 10
-41.27002876089095
 20
-29.24
 30
0.0
 11
-40.98850000000013
 21
-29.55149999999985
 31
0.0
  0
LINE
  5
121
330
D7
100
AcDbEntity
  8
AM_4
100
AcDbLine
 10
-23.52439162046239
 20
-29.24
 30
0.0
 11
-23.04271763832926
 21
-30.2
 31
0.0
  0
LINE
  5
122
330
D7
100
AcDbEntity
  8
AM_4
100
AcDbLine
 10
-40.99717452603813
 20
-29.54282547396188
 30
0.0
 11
-40.34
 21
-30.2
 31
0.0
  0
LINE
  5
123
330
D7
100
AcDbEntity
  8
AM_4
100
AcDbLine
 10
-41.27002876089095
 20
-29.24
 30
0.0
 11
-23.52439162046239
 21
-29.24
 31
0.0
  0
LINE
  5
124
330
D7
100
AcDbEntity
  8
AM_4
100
AcDbLine
 10
-23.5243916204624
 20
-21.25217534754237
 30
0.0
 11
-23.52439162046239
 21
-29.24
 31
0.0
  0
LINE
  5
125
330
D7
100
AcDbEntity
  8
AM_4
100
AcDbLine
 10
-41.3
 20
-22.76298160317287
 30
0.0
 11
-41.3
 21
-25.03987603267219
 31
0.0
  0
LWPOLYLINE
  5
126
330
D7
100
AcDbEntity
  8
AM_4
100
AcDbPolyline
 90
       16
 70
     0
 43
0.0
 10
-41.3
 20
-25.03700000000007
 10
-41.29859630211086
 20
-25.06256345653356
 10
-41.29371565756558
 20
-25.15364787886352
 10
-41.2861580861339
 20
-25.30225489512825
 10
-41.27634669636089
 20
-25.5120179996726
 10
-41.26564699212641
 20
-25.77024311522674
 10
-41.25481774627174
 20
-26.08012841563291
 10
-41.24532264933313
 20
-26.42612199654937
 10
-41.23800532680689
 20
-26.8094460362877
 10
-41.23396629709941
 20
-27.2086964773361
 10
-41.23365338788314
 20
-27.62593701984006
 10
-41.23718012199743
 20
-28.03169667344049
 10
-41.24436796357396
 20
-28.43238100061534
 10
-41.25397659331131
 20
-28.79281903276693
 10
-41.26544284425071
 20
-29.12444423481025
 10
-41.27002876089095
 20
-29.24000000000025
  0
LINE
  5
127
330
D7
100
AcDbEntity
  8
AM_4
100
AcDbLine
 10
-22.21781511729625
 20
-24.25579599502602
 30
0.0
 11
-22.21781511729625
 21
-30.2
 31
0.0
  0
LINE
  5
128
330
D7
100
AcDbEntity
  8
AM_4
100
AcDbLine
 10
41.15981049519058
 20
-29.24
 30
0.0
 11
40.19646253092428
 21
-30.2
 31
0.0
  0
LINE
  5
129
330
D7
100
AcDbEntity
  8
AM_4
100
AcDbLine
 10
-17.15374489259506
 20
-30.2
 30
0.0
 11
-17.63541887472821
 21
-29.24
 31
0.0
  0
LINE
  5
12A
330
D7
100
AcDbEntity
  8
AM_4
100
AcDbLine
 10
-40.34
 20
-30.2
 30
0.0
 11
40.19646253092428
 21
-30.2
 31
0.0
  0
LINE
  5
12B
330
D7
100
AcDbEntity
  8
AM_4
100
AcDbLine
 10
41.15981049519058
 20
-22.74360987331833
 30
0.0
 11
41.15981049519058
 21
-29.24
 31
0.0
  0
LINE
  5
12C
330
D7
100
AcDbEntity
  8
AM_4
100
AcDbLine
 10
-17.63541887472821
 20
-29.24
 30
0.0
 11
-17.63541887472821
 21
-20.99940694039291
 31
0.0
  0
LINE
  5
12D
330
D7
100
AcDbEntity
  8
AM_4
100
AcDbLine
 10
-17.63541887472821
 20
-29.24
 30
0.0
 11
41.15981049519058
 21
-29.24
 31
0.0
  0
ENDBLK
  5
DA
330
D7
100
AcDbEntity
  8
0
100
AcDbBlockEnd
  0
BLOCK
  5
130
330
12E
100
AcDbEntity
  8
0
100
AcDbBlockBegin
  2
4_129428_0_in_129213_4
 70
     2
 10
0.0
 20
0.0
 30
0.0
  3
4_129428_0_in_129213_4
  1

  0
ATTDEF
  5
132
330
12E
100
AcDbEntity
  8
AM_6
100
AcDbText
 10
117.7
 20
32.285
 30
0.0
 40
0.5
  1
GT-M
100
AcDbAttributeDefinition
  3

  2
NN
 70
     8
280
     0
  0
ATTDEF
  5
133
330
12E
100
AcDbEntity
  8
AM_6
100
AcDbText
 10
117.7
 20
31.785
 30
0.0
 40
0.5
  1
GT Normal and Medium Duty Pillow Blocks
100
AcDbAttributeDefinition
  3

  2
NT
 70
     8
280
     0
  0
ATTDEF
  5
134
330
12E
100
AcDbEntity
  8
AM_6
100
AcDbText
 10
117.7
 20
31.285
 30
0.0
 40
0.5
  1
129428
100
AcDbAttributeDefinition
  3

  2
NB
 70
     8
280
     0
  0
ATTDEF
  5
135
330
12E
100
AcDbEntity
  8
AM_6
100
AcDbText
 10
117.7
 20
30.785
 30
0.0
 40
0.5
  1
$PN.$LUBE.
100
AcDbAttributeDefinition
  3

  2
NBSYN
 70
     8
280
     0
  0
ATTDEF
  5
136
330
12E
100
AcDbEntity
  8
AM_6
100
AcDbText
 10
117.7
 20
30.285
 30
0.0
 40
0.5
  1
129428
100
AcDbAttributeDefinition
  3

  2
LINA
 70
     8
280
     0
  0
ATTDEF
  5
137
330
12E
100
AcDbEntity
  8
AM_6
100
AcDbText
 10
117.7
 20
29.785
 30
0.0
 40
0.5
  1
211
100
AcDbAttributeDefinition
  3

  2
SERIES
 70
     8
280
     0
  0
ATTDEF
  5
138
330
12E
100
AcDbEntity
  8
AM_6
100
AcDbText
 10
117.7
 20
29.285
 30
0.0
 40
0.5
  1
129428
100
AcDbAttributeDefinition
  3

  2
PN
 70
     8
280
     0
  0
ATTDEF
  5
139
330
12E
100
AcDbEntity
  8
AM_6
100
AcDbText
 10
117.7
 20
28.785
 30
0.0
 40
0.5
  1
P2B-GT-11
100
AcDbAttributeDefinition
  3

  2
DECRIPTION
 70
     8
280
     0
  0
ATTDEF
  5
13A
330
12E
100
AcDbEntity
  8
AM_6
100
AcDbText
 10
117.7
 20
28.285
 30
0.0
 40
0.5
  1
48.8
100
AcDbAttributeDefinition
  3

  2
A
 70
     8
280
     0
  0
ATTDEF
  5
13B
330
12E
100
AcDbEntity
  8
AM_6
100
AcDbText
 10
117.7
 20
27.785
 30
0.0
 40
0.5
  1
225.4
100
AcDbAttributeDefinition
  3

  2
B
 70
     8
280
     0
  0
ATTDEF
  5
13C
330
12E
100
AcDbEntity
  8
AM_6
100
AcDbText
 10
117.7
 20
27.285
 30
0.0
 40
0.5
  1
58.7
100
AcDbAttributeDefinition
  3

  2
C
 70
     8
280
     0
  0
ATTDEF
  5
13D
330
12E
100
AcDbEntity
  8
AM_6
100
AcDbText
 10
117.7
 20
26.785
 30
0.0
 40
0.5
  1
161.9
100
AcDbAttributeDefinition
  3

  2
DMIN
 70
     8
280
     0
  0
ATTDEF
  5
13E
330
12E
100
AcDbEntity
  8
AM_6
100
AcDbText
 10
117.7
 20
26.285
 30
0.0
 40
0.5
  1
188.9
100
AcDbAttributeDefinition
  3

  2
DMAX
 70
     8
280
     0
  0
ATTDEF
  5
13F
330
12E
100
AcDbEntity
  8
AM_6
100
AcDbText
 10
117.7
 20
25.785
 30
0.0
 40
0.5
  1
M16
100
AcDbAttributeDefinition
  3

  2
F
 70
     8
280
     0
  0
ATTDEF
  5
140
330
12E
100
AcDbEntity
  8
AM_6
100
AcDbText
 10
117.7
 20
25.285
 30
0.0
 40
0.5
  1
31.0
100
AcDbAttributeDefinition
  3

  2
G
 70
     8
280
     0
  0
ATTDEF
  5
141
330
12E
100
AcDbEntity
  8
AM_6
100
AcDbText
 10
117.7
 20
24.785
 30
0.0
 40
0.5
  1
22.2
100
AcDbAttributeDefinition
  3

  2
H
 70
     8
280
     0
  0
ATTDEF
  5
142
330
12E
100
AcDbEntity
  8
AM_6
100
AcDbText
 10
117.7
 20
24.285
 30
0.0
 40
0.5
  1
125.4
100
AcDbAttributeDefinition
  3

  2
J
 70
     8
280
     0
  0
ATTDEF
  5
143
330
12E
100
AcDbEntity
  8
AM_6
100
AcDbText
 10
117.7
 20
23.785
 30
0.0
 40
0.5
  1
82.6
100
AcDbAttributeDefinition
  3

  2
L
 70
     8
280
     0
  0
ATTDEF
  5
144
330
12E
100
AcDbEntity
  8
AM_6
100
AcDbText
 10
117.7
 20
23.285
 30
0.0
 40
0.5
  1
63.5
100
AcDbAttributeDefinition
  3

  2
M
 70
     8
280
     0
  0
ATTDEF
  5
145
330
12E
100
AcDbEntity
  8
AM_6
100
AcDbText
 10
117.7
 20
22.785
 30
0.0
 40
0.5
  1
17.9
100
AcDbAttributeDefinition
  3

  2
R
 70
     8
280
     0
  0
ATTDEF
  5
146
330
12E
100
AcDbEntity
  8
AM_6
100
AcDbText
 10
117.7
 20
22.285
 30
0.0
 40
0.5
  1
31.0
100
AcDbAttributeDefinition
  3

  2
S
 70
     8
280
     0
  0
ATTDEF
  5
147
330
12E
100
AcDbEntity
  8
AM_6
100
AcDbText
 10
117.7
 20
21.785
 30
0.0
 40
0.5
  1
100.0
100
AcDbAttributeDefinition
  3

  2
U
 70
     8
280
     0
  0
ATTDEF
  5
148
330
12E
100
AcDbEntity
  8
AM_6
100
AcDbText
 10
117.7
 20
21.285
 30
0.0
 40
0.5
  1
200.0
100
AcDbAttributeDefinition
  3

  2
V
 70
     8
280
     0
  0
ATTDEF
  5
149
330
12E
100
AcDbEntity
  8
AM_6
100
AcDbText
 10
117.7
 20
20.785
 30
0.0
 40
0.5
  1
20.6
100
AcDbAttributeDefinition
  3

  2
W
 70
     8
280
     0
  0
ATTDEF
  5
14A
330
12E
100
AcDbEntity
  8
AM_6
100
AcDbText
 10
117.7
 20
20.285
 30
0.0
 40
0.5
  1
4.8
100
AcDbAttributeDefinition
  3

  2
X
 70
     8
280
     0
  0
ATTDEF
  5
14B
330
12E
100
AcDbEntity
  8
AM_6
100
AcDbText
 10
117.7
 20
19.785
 30
0.0
 40
0.5
  1
30.2
100
AcDbAttributeDefinition
  3

  2
Z
 70
     8
280
     0
  0
ATTDEF
  5
14C
330
12E
100
AcDbEntity
  8
AM_6
100
AcDbText
 10
117.7
 20
19.285
 30
0.0
 40
0.5
  1
baldor
100
AcDbAttributeDefinition
  3

  2
COMPANY
 70
     8
280
     0
  0
LINE
  5
14D
330
12E
100
AcDbEntity
  8
AM_9
100
AcDbLine
 10
-45.08000000000001
 20
-25.95833333333334
 30
0.0
 11
-45.08
 21
25.95833333333333
 31
0.0
  0
LINE
  5
14E
330
12E
100
AcDbEntity
  8
AM_9
100
AcDbLine
 10
-43.58000000000001
 20
-24.45833333333334
 30
0.0
 11
-43.58
 21
24.45833333333333
 31
0.0
  0
LINE
  5
14F
330
12E
100
AcDbEntity
  8
AM_9
100
AcDbLine
 10
45.08
 20
-25.95833333333334
 30
0.0
 11
45.08000000000001
 21
25.95833333333334
 31
0.0
  0
LINE
  5
150
330
12E
100
AcDbEntity
  8
AM_9
100
AcDbLine
 10
43.58
 20
-24.45833333333334
 30
0.0
 11
43.58000000000001
 21
24.45833333333334
 31
0.0
  0
LWPOLYLINE
  5
151
330
12E
100
AcDbEntity
  8
AM_9
100
AcDbPolyline
 90
        3
 70
     0
 43
0.0
 10
47.06913390479017
 20
2.309401076758506
 10
46.2791825251713
 20
2.884155423673194
 10
45.53767670841368
 20
3.464101615137758
  0
LWPOLYLINE
  5
152
330
12E
100
AcDbEntity
  8
AM_9
100
AcDbPolyline
 90
        3
 70
     0
 43
0.0
 10
46.95189027078676
 20
0.0000000000000025
 10
46.98283657081986
 20
1.154700538379254
 10
47.06913390479017
 20
2.309401076758506
  0
LWPOLYLINE
  5
153
330
12E
100
AcDbEntity
  8
AM_9
100
AcDbPolyline
 90
        3
 70
     0
 43
0.0
 10
45.53767670841368
 20
-3.464101615137751
 10
46.2757297896333
 20
-2.886751345948127
 10
47.06913390479017
 20
-2.309401076758501
  0
LWPOLYLINE
  5
154
330
12E
100
AcDbEntity
  8
AM_9
100
AcDbPolyline
 90
        3
 70
     0
 43
0.0
 10
47.06913390479017
 20
-2.309401076758501
 10
46.98310996386509
 20
-1.159892382929125
 10
46.95189027078676
 20
0.0000000000000025
  0
LINE
  5
155
330
12E
100
AcDbEntity
  8
AM_9
100
AcDbLine
 10
47.06913390479017
 20
2.309401076758506
 30
0.0
 11
49.30952037093627
 21
2.309401076758506
 31
0.0
  0
LINE
  5
156
330
12E
100
AcDbEntity
  8
AM_9
100
AcDbLine
 10
47.06913390479017
 20
-2.309401076758501
 30
0.0
 11
49.30952037093627
 21
-2.309401076758501
 31
0.0
  0
LINE
  5
157
330
12E
100
AcDbEntity
  8
AM_9
100
AcDbLine
 10
49.30952037093627
 20
-2.309401076758501
 30
0.0
 11
48.91694902705379
 21
-2.679781604600522
 31
0.0
  0
LWPOLYLINE
  5
158
330
12E
100
AcDbEntity
  8
AM_9
100
AcDbPolyline
 90
        3
 70
     0
 43
0.0
 10
49.42676400493966
 20
0.0000000000000027
 10
49.39581770490658
 20
-1.154700538379249
 10
49.30952037093627
 20
-2.309401076758501
  0
LINE
  5
159
330
12E
100
AcDbEntity
  8
AM_9
100
AcDbLine
 10
48.91829260074426
 20
2.678544774397179
 30
0.0
 11
49.30952037093627
 21
2.309401076758506
 31
0.0
  0
LWPOLYLINE
  5
15A
330
12E
100
AcDbEntity
  8
AM_9
100
AcDbPolyline
 90
        3
 70
     0
 43
0.0
 10
49.30952037093627
 20
2.309401076758506
 10
49.39554431186136
 20
1.159892382929133
 10
49.42676400493966
 20
0.0000000000000027
  0
LWPOLYLINE
  5
15B
330
12E
100
AcDbEntity
  8
AM_9
100
AcDbPolyline
 90
        3
 70
     0
 43
0.0
 10
45.53767670841368
 20
3.464101615137758
 10
44.86151622726022
 20
4.041451884327383
 10
44.24070678004398
 20
4.618802153517009
  0
LWPOLYLINE
  5
15C
330
12E
100
AcDbEntity
  8
AM_9
100
AcDbPolyline
 90
        3
 70
     0
 43
0.0
 10
44.24070678004398
 20
-4.618802153517003
 10
44.85861027781267
 20
-4.044047806602317
 10
45.53767670841368
 20
-3.464101615137751
  0
LINE
  5
15D
330
12E
100
AcDbEntity
  8
AM_9
100
AcDbLine
 10
44.12346314604058
 20
2.799999999999997
 30
0.0
 11
43.76962383616544
 21
2.799999999999997
 31
0.0
  0
LINE
  5
15E
330
12E
100
AcDbEntity
  8
AM_9
100
AcDbLine
 10
43.769844030072
 20
-2.799999999999991
 30
0.0
 11
44.12346314604058
 21
-2.799999999999991
 31
0.0
  0
LWPOLYLINE
  5
15F
330
12E
100
AcDbEntity
  8
AM_9
100
AcDbPolyline
 90
       20
 70
     0
 43
0.0
 10
43.77010042602706
 20
2.799999987015915
 10
43.54103982789179
 20
2.781327265862509
 10
43.21153941224508
 20
2.687514485342389
 10
42.89557555494908
 20
2.518110721576831
 10
42.60264913779475
 20
2.276800565976586
 10
42.34135686243582
 20
1.971425649268069
 10
42.12002895125764
 20
1.609442214695258
 10
41.94520626570488
 20
1.202062871209023
 10
41.82311751517683
 20
0.7602638470887485
 10
41.75688148769514
 20
0.2969918911347754
 10
41.7494430187518
 20
-0.1743714098697551
 10
41.80010519369844
 20
-0.6408161077097361
 10
41.90802244581784
 20
-1.088753050030445
 10
42.06896225846355
 20
-1.50603311889719
 10
42.27872976112361
 20
-1.880585527711178
 10
42.5300361115973
 20
-2.20217385194451
 10
42.81588316754566
 20
-2.461049069138424
 10
43.12701304090681
 20
-2.650526640397245
 10
43.45426976794044
 20
-2.764164195521616
 10
43.77002008249936
 20
-2.79999999565284
  0
LWPOLYLINE
  5
160
330
12E
100
AcDbEntity
  8
AM_9
100
AcDbPolyline
 90
       11
 70
     0
 43
0.0
 10
43.77002008249936
 20
-2.79999999565284
 10
43.78804418152671
 20
-2.799882499774003
 10
44.11844862455874
 20
-2.755627748514826
 10
44.43665965024318
 20
-2.633833882453565
 10
44.73370566211742
 20
-2.436904373871417
 10
45.00203194620835
 20
-2.17143488001707
 10
45.23436492139219
 20
-1.843718491426743
 10
45.42504920264707
 20
-1.464040284179113
 10
45.56872064010435
 20
-1.042318776176515
 10
45.66237367718699
 20
-0.5911619638478145
 10
45.70500619130753
 20
0.0000000000000026
  0
ELLIPSE
  5
161
330
12E
100
AcDbEntity
  8
AM_9
100
AcDbEllipse
 10
46.59833688019349
 20
0.0000000000000078
 30
0.0
 11
1.714505518806287E-16
 21
2.799999999999987
 31
0.0
210
0.0
220
0.0
230
1.0
 40
0.7071067811865468
 41
3.141592653589793
 42
6.283185307179586
  0
ELLIPSE
  5
162
330
12E
100
AcDbEntity
  8
AM_9
100
AcDbEllipse
 10
46.95189027078752
 20
0.0000000000001122
 30
0.0
 11
1.714505518805876E-16
 21
2.799999999999317
 31
0.0
210
0.0
220
0.0
230
1.0
 40
0.707106781186437
 41
4.71238898038469
 42
4.949755261975515
  0
ELLIPSE
  5
163
330
12E
100
AcDbEntity
  8
AM_9
100
AcDbEllipse
 10
46.95189027078664
 20
-0.0000000000001639
 30
0.0
 11
1.714505518806420E-16
 21
2.800000000000205
 31
0.0
210
0.0
220
0.0
230
1.0
 40
0.7071067811865477
 41
5.35083445195371
 42
5.688597839666065
  0
ELLIPSE
  5
164
330
12E
100
AcDbEntity
  8
AM_9
100
AcDbEllipse
 10
46.59833688019345
 20
-0.0000000000000164
 30
0.0
 11
2.449293598294703E-16
 21
3.999999999999996
 31
0.0
210
0.0
220
0.0
230
1.0
 40
0.707106781186554
 41
3.987956740271633
 42
5.438019436076607
  0
LINE
  5
165
330
12E
100
AcDbEntity
  8
AM_9
100
AcDbLine
 10
41.15981049519058
 20
-24.45833333333334
 30
0.0
 11
-41.3
 21
-24.45833333333334
 31
0.0
  0
LINE
  5
166
330
12E
100
AcDbEntity
  8
AM_9
100
AcDbLine
 10
50.0
 20
-25.43477067183463
 30
0.0
 11
50.0
 21
25.43477067183462
 31
0.0
  0
LINE
  5
167
330
12E
100
AcDbEntity
  8
AM_9
100
AcDbLine
 10
-50.0
 20
25.43477067183462
 30
0.0
 11
-50.0
 21
-25.43477067183463
 31
0.0
  0
ELLIPSE
  5
168
330
12E
100
AcDbEntity
  8
AM_9
100
AcDbEllipse
 10
46.9518902707869
 20
-0.0000000000000244
 30
0.0
 11
1.714505518806249E-16
 21
2.799999999999925
 31
0.0
210
0.0
220
0.0
230
1.0
 40
0.7071067811865143
 41
3.735882438861964
 42
4.220406485396698
  0
LWPOLYLINE
  5
169
330
12E
100
AcDbEntity
  8
AM_9
100
AcDbPolyline
 90
        4
 70
     0
 43
0.0
 10
47.72651259860727
 20
-1.971775099976422
 10
47.6519032716212
 20
-1.885381386067225
 10
47.54387716650984
 20
-1.734104968895289
 10
47.5141279700119
 20
-1.686302019054854
  0
LWPOLYLINE
  5
16A
330
12E
100
AcDbEntity
  8
AM_9
100
AcDbPolyline
 90
       21
 70
     0
 43
0.0
 10
48.93165684528788
 20
0.0000000000000028
 10
48.92888780515761
 20
-0.1475770496744744
 10
48.90571850945901
 20
-0.4499818548363749
 10
48.8599564830866
 20
-0.7425211346261126
 10
48.79372133224918
 20
-1.018369380314479
 10
48.71017877094683
 20
-1.27150592189631
 10
48.61347466601008
 20
-1.496781738111902
 10
48.50860710350353
 20
-1.690210622108571
 10
48.40122890051582
 20
-1.849254085171284
 10
48.2975483863506
 20
-1.972882488576978
 10
48.20380941858988
 20
-2.062093822001253
 10
48.12560185586302
 20
-2.120140610191901
 10
48.06732445423683
 20
-2.152302030300044
 10
48.03122025111228
 20
-2.16568427737286
 10
48.01506167164002
 20
-2.168698038066351
 10
48.00153111981709
 20
-2.167489449383341
 10
47.9733807522228
 20
-2.158875413140942
 10
47.92230150129814
 20
-2.133993463855975
 10
47.85183829915471
 20
-2.08660748106125
 10
47.75645137739475
 20
-2.002618638587466
 10
47.72651259860727
 20
-1.971775099976422
  0
LWPOLYLINE
  5
16B
330
12E
100
AcDbEntity
  8
AM_9
100
AcDbPolyline
 90
       20
 70
     0
 43
0.0
 10
47.75379925035974
 20
1.999972877936945
 10
47.79937632884769
 20
2.043113653449937
 10
47.88188850176084
 20
2.108444650550778
 10
47.94540408909113
 20
2.146406076323629
 10
47.98701755074899
 20
2.163680096004621
 10
48.00745556664471
 20
2.168454425943984
 10
48.01774825128969
 20
2.168442045879156
 10
48.0412193071609
 20
2.162664636859448
 10
48.08601258867547
 20
2.143186452394995
 10
48.15133439638458
 20
2.102771659614555
 10
48.23301968340076
 20
2.036540662204259
 10
48.33482240392876
 20
1.931546875701731
 10
48.44221897264268
 20
1.792572929320051
 10
48.54963101751743
 20
1.61965004871051
 10
48.65174590515058
 20
1.414121221853424
 10
48.74344809175316
 20
1.179135678565849
 10
48.82042471547903
 20
0.9186938592633695
 10
48.87909662693797
 20
0.6377582163926895
 10
48.91671372618634
 20
0.3421531489755796
 10
48.9311015938971
 20
0.0661079711794396
  0
LWPOLYLINE
  5
16C
330
12E
100
AcDbEntity
  8
AM_9
100
AcDbPolyline
 90
        4
 70
     0
 43
0.0
 10
47.51708230360781
 20
1.691179991973506
 10
47.59743104992799
 20
1.813231320333431
 10
47.70263020075572
 20
1.945621128400067
 10
47.75379925035974
 20
1.999972877936945
  0
ELLIPSE
  5
16D
330
12E
100
AcDbEntity
  8
AM_9
100
AcDbEllipse
 10
48.90978521952058
 20
0.0000000000000044
 30
0.0
 11
1.589605562723810E-16
 21
2.596022892201336
 31
0.0
210
0.0
220
0.0
230
1.0
 40
0.7071067811865475
 41
2.427937416809236
 42
6.98879955295909
  0
ELLIPSE
  5
16E
330
12E
100
AcDbEntity
  8
AM_9
100
AcDbEllipse
 10
49.28797174092319
 20
0.0000000000121192
 30
0.0
 11
1.616869327263384E-16
 21
2.64054799863783
 31
0.0
210
0.0
220
0.0
230
1.0
 40
0.7071067811831466
 41
3.694307766681469
 42
4.71238898038469
  0
ELLIPSE
  5
16F
330
12E
100
AcDbEntity
  8
AM_9
100
AcDbEllipse
 10
50.41174026090247
 20
0.0000000000000107
 30
0.0
 11
1.105973895516167E-16
 21
1.806192440606041
 31
0.0
210
0.0
220
0.0
230
1.0
 40
0.7071067811865339
 41
3.747604018423026
 42
5.414116877880492
  0
LWPOLYLINE
  5
170
330
12E
100
AcDbEntity
  8
AM_9
100
AcDbPolyline
 90
       11
 70
     0
 43
0.0
 10
45.70500619130753
 20
0.0000000000000026
 10
45.67801897649034
 20
0.4697633628347556
 10
45.59843542544658
 20
0.9262784508008203
 10
45.46752403776161
 20
1.356299833991857
 10
45.28919796840268
 20
1.748119380203779
 10
45.06714836507357
 20
2.090240870691028
 10
44.80769548554666
 20
2.373469328511757
 10
44.51695776782419
 20
2.588966005387106
 10
44.20317113582609
 20
2.731447635382959
 10
43.87482484724617
 20
2.795772037648323
 10
43.77010042602706
 20
2.799999987015915
  0
ELLIPSE
  5
171
330
12E
100
AcDbEntity
  8
AM_9
100
AcDbEllipse
 10
44.1234631460407
 20
0.0000000000000642
 30
0.0
 11
2.449293598294785E-16
 21
4.000000000000129
 31
0.0
210
0.0
220
0.0
230
1.0
 40
0.7071067811865518
 41
0.0
 42
6.283185307179586
  0
ELLIPSE
  5
172
330
12E
100
AcDbEntity
  8
AM_9
100
AcDbEllipse
 10
44.12346314604059
 20
-0.0000000000000027
 30
0.0
 11
1.714505518806287E-16
 21
2.799999999999988
 31
0.0
210
0.0
220
0.0
230
1.0
 40
0.7071067811865466
 41
0.0
 42
6.283185307179586
  0
LINE
  5
173
330
12E
100
AcDbEntity
  8
AM_7
100
AcDbLine
 10
-102.52
 20
-20.60000000000002
 30
0.0
 11
-97.48
 21
-20.60000000000002
 31
0.0
  0
LINE
  5
174
330
12E
100
AcDbEntity
  8
AM_7
100
AcDbLine
 10
-100.0
 20
-23.12000000000002
 30
0.0
 11
-100.0
 21
-18.08000000000002
 31
0.0
  0
LINE
  5
175
330
12E
100
AcDbEntity
  8
AM_7
100
AcDbLine
 10
97.48
 20
-20.6
 30
0.0
 11
102.52
 21
-20.6
 31
0.0
  0
LINE
  5
176
330
12E
100
AcDbEntity
  8
AM_7
100
AcDbLine
 10
100.0
 20
-23.12
 30
0.0
 11
100.0
 21
-18.08
 31
0.0
  0
LINE
  5
177
330
12E
100
AcDbEntity
  8
AM_7
100
AcDbLine
 10
0.0
 20
32.285
 30
0.0
 11
0.0
 21
-33.34
 31
0.0
  0
LINE
  5
178
330
12E
100
AcDbEntity
  8
AM_7
100
AcDbLine
 10
-103.6375
 20
0.0000000000000071
 30
0.0
 11
-71.76249999999999
 21
0.0000000000000027
 31
0.0
  0
LINE
  5
179
330
12E
100
AcDbEntity
  8
AM_7
100
AcDbLine
 10
-80.95000000000002
 20
-9.187500000000028
 30
0.0
 11
-80.95000000000002
 21
9.187500000000032
 31
0.0
  0
LINE
  5
17A
330
12E
100
AcDbEntity
  8
AM_7
100
AcDbLine
 10
71.76250000000002
 20
0.0000000000000027
 30
0.0
 11
103.6375
 21
0.0000000000000151
 31
0.0
  0
LINE
  5
17B
330
12E
100
AcDbEntity
  8
AM_7
100
AcDbLine
 10
80.95000000000006
 20
-9.187500000000043
 30
0.0
 11
80.95000000000006
 21
9.187500000000046
 31
0.0
  0
LINE
  5
17C
330
12E
100
AcDbEntity
  8
AM_7
100
AcDbLine
 10
-94.44999999999995
 20
-9.187500000000037
 30
0.0
 11
-94.44999999999995
 21
9.187500000000052
 31
0.0
  0
LINE
  5
17D
330
12E
100
AcDbEntity
  8
AM_7
100
AcDbLine
 10
94.44999999999996
 20
-9.187500000000028
 30
0.0
 11
94.44999999999996
 21
9.18750000000006
 31
0.0
  0
LINE
  5
17E
330
12E
100
AcDbEntity
  8
AM_4
100
AcDbLine
 10
106.1777777777778
 20
29.35
 30
0.0
 11
46.58000000000003
 21
29.35
 31
0.0
  0
LINE
  5
17F
330
12E
100
AcDbEntity
  8
AM_4
100
AcDbLine
 10
112.7
 20
-22.82777777777778
 30
0.0
 11
112.7
 21
22.82777777777778
 31
0.0
  0
LINE
  5
180
330
12E
100
AcDbEntity
  8
AM_4
100
AcDbLine
 10
112.7
 20
22.82777777777778
 30
0.0
 11
106.1777777777778
 21
29.35
 31
0.0
  0
LINE
  5
181
330
12E
100
AcDbEntity
  8
AM_4
100
AcDbLine
 10
-46.57999999999987
 20
29.35
 30
0.0
 11
-106.1777777777778
 21
29.35
 31
0.0
  0
LINE
  5
182
330
12E
100
AcDbEntity
  8
AM_4
100
AcDbLine
 10
-112.7
 20
22.82777777777777
 30
0.0
 11
-112.7
 21
-22.82777777777779
 31
0.0
  0
LINE
  5
183
330
12E
100
AcDbEntity
  8
AM_4
100
AcDbLine
 10
-106.1777777777778
 20
29.35
 30
0.0
 11
-112.7
 21
22.82777777777777
 31
0.0
  0
LINE
  5
184
330
12E
100
AcDbEntity
  8
AM_4
100
AcDbLine
 10
106.1777777777777
 20
-29.35
 30
0.0
 11
112.7
 21
-22.82777777777778
 31
0.0
  0
LWPOLYLINE
  5
185
330
12E
100
AcDbEntity
  8
AM_4
100
AcDbPolyline
 90
        9
 70
     0
 43
0.0
 10
112.7
 20
0.0000000000000044
 10
112.6999815189701
 20
0.0259722400198456
 10
112.6661390872934
 20
1.111205090152866
 10
112.5670431901907
 20
2.198919290188819
 10
112.3998829750864
 20
3.296088770149341
 10
112.1632133467477
 20
4.393696955025442
 10
111.7467979394923
 20
5.820934722222545
 10
111.4895840511441
 20
6.535677115953265
 10
111.2
 20
7.245688373094708
  0
LWPOLYLINE
  5
186
330
12E
100
AcDbEntity
  8
AM_4
100
AcDbPolyline
 90
       10
 70
     0
 43
0.0
 10
-111.2
 20
7.245688373094723
 10
-111.4843243480648
 20
6.54928913587278
 10
-111.7388629358637
 20
5.844460487069615
 10
-111.9667112108145
 20
5.121226428412348
 10
-112.1632133467477
 20
4.393696955025432
 10
-112.3963401361114
 20
3.315258797915022
 10
-112.5629370811916
 20
2.232489707209225
 10
-112.6649906116631
 20
1.129855204602638
 10
-112.6999815189701
 20
0.0259722400188954
 10
-112.7
 20
0.0000000000000017
  0
LINE
  5
187
330
12E
100
AcDbEntity
  8
AM_4
100
AcDbLine
 10
-112.7
 20
-22.82777777777779
 30
0.0
 11
-106.1777777777778
 21
-29.35000000000001
 31
0.0
  0
LINE
  5
188
330
12E
100
AcDbEntity
  8
AM_4
100
AcDbLine
 10
-46.58
 20
-29.35000000000001
 30
0.0
 11
-106.1777777777778
 21
-29.35000000000001
 31
0.0
  0
CIRCLE
  5
189
330
12E
100
AcDbEntity
  8
AM_4
100
AcDbCircle
 10
-100.0
 20
-20.60000000000002
 30
0.0
 40
2.4
  0
LINE
  5
18A
330
12E
100
AcDbEntity
  8
AM_4
100
AcDbLine
 10
-80.94999999999999
 20
8.750000000000009
 30
0.0
 11
-94.44999999999999
 21
8.750000000000005
 31
0.0
  0
ARC
  5
18B
330
12E
100
AcDbEntity
  8
AM_4
100
AcDbCircle
 10
-80.94999999999999
 20
0.0000000000000098
 30
0.0
 40
8.750000000000007
100
AcDbArc
 50
270.0
 51
90.0
  0
LINE
  5
18C
330
12E
100
AcDbEntity
  8
AM_4
100
AcDbLine
 10
-94.44999999999999
 20
-8.749999999999996
 30
0.0
 11
-80.95
 21
-8.749999999999998
 31
0.0
  0
ARC
  5
18D
330
12E
100
AcDbEntity
  8
AM_4
100
AcDbCircle
 10
-94.44999999999999
 20
0.0000000000000071
 30
0.0
 40
8.749999999999998
100
AcDbArc
 50
90.0
 51
270.0
  0
LINE
  5
18E
330
12E
100
AcDbEntity
  8
AM_4
100
AcDbLine
 10
-94.45000000000002
 20
18.24999999999999
 30
0.0
 11
-76.47400000000002
 21
18.25
 31
0.0
  0
ARC
  5
18F
330
12E
100
AcDbEntity
  8
AM_4
100
AcDbCircle
 10
-94.45000000000005
 20
0.0000000000000426
 30
0.0
 40
18.24999999999995
100
AcDbArc
 50
90.0
 51
156.6077330385874
  0
LINE
  5
190
330
12E
100
AcDbEntity
  8
AM_4
100
AcDbLine
 10
-111.2
 20
-24.32777777777779
 30
0.0
 11
-111.2
 21
7.245688373094723
 31
0.0
  0
ARC
  5
191
330
12E
100
AcDbEntity
  8
AM_4
100
AcDbCircle
 10
-76.47400000000003
 20
20.25000000000003
 30
0.0
 40
2.000000000000025
100
AcDbArc
 50
270.0
 51
0.0
  0
LINE
  5
192
330
12E
100
AcDbEntity
  8
AM_4
100
AcDbLine
 10
106.1777777777777
 20
-29.35
 30
0.0
 11
46.58
 21
-29.35
 31
0.0
  0
CIRCLE
  5
193
330
12E
100
AcDbEntity
  8
AM_4
100
AcDbCircle
 10
100.0
 20
-20.6
 30
0.0
 40
2.4
  0
LINE
  5
194
330
12E
100
AcDbEntity
  8
AM_4
100
AcDbLine
 10
94.44999999999999
 20
8.75000000000001
 30
0.0
 11
80.95
 21
8.750000000000002
 31
0.0
  0
ARC
  5
195
330
12E
100
AcDbEntity
  8
AM_4
100
AcDbCircle
 10
94.44999999999999
 20
0.0000000000000107
 30
0.0
 40
8.750000000000009
100
AcDbArc
 50
270.0
 51
90.0
  0
LINE
  5
196
330
12E
100
AcDbEntity
  8
AM_4
100
AcDbLine
 10
80.95
 20
-8.749999999999998
 30
0.0
 11
94.45
 21
-8.749999999999998
 31
0.0
  0
ARC
  5
197
330
12E
100
AcDbEntity
  8
AM_4
100
AcDbCircle
 10
80.95000000000003
 20
0.0000000000000018
 30
0.0
 40
8.75
100
AcDbArc
 50
90.0
 51
270.0
  0
ARC
  5
198
330
12E
100
AcDbEntity
  8
AM_4
100
AcDbCircle
 10
76.474
 20
20.25
 30
0.0
 40
2.0
100
AcDbArc
 50
180.0
 51
270.0
  0
LINE
  5
199
330
12E
100
AcDbEntity
  8
AM_4
100
AcDbLine
 10
111.2
 20
-24.32777777777776
 30
0.0
 11
111.2
 21
7.24568837309471
 31
0.0
  0
ARC
  5
19A
330
12E
100
AcDbEntity
  8
AM_4
100
AcDbCircle
 10
94.45
 20
-0.0000000000000195
 30
0.0
 40
18.25000000000002
100
AcDbArc
 50
23.39226696141264
 51
90.0
  0
LINE
  5
19B
330
12E
100
AcDbEntity
  8
AM_4
100
AcDbLine
 10
76.47400000000003
 20
18.24999999999999
 30
0.0
 11
94.45
 21
18.25
 31
0.0
  0
LWPOLYLINE
  5
19C
330
12E
100
AcDbEntity
  8
AM_4
100
AcDbPolyline
 90
       29
 70
     0
 43
0.0
 10
74.474
 20
17.06235399937535
 10
73.01156099931883
 20
16.43300600110838
 10
71.60953831279335
 20
15.67859290465266
 10
70.27860217963249
 20
14.8048562491993
 10
69.0288818274508
 20
13.81844569827292
 10
67.86988838273017
 20
12.72686843177704
 10
66.81044248540431
 20
11.53843201182207
 10
65.85860715846277
 20
10.2621811571614
 10
65.02162644347746
 20
8.907828907420337
 10
64.30587026907222
 20
7.485682700999646
 10
63.71678597191963
 20
6.006565929245554
 10
63.25885683921986
 20
4.481735563906234
 10
62.93556798817794
 20
2.922796484779665
 10
62.74937984215744
 20
1.341613159571153
 10
62.70170940537304
 20
-0.2497806518698697
 10
62.79291947863286
 20
-1.839273481728481
 10
63.02231589820527
 20
-3.414768329807447
 10
63.38815281882395
 20
-4.964274729003087
 10
63.88764600062466
 20
-6.475999999999975
 10
64.51699399889162
 20
-7.938439000681154
 10
65.27140709534733
 20
-9.340461687206624
 10
66.14514375080068
 20
-10.67139782036748
 10
67.13155430172706
 20
-11.92111817254917
 10
68.22313156822295
 20
-13.0801116172698
 10
69.41156798817792
 20
-14.13955751459568
 10
70.6878188428386
 20
-15.09139284153722
 10
72.04217109257965
 20
-15.92837355652253
 10
73.46431729900034
 20
-16.64412973092778
 10
74.474
 20
-17.06235399937534
  0
LINE
  5
19D
330
12E
100
AcDbEntity
  8
AM_4
100
AcDbLine
 10
74.474
 20
17.06235399937535
 30
0.0
 11
74.47400000000002
 21
29.35
 31
0.0
  0
LINE
  5
19E
330
12E
100
AcDbEntity
  8
AM_4
100
AcDbLine
 10
74.47400000000005
 20
-29.35
 30
0.0
 11
74.474
 21
-17.06235399937535
 31
0.0
  0
LWPOLYLINE
  5
19F
330
12E
100
AcDbEntity
  8
AM_4
100
AcDbPolyline
 90
       29
 70
     0
 43
0.0
 10
-74.474
 20
-17.06235399937535
 10
-73.01156099931883
 20
-16.43300600110839
 10
-71.60953831279335
 20
-15.67859290465266
 10
-70.2786021796325
 20
-14.8048562491993
 10
-69.02888182745082
 20
-13.81844569827292
 10
-67.86988838273018
 20
-12.72686843177704
 10
-66.81044248540431
 20
-11.53843201182207
 10
-65.85860715846277
 20
-10.26218115716141
 10
-65.02162644347746
 20
-8.907828907420338
 10
-64.30587026907222
 20
-7.485682700999648
 10
-63.71678597191963
 20
-6.006565929245556
 10
-63.25885683921986
 20
-4.481735563906235
 10
-62.93556798817794
 20
-2.922796484779665
 10
-62.74937984215744
 20
-1.341613159571153
 10
-62.70170940537304
 20
0.2497806518698703
 10
-62.79291947863286
 20
1.839273481728482
 10
-63.02231589820527
 20
3.414768329807448
 10
-63.38815281882395
 20
4.964274729003088
 10
-63.88764600062466
 20
6.475999999999977
 10
-64.51699399889162
 20
7.938439000681155
 10
-65.27140709534734
 20
9.340461687206625
 10
-66.14514375080068
 20
10.67139782036748
 10
-67.13155430172706
 20
11.92111817254917
 10
-68.22313156822295
 20
13.0801116172698
 10
-69.41156798817792
 20
14.13955751459568
 10
-70.6878188428386
 20
15.09139284153722
 10
-72.04217109257965
 20
15.92837355652253
 10
-73.46431729900034
 20
16.64412973092778
 10
-74.474
 20
17.06235399937534
  0
LINE
  5
1A0
330
12E
100
AcDbEntity
  8
AM_4
100
AcDbLine
 10
-74.4739999999999
 20
-29.35
 30
0.0
 11
-74.474
 21
-17.06235399937535
 31
0.0
  0
LINE
  5
1A1
330
12E
100
AcDbEntity
  8
AM_4
100
AcDbLine
 10
-74.474
 20
17.06235399937534
 30
0.0
 11
-74.47400000000002
 21
29.35
 31
0.0
  0
LWPOLYLINE
  5
1A2
330
12E
100
AcDbEntity
  8
AM_4
100
AcDbPolyline
 90
        3
 70
     0
 43
0.0
 10
48.91694902705379
 20
-2.679781604600522
 10
48.69161687316757
 20
-2.884155423673189
 10
48.01255044256656
 20
-3.464101615137758
  0
LWPOLYLINE
  5
1A3
330
12E
100
AcDbEntity
  8
AM_4
100
AcDbPolyline
 90
        3
 70
     0
 43
0.0
 10
48.01255044256656
 20
3.464101615137764
 10
48.68871092372003
 20
2.886751345948134
 10
48.91829260074426
 20
2.678544774397179
  0
LWPOLYLINE
  5
1A4
330
12E
100
AcDbEntity
  8
AM_4
100
AcDbPolyline
 90
        3
 70
     0
 43
0.0
 10
46.48109324619008
 20
4.618802153517009
 10
47.27104462580895
 20
4.044047806602328
 10
48.01255044256656
 20
3.464101615137764
  0
LWPOLYLINE
  5
1A5
330
12E
100
AcDbEntity
  8
AM_4
100
AcDbPolyline
 90
        3
 70
     0
 43
0.0
 10
48.01255044256656
 20
-3.464101615137758
 10
47.27449736134694
 20
-4.04145188432738
 10
46.48109324619008
 20
-4.618802153517003
  0
LINE
  5
1A6
330
12E
100
AcDbEntity
  8
AM_4
100
AcDbLine
 10
46.95189027078675
 20
2.79999999999999
 30
0.0
 11
46.59833688019349
 21
2.79999999999999
 31
0.0
  0
LINE
  5
1A7
330
12E
100
AcDbEntity
  8
AM_4
100
AcDbLine
 10
46.59833688019349
 20
-2.799999999999983
 30
0.0
 11
46.95189027078675
 21
-2.799999999999983
 31
0.0
  0
ELLIPSE
  5
1A8
330
12E
100
AcDbEntity
  8
AM_4
100
AcDbEllipse
 10
46.59833688019348
 20
0.0000000000000031
 30
0.0
 11
1.714505518806285E-16
 21
2.799999999999984
 31
0.0
210
0.0
220
0.0
230
1.0
 40
0.7071067811865476
 41
0.0
 42
3.141592653589793
  0
ELLIPSE
  5
1A9
330
12E
100
AcDbEntity
  8
AM_4
100
AcDbEllipse
 10
46.95189027078676
 20
0.0000000000000027
 30
0.0
 11
1.714505518806291E-16
 21
2.799999999999994
 31
0.0
210
0.0
220
0.0
230
1.0
 40
0.7071067811865475
 41
5.688597839666079
 42
10.01906774604158
  0
LWPOLYLINE
  5
1AA
330
12E
100
AcDbEntity
  8
AM_4
100
AcDbPolyline
 90
        3
 70
     0
 43
0.0
 10
45.18412331782037
 20
3.464101615137752
 10
45.86028379897384
 20
4.041451884327382
 10
46.48109324619008
 20
4.618802153517009
  0
LINE
  5
1AB
330
12E
100
AcDbEntity
  8
AM_4
100
AcDbLine
 10
44.24070678004398
 20
4.618802153517009
 30
0.0
 11
46.48109324619008
 21
4.618802153517009
 31
0.0
  0
LWPOLYLINE
  5
1AC
330
12E
100
AcDbEntity
  8
AM_4
100
AcDbPolyline
 90
        3
 70
     0
 43
0.0
 10
44.24070678004398
 20
4.618802153517009
 10
43.45075540042511
 20
4.044047806602323
 10
42.70924958366748
 20
3.46410161513776
  0
LWPOLYLINE
  5
1AD
330
12E
100
AcDbEntity
  8
AM_4
100
AcDbPolyline
 90
        3
 70
     0
 43
0.0
 10
42.70924958366748
 20
3.46410161513776
 10
42.03308910251403
 20
2.886751345948136
 10
41.4122796552978
 20
2.309401076758506
  0
LWPOLYLINE
  5
1AE
330
12E
100
AcDbEntity
  8
AM_4
100
AcDbPolyline
 90
        3
 70
     0
 43
0.0
 10
46.48109324619008
 20
-4.618802153517003
 10
45.86318974842138
 20
-4.044047806602315
 10
45.18412331782039
 20
-3.464101615137746
  0
LWPOLYLINE
  5
1AF
330
12E
100
AcDbEntity
  8
AM_4
100
AcDbPolyline
 90
        3
 70
     0
 43
0.0
 10
41.4122796552978
 20
-2.309401076758501
 10
42.0301831530665
 20
-2.884155423673192
 10
42.70924958366748
 20
-3.464101615137753
  0
LWPOLYLINE
  5
1B0
330
12E
100
AcDbEntity
  8
AM_4
100
AcDbPolyline
 90
        3
 70
     0
 43
0.0
 10
42.70924958366748
 20
-3.464101615137753
 10
43.44730266488712
 20
-4.041451884327375
 10
44.24070678004398
 20
-4.618802153517003
  0
LINE
  5
1B1
330
12E
100
AcDbEntity
  8
AM_4
100
AcDbLine
 10
44.24070678004398
 20
-4.618802153517003
 30
0.0
 11
46.48109324619008
 21
-4.618802153517003
 31
0.0
  0
LINE
  5
1B2
330
12E
100
AcDbEntity
  8
AM_4
100
AcDbLine
 10
41.4122796552978
 20
2.309401076758506
 30
0.0
 11
43.65266612144388
 21
2.309401076758506
 31
0.0
  0
LWPOLYLINE
  5
1B3
330
12E
100
AcDbEntity
  8
AM_4
100
AcDbPolyline
 90
        3
 70
     0
 43
0.0
 10
41.4122796552978
 20
2.309401076758506
 10
41.32625571437271
 20
1.159892382929132
 10
41.29503602129439
 20
0.0000000000000029
  0
LWPOLYLINE
  5
1B4
330
12E
100
AcDbEntity
  8
AM_4
100
AcDbPolyline
 90
        3
 70
     0
 43
0.0
 10
41.29503602129439
 20
0.0000000000000029
 10
41.32598232132747
 20
-1.154700538379249
 10
41.4122796552978
 20
-2.309401076758501
  0
LINE
  5
1B5
330
12E
100
AcDbEntity
  8
AM_4
100
AcDbLine
 10
41.4122796552978
 20
-2.309401076758501
 30
0.0
 11
43.65266612144388
 21
-2.309401076758501
 31
0.0
  0
LWPOLYLINE
  5
1B6
330
12E
100
AcDbEntity
  8
AM_4
100
AcDbPolyline
 90
        3
 70
     0
 43
0.0
 10
43.65266612144388
 20
-2.309401076758501
 10
43.73869006236898
 20
-1.159892382929128
 10
43.76990975544729
 20
0.000000000000003
  0
LWPOLYLINE
  5
1B7
330
12E
100
AcDbEntity
  8
AM_4
100
AcDbPolyline
 90
        3
 70
     0
 43
0.0
 10
45.18412331782039
 20
-3.464101615137746
 10
44.44607023660075
 20
-2.886751345948122
 10
43.65266612144388
 20
-2.309401076758501
  0
ELLIPSE
  5
1B8
330
12E
100
AcDbEntity
  8
AM_4
100
AcDbEllipse
 10
46.59833688019348
 20
-0.0000000000000051
 30
0.0
 11
2.449293598294692E-16
 21
3.999999999999977
 31
0.0
210
0.0
220
0.0
230
1.0
 40
0.707106781186552
 41
5.438019436076612
 42
10.27114204745121
  0
LWPOLYLINE
  5
1B9
330
12E
100
AcDbEntity
  8
AM_4
100
AcDbPolyline
 90
        3
 70
     0
 43
0.0
 10
43.76990975544729
 20
0.000000000000003
 10
43.73896345541421
 20
1.154700538379255
 10
43.65266612144388
 20
2.309401076758506
  0
LWPOLYLINE
  5
1BA
330
12E
100
AcDbEntity
  8
AM_4
100
AcDbPolyline
 90
        3
 70
     0
 43
0.0
 10
43.65266612144388
 20
2.309401076758506
 10
44.44261750106276
 20
2.884155423673192
 10
45.18412331782037
 20
3.464101615137752
  0
LINE
  5
1BB
330
12E
100
AcDbEntity
  8
AM_4
100
AcDbLine
 10
-45.08000000000004
 20
27.84999999999999
 30
0.0
 11
-45.08
 21
25.95833333333334
 31
0.0
  0
LINE
  5
1BC
330
12E
100
AcDbEntity
  8
AM_4
100
AcDbLine
 10
45.08000000000001
 20
25.95833333333334
 30
0.0
 11
45.08
 21
27.84999999999998
 31
0.0
  0
LWPOLYLINE
  5
1BD
330
12E
100
AcDbEntity
  8
AM_4
100
AcDbPolyline
 90
        9
 70
     0
 43
0.0
 10
45.08000000000001
 20
25.95833333333334
 10
45.06152051403513
 20
25.72360590312313
 10
44.99669924524251
 20
25.46542031004291
 10
44.92237220400163
 20
25.28879740629664
 10
44.83651861207311
 20
25.13908918320843
 10
44.64385727797707
 20
24.90013472009877
 10
44.43374173365179
 20
24.72499434821154
 10
44.01896031573906
 20
24.52287242059788
 10
43.58000000000001
 20
24.45833333333334
  0
LINE
  5
1BE
330
12E
100
AcDbEntity
  8
AM_4
100
AcDbLine
 10
-43.58
 20
24.45833333333333
 30
0.0
 11
43.58000000000001
 21
24.45833333333334
 31
0.0
  0
LWPOLYLINE
  5
1BF
330
12E
100
AcDbEntity
  8
AM_4
100
AcDbPolyline
 90
        9
 70
     0
 43
0.0
 10
-43.58
 20
24.45833333333333
 10
-43.91152071655296
 20
24.49390685560485
 10
-44.23195631696583
 20
24.60560580506348
 10
-44.53411890431519
 20
24.80089775567539
 10
-44.75990282594572
 20
25.03214257472833
 10
-44.88644768962057
 20
25.22073706799755
 10
-44.99386133692241
 20
25.45733820364704
 10
-45.0556918574966
 20
25.68938437587442
 10
-45.08000000000001
 20
25.95833333333334
  0
LINE
  5
1C0
330
12E
100
AcDbEntity
  8
AM_4
100
AcDbLine
 10
45.08000000000001
 20
-27.85
 30
0.0
 11
45.08
 21
-25.95833333333334
 31
0.0
  0
LINE
  5
1C1
330
12E
100
AcDbEntity
  8
AM_4
100
AcDbLine
 10
-45.08000000000001
 20
-25.95833333333334
 30
0.0
 11
-45.08000000000004
 21
-27.85
 31
0.0
  0
LWPOLYLINE
  5
1C2
330
12E
100
AcDbEntity
  8
AM_4
100
AcDbPolyline
 90
        9
 70
     0
 43
0.0
 10
-45.08000000000001
 20
-25.95833333333334
 10
-45.06152051403513
 20
-25.72360590312313
 10
-44.99669924524251
 20
-25.46542031004291
 10
-44.92237220400163
 20
-25.28879740629664
 10
-44.83651861207311
 20
-25.13908918320843
 10
-44.64385727797707
 20
-24.90013472009877
 10
-44.43374173365179
 20
-24.72499434821154
 10
-44.01896031573906
 20
-24.52287242059788
 10
-43.58000000000001
 20
-24.45833333333334
  0
LINE
  5
1C3
330
12E
100
AcDbEntity
  8
AM_4
100
AcDbLine
 10
-41.3
 20
-24.45833333333334
 30
0.0
 11
-43.58000000000001
 21
-24.45833333333334
 31
0.0
  0
LINE
  5
1C4
330
12E
100
AcDbEntity
  8
AM_4
100
AcDbLine
 10
43.58
 20
-24.45833333333333
 30
0.0
 11
41.15981049519058
 21
-24.45833333333334
 31
0.0
  0
LWPOLYLINE
  5
1C5
330
12E
100
AcDbEntity
  8
AM_4
100
AcDbPolyline
 90
        9
 70
     0
 43
0.0
 10
43.58
 20
-24.45833333333333
 10
43.91152071655296
 20
-24.49390685560485
 10
44.23195631696583
 20
-24.60560580506348
 10
44.53411890431519
 20
-24.80089775567539
 10
44.75990282594572
 20
-25.03214257472833
 10
44.88644768962057
 20
-25.22073706799755
 10
44.99386133692241
 20
-25.45733820364704
 10
45.0556918574966
 20
-25.68938437587442
 10
45.08000000000001
 20
-25.95833333333334
  0
LWPOLYLINE
  5
1C6
330
12E
100
AcDbEntity
  8
AM_4
100
AcDbPolyline
 90
       37
 70
     0
 43
0.0
 10
-50.0
 20
25.43477067183462
 10
-49.80973490458728
 20
25.02165357725391
 10
-49.24038765061041
 20
24.61168055320988
 10
-48.29629131445343
 20
24.20797174196399
 10
-46.98463103929543
 20
23.81359961133586
 10
-45.31538935183251
 20
23.43156557136798
 10
-43.30127018922195
 20
23.06477713178295
 10
-40.95760221444962
 20
22.71602577407894
 10
-38.30222215594893
 20
22.38796570666991
 10
-35.35533905932741
 20
22.08309366475692
 10
-32.13938048432701
 20
21.8037299086657
 10
-28.67882181755235
 20
21.55200056526456
 10
-25.00000000000006
 20
21.3298214468551
 10
-21.13091308703504
 20
21.13888347068384
 10
-17.10100716628351
 20
20.98063979004096
 10
-12.94095225512612
 20
20.85629473488628
 10
-8.682408883346602
 20
20.76679464617114
 10
-4.357787137382998
 20
20.71282067361229
 10
-0.0000000000000949
 20
20.69478359173127
 10
4.357787137382809
 20
20.71282067361229
 10
8.682408883346413
 20
20.76679464617114
 10
12.94095225512593
 20
20.85629473488628
 10
17.10100716628333
 20
20.98063979004095
 10
21.13091308703487
 20
21.13888347068384
 10
24.99999999999989
 20
21.32982144685509
 10
28.6788218175522
 20
21.55200056526455
 10
32.13938048432686
 20
21.80372990866569
 10
35.35533905932728
 20
22.08309366475691
 10
38.3022221559488
 20
22.3879657066699
 10
40.9576022144495
 20
22.71602577407893
 10
43.30127018922185
 20
23.06477713178293
 10
45.31538935183244
 20
23.43156557136796
 10
46.98463103929537
 20
23.81359961133584
 10
48.29629131445337
 20
24.20797174196397
 10
49.24038765061037
 20
24.61168055320987
 10
49.80973490458726
 20
25.0216535772539
 10
50.0
 20
25.43477067183461
  0
LWPOLYLINE
  5
1C7
330
12E
100
AcDbEntity
  8
AM_4
100
AcDbPolyline
 90
        7
 70
     0
 43
0.0
 10
50.0
 20
25.43477067183462
 10
49.80973490458728
 20
25.84788776641533
 10
49.24038765061041
 20
26.25786079045936
 10
48.29629131445343
 20
26.66156960170526
 10
46.98463103929543
 20
27.05594173233339
 10
45.31538935183252
 20
27.43797577230128
 10
45.08000000000001
 20
27.48515036270047
  0
LWPOLYLINE
  5
1C8
330
12E
100
AcDbEntity
  8
AM_4
100
AcDbPolyline
 90
       37
 70
     0
 43
0.0
 10
50.0
 20
-25.43477067183463
 10
49.80973490458728
 20
-25.02165357725391
 10
49.24038765061041
 20
-24.61168055320989
 10
48.29629131445343
 20
-24.20797174196399
 10
46.98463103929543
 20
-23.81359961133586
 10
45.31538935183252
 20
-23.43156557136798
 10
43.30127018922195
 20
-23.06477713178295
 10
40.95760221444962
 20
-22.71602577407894
 10
38.30222215594894
 20
-22.38796570666991
 10
35.35533905932742
 20
-22.08309366475692
 10
32.13938048432701
 20
-21.8037299086657
 10
28.67882181755236
 20
-21.55200056526455
 10
25.00000000000006
 20
-21.32982144685509
 10
21.13091308703504
 20
-21.13888347068384
 10
17.10100716628351
 20
-20.98063979004096
 10
12.94095225512612
 20
-20.85629473488628
 10
8.682408883346607
 20
-20.76679464617114
 10
4.357787137383005
 20
-20.71282067361229
 10
0.0000000000001011
 20
-20.69478359173127
 10
-4.357787137382803
 20
-20.71282067361228
 10
-8.682408883346408
 20
-20.76679464617114
 10
-12.94095225512593
 20
-20.85629473488628
 10
-17.10100716628332
 20
-20.98063979004095
 10
-21.13091308703486
 20
-21.13888347068383
 10
-24.99999999999989
 20
-21.32982144685509
 10
-28.67882181755219
 20
-21.55200056526454
 10
-32.13938048432686
 20
-21.80372990866569
 10
-35.35533905932727
 20
-22.08309366475691
 10
-38.3022221559488
 20
-22.3879657066699
 10
-40.9576022144495
 20
-22.71602577407893
 10
-43.30127018922185
 20
-23.06477713178293
 10
-45.31538935183244
 20
-23.43156557136796
 10
-46.98463103929537
 20
-23.81359961133585
 10
-48.29629131445337
 20
-24.20797174196397
 10
-49.24038765061037
 20
-24.61168055320987
 10
-49.80973490458726
 20
-25.0216535772539
 10
-50.0
 20
-25.43477067183461
  0
LWPOLYLINE
  5
1C9
330
12E
100
AcDbEntity
  8
AM_4
100
AcDbPolyline
 90
        7
 70
     0
 43
0.0
 10
-50.0
 20
-25.43477067183463
 10
-49.80973490458728
 20
-25.84788776641534
 10
-49.24038765061041
 20
-26.25786079045937
 10
-48.29629131445343
 20
-26.66156960170526
 10
-46.98463103929543
 20
-27.05594173233339
 10
-45.31538935183251
 20
-27.43797577230128
 10
-45.08
 20
-27.48515036270048
  0
ELLIPSE
  5
1CA
330
12E
100
AcDbEntity
  8
AM_4
100
AcDbEllipse
 10
48.90978521952056
 20
-0.0000000000000001
 30
0.0
 11
1.589605562723803E-16
 21
2.596022892201324
 31
0.0
210
0.0
220
0.0
230
1.0
 40
0.707106781186548
 41
0.7056142457794978
 42
2.427937416809242
  0
LWPOLYLINE
  5
1CB
330
12E
100
AcDbEntity
  8
AM_4
100
AcDbPolyline
 90
       12
 70
     0
 43
0.0
 10
50.26055978250943
 20
2.254030357982866
 10
50.04381290489577
 20
2.417104531797074
 10
49.79294487319102
 20
2.553514233083478
 10
49.53190169740695
 20
2.645155858720744
 10
49.26634871037052
 20
2.691471056261812
 10
49.00123831978532
 20
2.693160366309866
 10
48.74064190144001
 20
2.651542107211541
 10
48.48853731219614
 20
2.568297724820258
 10
48.24771796370027
 20
2.444965938582138
 10
48.0209035349706
 20
2.282936575504078
 10
47.81110804987873
 20
2.083858646891733
 10
47.72999908387528
 20
1.991109056028646
  0
LWPOLYLINE
  5
1CC
330
12E
100
AcDbEntity
  8
AM_4
100
AcDbPolyline
 90
        3
 70
     0
 43
0.0
 10
50.18527015107441
 20
-2.316004593562641
 10
50.34256204639505
 20
-2.179330954960292
 10
50.35527525173869
 20
-2.167028953444393
  0
LWPOLYLINE
  5
1CD
330
12E
100
AcDbEntity
  8
AM_4
100
AcDbPolyline
 90
       12
 70
     0
 43
0.0
 10
47.7183380927015
 20
-1.976928351021505
 10
47.86800764204515
 20
-2.143275738605117
 10
48.09381682214865
 20
-2.340436325473485
 10
48.33808504183995
 20
-2.496655667492656
 10
48.59520827648622
 20
-2.608915629519903
 10
48.85936711601599
 20
-2.675912621369975
 10
49.12523703178397
 20
-2.697848237743453
 10
49.38834868385405
 20
-2.675835917745439
 10
49.644711864352
 20
-2.611412568526335
 10
49.89101986568245
 20
-2.506231433603078
 10
50.12458779963926
 20
-2.361715458584906
 10
50.15627852713083
 20
-2.338298339883861
  0
LINE
  5
1CE
330
12E
100
AcDbEntity
  8
AM_4
100
AcDbLine
 10
51.08225499541464
 20
1.537254407736909
 30
0.0
 11
50.26822517374698
 21
2.247376280880927
 31
0.0
  0
LINE
  5
1CF
330
12E
100
AcDbEntity
  8
AM_4
100
AcDbLine
 10
50.26822517374698
 20
-2.247376280880921
 30
0.0
 11
51.08225499541464
 21
-1.537254407736903
 31
0.0
  0
ELLIPSE
  5
1D0
330
12E
100
AcDbEntity
  8
AM_4
100
AcDbEllipse
 10
49.28797174091257
 20
0.0000000000000031
 30
0.0
 11
1.616869327254479E-16
 21
2.640547998623286
 31
0.0
210
0.0
220
0.0
230
1.0
 40
0.7071067811865488
 41
5.730470194082813
 42
9.977493073866153
  0
ELLIPSE
  5
1D1
330
12E
100
AcDbEntity
  8
AM_4
100
AcDbEllipse
 10
50.41174026090242
 20
0.0000000000000031
 30
0.0
 11
1.105973895516185E-16
 21
1.806192440606071
 31
0.0
210
0.0
220
0.0
230
1.0
 40
0.7071067811865496
 41
5.730470194082814
 42
9.977493073866151
  0
ELLIPSE
  5
1D2
330
12E
100
AcDbEntity
  8
AM_4
100
AcDbEllipse
 10
50.41174026090234
 20
0.0000000000001048
 30
0.0
 11
1.105973895516104E-16
 21
1.806192440605939
 31
0.0
210
0.0
220
0.0
230
1.0
 40
0.7071067811865934
 41
5.414116877880428
 42
5.73047019408276
  0
ELLIPSE
  5
1D3
330
12E
100
AcDbEntity
  8
AM_4
100
AcDbEllipse
 10
50.4874241767195
 20
0.0000000000000031
 30
0.0
 11
-2.992631774243850E-16
 21
-1.629112860038468
 31
0.0
210
0.0
220
0.0
230
1.0
 40
0.7071067811865451
 41
0.0
 42
6.283185307179586
  0
LWPOLYLINE
  5
1D4
330
12E
100
AcDbEntity
  8
AM_4
100
AcDbPolyline
 90
        6
 70
     0
 43
0.0
 10
51.69795957113361
 20
0.000000000000003
 10
51.69336546565041
 20
0.1515452492017972
 10
51.66031327554561
 20
0.4310527000008198
 10
51.59585392807707
 20
0.700957188822818
 10
51.50110011684063
 20
0.9548089109309621
 10
51.39631484553576
 20
1.156171525637758
  0
LWPOLYLINE
  5
1D5
330
12E
100
AcDbEntity
  8
AM_4
100
AcDbPolyline
 90
        6
 70
     0
 43
0.0
 10
51.42687126526496
 20
-1.103211427544079
 10
51.46275725187523
 20
-1.035390219979807
 10
51.56666014259734
 20
-0.7902475308124912
 10
51.64146034496066
 20
-0.526131505321138
 10
51.68546157509895
 20
-0.2495755118925173
 10
51.69795957113361
 20
0.000000000000003
  0
LWPOLYLINE
  5
1D6
330
12E
100
AcDbEntity
  8
AM_4
100
AcDbPolyline
 90
        4
 70
     0
 43
0.0
 10
51.14174508397131
 20
-1.482236262302515
 10
51.17878908253317
 20
-1.444619631428143
 10
51.33232614083028
 20
-1.255340977320242
 10
51.42687126526496
 20
-1.103211427544079
  0
ELLIPSE
  5
1D7
330
12E
100
AcDbEntity
  8
AM_4
100
AcDbEllipse
 10
50.41174026089893
 20
-0.0000000000032587
 30
0.0
 11
1.105973895513797E-16
 21
1.806192440602171
 31
0.0
210
0.0
220
0.0
230
1.0
 40
0.7071067811880332
 41
3.694307766688901
 42
3.747604018425341
  0
LINE
  5
1D8
330
12E
100
AcDbEntity
  8
AM_4
100
AcDbLine
 10
-8.35773
 20
-1.295029999999995
 30
0.0
 11
-8.35773
 21
1.295030000000003
 31
0.0
  0
LINE
  5
1D9
330
12E
100
AcDbEntity
  8
AM_4
100
AcDbLine
 10
-6.95829
 20
-1.295029999999995
 30
0.0
 11
-8.35773
 21
-1.295029999999995
 31
0.0
  0
LINE
  5
1DA
330
12E
100
AcDbEntity
  8
AM_4
100
AcDbLine
 10
-6.647309999999997
 20
-1.221029999999994
 30
0.0
 11
-6.958290000000002
 21
-1.295029999999995
 31
0.0
  0
LINE
  5
1DB
330
12E
100
AcDbEntity
  8
AM_4
100
AcDbLine
 10
-6.414069999999997
 20
-1.073019999999996
 30
0.0
 11
-6.647309999999998
 21
-1.221029999999997
 31
0.0
  0
LINE
  5
1DC
330
12E
100
AcDbEntity
  8
AM_4
100
AcDbLine
 10
-6.25858
 20
-0.8510189999999994
 30
0.0
 11
-6.414069999999995
 21
-1.073019999999994
 31
0.0
  0
LINE
  5
1DD
330
12E
100
AcDbEntity
  8
AM_4
100
AcDbLine
 10
-6.180830000000004
 20
-0.5550120000000106
 30
0.0
 11
-6.258579999999999
 21
-0.8510189999999908
 31
0.0
  0
LINE
  5
1DE
330
12E
100
AcDbEntity
  8
AM_4
100
AcDbLine
 10
-6.18083
 20
0.5550120000000035
 30
0.0
 11
-6.18083
 21
-0.5550119999999961
 31
0.0
  0
LINE
  5
1DF
330
12E
100
AcDbEntity
  8
AM_4
100
AcDbLine
 10
-6.258580000000007
 20
0.8510190000000295
 30
0.0
 11
-6.180829999999998
 21
0.555011999999994
 31
0.0
  0
LINE
  5
1E0
330
12E
100
AcDbEntity
  8
AM_4
100
AcDbLine
 10
-6.414070000000003
 20
1.073020000000006
 30
0.0
 11
-6.258580000000007
 21
0.8510190000000105
 31
0.0
  0
LINE
  5
1E1
330
12E
100
AcDbEntity
  8
AM_4
100
AcDbLine
 10
-6.647310000000007
 20
1.221030000000006
 30
0.0
 11
-6.414070000000005
 21
1.073020000000005
 31
0.0
  0
LINE
  5
1E2
330
12E
100
AcDbEntity
  8
AM_4
100
AcDbLine
 10
-6.958289999999995
 20
1.295030000000007
 30
0.0
 11
-6.647310000000004
 21
1.22103000000001
 31
0.0
  0
LINE
  5
1E3
330
12E
100
AcDbEntity
  8
AM_4
100
AcDbLine
 10
-8.35773
 20
1.295030000000003
 30
0.0
 11
-6.95829
 21
1.295030000000004
 31
0.0
  0
LINE
  5
1E4
330
12E
100
AcDbEntity
  8
AM_4
100
AcDbLine
 10
-4.625900000000013
 20
0.5550119999999628
 30
0.0
 11
-4.548159999999996
 21
0.8510190000000261
 31
0.0
  0
LINE
  5
1E5
330
12E
100
AcDbEntity
  8
AM_4
100
AcDbLine
 10
-4.6259
 20
-0.5550119999999933
 30
0.0
 11
-4.6259
 21
0.5550120000000037
 31
0.0
  0
LINE
  5
1E6
330
12E
100
AcDbEntity
  8
AM_4
100
AcDbLine
 10
-4.548159999999973
 20
-0.8510190000000983
 30
0.0
 11
-4.62589999999999
 21
-0.5550120000000315
 31
0.0
  0
LINE
  5
1E7
330
12E
100
AcDbEntity
  8
AM_4
100
AcDbLine
 10
-4.392659999999974
 20
-1.073020000000038
 30
0.0
 11
-4.548159999999972
 21
-0.8510190000000393
 31
0.0
  0
LINE
  5
1E8
330
12E
100
AcDbEntity
  8
AM_4
100
AcDbLine
 10
-4.159430000000007
 20
-1.221029999999993
 30
0.0
 11
-4.392659999999975
 21
-1.073020000000013
 31
0.0
  0
LINE
  5
1E9
330
12E
100
AcDbEntity
  8
AM_4
100
AcDbLine
 10
-3.848440000000013
 20
-1.295029999999993
 30
0.0
 11
-4.159429999999952
 21
-1.221030000000007
 31
0.0
  0
LINE
  5
1EA
330
12E
100
AcDbEntity
  8
AM_4
100
AcDbLine
 10
-3.22647
 20
-1.295029999999995
 30
0.0
 11
-3.84844
 21
-1.295029999999996
 31
0.0
  0
LINE
  5
1EB
330
12E
100
AcDbEntity
  8
AM_4
100
AcDbLine
 10
-2.915490000000007
 20
-1.221029999999999
 30
0.0
 11
-3.226470000000006
 21
-1.295029999999998
 31
0.0
  0
LINE
  5
1EC
330
12E
100
AcDbEntity
  8
AM_4
100
AcDbLine
 10
-2.682249999999999
 20
-1.073019999999995
 30
0.0
 11
-2.915490000000007
 21
-1.22103
 31
0.0
  0
LINE
  5
1ED
330
12E
100
AcDbEntity
  8
AM_4
100
AcDbLine
 10
-2.526750000000002
 20
-0.8510190000000015
 30
0.0
 11
-2.682249999999999
 21
-1.073019999999997
 31
0.0
  0
LINE
  5
1EE
330
12E
100
AcDbEntity
  8
AM_4
100
AcDbLine
 10
-2.449009999999995
 20
-0.555011999999976
 30
0.0
 11
-2.526750000000002
 21
-0.8510190000000063
 31
0.0
  0
LINE
  5
1EF
330
12E
100
AcDbEntity
  8
AM_4
100
AcDbLine
 10
-2.44901
 20
0.5550120000000035
 30
0.0
 11
-2.44901
 21
-0.5550119999999961
 31
0.0
  0
LINE
  5
1F0
330
12E
100
AcDbEntity
  8
AM_4
100
AcDbLine
 10
-2.526749999999996
 20
0.8510189999999914
 30
0.0
 11
-2.449010000000002
 21
0.555012000000013
 31
0.0
  0
LINE
  5
1F1
330
12E
100
AcDbEntity
  8
AM_4
100
AcDbLine
 10
-2.682249999999993
 20
1.073019999999996
 30
0.0
 11
-2.526749999999996
 21
0.8510190000000005
 31
0.0
  0
LINE
  5
1F2
330
12E
100
AcDbEntity
  8
AM_4
100
AcDbLine
 10
-2.915490000000001
 20
1.221030000000003
 30
0.0
 11
-2.682250000000006
 21
1.073020000000007
 31
0.0
  0
LINE
  5
1F3
330
12E
100
AcDbEntity
  8
AM_4
100
AcDbLine
 10
-3.22647
 20
1.295030000000008
 30
0.0
 11
-2.915490000000001
 21
1.221030000000008
 31
0.0
  0
LINE
  5
1F4
330
12E
100
AcDbEntity
  8
AM_4
100
AcDbLine
 10
-3.84844
 20
1.295030000000003
 30
0.0
 11
-3.22647
 21
1.295030000000004
 31
0.0
  0
LINE
  5
1F5
330
12E
100
AcDbEntity
  8
AM_4
100
AcDbLine
 10
-4.159430000000029
 20
1.221029999999997
 30
0.0
 11
-3.848440000000035
 21
1.295029999999995
 31
0.0
  0
LINE
  5
1F6
330
12E
100
AcDbEntity
  8
AM_4
100
AcDbLine
 10
-4.392659999999998
 20
1.073020000000006
 30
0.0
 11
-4.159430000000028
 21
1.221029999999987
 31
0.0
  0
LINE
  5
1F7
330
12E
100
AcDbEntity
  8
AM_4
100
AcDbLine
 10
-4.548159999999995
 20
0.8510190000000156
 30
0.0
 11
-4.392659999999998
 21
1.073020000000012
 31
0.0
  0
LINE
  5
1F8
330
12E
100
AcDbEntity
  8
AM_4
100
AcDbLine
 10
0.5053510000000002
 20
-1.295029999999995
 30
0.0
 11
-0.894082
 21
-1.295029999999995
 31
0.0
  0
LINE
  5
1F9
330
12E
100
AcDbEntity
  8
AM_4
100
AcDbLine
 10
-0.8940820000000003
 20
1.295030000000003
 30
0.0
 11
0.505351
 21
1.295030000000004
 31
0.0
  0
LINE
  5
1FA
330
12E
100
AcDbEntity
  8
AM_4
100
AcDbLine
 10
0.8163359999999972
 20
-1.221029999999997
 30
0.0
 11
0.5053510000000041
 21
-1.295029999999995
 31
0.0
  0
LINE
  5
1FB
330
12E
100
AcDbEntity
  8
AM_4
100
AcDbLine
 10
1.049570000000008
 20
-1.073019999999994
 30
0.0
 11
0.816335999999997
 21
-1.221030000000001
 31
0.0
  0
LINE
  5
1FC
330
12E
100
AcDbEntity
  8
AM_4
100
AcDbLine
 10
1.205070000000001
 20
-0.8510189999999914
 30
0.0
 11
1.049569999999995
 21
-1.073020000000001
 31
0.0
  0
LINE
  5
1FD
330
12E
100
AcDbEntity
  8
AM_4
100
AcDbLine
 10
1.282809999999999
 20
-0.5550120000000028
 30
0.0
 11
1.205070000000001
 21
-0.851018999999996
 31
0.0
  0
LINE
  5
1FE
330
12E
100
AcDbEntity
  8
AM_4
100
AcDbLine
 10
1.28281
 20
0.5550120000000035
 30
0.0
 11
1.28281
 21
-0.5550119999999961
 31
0.0
  0
LINE
  5
1FF
330
12E
100
AcDbEntity
  8
AM_4
100
AcDbLine
 10
1.205069999999994
 20
0.8510190000000287
 30
0.0
 11
1.282810000000005
 21
0.5550119999999844
 31
0.0
  0
LINE
  5
200
330
12E
100
AcDbEntity
  8
AM_4
100
AcDbLine
 10
1.049570000000001
 20
1.073019999999999
 30
0.0
 11
1.205069999999994
 21
0.8510190000000096
 31
0.0
  0
LINE
  5
201
330
12E
100
AcDbEntity
  8
AM_4
100
AcDbLine
 10
0.8163360000000032
 20
1.221030000000001
 30
0.0
 11
1.049570000000001
 21
1.073020000000003
 31
0.0
  0
LINE
  5
202
330
12E
100
AcDbEntity
  8
AM_4
100
AcDbLine
 10
0.5053509999999963
 20
1.295030000000004
 30
0.0
 11
0.8163360000000032
 21
1.221030000000003
 31
0.0
  0
LINE
  5
203
330
12E
100
AcDbEntity
  8
AM_4
100
AcDbLine
 10
-0.894082
 20
-1.295029999999995
 30
0.0
 11
-0.8940820000000003
 21
1.295030000000003
 31
0.0
  0
LINE
  5
204
330
12E
100
AcDbEntity
  8
AM_4
100
AcDbLine
 10
74.47400000000005
 20
-29.35
 30
0.0
 11
59.96492420684914
 21
-23.97899148835889
 31
0.0
  0
LINE
  5
205
330
12E
100
AcDbEntity
  8
AM_4
100
AcDbLine
 10
-59.9649242068491
 20
-23.97899148835888
 30
0.0
 11
-74.4739999999999
 21
-29.35
 31
0.0
  0
LWPOLYLINE
  5
206
330
12E
100
AcDbEntity
  8
AM_4
100
AcDbPolyline
 90
       19
 70
     0
 43
0.0
 10
-46.57999996838986
 20
-29.35
 10
-46.44926635438866
 20
-29.34429204438262
 10
-46.3195277023697
 20
-29.32721162402927
 10
-46.19177140181316
 20
-29.2988887312523
 10
-46.06696975530768
 20
-29.25953892036756
 10
-45.94607257874043
 20
-29.20946166719596
 10
-45.82999997262482
 20
-29.1490380898716
 10
-45.71963531957992
 20
-29.07872804830266
 10
-45.61581856125542
 20
-28.99906664435987
 10
-45.51933980586843
 20
-28.91066014942809
 10
-45.43093331500292
 20
-28.81418139031505
 10
-45.35127191543568
 20
-28.71036462863307
 10
-45.28096187851828
 20
-28.59999997262483
 10
-45.220538306086
 20
-28.48392736396254
 10
-45.17046105800983
 20
-28.3630301852847
 10
-45.1311112523851
 20
-28.23822853712074
 10
-45.10278836499265
 20
-28.11047223537049
 10
-45.08570795010738
 20
-27.98073358263164
 10
-45.08
 20
-27.85000000000001
  0
LWPOLYLINE
  5
207
330
12E
100
AcDbEntity
  8
AM_4
100
AcDbPolyline
 90
        7
 70
     0
 43
0.0
 10
45.07999999999999
 20
-27.48515036270048
 10
46.79350817104608
 20
-27.10488167647621
 10
48.15088949021777
 20
-26.71190243706603
 10
49.14181346606691
 20
-26.30920345376919
 10
49.75873856880103
 20
-25.89984950900488
 10
49.99696962587877
 20
-25.48695603346742
 10
50.0
 20
-25.43477067183463
  0
LWPOLYLINE
  5
208
330
12E
100
AcDbEntity
  8
AM_4
100
AcDbPolyline
 90
       19
 70
     0
 43
0.0
 10
45.08000000000001
 20
-27.85
 10
45.08570795286238
 20
-27.98073361412149
 10
45.10278837048169
 20
-28.11047226650039
 10
45.1311112605664
 20
-28.23822856765378
 10
45.17046106882114
 20
-28.3630302149885
 10
45.22053831944503
 20
-28.48392739261105
 10
45.28096189432335
 20
-28.6
 10
45.35127193356652
 20
-28.71036465452657
 10
45.43093333532153
 20
-28.81418141452981
 10
45.51933982822018
 20
-28.91066017177982
 10
45.61581858547019
 20
-28.99906666467846
 10
45.71963534547343
 20
-29.07872806643348
 10
45.83
 20
-29.14903810567665
 10
45.94607260738895
 20
-29.20946168055497
 10
46.06696978501149
 20
-29.25953893117886
 10
46.19177143234621
 20
-29.2988887394336
 10
46.3195277334996
 20
-29.32721162951831
 10
46.4492663858785
 20
-29.34429204713761
 10
46.58
 20
-29.34999999999999
  0
LINE
  5
209
330
12E
100
AcDbEntity
  8
AM_4
100
AcDbLine
 10
0.505351
 20
-1.739039999999996
 30
0.0
 11
-1.36056
 21
-1.739039999999997
 31
0.0
  0
LINE
  5
20A
330
12E
100
AcDbEntity
  8
AM_4
100
AcDbLine
 10
-1.36056
 20
1.739040000000004
 30
0.0
 11
0.505351
 21
1.739040000000004
 31
0.0
  0
LINE
  5
20B
330
12E
100
AcDbEntity
  8
AM_4
100
AcDbLine
 10
8.8242
 20
-1.739039999999996
 30
0.0
 11
6.02534
 21
-1.739039999999997
 31
0.0
  0
LINE
  5
20C
330
12E
100
AcDbEntity
  8
AM_4
100
AcDbLine
 10
6.02534
 20
-1.739039999999997
 30
0.0
 11
6.02534
 21
1.739040000000004
 31
0.0
  0
LINE
  5
20D
330
12E
100
AcDbEntity
  8
AM_4
100
AcDbLine
 10
6.02534
 20
1.739040000000004
 30
0.0
 11
8.8242
 21
1.739040000000004
 31
0.0
  0
LINE
  5
20E
330
12E
100
AcDbEntity
  8
AM_4
100
AcDbLine
 10
8.8242
 20
1.739040000000004
 30
0.0
 11
8.8242
 21
1.295030000000004
 31
0.0
  0
LINE
  5
20F
330
12E
100
AcDbEntity
  8
AM_4
100
AcDbLine
 10
8.8242
 20
1.295030000000004
 30
0.0
 11
6.491810000000001
 21
1.295030000000003
 31
0.0
  0
LINE
  5
210
330
12E
100
AcDbEntity
  8
AM_4
100
AcDbLine
 10
6.491810000000001
 20
1.295030000000003
 30
0.0
 11
6.491810000000001
 21
0.3330070000000038
 31
0.0
  0
LINE
  5
211
330
12E
100
AcDbEntity
  8
AM_4
100
AcDbLine
 10
6.491810000000001
 20
0.3330070000000038
 30
0.0
 11
8.51322
 21
0.3330070000000035
 31
0.0
  0
LINE
  5
212
330
12E
100
AcDbEntity
  8
AM_4
100
AcDbLine
 10
8.51322
 20
0.3330070000000035
 30
0.0
 11
8.51322
 21
-0.1110019999999963
 31
0.0
  0
LINE
  5
213
330
12E
100
AcDbEntity
  8
AM_4
100
AcDbLine
 10
8.51322
 20
-0.1110019999999963
 30
0.0
 11
6.491810000000001
 21
-0.111001999999995
 31
0.0
  0
LINE
  5
214
330
12E
100
AcDbEntity
  8
AM_4
100
AcDbLine
 10
6.491810000000001
 20
-0.111001999999995
 30
0.0
 11
6.491810000000001
 21
-1.295029999999996
 31
0.0
  0
LINE
  5
215
330
12E
100
AcDbEntity
  8
AM_4
100
AcDbLine
 10
6.491810000000001
 20
-1.295029999999996
 30
0.0
 11
8.8242
 21
-1.295029999999995
 31
0.0
  0
LINE
  5
216
330
12E
100
AcDbEntity
  8
AM_4
100
AcDbLine
 10
8.8242
 20
-1.295029999999995
 30
0.0
 11
8.8242
 21
-1.739039999999996
 31
0.0
  0
LINE
  5
217
330
12E
100
AcDbEntity
  8
AM_4
100
AcDbLine
 10
2.37126
 20
-0.555011999999996
 30
0.0
 11
2.37126
 21
0.5550120000000037
 31
0.0
  0
LINE
  5
218
330
12E
100
AcDbEntity
  8
AM_4
100
AcDbLine
 10
2.371259999999982
 20
0.5550119999999193
 30
0.0
 11
2.449009999999994
 21
0.9250199999999746
 31
0.0
  0
LINE
  5
219
330
12E
100
AcDbEntity
  8
AM_4
100
AcDbLine
 10
2.449009999999994
 20
0.9250199999999928
 30
0.0
 11
2.60449999999997
 21
1.221029999999947
 31
0.0
  0
LINE
  5
21A
330
12E
100
AcDbEntity
  8
AM_4
100
AcDbLine
 10
2.60449999999997
 20
1.221029999999971
 30
0.0
 11
2.915490000000006
 21
1.517030000000006
 31
0.0
  0
LINE
  5
21B
330
12E
100
AcDbEntity
  8
AM_4
100
AcDbLine
 10
2.915489999999951
 20
1.51702999999998
 30
0.0
 11
3.226469999999991
 21
1.665039999999999
 31
0.0
  0
LINE
  5
21C
330
12E
100
AcDbEntity
  8
AM_4
100
AcDbLine
 10
3.226469999999991
 20
1.66504
 30
0.0
 11
3.615199999999993
 21
1.73904
 31
0.0
  0
LINE
  5
21D
330
12E
100
AcDbEntity
  8
AM_4
100
AcDbLine
 10
3.6152
 20
1.739040000000003
 30
0.0
 11
4.31492
 21
1.739040000000004
 31
0.0
  0
LINE
  5
21E
330
12E
100
AcDbEntity
  8
AM_4
100
AcDbLine
 10
4.314920000000003
 20
1.739040000000002
 30
0.0
 11
4.703650000000003
 21
1.665040000000002
 31
0.0
  0
LINE
  5
21F
330
12E
100
AcDbEntity
  8
AM_4
100
AcDbLine
 10
4.703650000000003
 20
1.665039999999999
 30
0.0
 11
5.014639999999994
 21
1.517030000000004
 31
0.0
  0
LINE
  5
220
330
12E
100
AcDbEntity
  8
AM_4
100
AcDbLine
 10
5.014640000000008
 20
1.517029999999998
 30
0.0
 11
5.325620000000004
 21
1.221030000000001
 31
0.0
  0
LINE
  5
221
330
12E
100
AcDbEntity
  8
AM_4
100
AcDbLine
 10
5.325620000000003
 20
1.221029999999995
 30
0.0
 11
5.403369999999995
 21
0.8510190000000365
 31
0.0
  0
LINE
  5
222
330
12E
100
AcDbEntity
  8
AM_4
100
AcDbLine
 10
5.40337
 20
0.8510190000000037
 30
0.0
 11
4.93689
 21
0.8510190000000053
 31
0.0
  0
LINE
  5
223
330
12E
100
AcDbEntity
  8
AM_4
100
AcDbLine
 10
4.93689
 20
0.8510190000000053
 30
0.0
 11
4.859140000000038
 21
1.073019999999899
 31
0.0
  0
LINE
  5
224
330
12E
100
AcDbEntity
  8
AM_4
100
AcDbLine
 10
4.859140000000038
 20
1.073019999999982
 30
0.0
 11
4.625900000000019
 21
1.221029999999993
 31
0.0
  0
LINE
  5
225
330
12E
100
AcDbEntity
  8
AM_4
100
AcDbLine
 10
4.625900000000019
 20
1.221029999999998
 30
0.0
 11
4.314920000000003
 21
1.295030000000002
 31
0.0
  0
LINE
  5
226
330
12E
100
AcDbEntity
  8
AM_4
100
AcDbLine
 10
4.31492
 20
1.295030000000004
 30
0.0
 11
3.6152
 21
1.295030000000003
 31
0.0
  0
LINE
  5
227
330
12E
100
AcDbEntity
  8
AM_4
100
AcDbLine
 10
3.615199999999995
 20
1.295030000000003
 30
0.0
 11
3.304220000000004
 21
1.221030000000005
 31
0.0
  0
LINE
  5
228
330
12E
100
AcDbEntity
  8
AM_4
100
AcDbLine
 10
3.304220000000004
 20
1.221030000000007
 30
0.0
 11
3.070979999999994
 21
1.073020000000001
 31
0.0
  0
LINE
  5
229
330
12E
100
AcDbEntity
  8
AM_4
100
AcDbLine
 10
3.070979999999992
 20
1.073019999999997
 30
0.0
 11
2.915489999999993
 21
0.8510189999999974
 31
0.0
  0
LINE
  5
22A
330
12E
100
AcDbEntity
  8
AM_4
100
AcDbLine
 10
2.915489999999993
 20
0.8510189999999775
 30
0.0
 11
2.837739999999998
 21
0.5550119999999957
 31
0.0
  0
LINE
  5
22B
330
12E
100
AcDbEntity
  8
AM_4
100
AcDbLine
 10
2.83774
 20
0.5550120000000035
 30
0.0
 11
2.83774
 21
-0.5550119999999961
 31
0.0
  0
LINE
  5
22C
330
12E
100
AcDbEntity
  8
AM_4
100
AcDbLine
 10
2.837740000000005
 20
-0.5550120000000176
 30
0.0
 11
2.91549
 21
-0.8510189999999976
 31
0.0
  0
LINE
  5
22D
330
12E
100
AcDbEntity
  8
AM_4
100
AcDbLine
 10
2.91549
 20
-0.8510189999999994
 30
0.0
 11
3.070979999999999
 21
-1.073019999999998
 31
0.0
  0
LINE
  5
22E
330
12E
100
AcDbEntity
  8
AM_4
100
AcDbLine
 10
3.07098
 20
-1.073020000000001
 30
0.0
 11
3.304219999999997
 21
-1.221029999999999
 31
0.0
  0
LINE
  5
22F
330
12E
100
AcDbEntity
  8
AM_4
100
AcDbLine
 10
3.304219999999997
 20
-1.221029999999993
 30
0.0
 11
3.615200000000002
 21
-1.295029999999994
 31
0.0
  0
LINE
  5
230
330
12E
100
AcDbEntity
  8
AM_4
100
AcDbLine
 10
3.6152
 20
-1.295029999999996
 30
0.0
 11
4.31492
 21
-1.295029999999995
 31
0.0
  0
LINE
  5
231
330
12E
100
AcDbEntity
  8
AM_4
100
AcDbLine
 10
4.314919999999981
 20
-1.295030000000003
 30
0.0
 11
4.625899999999997
 21
-1.221029999999999
 31
0.0
  0
LINE
  5
232
330
12E
100
AcDbEntity
  8
AM_4
100
AcDbLine
 10
4.625899999999998
 20
-1.22103
 30
0.0
 11
4.859140000000015
 21
-1.073019999999989
 31
0.0
  0
LINE
  5
233
330
12E
100
AcDbEntity
  8
AM_4
100
AcDbLine
 10
4.859140000000015
 20
-1.073019999999954
 30
0.0
 11
4.936889999999978
 21
-0.8510190000000601
 31
0.0
  0
LINE
  5
234
330
12E
100
AcDbEntity
  8
AM_4
100
AcDbLine
 10
4.93689
 20
-0.8510189999999962
 30
0.0
 11
4.93689
 21
-0.2590059999999962
 31
0.0
  0
LINE
  5
235
330
12E
100
AcDbEntity
  8
AM_4
100
AcDbLine
 10
4.93689
 20
-0.2590059999999962
 30
0.0
 11
4.23717
 21
-0.2590059999999954
 31
0.0
  0
LINE
  5
236
330
12E
100
AcDbEntity
  8
AM_4
100
AcDbLine
 10
4.23717
 20
-0.2590059999999954
 30
0.0
 11
4.23717
 21
0.1850040000000038
 31
0.0
  0
LINE
  5
237
330
12E
100
AcDbEntity
  8
AM_4
100
AcDbLine
 10
4.23717
 20
0.1850040000000038
 30
0.0
 11
5.40337
 21
0.1850040000000026
 31
0.0
  0
LINE
  5
238
330
12E
100
AcDbEntity
  8
AM_4
100
AcDbLine
 10
5.40337
 20
0.1850040000000026
 30
0.0
 11
5.40337
 21
-0.9250199999999962
 31
0.0
  0
LINE
  5
239
330
12E
100
AcDbEntity
  8
AM_4
100
AcDbLine
 10
5.403370000000002
 20
-0.9250199999999914
 30
0.0
 11
5.325619999999998
 21
-1.221030000000005
 31
0.0
  0
LINE
  5
23A
330
12E
100
AcDbEntity
  8
AM_4
100
AcDbLine
 10
5.325619999999998
 20
-1.221029999999999
 30
0.0
 11
5.014640000000002
 21
-1.517029999999996
 31
0.0
  0
LINE
  5
23B
330
12E
100
AcDbEntity
  8
AM_4
100
AcDbLine
 10
5.014640000000001
 20
-1.517029999999997
 30
0.0
 11
4.703649999999998
 21
-1.665039999999999
 31
0.0
  0
LINE
  5
23C
330
12E
100
AcDbEntity
  8
AM_4
100
AcDbLine
 10
4.703649999999998
 20
-1.665039999999996
 30
0.0
 11
4.314919999999996
 21
-1.739039999999996
 31
0.0
  0
LINE
  5
23D
330
12E
100
AcDbEntity
  8
AM_4
100
AcDbLine
 10
4.31492
 20
-1.739039999999996
 30
0.0
 11
3.6152
 21
-1.739039999999997
 31
0.0
  0
LINE
  5
23E
330
12E
100
AcDbEntity
  8
AM_4
100
AcDbLine
 10
3.615200000000015
 20
-1.739039999999997
 30
0.0
 11
3.226470000000014
 21
-1.665039999999997
 31
0.0
  0
LINE
  5
23F
330
12E
100
AcDbEntity
  8
AM_4
100
AcDbLine
 10
3.226470000000014
 20
-1.665039999999999
 30
0.0
 11
2.915490000000029
 21
-1.517030000000006
 31
0.0
  0
LINE
  5
240
330
12E
100
AcDbEntity
  8
AM_4
100
AcDbLine
 10
2.915490000000029
 20
-1.517030000000027
 30
0.0
 11
2.604499999999993
 21
-1.221029999999993
 31
0.0
  0
LINE
  5
241
330
12E
100
AcDbEntity
  8
AM_4
100
AcDbLine
 10
2.604499999999993
 20
-1.221029999999987
 30
0.0
 11
2.449010000000016
 21
-0.9250200000000313
 31
0.0
  0
LINE
  5
242
330
12E
100
AcDbEntity
  8
AM_4
100
AcDbLine
 10
2.449010000000016
 20
-0.9250200000000729
 30
0.0
 11
2.371260000000005
 21
-0.555012000000021
 31
0.0
  0
LINE
  5
243
330
12E
100
AcDbEntity
  8
AM_4
100
AcDbLine
 10
-1.36056
 20
-1.739039999999997
 30
0.0
 11
-1.36056
 21
1.739040000000004
 31
0.0
  0
LINE
  5
244
330
12E
100
AcDbEntity
  8
AM_4
100
AcDbLine
 10
0.5053509999999963
 20
1.739040000000005
 30
0.0
 11
0.8940819999999999
 21
1.665040000000004
 31
0.0
  0
LINE
  5
245
330
12E
100
AcDbEntity
  8
AM_4
100
AcDbLine
 10
0.8940819999999999
 20
1.665039999999998
 30
0.0
 11
1.205069999999994
 21
1.517030000000001
 31
0.0
  0
LINE
  5
246
330
12E
100
AcDbEntity
  8
AM_4
100
AcDbLine
 10
1.205069999999994
 20
1.517030000000009
 30
0.0
 11
1.516049999999994
 21
1.221030000000008
 31
0.0
  0
LINE
  5
247
330
12E
100
AcDbEntity
  8
AM_4
100
AcDbLine
 10
1.516049999999995
 20
1.221030000000014
 30
0.0
 11
1.671550000000003
 21
0.9250199999999994
 31
0.0
  0
LINE
  5
248
330
12E
100
AcDbEntity
  8
AM_4
100
AcDbLine
 10
1.671550000000003
 20
0.9250199999999937
 30
0.0
 11
1.749290000000006
 21
0.5550119999999766
 31
0.0
  0
LINE
  5
249
330
12E
100
AcDbEntity
  8
AM_4
100
AcDbLine
 10
1.74929
 20
0.5550120000000035
 30
0.0
 11
1.74929
 21
-0.5550119999999961
 31
0.0
  0
LINE
  5
24A
330
12E
100
AcDbEntity
  8
AM_4
100
AcDbLine
 10
1.74929
 20
-0.5550119999999951
 30
0.0
 11
1.671549999999996
 21
-0.9250200000000139
 31
0.0
  0
LINE
  5
24B
330
12E
100
AcDbEntity
  8
AM_4
100
AcDbLine
 10
1.671549999999996
 20
-0.9250200000000035
 30
0.0
 11
1.516050000000002
 21
-1.221029999999992
 31
0.0
  0
LINE
  5
24C
330
12E
100
AcDbEntity
  8
AM_4
100
AcDbLine
 10
1.516050000000002
 20
-1.221029999999997
 30
0.0
 11
1.205070000000001
 21
-1.517029999999998
 31
0.0
  0
LINE
  5
24D
330
12E
100
AcDbEntity
  8
AM_4
100
AcDbLine
 10
1.205070000000001
 20
-1.51703
 30
0.0
 11
0.8940820000000075
 21
-1.665039999999997
 31
0.0
  0
LINE
  5
24E
330
12E
100
AcDbEntity
  8
AM_4
100
AcDbLine
 10
0.8940819999999937
 20
-1.665039999999995
 30
0.0
 11
0.505351000000004
 21
-1.739039999999992
 31
0.0
  0
LINE
  5
24F
330
12E
100
AcDbEntity
  8
AM_4
100
AcDbLine
 10
-5.09238
 20
-0.555011999999996
 30
0.0
 11
-5.09238
 21
0.5550120000000037
 31
0.0
  0
LINE
  5
250
330
12E
100
AcDbEntity
  8
AM_4
100
AcDbLine
 10
-5.092379999999996
 20
0.5550120000000217
 30
0.0
 11
-5.014640000000016
 21
0.9250199999999226
 31
0.0
  0
LINE
  5
251
330
12E
100
AcDbEntity
  8
AM_4
100
AcDbLine
 10
-5.014640000000016
 20
0.9250199999999781
 30
0.0
 11
-4.859140000000031
 21
1.221029999999951
 31
0.0
  0
LINE
  5
252
330
12E
100
AcDbEntity
  8
AM_4
100
AcDbLine
 10
-4.85914000000003
 20
1.221029999999974
 30
0.0
 11
-4.548159999999996
 21
1.517030000000006
 31
0.0
  0
LINE
  5
253
330
12E
100
AcDbEntity
  8
AM_4
100
AcDbLine
 10
-4.548159999999996
 20
1.517030000000003
 30
0.0
 11
-4.237170000000005
 21
1.665039999999999
 31
0.0
  0
LINE
  5
254
330
12E
100
AcDbEntity
  8
AM_4
100
AcDbLine
 10
-4.237170000000004
 20
1.665040000000003
 30
0.0
 11
-3.848440000000034
 21
1.739039999999997
 31
0.0
  0
LINE
  5
255
330
12E
100
AcDbEntity
  8
AM_4
100
AcDbLine
 10
-3.84844
 20
1.739040000000003
 30
0.0
 11
-3.22647
 21
1.739040000000004
 31
0.0
  0
LINE
  5
256
330
12E
100
AcDbEntity
  8
AM_4
100
AcDbLine
 10
-3.226469999999999
 20
1.739040000000005
 30
0.0
 11
-2.837740000000005
 21
1.665040000000006
 31
0.0
  0
LINE
  5
257
330
12E
100
AcDbEntity
  8
AM_4
100
AcDbLine
 10
-2.837740000000006
 20
1.665040000000005
 30
0.0
 11
-2.526749999999997
 21
1.51703
 31
0.0
  0
LINE
  5
258
330
12E
100
AcDbEntity
  8
AM_4
100
AcDbLine
 10
-2.526749999999996
 20
1.517029999999999
 30
0.0
 11
-2.215769999999996
 21
1.221029999999999
 31
0.0
  0
LINE
  5
259
330
12E
100
AcDbEntity
  8
AM_4
100
AcDbLine
 10
-2.215769999999996
 20
1.221029999999992
 30
0.0
 11
-2.060279999999996
 21
0.9250199999999928
 31
0.0
  0
LINE
  5
25A
330
12E
100
AcDbEntity
  8
AM_4
100
AcDbLine
 10
-2.060279999999997
 20
0.9250199999999833
 30
0.0
 11
-1.982530000000001
 21
0.5550120000000096
 31
0.0
  0
LINE
  5
25B
330
12E
100
AcDbEntity
  8
AM_4
100
AcDbLine
 10
-1.98253
 20
0.5550120000000035
 30
0.0
 11
-1.98253
 21
-0.5550119999999961
 31
0.0
  0
LINE
  5
25C
330
12E
100
AcDbEntity
  8
AM_4
100
AcDbLine
 10
-1.982529999999994
 20
-0.555011999999969
 30
0.0
 11
-2.060280000000003
 21
-0.9250200000000104
 31
0.0
  0
LINE
  5
25D
330
12E
100
AcDbEntity
  8
AM_4
100
AcDbLine
 10
-2.060280000000002
 20
-0.925020000000001
 30
0.0
 11
-2.215770000000001
 21
-1.22103
 31
0.0
  0
LINE
  5
25E
330
12E
100
AcDbEntity
  8
AM_4
100
AcDbLine
 10
-2.215770000000002
 20
-1.221029999999997
 30
0.0
 11
-2.526750000000002
 21
-1.517029999999998
 31
0.0
  0
LINE
  5
25F
330
12E
100
AcDbEntity
  8
AM_4
100
AcDbLine
 10
-2.526750000000003
 20
-1.517029999999999
 30
0.0
 11
-2.837739999999999
 21
-1.665039999999997
 31
0.0
  0
LINE
  5
260
330
12E
100
AcDbEntity
  8
AM_4
100
AcDbLine
 10
-2.837739999999997
 20
-1.665039999999997
 30
0.0
 11
-3.226470000000005
 21
-1.739039999999999
 31
0.0
  0
LINE
  5
261
330
12E
100
AcDbEntity
  8
AM_4
100
AcDbLine
 10
-3.22647
 20
-1.739039999999996
 30
0.0
 11
-3.84844
 21
-1.739039999999997
 31
0.0
  0
LINE
  5
262
330
12E
100
AcDbEntity
  8
AM_4
100
AcDbLine
 10
-3.848440000000012
 20
-1.739039999999994
 30
0.0
 11
-4.237169999999982
 21
-1.66504
 31
0.0
  0
LINE
  5
263
330
12E
100
AcDbEntity
  8
AM_4
100
AcDbLine
 10
-4.237169999999982
 20
-1.665040000000002
 30
0.0
 11
-4.548159999999973
 21
-1.517030000000006
 31
0.0
  0
LINE
  5
264
330
12E
100
AcDbEntity
  8
AM_4
100
AcDbLine
 10
-4.548159999999973
 20
-1.517030000000024
 30
0.0
 11
-4.859140000000008
 21
-1.221029999999992
 31
0.0
  0
LINE
  5
265
330
12E
100
AcDbEntity
  8
AM_4
100
AcDbLine
 10
-4.859140000000008
 20
-1.22102999999998
 30
0.0
 11
-5.014639999999993
 21
-0.9250200000000087
 31
0.0
  0
LINE
  5
266
330
12E
100
AcDbEntity
  8
AM_4
100
AcDbLine
 10
-5.014639999999993
 20
-0.925020000000026
 30
0.0
 11
-5.092379999999974
 21
-0.5550120000001216
 31
0.0
  0
LINE
  5
267
330
12E
100
AcDbEntity
  8
AM_4
100
AcDbLine
 10
-8.8242
 20
-1.739039999999997
 30
0.0
 11
-8.8242
 21
1.739040000000003
 31
0.0
  0
LINE
  5
268
330
12E
100
AcDbEntity
  8
AM_4
100
AcDbLine
 10
-8.8242
 20
1.739040000000003
 30
0.0
 11
-6.95829
 21
1.739040000000003
 31
0.0
  0
LINE
  5
269
330
12E
100
AcDbEntity
  8
AM_4
100
AcDbLine
 10
-6.958289999999995
 20
1.739040000000003
 30
0.0
 11
-6.569560000000005
 21
1.665040000000005
 31
0.0
  0
LINE
  5
26A
330
12E
100
AcDbEntity
  8
AM_4
100
AcDbLine
 10
-6.569560000000005
 20
1.665040000000004
 30
0.0
 11
-6.258580000000008
 21
1.517030000000005
 31
0.0
  0
LINE
  5
26B
330
12E
100
AcDbEntity
  8
AM_4
100
AcDbLine
 10
-6.258580000000007
 20
1.517030000000011
 30
0.0
 11
-5.947589999999997
 21
1.221030000000003
 31
0.0
  0
LINE
  5
26C
330
12E
100
AcDbEntity
  8
AM_4
100
AcDbLine
 10
-5.947589999999998
 20
1.221029999999998
 30
0.0
 11
-5.792099999999999
 21
0.9250200000000007
 31
0.0
  0
LINE
  5
26D
330
12E
100
AcDbEntity
  8
AM_4
100
AcDbLine
 10
-5.7921
 20
0.9250200000000024
 30
0.0
 11
-5.714349999999998
 21
0.5550119999999974
 31
0.0
  0
LINE
  5
26E
330
12E
100
AcDbEntity
  8
AM_4
100
AcDbLine
 10
-5.71435
 20
0.5550120000000035
 30
0.0
 11
-5.71435
 21
-0.5550119999999961
 31
0.0
  0
LINE
  5
26F
330
12E
100
AcDbEntity
  8
AM_4
100
AcDbLine
 10
-5.714350000000004
 20
-0.5550120000000142
 30
0.0
 11
-5.792100000000005
 21
-0.9250200000000226
 31
0.0
  0
LINE
  5
270
330
12E
100
AcDbEntity
  8
AM_4
100
AcDbLine
 10
-5.792100000000005
 20
-0.925020000000007
 30
0.0
 11
-5.947590000000003
 21
-1.221030000000005
 31
0.0
  0
LINE
  5
271
330
12E
100
AcDbEntity
  8
AM_4
100
AcDbLine
 10
-5.947590000000003
 20
-1.221029999999994
 30
0.0
 11
-6.258579999999999
 21
-1.517029999999989
 31
0.0
  0
LINE
  5
272
330
12E
100
AcDbEntity
  8
AM_4
100
AcDbLine
 10
-6.25858
 20
-1.517029999999998
 30
0.0
 11
-6.569559999999997
 21
-1.665039999999996
 31
0.0
  0
LINE
  5
273
330
12E
100
AcDbEntity
  8
AM_4
100
AcDbLine
 10
-6.569559999999997
 20
-1.665039999999996
 30
0.0
 11
-6.958290000000002
 21
-1.739039999999997
 31
0.0
  0
LINE
  5
274
330
12E
100
AcDbEntity
  8
AM_4
100
AcDbLine
 10
-6.95829
 20
-1.739039999999996
 30
0.0
 11
-8.8242
 21
-1.739039999999997
 31
0.0
  0
LWPOLYLINE
  5
275
330
12E
100
AcDbEntity
  8
AM_4
100
AcDbPolyline
 90
       32
 70
     0
 43
0.0
 10
59.96492420684914
 20
-23.97899148835889
 10
58.39834439913234
 20
-23.48908046236204
 10
56.3873179286537
 20
-23.01397731369915
 10
53.94714992114456
 20
-22.55729786420667
 10
51.09641152855578
 20
-22.12251772024582
 10
47.85679859137785
 20
-21.71294582123958
 10
44.25296652019449
 20
-21.33169925664565
 10
40.31234265312069
 20
-20.98167954302357
 10
36.06491751719863
 20
-20.66555054174168
 10
31.54301658237811
 20
-20.38571818538364
 10
26.78105424517154
 20
-20.14431216714875
 10
21.81527191431653
 20
-19.94316973260069
 10
16.68346219177224
 20
-19.78382169711952
 10
11.42468124819867
 20
-19.66748079547221
 10
6.07895158191516
 20
-19.59503245216886
 10
0.6869574235219539
 20
-19.56702804284751
 10
-4.710264895660488
 20
-19.58368069797262
 10
-10.07163925485125
 20
-19.64486368078354
 10
-15.35636235789054
 20
-19.75011135183778
 10
-20.52421427096117
 20
-19.89862271280835
 10
-25.53586452057037
 20
-20.08926750256464
 10
-30.35317142220148
 20
-20.32059479914214
 10
-34.93947236156362
 20
-20.59084406213465
 10
-39.25986281922404
 20
-20.89795853146983
 10
-43.28146201507686
 20
-21.23960088059525
 10
-46.97366315093365
 20
-21.61317100494479
 10
-50.30836634673853
 20
-22.01582581030432
 10
-53.2601924976226
 20
-22.44450085047546
 10
-55.80667642421627
 20
-22.89593364956141
 10
-57.92843784622912
 20
-23.36668853137858
 10
-59.60932887808505
 20
-23.85318276702676
 10
-59.96492420684911
 20
-23.97899148835888
  0
LINE
  5
276
330
12E
100
AcDbEntity
  8
AM_4
100
AcDbLine
 10
59.96492420684914
 20
-23.97899148835889
 30
0.0
 11
59.96492420684914
 21
23.97899148835889
 31
0.0
  0
LINE
  5
277
330
12E
100
AcDbEntity
  8
AM_4
100
AcDbLine
 10
-59.9649242068491
 20
-23.97899148835888
 30
0.0
 11
-59.9649242068491
 21
23.97899148835888
 31
0.0
  0
LINE
  5
278
330
12E
100
AcDbEntity
  8
AM_4
100
AcDbLine
 10
59.96492420684914
 20
23.97899148835889
 30
0.0
 11
74.47400000000002
 21
29.35
 31
0.0
  0
LWPOLYLINE
  5
279
330
12E
100
AcDbEntity
  8
AM_4
100
AcDbPolyline
 90
       19
 70
     0
 43
0.0
 10
46.57999986041344
 20
29.35
 10
46.44926624682312
 20
29.34429203497184
 10
46.31952759603367
 20
29.32721160527935
 10
46.19177129751596
 20
29.29888870330593
 10
46.06696965384303
 20
29.25953888343744
 10
45.94607248088056
 20
29.20946162156313
 10
45.82999987911449
 20
29.14903803588336
 10
45.71963523113081
 20
29.07872798636991
 10
45.61581847854067
 20
28.99906657495394
 10
45.51933972951757
 20
28.9106600730772
 10
45.43093324559702
 20
28.81418130760027
 10
45.35127185350295
 20
28.71036454018392
 10
45.28096182453006
 20
28.59999987911446
 10
45.22053826045319
 20
28.48392726610263
 10
45.17046102107972
 20
28.36303008382001
 10
45.13111122443874
 20
28.23822843282348
 10
45.10278834624274
 20
28.11047212903443
 10
45.08570794069662
 20
27.98073347506605
 10
45.08
 20
27.84999999999998
  0
LWPOLYLINE
  5
27A
330
12E
100
AcDbEntity
  8
AM_4
100
AcDbPolyline
 90
        7
 70
     0
 43
0.0
 10
-45.08000000000001
 20
27.48515036270047
 10
-46.79350817104609
 20
27.10488167647621
 10
-48.15088949021779
 20
26.71190243706602
 10
-49.14181346606691
 20
26.30920345376918
 10
-49.75873856880103
 20
25.89984950900487
 10
-49.99696962587877
 20
25.48695603346741
 10
-50.0
 20
25.43477067183462
  0
LWPOLYLINE
  5
27B
330
12E
100
AcDbEntity
  8
AM_4
100
AcDbPolyline
 90
       19
 70
     0
 43
0.0
 10
-45.08000000000001
 20
27.84999999999999
 10
-45.08570795286238
 20
27.98073361412148
 10
-45.10278837048169
 20
28.11047226650039
 10
-45.1311112605664
 20
28.23822856765377
 10
-45.17046106882114
 20
28.36303021498849
 10
-45.22053831944503
 20
28.48392739261104
 10
-45.28096189432334
 20
28.59999999999999
 10
-45.35127193356651
 20
28.71036465452656
 10
-45.43093333532153
 20
28.8141814145298
 10
-45.51933982822017
 20
28.91066017177981
 10
-45.61581858547019
 20
28.99906666467846
 10
-45.71963534547342
 20
29.07872806643348
 10
-45.83
 20
29.14903810567665
 10
-45.94607260738894
 20
29.20946168055497
 10
-46.06696978501149
 20
29.25953893117886
 10
-46.19177143234621
 20
29.29888873943359
 10
-46.31952773349959
 20
29.32721162951831
 10
-46.4492663858785
 20
29.34429204713761
 10
-46.57999999999999
 20
29.34999999999999
  0
LINE
  5
27C
330
12E
100
AcDbEntity
  8
AM_4
100
AcDbLine
 10
-74.47400000000002
 20
29.35
 30
0.0
 11
-59.9649242068491
 21
23.97899148835888
 31
0.0
  0
LWPOLYLINE
  5
27D
330
12E
100
AcDbEntity
  8
AM_4
100
AcDbPolyline
 90
       32
 70
     0
 43
0.0
 10
-59.96492420684911
 20
23.97899148835888
 10
-58.39834439913231
 20
23.48908046236204
 10
-56.38731792865369
 20
23.01397731369915
 10
-53.94714992114452
 20
22.55729786420667
 10
-51.09641152855573
 20
22.12251772024582
 10
-47.8567985913778
 20
21.71294582123958
 10
-44.25296652019443
 20
21.33169925664565
 10
-40.31234265312064
 20
20.98167954302357
 10
-36.06491751719858
 20
20.66555054174168
 10
-31.54301658237805
 20
20.38571818538365
 10
-26.78105424517148
 20
20.14431216714875
 10
-21.81527191431646
 20
19.9431697326007
 10
-16.68346219177217
 20
19.78382169711953
 10
-11.4246812481986
 20
19.66748079547222
 10
-6.07895158191509
 20
19.59503245216886
 10
-0.6869574235218845
 20
19.56702804284751
 10
4.710264895660557
 20
19.58368069797262
 10
10.07163925485132
 20
19.64486368078355
 10
15.3563623578906
 20
19.75011135183779
 10
20.52421427096123
 20
19.89862271280836
 10
25.53586452057044
 20
20.08926750256465
 10
30.35317142220154
 20
20.32059479914215
 10
34.93947236156368
 20
20.59084406213466
 10
39.2598628192241
 20
20.89795853146984
 10
43.2814620150769
 20
21.23960088059527
 10
46.9736631509337
 20
21.6131710049448
 10
50.30836634673857
 20
22.01582581030433
 10
53.26019249762263
 20
22.44450085047546
 10
55.8066764242163
 20
22.89593364956142
 10
57.92843784622914
 20
23.36668853137859
 10
59.60932887808507
 20
23.85318276702676
 10
59.96492420684913
 20
23.97899148835889
  0
ENDBLK
  5
131
330
12E
100
AcDbEntity
  8
0
100
AcDbBlockEnd
  0
ENDSEC
  0
SECTION
  2
ENTITIES
  0
INSERT
  5
6F
330
1F
100
AcDbEntity
  8
0
100
AcDbBlockReference
  2
1_129213_4
 10
0.0
 20
0.0
 30
0.0
  0
POINT
  5
27F
330
1F
100
AcDbEntity
  8
ConnectionPoints
100
AcDbPoint
 10
0.0
 20
0.0
 30
0.0
  0
POINT
  5
280
330
1F
100
AcDbEntity
  8
ConnectionPoints
100
AcDbPoint
 10
0.0
 20
17.9
 30
-0.0000000000000011
  0
POINT
  5
281
330
1F
100
AcDbEntity
  8
ConnectionPoints
100
AcDbPoint
 10
0.0
 20
0.0
 30
0.0
  0
POINT
  5
282
330
1F
100
AcDbEntity
  8
ConnectionPoints
100
AcDbPoint
 10
0.0
 20
0.0
 30
0.0
  0
ENDSEC
  0
SECTION
  2
OBJECTS
  0
DICTIONARY
  5
C
330
0
100
AcDbDictionary
281
     1
  3
ACAD_DETAILVIEWSTYLE
350
28A
  3
ACAD_GROUP
350
D
  3
ACAD_LAYOUT
350
1A
  3
ACAD_MATERIAL
350
43
  3
ACAD_MLEADERSTYLE
350
6B
  3
ACAD_MLINESTYLE
350
17
  3
ACAD_PLOTSETTINGS
350
19
  3
ACAD_PLOTSTYLENAME
350
E
  3
ACAD_SCALELIST
350
47
  3
ACAD_SECTIONVIEWSTYLE
350
28B
  3
ACAD_TABLESTYLE
350
69
  3
ACAD_VISUALSTYLE
350
2A
  3
ACDB_RECOMPOSE_DATA
350
287
  3
AcDbVariableDictionary
350
283
  0
SUN
  5
6D
330
29
100
AcDbSun
 90
        1
290
     0
 63
     7
421
 16777215
 40
1.0
291
     1
 91
  2455826
 92
 54000000
292
     0
 70
     2
 71
   256
280
     1
  0
DICTIONARY
  5
28A
102
{ACAD_REACTORS
330
C
102
}
330
C
100
AcDbDictionary
281
     1
  0
DICTIONARY
  5
D
102
{ACAD_REACTORS
330
C
102
}
330
C
100
AcDbDictionary
281
     1
  0
DICTIONARY
  5
1A
102
{ACAD_REACTORS
330
C
102
}
330
C
100
AcDbDictionary
281
     1
  3
Layout1
350
1E
  3
Layout2
350
26
  3
Model
350
22
  0
DICTIONARY
  5
43
102
{ACAD_REACTORS
330
C
102
}
330
C
100
AcDbDictionary
281
     1
  3
ByBlock
350
45
  3
ByLayer
350
44
  3
Global
350
46
  0
DICTIONARY
  5
6B
102
{ACAD_REACTORS
330
C
102
}
330
C
100
AcDbDictionary
281
     1
  3
Standard
350
6C
  0
DICTIONARY
  5
17
102
{ACAD_REACTORS
330
C
102
}
330
C
100
AcDbDictionary
281
     1
  3
Standard
350
18
  0
DICTIONARY
  5
19
102
{ACAD_REACTORS
330
C
102
}
330
C
100
AcDbDictionary
281
     1
  0
ACDBDICTIONARYWDFLT
  5
E
102
{ACAD_REACTORS
330
C
102
}
330
C
100
AcDbDictionary
281
     1
  3
Normal
350
F
100
AcDbDictionaryWithDefault
340
F
  0
DICTIONARY
  5
47
102
{ACAD_REACTORS
330
C
102
}
330
C
100
AcDbDictionary
281
     1
  3
A0
350
48
  3
A1
350
49
  3
A2
350
4A
  3
A3
350
4B
  3
A4
350
4C
  3
A5
350
4D
  3
A6
350
4E
  3
A7
350
4F
  3
A8
350
50
  3
A9
350
51
  3
B0
350
52
  3
B1
350
53
  3
B2
350
54
  3
B3
350
55
  3
B4
350
56
  3
B5
350
57
  3
B6
350
58
  3
B7
350
59
  3
B8
350
5A
  3
B9
350
5B
  3
C0
350
5C
  3
C1
350
5D
  3
C2
350
5E
  3
C3
350
5F
  3
C4
350
60
  3
C5
350
61
  3
C6
350
62
  3
C7
350
63
  3
C8
350
64
  3
C9
350
65
  3
D0
350
66
  3
D1
350
67
  3
D2
350
68
  0
DICTIONARY
  5
28B
102
{ACAD_REACTORS
330
C
102
}
330
C
100
AcDbDictionary
281
     1
  0
DICTIONARY
  5
69
102
{ACAD_REACTORS
330
C
102
}
330
C
100
AcDbDictionary
281
     1
  3
Standard
350
6A
  0
DICTIONARY
  5
2A
102
{ACAD_REACTORS
330
C
102
}
330
C
100
AcDbDictionary
281
     1
  3
2dWireframe
350
2F
  3
Basic
350
32
  3
Brighten
350
36
  3
ColorChange
350
3A
  3
Conceptual
350
34
  3
Dim
350
35
  3
EdgeColorOff
350
3D
  3
Facepattern
350
39
  3
Flat
350
2B
  3
FlatWithEdges
350
2C
  3
Gouraud
350
2D
  3
GouraudWithEdges
350
2E
  3
Hidden
350
31
  3
JitterOff
350
3B
  3
Linepattern
350
38
  3
OverhangOff
350
3C
  3
Realistic
350
33
  3
Shaded
350
42
  3
Shaded with edges
350
41
  3
Shades of Gray
350
3E
  3
Sketchy
350
3F
  3
Thicken
350
37
  3
Wireframe
350
30
  3
X-Ray
350
40
  0
XRECORD
  5
287
102
{ACAD_REACTORS
330
C
102
}
330
C
100
AcDbXrecord
280
     1
 90
        1
330
6A
  0
DICTIONARY
  5
283
102
{ACAD_REACTORS
330
C
102
}
330
C
100
AcDbDictionary
281
     1
  3
CANNOSCALE
350
284
  3
CMLEADERSTYLE
350
289
  3
CTABLESTYLE
350
288
  0
LAYOUT
  5
1E
102
{ACAD_REACTORS
330
1A
102
}
330
1A
100
AcDbPlotSettings
  1

  2
none_device
  4

  6

 40
0.0
 41
0.0
 42
0.0
 43
0.0
 44
0.0
 45
0.0
 46
0.0
 47
0.0
 48
0.0
 49
0.0
140
0.0
141
0.0
142
1.0
143
1.0
 70
   688
 72
     1
 73
     0
 74
     5
  7

 75
    16
 76
     0
 77
     2
 78
   300
147
1.0
148
0.0
149
0.0
100
AcDbLayout
  1
Layout1
 70
     1
 71
     1
 10
0.0
 20
0.0
 11
420.0
 21
297.0
 12
0.0
 22
0.0
 32
0.0
 14
1.000000000000000E+20
 24
1.000000000000000E+20
 34
1.000000000000000E+20
 15
-1.000000000000000E+20
 25
-1.000000000000000E+20
 35
-1.000000000000000E+20
146
0.0
 13
0.0
 23
0.0
 33
0.0
 16
1.0
 26
0.0
 36
0.0
 17
0.0
 27
1.0
 37
0.0
 76
     0
330
1B
  0
LAYOUT
  5
26
102
{ACAD_REACTORS
330
1A
102
}
330
1A
100
AcDbPlotSettings
  1

  2
none_device
  4

  6

 40
0.0
 41
0.0
 42
0.0
 43
0.0
 44
0.0
 45
0.0
 46
0.0
 47
0.0
 48
0.0
 49
0.0
140
0.0
141
0.0
142
1.0
143
1.0
 70
   688
 72
     1
 73
     0
 74
     5
  7

 75
    16
 76
     0
 77
     2
 78
   300
147
1.0
148
0.0
149
0.0
100
AcDbLayout
  1
Layout2
 70
     1
 71
     2
 10
0.0
 20
0.0
 11
0.0
 21
0.0
 12
0.0
 22
0.0
 32
0.0
 14
0.0
 24
0.0
 34
0.0
 15
0.0
 25
0.0
 35
0.0
146
0.0
 13
0.0
 23
0.0
 33
0.0
 16
1.0
 26
0.0
 36
0.0
 17
0.0
 27
1.0
 37
0.0
 76
     0
330
23
  0
LAYOUT
  5
22
102
{ACAD_REACTORS
330
1A
102
}
330
1A
100
AcDbPlotSettings
  1

  2
none_device
  4
Letter_(8.50_x_11.00_Inches)
  6

 40
6.35
 41
6.35
 42
6.35000508
 43
6.35000508
 44
215.9
 45
279.4
 46
0.0
 47
0.0
 48
0.0
 49
0.0
140
0.0
141
0.0
142
1.0
143
1.0
 70
  1712
 72
     1
 73
     0
 74
     0
  7

 75
     0
 76
     0
 77
     2
 78
   300
147
1.0
148
0.0
149
0.0
100
AcDbLayout
  1
Model
 70
     1
 71
     0
 10
0.0
 20
0.0
 11
420.0
 21
297.0
 12
0.0
 22
0.0
 32
0.0
 14
1.000000000000000E+20
 24
1.000000000000000E+20
 34
1.000000000000000E+20
 15
-1.000000000000000E+20
 25
-1.000000000000000E+20
 35
-1.000000000000000E+20
146
0.0
 13
0.0
 23
0.0
 33
0.0
 16
1.0
 26
0.0
 36
0.0
 17
0.0
 27
1.0
 37
0.0
 76
     0
330
1F
331
29
  0
MATERIAL
  5
45
102
{ACAD_REACTORS
330
43
102
}
330
43
100
AcDbMaterial
  1
ByBlock
 72
     1
 94
      127
  0
MATERIAL
  5
44
102
{ACAD_REACTORS
330
43
102
}
330
43
100
AcDbMaterial
  1
ByLayer
 72
     1
 94
      127
  0
MATERIAL
  5
46
102
{ACAD_REACTORS
330
43
102
}
330
43
100
AcDbMaterial
  1
Global
 72
     1
 94
      127
  0
MLEADERSTYLE
  5
6C
102
{ACAD_REACTORS
330
6B
102
}
330
6B
100
AcDbMLeaderStyle
179
     2
170
     2
171
     1
172
     0
 90
        2
 40
0.0
 41
0.0
173
     1
 91
-1056964608
340
14
 92
       -2
290
     1
 42
2.0
291
     1
 43
8.0
  3
Standard
341
0
 44
4.0
300

342
11
174
     1
178
     6
175
     1
176
     0
 93
-1056964608
 45
4.0
292
     0
297
     0
 46
4.0
343
0
 94
-1056964608
 47
1.0
 49
1.0
140
1.0
293
     1
141
0.0
294
     1
177
     0
142
1.0
295
     0
296
     0
143
3.75
271
     0
272
     9
273
     9
298
     0
  0
MLINESTYLE
  5
18
102
{ACAD_REACTORS
330
17
102
}
330
17
100
AcDbMlineStyle
  2
Standard
 70
     0
  3

 62
   256
 51
90.0
 52
90.0
 71
     2
 49
0.5
 62
   256
  6
BYLAYER
 49
-0.5
 62
   256
  6
BYLAYER
  0
ACDBPLACEHOLDER
  5
F
102
{ACAD_REACTORS
330
E
102
}
330
E
  0
SCALE
  5
48
102
{ACAD_REACTORS
330
47
102
}
330
47
100
AcDbScale
 70
     0
300
1:1
140
1.0
141
1.0
290
     1
  0
SCALE
  5
49
102
{ACAD_REACTORS
330
47
102
}
330
47
100
AcDbScale
 70
     0
300
1:2
140
1.0
141
2.0
290
     0
  0
SCALE
  5
4A
102
{ACAD_REACTORS
330
47
102
}
330
47
100
AcDbScale
 70
     0
300
1:4
140
1.0
141
4.0
290
     0
  0
SCALE
  5
4B
102
{ACAD_REACTORS
330
47
102
}
330
47
100
AcDbScale
 70
     0
300
1:5
140
1.0
141
5.0
290
     0
  0
SCALE
  5
4C
102
{ACAD_REACTORS
330
47
102
}
330
47
100
AcDbScale
 70
     0
300
1:8
140
1.0
141
8.0
290
     0
  0
SCALE
  5
4D
102
{ACAD_REACTORS
330
47
102
}
330
47
100
AcDbScale
 70
     0
300
1:10
140
1.0
141
10.0
290
     0
  0
SCALE
  5
4E
102
{ACAD_REACTORS
330
47
102
}
330
47
100
AcDbScale
 70
     0
300
1:16
140
1.0
141
16.0
290
     0
  0
SCALE
  5
4F
102
{ACAD_REACTORS
330
47
102
}
330
47
100
AcDbScale
 70
     0
300
1:20
140
1.0
141
20.0
290
     0
  0
SCALE
  5
50
102
{ACAD_REACTORS
330
47
102
}
330
47
100
AcDbScale
 70
     0
300
1:30
140
1.0
141
30.0
290
     0
  0
SCALE
  5
51
102
{ACAD_REACTORS
330
47
102
}
330
47
100
AcDbScale
 70
     0
300
1:40
140
1.0
141
40.0
290
     0
  0
SCALE
  5
52
102
{ACAD_REACTORS
330
47
102
}
330
47
100
AcDbScale
 70
     0
300
1:50
140
1.0
141
50.0
290
     0
  0
SCALE
  5
53
102
{ACAD_REACTORS
330
47
102
}
330
47
100
AcDbScale
 70
     0
300
1:100
140
1.0
141
100.0
290
     0
  0
SCALE
  5
54
102
{ACAD_REACTORS
330
47
102
}
330
47
100
AcDbScale
 70
     0
300
2:1
140
2.0
141
1.0
290
     0
  0
SCALE
  5
55
102
{ACAD_REACTORS
330
47
102
}
330
47
100
AcDbScale
 70
     0
300
4:1
140
4.0
141
1.0
290
     0
  0
SCALE
  5
56
102
{ACAD_REACTORS
330
47
102
}
330
47
100
AcDbScale
 70
     0
300
8:1
140
8.0
141
1.0
290
     0
  0
SCALE
  5
57
102
{ACAD_REACTORS
330
47
102
}
330
47
100
AcDbScale
 70
     0
300
10:1
140
10.0
141
1.0
290
     0
  0
SCALE
  5
58
102
{ACAD_REACTORS
330
47
102
}
330
47
100
AcDbScale
 70
     0
300
100:1
140
100.0
141
1.0
290
     0
  0
SCALE
  5
59
102
{ACAD_REACTORS
330
47
102
}
330
47
100
AcDbScale
 70
     0
300
1/128" = 1'-0"
140
0.0078125
141
12.0
290
     0
  0
SCALE
  5
5A
102
{ACAD_REACTORS
330
47
102
}
330
47
100
AcDbScale
 70
     0
300
1/64" = 1'-0"
140
0.015625
141
12.0
290
     0
  0
SCALE
  5
5B
102
{ACAD_REACTORS
330
47
102
}
330
47
100
AcDbScale
 70
     0
300
1/32" = 1'-0"
140
0.03125
141
12.0
290
     0
  0
SCALE
  5
5C
102
{ACAD_REACTORS
330
47
102
}
330
47
100
AcDbScale
 70
     0
300
1/16" = 1'-0"
140
0.0625
141
12.0
290
     0
  0
SCALE
  5
5D
102
{ACAD_REACTORS
330
47
102
}
330
47
100
AcDbScale
 70
     0
300
3/32" = 1'-0"
140
0.09375
141
12.0
290
     0
  0
SCALE
  5
5E
102
{ACAD_REACTORS
330
47
102
}
330
47
100
AcDbScale
 70
     0
300
1/8" = 1'-0"
140
0.125
141
12.0
290
     0
  0
SCALE
  5
5F
102
{ACAD_REACTORS
330
47
102
}
330
47
100
AcDbScale
 70
     0
300
3/16" = 1'-0"
140
0.1875
141
12.0
290
     0
  0
SCALE
  5
60
102
{ACAD_REACTORS
330
47
102
}
330
47
100
AcDbScale
 70
     0
300
1/4" = 1'-0"
140
0.25
141
12.0
290
     0
  0
SCALE
  5
61
102
{ACAD_REACTORS
330
47
102
}
330
47
100
AcDbScale
 70
     0
300
3/8" = 1'-0"
140
0.375
141
12.0
290
     0
  0
SCALE
  5
62
102
{ACAD_REACTORS
330
47
102
}
330
47
100
AcDbScale
 70
     0
300
1/2" = 1'-0"
140
0.5
141
12.0
290
     0
  0
SCALE
  5
63
102
{ACAD_REACTORS
330
47
102
}
330
47
100
AcDbScale
 70
     0
300
3/4" = 1'-0"
140
0.75
141
12.0
290
     0
  0
SCALE
  5
64
102
{ACAD_REACTORS
330
47
102
}
330
47
100
AcDbScale
 70
     0
300
1" = 1'-0"
140
1.0
141
12.0
290
     0
  0
SCALE
  5
65
102
{ACAD_REACTORS
330
47
102
}
330
47
100
AcDbScale
 70
     0
300
1-1/2" = 1'-0"
140
1.5
141
12.0
290
     0
  0
SCALE
  5
66
102
{ACAD_REACTORS
330
47
102
}
330
47
100
AcDbScale
 70
     0
300
3" = 1'-0"
140
3.0
141
12.0
290
     0
  0
SCALE
  5
67
102
{ACAD_REACTORS
330
47
102
}
330
47
100
AcDbScale
 70
     0
300
6" = 1'-0"
140
6.0
141
12.0
290
     0
  0
SCALE
  5
68
102
{ACAD_REACTORS
330
47
102
}
330
47
100
AcDbScale
 70
     0
300
1'-0" = 1'-0"
140
12.0
141
12.0
290
     0
  0
TABLESTYLE
  5
6A
102
{ACAD_REACTORS
330
69
102
}
102
{ACAD_XDICTIONARY
360
285
102
}
330
69
100
AcDbTableStyle
  3
Standard
 70
     0
 71
     0
 40
0.06
 41
0.06
280
     0
281
     0
  7
Standard
140
4.5
170
     2
 62
     0
 63
   257
283
     0
 90
        4
 91
        0
  1

274
    -2
284
     1
 64
     0
275
    -2
285
     1
 65
     0
276
    -2
286
     1
 66
     0
277
    -2
287
     1
 67
     0
278
    -2
288
     1
 68
     0
279
    -2
289
     1
 69
     0
  7
Standard
140
6.0
170
     5
 62
     0
 63
   257
283
     0
 90
        4
 91
        0
  1

274
    -2
284
     1
 64
     0
275
    -2
285
     1
 65
     0
276
    -2
286
     1
 66
     0
277
    -2
287
     1
 67
     0
278
    -2
288
     1
 68
     0
279
    -2
289
     1
 69
     0
  7
Standard
140
4.5
170
     5
 62
     0
 63
   257
283
     0
 90
        4
 91
        0
  1

274
    -2
284
     1
 64
     0
275
    -2
285
     1
 65
     0
276
    -2
286
     1
 66
     0
277
    -2
287
     1
 67
     0
278
    -2
288
     1
 68
     0
279
    -2
289
     1
 69
     0
  0
VISUALSTYLE
  5
2F
102
{ACAD_REACTORS
330
2A
102
}
330
2A
100
AcDbVisualStyle
  2
2dWireframe
 70
     4
177
     3
291
     0
 70
    58
 90
        0
176
     1
 90
        2
176
     1
 90
        0
176
     1
 90
        0
176
     1
 40
0.6
176
     1
 40
30.0
176
     1
 62
     7
420
 16777215
176
     1
 90
        1
176
     1
 90
        4
176
     1
 62
     7
176
     1
 62
   257
176
     1
 90
        1
176
     1
 90
        1
176
     1
 40
1.0
176
     1
 90
        0
176
     1
 62
   257
176
     1
 40
1.0
176
     1
 90
        1
176
     1
 90
        6
176
     1
 90
        2
176
     1
 62
     7
176
     1
 90
        5
176
     1
 90
        0
176
     1
 90
        0
176
     1
290
     0
176
     1
 90
        1
176
     1
 40
0.0
176
     1
 90
        0
176
     1
290
     1
176
     1
290
     1
176
     1
290
     0
176
     1
290
     0
176
     1
290
     0
176
     1
290
     0
176
     1
290
     0
176
     1
290
     0
176
     1
290
     0
176
     1
 90
       50
176
     1
 40
0.0
176
     1
 40
1.0
176
     1
 90
        0
176
     1
 62
    18
420
        0
176
     1
 90
       50
176
     1
 90
        3
176
     1
 62
     5
420
      255
176
     1
290
     0
176
     1
 90
       50
176
     1
 90
       50
176
     1
 90
       50
176
     1
290
     0
176
     1
 90
       50
176
     1
 62
   256
176
     0
 40
1.0
176
     0
 90
        2
176
     1
  1
strokes_ogs.tif
176
     1
290
     0
176
     1
 40
1.0
176
     1
 40
1.0
176
     1
  0
VISUALSTYLE
  5
32
102
{ACAD_REACTORS
330
2A
102
}
330
2A
100
AcDbVisualStyle
  2
Basic
 70
     7
177
     3
291
     1
 70
    58
 90
        1
176
     1
 90
        0
176
     1
 90
        1
176
     1
 90
        0
176
     1
 40
0.6
176
     1
 40
30.0
176
     1
 62
     7
420
 16777215
176
     1
 90
        0
176
     1
 90
        4
176
     1
 62
     7
176
     1
 62
   257
176
     1
 90
        1
176
     1
 90
        1
176
     1
 40
1.0
176
     1
 90
        8
176
     1
 62
     7
176
     1
 40
1.0
176
     1
 90
        1
176
     1
 90
        6
176
     1
 90
        2
176
     1
 62
     7
176
     1
 90
        5
176
     1
 90
        0
176
     1
 90
        0
176
     1
290
     0
176
     1
 90
        1
176
     1
 40
0.0
176
     1
 90
        0
176
     1
290
     0
176
     1
290
     1
176
     1
290
     1
176
     1
290
     0
176
     1
290
     0
176
     1
290
     0
176
     1
290
     0
176
     1
290
     0
176
     1
290
     0
176
     1
 90
       50
176
     1
 40
0.0
176
     1
 40
1.0
176
     1
 90
        0
176
     1
 62
    18
420
        0
176
     1
 90
       50
176
     1
 90
        3
176
     1
 62
     5
420
      255
176
     1
290
     0
176
     1
 90
       50
176
     1
 90
       50
176
     1
 90
       50
176
     1
290
     0
176
     1
 90
       50
176
     1
 62
   256
176
     0
 40
1.0
176
     0
 90
        2
176
     1
  1
strokes_ogs.tif
176
     1
290
     0
176
     1
 40
1.0
176
     1
 40
1.0
176
     1
  0
VISUALSTYLE
  5
36
102
{ACAD_REACTORS
330
2A
102
}
330
2A
100
AcDbVisualStyle
  2
Brighten
 70
    12
177
     3
291
     1
 70
    58
 90
        2
176
     1
 90
        2
176
     1
 90
        0
176
     1
 90
        0
176
     1
 40
0.6
176
     1
 40
30.0
176
     1
 62
     7
420
 16777215
176
     1
 90
        1
176
     1
 90
        4
176
     1
 62
     7
176
     1
 62
   257
176
     1
 90
        1
176
     1
 90
        1
176
     1
 40
1.0
176
     1
 90
        8
176
     1
 62
     7
176
     1
 40
1.0
176
     1
 90
        1
176
     1
 90
        6
176
     1
 90
        2
176
     1
 62
     7
176
     1
 90
        5
176
     1
 90
        0
176
     1
 90
        0
176
     1
290
     0
176
     1
 90
        1
176
     1
 40
50.0
176
     1
 90
        0
176
     1
290
     0
176
     1
290
     1
176
     1
290
     1
176
     1
290
     0
176
     1
290
     0
176
     1
290
     0
176
     1
290
     0
176
     1
290
     0
176
     1
290
     0
176
     1
 90
       50
176
     1
 40
0.0
176
     1
 40
1.0
176
     1
 90
        0
176
     1
 62
    18
420
        0
176
     1
 90
       50
176
     1
 90
        3
176
     1
 62
     5
420
      255
176
     1
290
     0
176
     1
 90
       50
176
     1
 90
       50
176
     1
 90
       50
176
     1
290
     0
176
     1
 90
       50
176
     1
 62
   256
176
     0
 40
1.0
176
     0
 90
        2
176
     1
  1
strokes_ogs.tif
176
     1
290
     0
176
     1
 40
1.0
176
     1
 40
1.0
176
     1
  0
VISUALSTYLE
  5
3A
102
{ACAD_REACTORS
330
2A
102
}
330
2A
100
AcDbVisualStyle
  2
ColorChange
 70
    16
177
     3
291
     1
 70
    58
 90
        2
176
     1
 90
        2
176
     1
 90
        3
176
     1
 90
        0
176
     1
 40
0.6
176
     1
 40
30.0
176
     1
 62
     8
420
  8421504
176
     1
 90
        1
176
     1
 90
        4
176
     1
 62
     7
176
     1
 62
   257
176
     1
 90
        1
176
     1
 90
        1
176
     1
 40
1.0
176
     1
 90
        8
176
     1
 62
     8
420
  8421504
176
     1
 40
1.0
176
     1
 90
        1
176
     1
 90
        6
176
     1
 90
        2
176
     1
 62
     7
176
     1
 90
        5
176
     1
 90
        0
176
     1
 90
        0
176
     1
290
     0
176
     1
 90
        1
176
     1
 40
0.0
176
     1
 90
        0
176
     1
290
     0
176
     1
290
     1
176
     1
290
     1
176
     1
290
     0
176
     1
290
     0
176
     1
290
     0
176
     1
290
     0
176
     1
290
     0
176
     1
290
     0
176
     1
 90
       50
176
     1
 40
0.0
176
     1
 40
1.0
176
     1
 90
        0
176
     1
 62
    18
420
        0
176
     1
 90
       50
176
     1
 90
        3
176
     1
 62
     5
420
      255
176
     1
290
     0
176
     1
 90
       50
176
     1
 90
       50
176
     1
 90
       50
176
     1
290
     0
176
     1
 90
       50
176
     1
 62
   256
176
     0
 40
1.0
176
     0
 90
        2
176
     1
  1
strokes_ogs.tif
176
     1
290
     0
176
     1
 40
1.0
176
     1
 40
1.0
176
     1
  0
VISUALSTYLE
  5
34
102
{ACAD_REACTORS
330
2A
102
}
330
2A
100
AcDbVisualStyle
  2
Conceptual
 70
     9
177
     3
291
     0
 70
    58
 90
        3
176
     1
 90
        2
176
     1
 90
        0
176
     1
 90
        0
176
     1
 40
0.6
176
     1
 40
30.0
176
     1
 62
     7
420
 16777215
176
     1
 90
        2
176
     1
 90
        2
176
     1
 62
     7
176
     1
 62
   257
176
     1
 90
        1
176
     1
 90
        1
176
     1
 40
179.0
176
     1
 90
        8
176
     1
 62
     7
176
     1
 40
1.0
176
     1
 90
        1
176
     1
 90
        6
176
     1
 90
        2
176
     1
 62
     7
176
     1
 90
        3
176
     1
 90
        0
176
     1
 90
        0
176
     1
290
     0
176
     1
 90
        1
176
     1
 40
0.0
176
     1
 90
        0
176
     1
290
     0
176
     1
290
     1
176
     1
290
     1
176
     1
290
     0
176
     1
290
     0
176
     1
290
     0
176
     1
290
     0
176
     1
290
     0
176
     1
290
     0
176
     1
 90
       50
176
     1
 40
0.0
176
     1
 40
1.0
176
     1
 90
        0
176
     1
 62
    18
420
        0
176
     1
 90
       50
176
     1
 90
        3
176
     1
 62
     5
420
      255
176
     1
290
     0
176
     1
 90
       50
176
     1
 90
       50
176
     1
 90
       50
176
     1
290
     0
176
     1
 90
       50
176
     1
 62
   256
176
     0
 40
1.0
176
     0
 90
        2
176
     1
  1
strokes_ogs.tif
176
     1
290
     0
176
     1
 40
1.0
176
     1
 40
1.0
176
     1
  0
VISUALSTYLE
  5
35
102
{ACAD_REACTORS
330
2A
102
}
330
2A
100
AcDbVisualStyle
  2
Dim
 70
    11
177
     3
291
     1
 70
    58
 90
        2
176
     1
 90
        2
176
     1
 90
        0
176
     1
 90
        0
176
     1
 40
0.6
176
     1
 40
30.0
176
     1
 62
     7
420
 16777215
176
     1
 90
        1
176
     1
 90
        4
176
     1
 62
     7
176
     1
 62
   257
176
     1
 90
        1
176
     1
 90
        1
176
     1
 40
1.0
176
     1
 90
        8
176
     1
 62
     7
176
     1
 40
1.0
176
     1
 90
        1
176
     1
 90
        6
176
     1
 90
        2
176
     1
 62
     7
176
     1
 90
        5
176
     1
 90
        0
176
     1
 90
        0
176
     1
290
     0
176
     1
 90
        1
176
     1
 40
-50.0
176
     1
 90
        0
176
     1
290
     0
176
     1
290
     1
176
     1
290
     1
176
     1
290
     0
176
     1
290
     0
176
     1
290
     0
176
     1
290
     0
176
     1
290
     0
176
     1
290
     0
176
     1
 90
       50
176
     1
 40
0.0
176
     1
 40
1.0
176
     1
 90
        0
176
     1
 62
    18
420
        0
176
     1
 90
       50
176
     1
 90
        3
176
     1
 62
     5
420
      255
176
     1
290
     0
176
     1
 90
       50
176
     1
 90
       50
176
     1
 90
       50
176
     1
290
     0
176
     1
 90
       50
176
     1
 62
   256
176
     0
 40
1.0
176
     0
 90
        2
176
     1
  1
strokes_ogs.tif
176
     1
290
     0
176
     1
 40
1.0
176
     1
 40
1.0
176
     1
  0
VISUALSTYLE
  5
3D
102
{ACAD_REACTORS
330
2A
102
}
330
2A
100
AcDbVisualStyle
  2
EdgeColorOff
 70
    22
177
     3
291
     1
 70
    58
 90
        2
176
     0
 90
        2
176
     0
 90
        0
176
     0
 90
        0
176
     0
 40
0.6
176
     0
 40
30.0
176
     0
 62
     7
420
 16777215
176
     0
 90
        1
176
     0
 90
        4
176
     0
 62
     7
176
     0
 62
   257
176
     0
 90
        1
176
     0
 90
        1
176
     0
 40
1.0
176
     0
 90
        8
176
     2
 62
     7
176
     0
 40
1.0
176
     0
 90
        1
176
     0
 90
        6
176
     0
 90
        2
176
     0
 62
     7
176
     0
 90
        5
176
     0
 90
        0
176
     0
 90
        0
176
     0
290
     0
176
     0
 90
        1
176
     0
 40
0.0
176
     0
 90
        0
176
     0
290
     0
176
     0
290
     1
176
     0
290
     1
176
     0
290
     0
176
     0
290
     0
176
     0
290
     0
176
     0
290
     0
176
     0
290
     0
176
     0
290
     0
176
     0
 90
       50
176
     0
 40
0.0
176
     0
 40
1.0
176
     0
 90
        0
176
     0
 62
    18
420
        0
176
     0
 90
       50
176
     0
 90
        3
176
     0
 62
     5
420
      255
176
     0
290
     0
176
     0
 90
       50
176
     0
 90
       50
176
     0
 90
       50
176
     0
290
     0
176
     0
 90
       50
176
     0
 62
   256
176
     0
 40
1.0
176
     0
 90
        2
176
     0
  1
strokes_ogs.tif
176
     0
290
     0
176
     0
 40
1.0
176
     0
 40
1.0
176
     0
  0
VISUALSTYLE
  5
39
102
{ACAD_REACTORS
330
2A
102
}
330
2A
100
AcDbVisualStyle
  2
Facepattern
 70
    15
177
     3
291
     1
 70
    58
 90
        2
176
     1
 90
        2
176
     1
 90
        0
176
     1
 90
        0
176
     1
 40
0.6
176
     1
 40
30.0
176
     1
 62
     7
420
 16777215
176
     1
 90
        1
176
     1
 90
        4
176
     1
 62
     7
176
     1
 62
   257
176
     1
 90
        1
176
     1
 90
        1
176
     1
 40
1.0
176
     1
 90
        8
176
     1
 62
     7
176
     1
 40
1.0
176
     1
 90
        1
176
     1
 90
        6
176
     1
 90
        2
176
     1
 62
     7
176
     1
 90
        5
176
     1
 90
        0
176
     1
 90
        0
176
     1
290
     0
176
     1
 90
        1
176
     1
 40
0.0
176
     1
 90
        0
176
     1
290
     0
176
     1
290
     1
176
     1
290
     1
176
     1
290
     0
176
     1
290
     0
176
     1
290
     0
176
     1
290
     0
176
     1
290
     0
176
     1
290
     0
176
     1
 90
       50
176
     1
 40
0.0
176
     1
 40
1.0
176
     1
 90
        0
176
     1
 62
    18
420
        0
176
     1
 90
       50
176
     1
 90
        3
176
     1
 62
     5
420
      255
176
     1
290
     0
176
     1
 90
       50
176
     1
 90
       50
176
     1
 90
       50
176
     1
290
     0
176
     1
 90
       50
176
     1
 62
   256
176
     0
 40
1.0
176
     0
 90
        2
176
     1
  1
strokes_ogs.tif
176
     1
290
     0
176
     1
 40
1.0
176
     1
 40
1.0
176
     1
  0
VISUALSTYLE
  5
2B
102
{ACAD_REACTORS
330
2A
102
}
330
2A
100
AcDbVisualStyle
  2
Flat
 70
     0
177
     3
291
     1
 70
    58
 90
        2
176
     1
 90
        1
176
     1
 90
        1
176
     1
 90
        2
176
     1
 40
0.6
176
     1
 40
30.0
176
     1
 62
     7
420
 16777215
176
     1
 90
        0
176
     1
 90
        0
176
     1
 62
     7
176
     1
 62
   257
176
     1
 90
        1
176
     1
 90
        1
176
     1
 40
1.0
176
     1
 90
        8
176
     1
 62
     7
176
     1
 40
1.0
176
     1
 90
        1
176
     1
 90
        6
176
     1
 90
        2
176
     1
 62
     7
176
     1
 90
        5
176
     1
 90
        0
176
     1
 90
        0
176
     1
290
     0
176
     1
 90
       13
176
     1
 40
0.0
176
     1
 90
        0
176
     1
290
     0
176
     1
290
     1
176
     1
290
     1
176
     1
290
     0
176
     1
290
     0
176
     1
290
     0
176
     1
290
     0
176
     1
290
     0
176
     1
290
     0
176
     1
 90
       50
176
     1
 40
0.0
176
     1
 40
1.0
176
     1
 90
        0
176
     1
 62
    18
420
        0
176
     1
 90
       50
176
     1
 90
        3
176
     1
 62
     5
420
      255
176
     1
290
     0
176
     1
 90
       50
176
     1
 90
       50
176
     1
 90
       50
176
     1
290
     0
176
     1
 90
       50
176
     1
 62
   256
176
     0
 40
1.0
176
     0
 90
        2
176
     1
  1
strokes_ogs.tif
176
     1
290
     0
176
     1
 40
1.0
176
     1
 40
1.0
176
     1
  0
VISUALSTYLE
  5
2C
102
{ACAD_REACTORS
330
2A
102
}
330
2A
100
AcDbVisualStyle
  2
FlatWithEdges
 70
     1
177
     3
291
     1
 70
    58
 90
        2
176
     1
 90
        1
176
     1
 90
        1
176
     1
 90
        2
176
     1
 40
0.6
176
     1
 40
30.0
176
     1
 62
     7
420
 16777215
176
     1
 90
        1
176
     1
 90
        0
176
     1
 62
     7
176
     1
 62
   257
176
     1
 90
        1
176
     1
 90
        1
176
     1
 40
1.0
176
     1
 90
        0
176
     1
 62
   257
176
     1
 40
1.0
176
     1
 90
        1
176
     1
 90
        6
176
     1
 90
        2
176
     1
 62
     7
176
     1
 90
        5
176
     1
 90
        0
176
     1
 90
        0
176
     1
290
     0
176
     1
 90
       13
176
     1
 40
0.0
176
     1
 90
        0
176
     1
290
     0
176
     1
290
     1
176
     1
290
     1
176
     1
290
     0
176
     1
290
     0
176
     1
290
     0
176
     1
290
     0
176
     1
290
     0
176
     1
290
     0
176
     1
 90
       50
176
     1
 40
0.0
176
     1
 40
1.0
176
     1
 90
        0
176
     1
 62
    18
420
        0
176
     1
 90
       50
176
     1
 90
        3
176
     1
 62
     5
420
      255
176
     1
290
     0
176
     1
 90
       50
176
     1
 90
       50
176
     1
 90
       50
176
     1
290
     0
176
     1
 90
       50
176
     1
 62
   256
176
     0
 40
1.0
176
     0
 90
        2
176
     1
  1
strokes_ogs.tif
176
     1
290
     0
176
     1
 40
1.0
176
     1
 40
1.0
176
     1
  0
VISUALSTYLE
  5
2D
102
{ACAD_REACTORS
330
2A
102
}
330
2A
100
AcDbVisualStyle
  2
Gouraud
 70
     2
177
     3
291
     1
 70
    58
 90
        2
176
     1
 90
        2
176
     1
 90
        1
176
     1
 90
        2
176
     1
 40
0.6
176
     1
 40
30.0
176
     1
 62
     7
420
 16777215
176
     1
 90
        0
176
     1
 90
        0
176
     1
 62
     7
176
     1
 62
   257
176
     1
 90
        1
176
     1
 90
        1
176
     1
 40
1.0
176
     1
 90
        0
176
     1
 62
     7
176
     1
 40
1.0
176
     1
 90
        1
176
     1
 90
        6
176
     1
 90
        2
176
     1
 62
     7
176
     1
 90
        5
176
     1
 90
        0
176
     1
 90
        0
176
     1
290
     0
176
     1
 90
       13
176
     1
 40
0.0
176
     1
 90
        0
176
     1
290
     0
176
     1
290
     1
176
     1
290
     1
176
     1
290
     0
176
     1
290
     0
176
     1
290
     0
176
     1
290
     0
176
     1
290
     0
176
     1
290
     0
176
     1
 90
       50
176
     1
 40
0.0
176
     1
 40
1.0
176
     1
 90
        0
176
     1
 62
    18
420
        0
176
     1
 90
       50
176
     1
 90
        3
176
     1
 62
     5
420
      255
176
     1
290
     0
176
     1
 90
       50
176
     1
 90
       50
176
     1
 90
       50
176
     1
290
     0
176
     1
 90
       50
176
     1
 62
   256
176
     0
 40
1.0
176
     0
 90
        2
176
     1
  1
strokes_ogs.tif
176
     1
290
     0
176
     1
 40
1.0
176
     1
 40
1.0
176
     1
  0
VISUALSTYLE
  5
2E
102
{ACAD_REACTORS
330
2A
102
}
330
2A
100
AcDbVisualStyle
  2
GouraudWithEdges
 70
     3
177
     3
291
     1
 70
    58
 90
        2
176
     1
 90
        2
176
     1
 90
        1
176
     1
 90
        2
176
     1
 40
0.6
176
     1
 40
30.0
176
     1
 62
     7
420
 16777215
176
     1
 90
        1
176
     1
 90
        0
176
     1
 62
     7
176
     1
 62
   257
176
     1
 90
        1
176
     1
 90
        1
176
     1
 40
1.0
176
     1
 90
        0
176
     1
 62
   257
176
     1
 40
1.0
176
     1
 90
        1
176
     1
 90
        6
176
     1
 90
        2
176
     1
 62
     7
176
     1
 90
        5
176
     1
 90
        0
176
     1
 90
        0
176
     1
290
     0
176
     1
 90
       13
176
     1
 40
0.0
176
     1
 90
        0
176
     1
290
     0
176
     1
290
     1
176
     1
290
     1
176
     1
290
     0
176
     1
290
     0
176
     1
290
     0
176
     1
290
     0
176
     1
290
     0
176
     1
290
     0
176
     1
 90
       50
176
     1
 40
0.0
176
     1
 40
1.0
176
     1
 90
        0
176
     1
 62
    18
420
        0
176
     1
 90
       50
176
     1
 90
        3
176
     1
 62
     5
420
      255
176
     1
290
     0
176
     1
 90
       50
176
     1
 90
       50
176
     1
 90
       50
176
     1
290
     0
176
     1
 90
       50
176
     1
 62
   256
176
     0
 40
1.0
176
     0
 90
        2
176
     1
  1
strokes_ogs.tif
176
     1
290
     0
176
     1
 40
1.0
176
     1
 40
1.0
176
     1
  0
VISUALSTYLE
  5
31
102
{ACAD_REACTORS
330
2A
102
}
330
2A
100
AcDbVisualStyle
  2
Hidden
 70
     6
177
     3
291
     0
 70
    58
 90
        1
176
     1
 90
        2
176
     1
 90
        2
176
     1
 90
        0
176
     1
 40
0.6
176
     1
 40
30.0
176
     1
 62
     7
420
 16777215
176
     1
 90
        2
176
     1
 90
        2
176
     1
 62
     7
176
     1
 62
   257
176
     1
 90
        2
176
     1
 90
        1
176
     1
 40
40.0
176
     1
 90
        0
176
     1
 62
   257
176
     1
 40
1.0
176
     1
 90
        1
176
     1
 90
        6
176
     1
 90
        2
176
     1
 62
     7
176
     1
 90
        3
176
     1
 90
        0
176
     1
 90
        0
176
     1
290
     0
176
     1
 90
        1
176
     1
 40
0.0
176
     1
 90
        0
176
     1
290
     0
176
     1
290
     1
176
     1
290
     1
176
     1
290
     0
176
     1
290
     0
176
     1
290
     0
176
     1
290
     0
176
     1
290
     0
176
     1
290
     0
176
     1
 90
       50
176
     1
 40
0.0
176
     1
 40
1.0
176
     1
 90
        0
176
     1
 62
    18
420
        0
176
     1
 90
       50
176
     1
 90
        3
176
     1
 62
     5
420
      255
176
     1
290
     0
176
     1
 90
       50
176
     1
 90
       50
176
     1
 90
       50
176
     1
290
     0
176
     1
 90
       50
176
     1
 62
   256
176
     0
 40
1.0
176
     0
 90
        2
176
     1
  1
strokes_ogs.tif
176
     1
290
     0
176
     1
 40
1.0
176
     1
 40
1.0
176
     1
  0
VISUALSTYLE
  5
3B
102
{ACAD_REACTORS
330
2A
102
}
330
2A
100
AcDbVisualStyle
  2
JitterOff
 70
    20
177
     3
291
     1
 70
    58
 90
        2
176
     0
 90
        2
176
     0
 90
        0
176
     0
 90
        0
176
     0
 40
0.6
176
     0
 40
30.0
176
     0
 62
     7
420
 16777215
176
     0
 90
        1
176
     0
 90
        4
176
     0
 62
     7
176
     0
 62
   257
176
     0
 90
        1
176
     0
 90
        1
176
     0
 40
1.0
176
     0
 90
       10
176
     2
 62
     7
176
     0
 40
1.0
176
     0
 90
        1
176
     0
 90
        6
176
     0
 90
        2
176
     0
 62
     7
176
     0
 90
        5
176
     0
 90
        0
176
     0
 90
        0
176
     0
290
     0
176
     0
 90
        1
176
     0
 40
0.0
176
     0
 90
        0
176
     0
290
     0
176
     0
290
     1
176
     0
290
     1
176
     0
290
     0
176
     0
290
     0
176
     0
290
     0
176
     0
290
     0
176
     0
290
     0
176
     0
290
     0
176
     0
 90
       50
176
     0
 40
0.0
176
     0
 40
1.0
176
     0
 90
        0
176
     0
 62
    18
420
        0
176
     0
 90
       50
176
     0
 90
        3
176
     0
 62
     5
420
      255
176
     0
290
     0
176
     0
 90
       50
176
     0
 90
       50
176
     0
 90
       50
176
     0
290
     0
176
     0
 90
       50
176
     0
 62
   256
176
     0
 40
1.0
176
     0
 90
        2
176
     0
  1
strokes_ogs.tif
176
     0
290
     0
176
     0
 40
1.0
176
     0
 40
1.0
176
     0
  0
VISUALSTYLE
  5
38
102
{ACAD_REACTORS
330
2A
102
}
330
2A
100
AcDbVisualStyle
  2
Linepattern
 70
    14
177
     3
291
     1
 70
    58
 90
        2
176
     1
 90
        2
176
     1
 90
        0
176
     1
 90
        0
176
     1
 40
0.6
176
     1
 40
30.0
176
     1
 62
     7
420
 16777215
176
     1
 90
        1
176
     1
 90
        4
176
     1
 62
     7
176
     1
 62
   257
176
     1
 90
        7
176
     1
 90
        7
176
     1
 40
1.0
176
     1
 90
        8
176
     1
 62
     7
176
     1
 40
1.0
176
     1
 90
        1
176
     1
 90
        6
176
     1
 90
        2
176
     1
 62
     7
176
     1
 90
        5
176
     1
 90
        0
176
     1
 90
        0
176
     1
290
     0
176
     1
 90
        1
176
     1
 40
0.0
176
     1
 90
        0
176
     1
290
     0
176
     1
290
     1
176
     1
290
     1
176
     1
290
     0
176
     1
290
     0
176
     1
290
     0
176
     1
290
     0
176
     1
290
     0
176
     1
290
     0
176
     1
 90
       50
176
     1
 40
0.0
176
     1
 40
1.0
176
     1
 90
        0
176
     1
 62
    18
420
        0
176
     1
 90
       50
176
     1
 90
        3
176
     1
 62
     5
420
      255
176
     1
290
     0
176
     1
 90
       50
176
     1
 90
       50
176
     1
 90
       50
176
     1
290
     0
176
     1
 90
       50
176
     1
 62
   256
176
     0
 40
1.0
176
     0
 90
        2
176
     1
  1
strokes_ogs.tif
176
     1
290
     0
176
     1
 40
1.0
176
     1
 40
1.0
176
     1
  0
VISUALSTYLE
  5
3C
102
{ACAD_REACTORS
330
2A
102
}
330
2A
100
AcDbVisualStyle
  2
OverhangOff
 70
    21
177
     3
291
     1
 70
    58
 90
        2
176
     0
 90
        2
176
     0
 90
        0
176
     0
 90
        0
176
     0
 40
0.6
176
     0
 40
30.0
176
     0
 62
     7
420
 16777215
176
     0
 90
        1
176
     0
 90
        4
176
     0
 62
     7
176
     0
 62
   257
176
     0
 90
        1
176
     0
 90
        1
176
     0
 40
1.0
176
     0
 90
        9
176
     2
 62
     7
176
     0
 40
1.0
176
     0
 90
        1
176
     0
 90
        6
176
     0
 90
        2
176
     0
 62
     7
176
     0
 90
        5
176
     0
 90
        0
176
     0
 90
        0
176
     0
290
     0
176
     0
 90
        1
176
     0
 40
0.0
176
     0
 90
        0
176
     0
290
     0
176
     0
290
     1
176
     0
290
     1
176
     0
290
     0
176
     0
290
     0
176
     0
290
     0
176
     0
290
     0
176
     0
290
     0
176
     0
290
     0
176
     0
 90
       50
176
     0
 40
0.0
176
     0
 40
1.0
176
     0
 90
        0
176
     0
 62
    18
420
        0
176
     0
 90
       50
176
     0
 90
        3
176
     0
 62
     5
420
      255
176
     0
290
     0
176
     0
 90
       50
176
     0
 90
       50
176
     0
 90
       50
176
     0
290
     0
176
     0
 90
       50
176
     0
 62
   256
176
     0
 40
1.0
176
     0
 90
        2
176
     0
  1
strokes_ogs.tif
176
     0
290
     0
176
     0
 40
1.0
176
     0
 40
1.0
176
     0
  0
VISUALSTYLE
  5
33
102
{ACAD_REACTORS
330
2A
102
}
330
2A
100
AcDbVisualStyle
  2
Realistic
 70
     8
177
     3
291
     0
 70
    58
 90
        2
176
     1
 90
        3
176
     1
 90
        0
176
     1
 90
        2
176
     1
 40
0.6
176
     1
 40
30.0
176
     1
 62
     7
420
 16777215
176
     1
 90
        0
176
     1
 90
        0
176
     1
 62
     7
176
     1
 62
   257
176
     1
 90
        1
176
     1
 90
        1
176
     1
 40
1.0
176
     1
 90
        8
176
     1
 62
   257
176
     1
 40
1.0
176
     1
 90
        1
176
     1
 90
        6
176
     1
 90
        2
176
     1
 62
     7
176
     1
 90
        3
176
     1
 90
        0
176
     1
 90
        0
176
     1
290
     0
176
     1
 90
       13
176
     1
 40
0.0
176
     1
 90
        0
176
     1
290
     0
176
     1
290
     1
176
     1
290
     1
176
     1
290
     0
176
     1
290
     0
176
     1
290
     0
176
     1
290
     0
176
     1
290
     0
176
     1
290
     0
176
     1
 90
       50
176
     1
 40
0.0
176
     1
 40
1.0
176
     1
 90
        0
176
     1
 62
    18
420
        0
176
     1
 90
       50
176
     1
 90
        3
176
     1
 62
     5
420
      255
176
     1
290
     0
176
     1
 90
       50
176
     1
 90
       50
176
     1
 90
       50
176
     1
290
     0
176
     1
 90
       50
176
     1
 62
   256
176
     0
 40
1.0
176
     0
 90
        2
176
     1
  1
strokes_ogs.tif
176
     1
290
     0
176
     1
 40
1.0
176
     1
 40
1.0
176
     1
  0
VISUALSTYLE
  5
42
102
{ACAD_REACTORS
330
2A
102
}
330
2A
100
AcDbVisualStyle
  2
Shaded
 70
    27
177
     3
291
     0
 70
    58
 90
        2
176
     1
 90
        2
176
     1
 90
        1
176
     1
 90
        2
176
     1
 40
0.6
176
     1
 40
30.0
176
     1
 62
     7
420
 16777215
176
     1
 90
        0
176
     1
 90
        4
176
     1
 62
     7
176
     1
 62
   257
176
     1
 90
        1
176
     1
 90
        1
176
     1
 40
1.0
176
     1
 90
        8
176
     1
 62
   257
176
     1
 40
1.0
176
     1
 90
        1
176
     1
 90
        6
176
     1
 90
        2
176
     1
 62
     8
420
  7895160
176
     1
 90
        3
176
     1
 90
        0
176
     1
 90
        0
176
     1
290
     0
176
     1
 90
        5
176
     1
 40
0.0
176
     1
 90
        0
176
     1
290
     0
176
     1
290
     1
176
     1
290
     1
176
     1
290
     0
176
     1
290
     0
176
     1
290
     0
176
     1
290
     0
176
     1
290
     0
176
     1
290
     0
176
     1
 90
       50
176
     1
 40
0.0
176
     1
 40
1.0
176
     1
 90
        0
176
     1
 62
    18
420
        0
176
     1
 90
       50
176
     1
 90
        3
176
     1
 62
     5
420
      255
176
     1
290
     0
176
     1
 90
       50
176
     1
 90
       50
176
     1
 90
       50
176
     1
290
     0
176
     1
 90
       50
176
     1
 62
   256
176
     0
 40
1.0
176
     0
 90
        2
176
     1
  1
strokes_ogs.tif
176
     1
290
     0
176
     1
 40
1.0
176
     1
 40
1.0
176
     1
  0
VISUALSTYLE
  5
41
102
{ACAD_REACTORS
330
2A
102
}
330
2A
100
AcDbVisualStyle
  2
Shaded with edges
 70
    26
177
     3
291
     0
 70
    58
 90
        2
176
     1
 90
        2
176
     1
 90
        1
176
     1
 90
        2
176
     1
 40
0.6
176
     1
 40
30.0
176
     1
 62
     7
420
 16777215
176
     1
 90
        1
176
     1
 90
       10
176
     1
 62
     7
176
     1
 62
   257
176
     1
 90
        2
176
     1
 90
        1
176
     1
 40
1.0
176
     1
 90
        8
176
     1
 62
   257
176
     1
 40
1.0
176
     1
 90
        1
176
     1
 90
        6
176
     1
 90
        2
176
     1
 62
     7
176
     1
 90
        3
176
     1
 90
        0
176
     1
 90
        0
176
     1
290
     0
176
     1
 90
        5
176
     1
 40
0.0
176
     1
 90
        0
176
     1
290
     0
176
     1
290
     1
176
     1
290
     1
176
     1
290
     0
176
     1
290
     0
176
     1
290
     0
176
     1
290
     0
176
     1
290
     0
176
     1
290
     0
176
     1
 90
       50
176
     1
 40
0.0
176
     1
 40
1.0
176
     1
 90
        0
176
     1
 62
    18
420
        0
176
     1
 90
       50
176
     1
 90
        3
176
     1
 62
     5
420
      255
176
     1
290
     0
176
     1
 90
       50
176
     1
 90
       50
176
     1
 90
       50
176
     1
290
     0
176
     1
 90
       50
176
     1
 62
   256
176
     0
 40
1.0
176
     0
 90
        2
176
     1
  1
strokes_ogs.tif
176
     1
290
     0
176
     1
 40
1.0
176
     1
 40
1.0
176
     1
  0
VISUALSTYLE
  5
3E
102
{ACAD_REACTORS
330
2A
102
}
330
2A
100
AcDbVisualStyle
  2
Shades of Gray
 70
    23
177
     3
291
     0
 70
    58
 90
        2
176
     1
 90
        2
176
     1
 90
        3
176
     1
 90
        0
176
     1
 40
0.6
176
     1
 40
30.0
176
     1
 62
     7
420
 16777215
176
     1
 90
        2
176
     1
 90
        2
176
     1
 62
     7
176
     1
 62
     7
176
     1
 90
        1
176
     1
 90
        1
176
     1
 40
40.0
176
     1
 90
        8
176
     1
 62
     7
176
     1
 40
1.0
176
     1
 90
        1
176
     1
 90
        6
176
     1
 90
        2
176
     1
 62
     7
176
     1
 90
        3
176
     1
 90
        0
176
     1
 90
        0
176
     1
290
     0
176
     1
 90
        1
176
     1
 40
0.0
176
     1
 90
        0
176
     1
290
     0
176
     1
290
     1
176
     1
290
     1
176
     1
290
     0
176
     1
290
     0
176
     1
290
     0
176
     1
290
     0
176
     1
290
     0
176
     1
290
     0
176
     1
 90
       50
176
     1
 40
0.0
176
     1
 40
1.0
176
     1
 90
        0
176
     1
 62
    18
420
        0
176
     1
 90
       50
176
     1
 90
        3
176
     1
 62
     5
420
      255
176
     1
290
     0
176
     1
 90
       50
176
     1
 90
       50
176
     1
 90
       50
176
     1
290
     0
176
     1
 90
       50
176
     1
 62
   256
176
     0
 40
1.0
176
     0
 90
        2
176
     1
  1
strokes_ogs.tif
176
     1
290
     0
176
     1
 40
1.0
176
     1
 40
1.0
176
     1
  0
VISUALSTYLE
  5
3F
102
{ACAD_REACTORS
330
2A
102
}
330
2A
100
AcDbVisualStyle
  2
Sketchy
 70
    24
177
     3
291
     0
 70
    58
 90
        1
176
     1
 90
        2
176
     1
 90
        2
176
     1
 90
        0
176
     1
 40
0.6
176
     1
 40
30.0
176
     1
 62
     7
420
 16777215
176
     1
 90
        2
176
     1
 90
        2
176
     1
 62
     7
176
     1
 62
     7
176
     1
 90
        1
176
     1
 90
        1
176
     1
 40
40.0
176
     1
 90
       11
176
     1
 62
     7
176
     1
 40
1.0
176
     1
 90
        1
176
     1
 90
        6
176
     1
 90
        2
176
     1
 62
     7
176
     1
 90
        6
176
     1
 90
        0
176
     1
 90
        0
176
     1
290
     0
176
     1
 90
        1
176
     1
 40
0.0
176
     1
 90
        0
176
     1
290
     0
176
     1
290
     1
176
     1
290
     1
176
     1
290
     0
176
     1
290
     0
176
     1
290
     0
176
     1
290
     0
176
     1
290
     0
176
     1
290
     0
176
     1
 90
       50
176
     1
 40
0.0
176
     1
 40
1.0
176
     1
 90
        0
176
     1
 62
    18
420
        0
176
     1
 90
       50
176
     1
 90
        3
176
     1
 62
     5
420
      255
176
     1
290
     0
176
     1
 90
       50
176
     1
 90
       50
176
     1
 90
       50
176
     1
290
     0
176
     1
 90
       50
176
     1
 62
   256
176
     0
 40
1.0
176
     0
 90
        2
176
     1
  1
strokes_ogs.tif
176
     1
290
     0
176
     1
 40
1.0
176
     1
 40
1.0
176
     1
  0
VISUALSTYLE
  5
37
102
{ACAD_REACTORS
330
2A
102
}
330
2A
100
AcDbVisualStyle
  2
Thicken
 70
    13
177
     3
291
     1
 70
    58
 90
        2
176
     1
 90
        2
176
     1
 90
        0
176
     1
 90
        0
176
     1
 40
0.6
176
     1
 40
30.0
176
     1
 62
     7
420
 16777215
176
     1
 90
        1
176
     1
 90
        4
176
     1
 62
     7
176
     1
 62
   257
176
     1
 90
        1
176
     1
 90
        1
176
     1
 40
1.0
176
     1
 90
       12
176
     1
 62
     7
176
     1
 40
1.0
176
     1
 90
        1
176
     1
 90
        6
176
     1
 90
        2
176
     1
 62
     7
176
     1
 90
        5
176
     1
 90
        0
176
     1
 90
        0
176
     1
290
     0
176
     1
 90
        1
176
     1
 40
0.0
176
     1
 90
        0
176
     1
290
     0
176
     1
290
     1
176
     1
290
     1
176
     1
290
     0
176
     1
290
     0
176
     1
290
     0
176
     1
290
     0
176
     1
290
     0
176
     1
290
     0
176
     1
 90
       50
176
     1
 40
0.0
176
     1
 40
1.0
176
     1
 90
        0
176
     1
 62
    18
420
        0
176
     1
 90
       50
176
     1
 90
        3
176
     1
 62
     5
420
      255
176
     1
290
     0
176
     1
 90
       50
176
     1
 90
       50
176
     1
 90
       50
176
     1
290
     0
176
     1
 90
       50
176
     1
 62
   256
176
     0
 40
1.0
176
     0
 90
        2
176
     1
  1
strokes_ogs.tif
176
     1
290
     0
176
     1
 40
1.0
176
     1
 40
1.0
176
     1
  0
VISUALSTYLE
  5
30
102
{ACAD_REACTORS
330
2A
102
}
330
2A
100
AcDbVisualStyle
  2
Wireframe
 70
     5
177
     3
291
     0
 70
    58
 90
        0
176
     1
 90
        2
176
     1
 90
        0
176
     1
 90
        0
176
     1
 40
0.6
176
     1
 40
30.0
176
     1
 62
     7
420
 16777215
176
     1
 90
        1
176
     1
 90
        4
176
     1
 62
     7
176
     1
 62
   257
176
     1
 90
        1
176
     1
 90
        1
176
     1
 40
1.0
176
     1
 90
        0
176
     1
 62
   257
176
     1
 40
1.0
176
     1
 90
        1
176
     1
 90
        6
176
     1
 90
        2
176
     1
 62
     7
176
     1
 90
        3
176
     1
 90
        0
176
     1
 90
        0
176
     1
290
     0
176
     1
 90
        1
176
     1
 40
0.0
176
     1
 90
        0
176
     1
290
     0
176
     1
290
     1
176
     1
290
     1
176
     1
290
     0
176
     1
290
     0
176
     1
290
     0
176
     1
290
     0
176
     1
290
     0
176
     1
290
     0
176
     1
 90
       50
176
     1
 40
0.0
176
     1
 40
1.0
176
     1
 90
        0
176
     1
 62
    18
420
        0
176
     1
 90
       50
176
     1
 90
        3
176
     1
 62
     5
420
      255
176
     1
290
     0
176
     1
 90
       50
176
     1
 90
       50
176
     1
 90
       50
176
     1
290
     0
176
     1
 90
       50
176
     1
 62
   256
176
     0
 40
1.0
176
     0
 90
        2
176
     1
  1
strokes_ogs.tif
176
     1
290
     0
176
     1
 40
1.0
176
     1
 40
1.0
176
     1
  0
VISUALSTYLE
  5
40
102
{ACAD_REACTORS
330
2A
102
}
330
2A
100
AcDbVisualStyle
  2
X-Ray
 70
    25
177
     3
291
     0
 70
    58
 90
        2
176
     1
 90
        2
176
     1
 90
        1
176
     1
 90
        1
176
     1
 40
0.5
176
     1
 40
30.0
176
     1
 62
     7
420
 16777215
176
     1
 90
        1
176
     1
 90
        0
176
     1
 62
     7
176
     1
 62
   257
176
     1
 90
        1
176
     1
 90
        1
176
     1
 40
1.0
176
     1
 90
        8
176
     1
 62
     7
176
     1
 40
1.0
176
     1
 90
        1
176
     1
 90
        6
176
     1
 90
        2
176
     1
 62
     7
176
     1
 90
        3
176
     1
 90
        0
176
     1
 90
        0
176
     1
290
     0
176
     1
 90
       13
176
     1
 40
0.0
176
     1
 90
        0
176
     1
290
     0
176
     1
290
     1
176
     1
290
     1
176
     1
290
     0
176
     1
290
     0
176
     1
290
     0
176
     1
290
     0
176
     1
290
     0
176
     1
290
     0
176
     1
 90
       50
176
     1
 40
0.0
176
     1
 40
1.0
176
     1
 90
        0
176
     1
 62
    18
420
        0
176
     1
 90
       50
176
     1
 90
        3
176
     1
 62
     5
420
      255
176
     1
290
     0
176
     1
 90
       50
176
     1
 90
       50
176
     1
 90
       50
176
     1
290
     0
176
     1
 90
       50
176
     1
 62
   256
176
     0
 40
1.0
176
     0
 90
        2
176
     1
  1
strokes_ogs.tif
176
     1
290
     0
176
     1
 40
1.0
176
     1
 40
1.0
176
     1
  0
DICTIONARYVAR
  5
284
102
{ACAD_REACTORS
330
283
102
}
330
283
100
DictionaryVariables
280
     0
  1
1:1
  0
DICTIONARYVAR
  5
289
102
{ACAD_REACTORS
330
283
102
}
330
283
100
DictionaryVariables
280
     0
  1
Standard
  0
DICTIONARYVAR
  5
288
102
{ACAD_REACTORS
330
283
102
}
330
283
100
DictionaryVariables
280
     0
  1
Standard
  0
DICTIONARY
  5
285
330
6A
100
AcDbDictionary
280
     1
281
     1
  3
ACAD_ROUNDTRIP_2008_TABLESTYLE_CELLSTYLEMAP
360
286
  0
CELLSTYLEMAP
  5
286
102
{ACAD_REACTORS
330
285
102
}
330
285
100
AcDbCellStyleMap
 90
        3
300
CELLSTYLE
  1
TABLEFORMAT_BEGIN
 90
        5
170
     1
 91
        0
 92
    32768
 62
   257
 93
        1
300
CONTENTFORMAT
  1
CONTENTFORMAT_BEGIN
 90
        0
 91
        0
 92
        4
 93
        0
300

 40
0.0
140
1.0
 94
        5
 62
     0
340
11
144
6.0
309
CONTENTFORMAT_END
171
     1
301
MARGIN
  1
CELLMARGIN_BEGIN
 40
1.5
 40
1.5
 40
1.5
 40
1.5
 40
1.5
 40
1.5
309
CELLMARGIN_END
 94
        6
 95
        1
302
GRIDFORMAT
  1
GRIDFORMAT_BEGIN
 90
        0
 91
        1
 62
     0
 92
       -2
340
14
 93
        0
 40
0.045
309
GRIDFORMAT_END
 95
        2
302
GRIDFORMAT
  1
GRIDFORMAT_BEGIN
 90
        0
 91
        1
 62
     0
 92
       -2
340
14
 93
        0
 40
0.045
309
GRIDFORMAT_END
 95
        4
302
GRIDFORMAT
  1
GRIDFORMAT_BEGIN
 90
        0
 91
        1
 62
     0
 92
       -2
340
14
 93
        0
 40
0.045
309
GRIDFORMAT_END
 95
        8
302
GRIDFORMAT
  1
GRIDFORMAT_BEGIN
 90
        0
 91
        1
 62
     0
 92
       -2
340
14
 93
        0
 40
0.045
309
GRIDFORMAT_END
 95
       16
302
GRIDFORMAT
  1
GRIDFORMAT_BEGIN
 90
        0
 91
        1
 62
     0
 92
       -2
340
14
 93
        0
 40
0.045
309
GRIDFORMAT_END
 95
       32
302
GRIDFORMAT
  1
GRIDFORMAT_BEGIN
 90
        0
 91
        1
 62
     0
 92
       -2
340
14
 93
        0
 40
0.045
309
GRIDFORMAT_END
309
TABLEFORMAT_END
  1
CELLSTYLE_BEGIN
 90
        1
 91
        1
300
_TITLE
309
CELLSTYLE_END
300
CELLSTYLE
  1
TABLEFORMAT_BEGIN
 90
        5
170
     1
 91
        0
 92
        0
 62
   257
 93
        1
300
CONTENTFORMAT
  1
CONTENTFORMAT_BEGIN
 90
        0
 91
        0
 92
        4
 93
        0
300

 40
0.0
140
1.0
 94
        5
 62
     0
340
11
144
4.5
309
CONTENTFORMAT_END
171
     1
301
MARGIN
  1
CELLMARGIN_BEGIN
 40
1.5
 40
1.5
 40
1.5
 40
1.5
 40
1.5
 40
1.5
309
CELLMARGIN_END
 94
        6
 95
        1
302
GRIDFORMAT
  1
GRIDFORMAT_BEGIN
 90
        0
 91
        1
 62
     0
 92
       -2
340
14
 93
        0
 40
0.045
309
GRIDFORMAT_END
 95
        2
302
GRIDFORMAT
  1
GRIDFORMAT_BEGIN
 90
        0
 91
        1
 62
     0
 92
       -2
340
14
 93
        0
 40
0.045
309
GRIDFORMAT_END
 95
        4
302
GRIDFORMAT
  1
GRIDFORMAT_BEGIN
 90
        0
 91
        1
 62
     0
 92
       -2
340
14
 93
        0
 40
0.045
309
GRIDFORMAT_END
 95
        8
302
GRIDFORMAT
  1
GRIDFORMAT_BEGIN
 90
        0
 91
        1
 62
     0
 92
       -2
340
14
 93
        0
 40
0.045
309
GRIDFORMAT_END
 95
       16
302
GRIDFORMAT
  1
GRIDFORMAT_BEGIN
 90
        0
 91
        1
 62
     0
 92
       -2
340
14
 93
        0
 40
0.045
309
GRIDFORMAT_END
 95
       32
302
GRIDFORMAT
  1
GRIDFORMAT_BEGIN
 90
        0
 91
        1
 62
     0
 92
       -2
340
14
 93
        0
 40
0.045
309
GRIDFORMAT_END
309
TABLEFORMAT_END
  1
CELLSTYLE_BEGIN
 90
        2
 91
        1
300
_HEADER
309
CELLSTYLE_END
300
CELLSTYLE
  1
TABLEFORMAT_BEGIN
 90
        5
170
     1
 91
        0
 92
        0
 62
   257
 93
        1
300
CONTENTFORMAT
  1
CONTENTFORMAT_BEGIN
 90
        0
 91
        0
 92
        4
 93
        0
300

 40
0.0
140
1.0
 94
        2
 62
     0
340
11
144
4.5
309
CONTENTFORMAT_END
171
     1
301
MARGIN
  1
CELLMARGIN_BEGIN
 40
1.5
 40
1.5
 40
1.5
 40
1.5
 40
1.5
 40
1.5
309
CELLMARGIN_END
 94
        6
 95
        1
302
GRIDFORMAT
  1
GRIDFORMAT_BEGIN
 90
        0
 91
        1
 62
     0
 92
       -2
340
14
 93
        0
 40
0.045
309
GRIDFORMAT_END
 95
        2
302
GRIDFORMAT
  1
GRIDFORMAT_BEGIN
 90
        0
 91
        1
 62
     0
 92
       -2
340
14
 93
        0
 40
0.045
309
GRIDFORMAT_END
 95
        4
302
GRIDFORMAT
  1
GRIDFORMAT_BEGIN
 90
        0
 91
        1
 62
     0
 92
       -2
340
14
 93
        0
 40
0.045
309
GRIDFORMAT_END
 95
        8
302
GRIDFORMAT
  1
GRIDFORMAT_BEGIN
 90
        0
 91
        1
 62
     0
 92
       -2
340
14
 93
        0
 40
0.045
309
GRIDFORMAT_END
 95
       16
302
GRIDFORMAT
  1
GRIDFORMAT_BEGIN
 90
        0
 91
        1
 62
     0
 92
       -2
340
14
 93
        0
 40
0.045
309
GRIDFORMAT_END
 95
       32
302
GRIDFORMAT
  1
GRIDFORMAT_BEGIN
 90
        0
 91
        1
 62
     0
 92
       -2
340
14
 93
        0
 40
0.045
309
GRIDFORMAT_END
309
TABLEFORMAT_END
  1
CELLSTYLE_BEGIN
 90
        3
 91
        2
300
_DATA
309
CELLSTYLE_END
  0
ENDSEC
  0
EOF