0
SECTION
  2
HEADER
  9
$ACADVER
  1
AC1027
  9
$ACADMAINTVER
 70
     8
  9
$DWGCODEPAGE
  3
ANSI_1252
  9
$REQUIREDVERSIONS
160
                 0
  9
$COMMENTS
  1
File was created by Cadenas
  9
$CUSTOMPROPERTYTAG
  1
NN
  9
$CUSTOMPROPERTY
  1
Grip Tight Two-Bolt Pillow Block Metric Bore
  9
$CUSTOMPROPERTYTAG
  1
NT
  9
$CUSTOMPROPERTY
  1
GT Normal Duty Pillow Blocks
  9
$CUSTOMPROPERTYTAG
  1
NB
  9
$CUSTOMPROPERTY
  1
129213
  9
$CUSTOMPROPERTYTAG
  1
NBSYN
  9
$CUSTOMPROPERTY
  1
$PN.$LUBE.
  9
$CUSTOMPROPERTYTAG
  1
LINA
  9
$CUSTOMPROPERTY
  1
129213
  9
$CUSTOMPROPERTYTAG
  1
SERIES
  9
$CUSTOMPROPERTY
  1
211
  9
$CUSTOMPROPERTYTAG
  1
SS
  9
$CUSTOMPROPERTY
  1
55
  9
$CUSTOMPROPERTYTAG
  1
PN
  9
$CUSTOMPROPERTY
  1
129213
  9
$CUSTOMPROPERTYTAG
  1
DESCRIPTION
  9
$CUSTOMPROPERTY
  1
P2B-GT-55M
  9
$CUSTOMPROPERTYTAG
  1
A
  9
$CUSTOMPROPERTY
  1
48.8
  9
$CUSTOMPROPERTYTAG
  1
B
  9
$CUSTOMPROPERTY
  1
225.4
  9
$CUSTOMPROPERTYTAG
  1
C
  9
$CUSTOMPROPERTY
  1
58.7
  9
$CUSTOMPROPERTYTAG
  1
DMIN
  9
$CUSTOMPROPERTY
  1
161.9
  9
$CUSTOMPROPERTYTAG
  1
DMAX
  9
$CUSTOMPROPERTY
  1
188.9
  9
$CUSTOMPROPERTYTAG
  1
F
  9
$CUSTOMPROPERTY
  1
M16
  9
$CUSTOMPROPERTYTAG
  1
G
  9
$CUSTOMPROPERTY
  1
31.0
  9
$CUSTOMPROPERTYTAG
  1
H
  9
$CUSTOMPROPERTY
  1
22.2
  9
$CUSTOMPROPERTYTAG
  1
J
  9
$CUSTOMPROPERTY
  1
125.4
  9
$CUSTOMPROPERTYTAG
  1
L
  9
$CUSTOMPROPERTY
  1
82.6
  9
$CUSTOMPROPERTYTAG
  1
M
  9
$CUSTOMPROPERTY
  1
63.5
  9
$CUSTOMPROPERTYTAG
  1
R
  9
$CUSTOMPROPERTY
  1
17.9
  9
$CUSTOMPROPERTYTAG
  1
S
  9
$CUSTOMPROPERTY
  1
31.0
  9
$CUSTOMPROPERTYTAG
  1
U
  9
$CUSTOMPROPERTY
  1
100.0
  9
$CUSTOMPROPERTYTAG
  1
V
  9
$CUSTOMPROPERTY
  1
200.0
  9
$CUSTOMPROPERTYTAG
  1
W
  9
$CUSTOMPROPERTY
  1
20.6
  9
$CUSTOMPROPERTYTAG
  1
X
  9
$CUSTOMPROPERTY
  1
4.8
  9
$CUSTOMPROPERTYTAG
  1
Z
  9
$CUSTOMPROPERTY
  1
30.2
  9
$CUSTOMPROPERTYTAG
  1
COMPANY
  9
$CUSTOMPROPERTY
  1
baldor
  9
$INSBASE
 10
0.0
 20
0.0
 30
0.0
  9
$EXTMIN
 10
1.000000000000000E+20
 20
1.000000000000000E+20
 30
1.000000000000000E+20
  9
$EXTMAX
 10
-1.000000000000000E+20
 20
-1.000000000000000E+20
 30
-1.000000000000000E+20
  9
$LIMMIN
 10
0.0
 20
0.0
  9
$LIMMAX
 10
420.0
 20
297.0
  9
$ORTHOMODE
 70
     0
  9
$REGENMODE
 70
     1
  9
$FILLMODE
 70
     1
  9
$QTEXTMODE
 70
     0
  9
$MIRRTEXT
 70
     1
  9
$LTSCALE
 40
1.0
  9
$ATTMODE
 70
     1
  9
$TEXTSIZE
 40
2.5
  9
$TRACEWID
 40
1.0
  9
$TEXTSTYLE
  7
Standard
  9
$CLAYER
  8
0
  9
$CELTYPE
  6
ByLayer
  9
$CECOLOR
 62
   256
  9
$CELTSCALE
 40
1.0
  9
$DISPSILH
 70
     0
  9
$DIMSCALE
 40
1.0
  9
$DIMASZ
 40
2.5
  9
$DIMEXO
 40
0.625
  9
$DIMDLI
 40
3.75
  9
$DIMRND
 40
0.0
  9
$DIMDLE
 40
0.0
  9
$DIMEXE
 40
1.25
  9
$DIMTP
 40
0.0
  9
$DIMTM
 40
0.0
  9
$DIMTXT
 40
2.5
  9
$DIMCEN
 40
2.5
  9
$DIMTSZ
 40
0.0
  9
$DIMTOL
 70
     0
  9
$DIMLIM
 70
     0
  9
$DIMTIH
 70
     0
  9
$DIMTOH
 70
     0
  9
$DIMSE1
 70
     0
  9
$DIMSE2
 70
     0
  9
$DIMTAD
 70
     1
  9
$DIMZIN
 70
     8
  9
$DIMBLK
  1

  9
$DIMASO
 70
     1
  9
$DIMSHO
 70
     1
  9
$DIMPOST
  1

  9
$DIMAPOST
  1

  9
$DIMALT
 70
     0
  9
$DIMALTD
 70
     3
  9
$DIMALTF
 40
0.03937007874016
  9
$DIMLFAC
 40
1.0
  9
$DIMTOFL
 70
     1
  9
$DIMTVP
 40
0.0
  9
$DIMTIX
 70
     0
  9
$DIMSOXD
 70
     0
  9
$DIMSAH
 70
     0
  9
$DIMBLK1
  1

  9
$DIMBLK2
  1

  9
$DIMSTYLE
  2
ISO-25
  9
$DIMCLRD
 70
     0
  9
$DIMCLRE
 70
     0
  9
$DIMCLRT
 70
     0
  9
$DIMTFAC
 40
1.0
  9
$DIMGAP
 40
0.625
  9
$DIMJUST
 70
     0
  9
$DIMSD1
 70
     0
  9
$DIMSD2
 70
     0
  9
$DIMTOLJ
 70
     0
  9
$DIMTZIN
 70
     8
  9
$DIMALTZ
 70
     0
  9
$DIMALTTZ
 70
     0
  9
$DIMUPT
 70
     0
  9
$DIMDEC
 70
     2
  9
$DIMTDEC
 70
     2
  9
$DIMALTU
 70
     2
  9
$DIMALTTD
 70
     3
  9
$DIMTXSTY
  7
Standard
  9
$DIMAUNIT
 70
     0
  9
$DIMADEC
 70
     0
  9
$DIMALTRND
 40
0.0
  9
$DIMAZIN
 70
     0
  9
$DIMDSEP
 70
    44
  9
$DIMATFIT
 70
     3
  9
$DIMFRAC
 70
     0
  9
$DIMLDRBLK
  1

  9
$DIMLUNIT
 70
     2
  9
$DIMLWD
 70
    -2
  9
$DIMLWE
 70
    -2
  9
$DIMTMOVE
 70
     0
  9
$DIMFXL
 40
1.0
  9
$DIMFXLON
 70
     0
  9
$DIMJOGANG
 40
0.7853981633974483
  9
$DIMTFILL
 70
     0
  9
$DIMTFILLCLR
 70
     0
  9
$DIMARCSYM
 70
     0
  9
$DIMLTYPE
  6

  9
$DIMLTEX1
  6

  9
$DIMLTEX2
  6

  9
$DIMTXTDIRECTION
 70
     0
  9
$LUNITS
 70
     2
  9
$LUPREC
 70
     4
  9
$SKETCHINC
 40
1.0
  9
$FILLETRAD
 40
10.0
  9
$AUNITS
 70
     0
  9
$AUPREC
 70
     0
  9
$MENU
  1
.
  9
$ELEVATION
 40
0.0
  9
$PELEVATION
 40
0.0
  9
$THICKNESS
 40
0.0
  9
$LIMCHECK
 70
     0
  9
$CHAMFERA
 40
0.0
  9
$CHAMFERB
 40
0.0
  9
$CHAMFERC
 40
0.0
  9
$CHAMFERD
 40
0.0
  9
$SKPOLY
 70
     0
  9
$TDCREATE
 40
2458168.995308067
  9
$TDUCREATE
 40
2458168.953641401
  9
$TDUPDATE
 40
2458168.995308241
  9
$TDUUPDATE
 40
2458168.953641574
  9
$TDINDWG
 40
0.0000000116
  9
$TDUSRTIMER
 40
0.0000000116
  9
$USRTIMER
 70
     1
  9
$ANGBASE
 50
0.0
  9
$ANGDIR
 70
     0
  9
$PDMODE
 70
     0
  9
$PDSIZE
 40
0.0
  9
$PLINEWID
 40
0.0
  9
$SPLFRAME
 70
     0
  9
$SPLINETYPE
 70
     6
  9
$SPLINESEGS
 70
     8
  9
$HANDSEED
  5
1C8
  9
$SURFTAB1
 70
     6
  9
$SURFTAB2
 70
     6
  9
$SURFTYPE
 70
     6
  9
$SURFU
 70
     6
  9
$SURFV
 70
     6
  9
$UCSBASE
  2

  9
$UCSNAME
  2

  9
$UCSORG
 10
0.0
 20
0.0
 30
0.0
  9
$UCSXDIR
 10
1.0
 20
0.0
 30
0.0
  9
$UCSYDIR
 10
0.0
 20
1.0
 30
0.0
  9
$UCSORTHOREF
  2

  9
$UCSORTHOVIEW
 70
     0
  9
$UCSORGTOP
 10
0.0
 20
0.0
 30
0.0
  9
$UCSORGBOTTOM
 10
0.0
 20
0.0
 30
0.0
  9
$UCSORGLEFT
 10
0.0
 20
0.0
 30
0.0
  9
$UCSORGRIGHT
 10
0.0
 20
0.0
 30
0.0
  9
$UCSORGFRONT
 10
0.0
 20
0.0
 30
0.0
  9
$UCSORGBACK
 10
0.0
 20
0.0
 30
0.0
  9
$PUCSBASE
  2

  9
$PUCSNAME
  2

  9
$PUCSORG
 10
0.0
 20
0.0
 30
0.0
  9
$PUCSXDIR
 10
1.0
 20
0.0
 30
0.0
  9
$PUCSYDIR
 10
0.0
 20
1.0
 30
0.0
  9
$PUCSORTHOREF
  2

  9
$PUCSORTHOVIEW
 70
     0
  9
$PUCSORGTOP
 10
0.0
 20
0.0
 30
0.0
  9
$PUCSORGBOTTOM
 10
0.0
 20
0.0
 30
0.0
  9
$PUCSORGLEFT
 10
0.0
 20
0.0
 30
0.0
  9
$PUCSORGRIGHT
 10
0.0
 20
0.0
 30
0.0
  9
$PUCSORGFRONT
 10
0.0
 20
0.0
 30
0.0
  9
$PUCSORGBACK
 10
0.0
 20
0.0
 30
0.0
  9
$USERI1
 70
     0
  9
$USERI2
 70
     0
  9
$USERI3
 70
     0
  9
$USERI4
 70
     0
  9
$USERI5
 70
     0
  9
$USERR1
 40
0.0
  9
$USERR2
 40
0.0
  9
$USERR3
 40
0.0
  9
$USERR4
 40
0.0
  9
$USERR5
 40
0.0
  9
$WORLDVIEW
 70
     1
  9
$SHADEDGE
 70
     3
  9
$SHADEDIF
 70
    70
  9
$TILEMODE
 70
     1
  9
$MAXACTVP
 70
    64
  9
$PINSBASE
 10
0.0
 20
0.0
 30
0.0
  9
$PLIMCHECK
 70
     0
  9
$PEXTMIN
 10
1.000000000000000E+20
 20
1.000000000000000E+20
 30
1.000000000000000E+20
  9
$PEXTMAX
 10
-1.000000000000000E+20
 20
-1.000000000000000E+20
 30
-1.000000000000000E+20
  9
$PLIMMIN
 10
0.0
 20
0.0
  9
$PLIMMAX
 10
420.0
 20
297.0
  9
$UNITMODE
 70
     0
  9
$VISRETAIN
 70
     1
  9
$PLINEGEN
 70
     0
  9
$PSLTSCALE
 70
     1
  9
$TREEDEPTH
 70
  3020
  9
$CMLSTYLE
  2
Standard
  9
$CMLJUST
 70
     0
  9
$CMLSCALE
 40
20.0
  9
$PROXYGRAPHICS
 70
     1
  9
$MEASUREMENT
 70
     1
  9
$CELWEIGHT
370
    -1
  9
$ENDCAPS
280
     0
  9
$JOINSTYLE
280
     0
  9
$LWDISPLAY
290
     0
  9
$INSUNITS
 70
     4
  9
$HYPERLINKBASE
  1

  9
$STYLESHEET
  1

  9
$XEDIT
290
     1
  9
$CEPSNTYPE
380
     0
  9
$PSTYLEMODE
290
     1
  9
$FINGERPRINTGUID
  2
{10C11646-34CD-44EF-8FB4-E42FCC2CA526}
  9
$VERSIONGUID
  2
{FAEB1C32-E019-11D5-929B-00C0DF256EC4}
  9
$EXTNAMES
290
     1
  9
$PSVPSCALE
 40
0.0
  9
$OLESTARTUP
290
     0
  9
$SORTENTS
280
   127
  9
$INDEXCTL
280
     0
  9
$HIDETEXT
280
     1
  9
$XCLIPFRAME
280
     2
  9
$HALOGAP
280
     0
  9
$OBSCOLOR
 70
   257
  9
$OBSLTYPE
280
     0
  9
$INTERSECTIONDISPLAY
280
     0
  9
$INTERSECTIONCOLOR
 70
   257
  9
$DIMASSOC
280
     2
  9
$PROJECTNAME
  1

  9
$CAMERADISPLAY
290
     0
  9
$LENSLENGTH
 40
50.0
  9
$CAMERAHEIGHT
 40
0.0
  9
$STEPSPERSEC
 40
2.0
  9
$STEPSIZE
 40
6.0
  9
$3DDWFPREC
 40
2.0
  9
$PSOLWIDTH
 40
5.0
  9
$PSOLHEIGHT
 40
80.0
  9
$LOFTANG1
 40
1.570796326794897
  9
$LOFTANG2
 40
1.570796326794897
  9
$LOFTMAG1
 40
0.0
  9
$LOFTMAG2
 40
0.0
  9
$LOFTPARAM
 70
     7
  9
$LOFTNORMALS
280
     1
  9
$LATITUDE
 40
37.795
  9
$LONGITUDE
 40
-122.394
  9
$NORTHDIRECTION
 40
0.0
  9
$TIMEZONE
 70
 -8000
  9
$LIGHTGLYPHDISPLAY
280
     1
  9
$TILEMODELIGHTSYNCH
280
     1
  9
$CMATERIAL
347
44
  9
$SOLIDHIST
280
     0
  9
$SHOWHIST
280
     1
  9
$DWFFRAME
280
     2
  9
$DGNFRAME
280
     2
  9
$REALWORLDSCALE
290
     1
  9
$INTERFERECOLOR
 62
   256
  9
$CSHADOW
280
     0
  9
$SHADOWPLANELOCATION
 40
0.0
  0
ENDSEC
  0
SECTION
  2
CLASSES
  0
CLASS
  1
ACDBDICTIONARYWDFLT
  2
AcDbDictionaryWithDefault
  3
ObjectDBX Classes
 90
        0
 91
        4
280
     0
281
     0
  0
CLASS
  1
VISUALSTYLE
  2
AcDbVisualStyle
  3
ObjectDBX Classes
 90
     4095
 91
        4
280
     0
281
     0
  0
CLASS
  1
MATERIAL
  2
AcDbMaterial
  3
ObjectDBX Classes
 90
     1153
 91
        4
280
     0
281
     0
  0
CLASS
  1
SCALE
  2
AcDbScale
  3
ObjectDBX Classes
 90
     1153
 91
        4
280
     0
281
     0
  0
CLASS
  1
TABLESTYLE
  2
AcDbTableStyle
  3
ObjectDBX Classes
 90
     4095
 91
        4
280
     0
281
     0
  0
CLASS
  1
MLEADERSTYLE
  2
AcDbMLeaderStyle
  3
ACDB_MLEADERSTYLE_CLASS
 90
     4095
 91
        4
280
     0
281
     0
  0
CLASS
  1
SUN
  2
AcDbSun
  3
SCENEOE
 90
     1153
 91
        4
280
     0
281
     0
  0
CLASS
  1
DICTIONARYVAR
  2
AcDbDictionaryVar
  3
ObjectDBX Classes
 90
        0
 91
        4
280
     0
281
     0
  0
CLASS
  1
CELLSTYLEMAP
  2
AcDbCellStyleMap
  3
ObjectDBX Classes
 90
     1152
 91
        4
280
     0
281
     0
  0
ENDSEC
  0
SECTION
  2
TABLES
  0
TABLE
  2
VPORT
  5
8
330
0
100
AcDbSymbolTable
 70
     1
  0
VPORT
  5
29
330
8
100
AcDbSymbolTableRecord
100
AcDbViewportTableRecord
  2
*Active
 70
     0
 10
0.0
 20
0.0
 11
1.0
 21
1.0
 12
0.0
 22
13.435
 13
0.0
 23
0.0
 14
10.0
 24
10.0
 15
10.0
 25
10.0
 16
0.0
 26
0.0
 36
1.0
 17
0.0
 27
0.0
 37
0.0
 40
156.9474
 41
1.464872944693572
 42
50.0
 43
0.0
 44
0.0
 50
0.0
 51
0.0
 71
     0
 72
   100
 73
     1
 74
     3
 75
     0
 76
     0
 77
     0
 78
     0
281
     0
 65
     1
110
0.0
120
0.0
130
0.0
111
1.0
121
0.0
131
0.0
112
0.0
122
1.0
132
0.0
 79
     0
146
0.0
348
2F
 60
     3
 61
     5
292
     1
282
     1
141
0.0
142
0.0
 63
   250
361
6D
  0
ENDTAB
  0
TABLE
  2
LTYPE
  5
5
330
0
100
AcDbSymbolTable
 70
     3
  0
LTYPE
  5
14
330
5
100
AcDbSymbolTableRecord
100
AcDbLinetypeTableRecord
  2
ByBlock
 70
     0
  3

 72
    65
 73
     0
 40
0.0
  0
LTYPE
  5
15
330
5
100
AcDbSymbolTableRecord
100
AcDbLinetypeTableRecord
  2
ByLayer
 70
     0
  3

 72
    65
 73
     0
 40
0.0
  0
LTYPE
  5
16
330
5
100
AcDbSymbolTableRecord
100
AcDbLinetypeTableRecord
  2
Continuous
 70
     0
  3
Solid line
 72
    65
 73
     0
 40
0.0
  0
LTYPE
  5
A5
330
5
100
AcDbSymbolTableRecord
100
AcDbLinetypeTableRecord
  2
Dashed
 70
     0
  3

 72
    65
 73
     2
 40
2.0
 49
1.0
 74
     0
 49
-1.0
 74
     0
  0
LTYPE
  5
B3
330
5
100
AcDbSymbolTableRecord
100
AcDbLinetypeTableRecord
  2
Center
 70
     0
  3

 72
    65
 73
     4
 40
1.5
 49
0.45
 74
     0
 49
-0.5
 74
     0
 49
0.05
 74
     0
 49
-0.5
 74
     0
  0
ENDTAB
  0
TABLE
  2
LAYER
  5
2
330
0
100
AcDbSymbolTable
 70
     7
  0
LAYER
  5
10
330
2
100
AcDbSymbolTableRecord
100
AcDbLayerTableRecord
  2
0
 70
     0
 62
     7
  6
Continuous
370
    -3
390
F
347
46
348
0
  0
LAYER
  5
72
330
2
100
AcDbSymbolTableRecord
100
AcDbLayerTableRecord
  2
AM_6
 70
     0
 62
    -2
  6
Continuous
370
    35
390
F
347
46
348
0
  0
LAYER
  5
A6
330
2
100
AcDbSymbolTableRecord
100
AcDbLayerTableRecord
  2
AM_9
 70
     0
 62
     6
  6
Dashed
370
    25
390
F
347
46
348
0
  0
LAYER
  5
B4
330
2
100
AcDbSymbolTableRecord
100
AcDbLayerTableRecord
  2
AM_7
 70
     0
 62
     7
  6
Center
370
    25
390
F
347
46
348
0
  0
LAYER
  5
B7
330
2
100
AcDbSymbolTableRecord
100
AcDbLayerTableRecord
  2
AM_4
 70
     0
 62
     3
  6
Continuous
370
    25
390
F
347
46
348
0
  0
LAYER
  5
E8
330
2
100
AcDbSymbolTableRecord
100
AcDbLayerTableRecord
  2
AM_5
 70
     0
 62
     3
  6
Continuous
370
    25
390
F
347
46
348
0
  0
LAYER
  5
1BA
330
2
100
AcDbSymbolTableRecord
100
AcDbLayerTableRecord
  2
ConnectionPoints
 70
     0
 62
     7
  6
Continuous
370
    50
390
F
347
46
348
0
  0
ENDTAB
  0
TABLE
  2
STYLE
  5
3
330
0
100
AcDbSymbolTable
 70
     1
  0
STYLE
  5
11
330
3
100
AcDbSymbolTableRecord
100
AcDbTextStyleTableRecord
  2
Standard
 70
     0
 40
0.0
 41
1.0
 50
0.0
 71
     0
 42
2.5
  3
txt
  4

  0
ENDTAB
  0
TABLE
  2
VIEW
  5
6
330
0
100
AcDbSymbolTable
 70
     0
  0
ENDTAB
  0
TABLE
  2
UCS
  5
7
330
0
100
AcDbSymbolTable
 70
     0
  0
ENDTAB
  0
TABLE
  2
APPID
  5
9
330
0
100
AcDbSymbolTable
 70
     1
  0
APPID
  5
12
330
9
100
AcDbSymbolTableRecord
100
AcDbRegAppTableRecord
  2
ACAD
 70
     0
  0
ENDTAB
  0
TABLE
  2
DIMSTYLE
  5
A
330
0
100
AcDbSymbolTable
 70
     1
100
AcDbDimStyleTable
  0
DIMSTYLE
105
27
330
A
100
AcDbSymbolTableRecord
100
AcDbDimStyleTableRecord
  2
ISO-25
 70
     0
 41
2.5
 42
0.625
 43
3.75
 44
1.25
 73
     0
 74
     0
 77
     1
 78
     8
140
2.5
141
2.5
143
0.03937007874016
147
0.625
171
     3
172
     1
178
     0
271
     2
272
     2
274
     3
278
    44
283
     0
284
     8
340
11
  0
ENDTAB
  0
TABLE
  2
BLOCK_RECORD
  5
1
330
0
100
AcDbSymbolTable
 70
     5
  0
BLOCK_RECORD
  5
1F
330
1
100
AcDbSymbolTableRecord
100
AcDbBlockTableRecord
  2
*Model_Space
340
22
 70
     0
280
     1
281
     0
  0
BLOCK_RECORD
  5
1B
330
1
100
AcDbSymbolTableRecord
100
AcDbBlockTableRecord
  2
*Paper_Space
340
1E
 70
     0
280
     1
281
     0
  0
BLOCK_RECORD
  5
23
330
1
100
AcDbSymbolTableRecord
100
AcDbBlockTableRecord
  2
*Paper_Space0
340
26
 70
     0
280
     1
281
     0
  0
BLOCK_RECORD
  5
6E
330
1
100
AcDbSymbolTableRecord
100
AcDbBlockTableRecord
  2
1_129213_0
340
0
102
{BLKREFS
331
6F
102
}
 70
     0
280
     1
281
     0
  0
BLOCK_RECORD
  5
8F
330
1
100
AcDbSymbolTableRecord
100
AcDbBlockTableRecord
  2
2_129524_0_in_129213_0
340
0
102
{BLKREFS
331
90
102
}
 70
     0
280
     1
281
     0
  0
BLOCK_RECORD
  5
C1
330
1
100
AcDbSymbolTableRecord
100
AcDbBlockTableRecord
  2
3_129950_0_in_129213_0
340
0
102
{BLKREFS
331
C2
102
}
 70
     0
280
     1
281
     0
  0
BLOCK_RECORD
  5
102
330
1
100
AcDbSymbolTableRecord
100
AcDbBlockTableRecord
  2
4_129428_0_in_129213_0
340
0
102
{BLKREFS
331
103
102
}
 70
     0
280
     1
281
     0
  0
ENDTAB
  0
ENDSEC
  0
SECTION
  2
BLOCKS
  0
BLOCK
  5
20
330
1F
100
AcDbEntity
  8
0
100
AcDbBlockBegin
  2
*Model_Space
 70
     0
 10
0.0
 20
0.0
 30
0.0
  3
*Model_Space
  1

  0
ENDBLK
  5
21
330
1F
100
AcDbEntity
  8
0
100
AcDbBlockEnd
  0
BLOCK
  5
1C
330
1B
100
AcDbEntity
 67
     1
  8
0
100
AcDbBlockBegin
  2
*Paper_Space
 70
     0
 10
0.0
 20
0.0
 30
0.0
  3
*Paper_Space
  1

  0
ENDBLK
  5
1D
330
1B
100
AcDbEntity
 67
     1
  8
0
100
AcDbBlockEnd
  0
BLOCK
  5
24
330
23
100
AcDbEntity
  8
0
100
AcDbBlockBegin
  2
*Paper_Space0
 70
     0
 10
0.0
 20
0.0
 30
0.0
  3
*Paper_Space0
  1

  0
ENDBLK
  5
25
330
23
100
AcDbEntity
  8
0
100
AcDbBlockEnd
  0
BLOCK
  5
70
330
6E
100
AcDbEntity
  8
0
100
AcDbBlockBegin
  2
1_129213_0
 70
     2
 10
0.0
 20
0.0
 30
0.0
  3
1_129213_0
  1

  0
ATTDEF
  5
73
330
6E
100
AcDbEntity
  8
AM_6
100
AcDbText
 10
117.7
 20
90.37
 30
0.0
 40
0.5
  1
Grip Tight Two-Bolt Pillow Block Metric Bore
100
AcDbAttributeDefinition
  3

  2
NN
 70
     8
280
     0
  0
ATTDEF
  5
74
330
6E
100
AcDbEntity
  8
AM_6
100
AcDbText
 10
117.7
 20
89.87
 30
0.0
 40
0.5
  1
GT Normal Duty Pillow Blocks
100
AcDbAttributeDefinition
  3

  2
NT
 70
     8
280
     0
  0
ATTDEF
  5
75
330
6E
100
AcDbEntity
  8
AM_6
100
AcDbText
 10
117.7
 20
89.37
 30
0.0
 40
0.5
  1
129213
100
AcDbAttributeDefinition
  3

  2
NB
 70
     8
280
     0
  0
ATTDEF
  5
76
330
6E
100
AcDbEntity
  8
AM_6
100
AcDbText
 10
117.7
 20
88.87
 30
0.0
 40
0.5
  1
$PN.$LUBE.
100
AcDbAttributeDefinition
  3

  2
NBSYN
 70
     8
280
     0
  0
ATTDEF
  5
77
330
6E
100
AcDbEntity
  8
AM_6
100
AcDbText
 10
117.7
 20
88.37
 30
0.0
 40
0.5
  1
129213
100
AcDbAttributeDefinition
  3

  2
LINA
 70
     8
280
     0
  0
ATTDEF
  5
78
330
6E
100
AcDbEntity
  8
AM_6
100
AcDbText
 10
117.7
 20
87.87
 30
0.0
 40
0.5
  1
211
100
AcDbAttributeDefinition
  3

  2
SERIES
 70
     8
280
     0
  0
ATTDEF
  5
79
330
6E
100
AcDbEntity
  8
AM_6
100
AcDbText
 10
117.7
 20
87.37
 30
0.0
 40
0.5
  1
55
100
AcDbAttributeDefinition
  3

  2
SS
 70
     8
280
     0
  0
ATTDEF
  5
7A
330
6E
100
AcDbEntity
  8
AM_6
100
AcDbText
 10
117.7
 20
86.87
 30
0.0
 40
0.5
  1
129213
100
AcDbAttributeDefinition
  3

  2
PN
 70
     8
280
     0
  0
ATTDEF
  5
7B
330
6E
100
AcDbEntity
  8
AM_6
100
AcDbText
 10
117.7
 20
86.37
 30
0.0
 40
0.5
  1
P2B-GT-55M
100
AcDbAttributeDefinition
  3

  2
DESCRIPTION
 70
     8
280
     0
  0
ATTDEF
  5
7C
330
6E
100
AcDbEntity
  8
AM_6
100
AcDbText
 10
117.7
 20
85.87
 30
0.0
 40
0.5
  1
48.8
100
AcDbAttributeDefinition
  3

  2
A
 70
     8
280
     0
  0
ATTDEF
  5
7D
330
6E
100
AcDbEntity
  8
AM_6
100
AcDbText
 10
117.7
 20
85.37
 30
0.0
 40
0.5
  1
225.4
100
AcDbAttributeDefinition
  3

  2
B
 70
     8
280
     0
  0
ATTDEF
  5
7E
330
6E
100
AcDbEntity
  8
AM_6
100
AcDbText
 10
117.7
 20
84.87
 30
0.0
 40
0.5
  1
58.7
100
AcDbAttributeDefinition
  3

  2
C
 70
     8
280
     0
  0
ATTDEF
  5
7F
330
6E
100
AcDbEntity
  8
AM_6
100
AcDbText
 10
117.7
 20
84.37
 30
0.0
 40
0.5
  1
161.9
100
AcDbAttributeDefinition
  3

  2
DMIN
 70
     8
280
     0
  0
ATTDEF
  5
80
330
6E
100
AcDbEntity
  8
AM_6
100
AcDbText
 10
117.7
 20
83.87
 30
0.0
 40
0.5
  1
188.9
100
AcDbAttributeDefinition
  3

  2
DMAX
 70
     8
280
     0
  0
ATTDEF
  5
81
330
6E
100
AcDbEntity
  8
AM_6
100
AcDbText
 10
117.7
 20
83.37
 30
0.0
 40
0.5
  1
M16
100
AcDbAttributeDefinition
  3

  2
F
 70
     8
280
     0
  0
ATTDEF
  5
82
330
6E
100
AcDbEntity
  8
AM_6
100
AcDbText
 10
117.7
 20
82.87
 30
0.0
 40
0.5
  1
31.0
100
AcDbAttributeDefinition
  3

  2
G
 70
     8
280
     0
  0
ATTDEF
  5
83
330
6E
100
AcDbEntity
  8
AM_6
100
AcDbText
 10
117.7
 20
82.37
 30
0.0
 40
0.5
  1
22.2
100
AcDbAttributeDefinition
  3

  2
H
 70
     8
280
     0
  0
ATTDEF
  5
84
330
6E
100
AcDbEntity
  8
AM_6
100
AcDbText
 10
117.7
 20
81.87
 30
0.0
 40
0.5
  1
125.4
100
AcDbAttributeDefinition
  3

  2
J
 70
     8
280
     0
  0
ATTDEF
  5
85
330
6E
100
AcDbEntity
  8
AM_6
100
AcDbText
 10
117.7
 20
81.37
 30
0.0
 40
0.5
  1
82.6
100
AcDbAttributeDefinition
  3

  2
L
 70
     8
280
     0
  0
ATTDEF
  5
86
330
6E
100
AcDbEntity
  8
AM_6
100
AcDbText
 10
117.7
 20
80.87
 30
0.0
 40
0.5
  1
63.5
100
AcDbAttributeDefinition
  3

  2
M
 70
     8
280
     0
  0
ATTDEF
  5
87
330
6E
100
AcDbEntity
  8
AM_6
100
AcDbText
 10
117.7
 20
80.37
 30
0.0
 40
0.5
  1
17.9
100
AcDbAttributeDefinition
  3

  2
R
 70
     8
280
     0
  0
ATTDEF
  5
88
330
6E
100
AcDbEntity
  8
AM_6
100
AcDbText
 10
117.7
 20
79.87
 30
0.0
 40
0.5
  1
31.0
100
AcDbAttributeDefinition
  3

  2
S
 70
     8
280
     0
  0
ATTDEF
  5
89
330
6E
100
AcDbEntity
  8
AM_6
100
AcDbText
 10
117.7
 20
79.37
 30
0.0
 40
0.5
  1
100.0
100
AcDbAttributeDefinition
  3

  2
U
 70
     8
280
     0
  0
ATTDEF
  5
8A
330
6E
100
AcDbEntity
  8
AM_6
100
AcDbText
 10
117.7
 20
78.87
 30
0.0
 40
0.5
  1
200.0
100
AcDbAttributeDefinition
  3

  2
V
 70
     8
280
     0
  0
ATTDEF
  5
8B
330
6E
100
AcDbEntity
  8
AM_6
100
AcDbText
 10
117.7
 20
78.37
 30
0.0
 40
0.5
  1
20.6
100
AcDbAttributeDefinition
  3

  2
W
 70
     8
280
     0
  0
ATTDEF
  5
8C
330
6E
100
AcDbEntity
  8
AM_6
100
AcDbText
 10
117.7
 20
77.87
 30
0.0
 40
0.5
  1
4.8
100
AcDbAttributeDefinition
  3

  2
X
 70
     8
280
     0
  0
ATTDEF
  5
8D
330
6E
100
AcDbEntity
  8
AM_6
100
AcDbText
 10
117.7
 20
77.37
 30
0.0
 40
0.5
  1
30.2
100
AcDbAttributeDefinition
  3

  2
Z
 70
     8
280
     0
  0
ATTDEF
  5
8E
330
6E
100
AcDbEntity
  8
AM_6
100
AcDbText
 10
117.7
 20
76.87
 30
0.0
 40
0.5
  1
baldor
100
AcDbAttributeDefinition
  3

  2
COMPANY
 70
     8
280
     0
  0
INSERT
  5
90
330
6E
100
AcDbEntity
  8
0
100
AcDbBlockReference
  2
2_129524_0_in_129213_0
 10
0.0
 20
0.0
 30
0.0
  0
INSERT
  5
C2
330
6E
100
AcDbEntity
  8
0
100
AcDbBlockReference
  2
3_129950_0_in_129213_0
 10
0.0
 20
0.0
 30
0.0
  0
INSERT
  5
103
330
6E
100
AcDbEntity
  8
0
100
AcDbBlockReference
  2
4_129428_0_in_129213_0
 10
0.0
 20
0.0
 30
0.0
  0
ENDBLK
  5
71
330
6E
100
AcDbEntity
  8
0
100
AcDbBlockEnd
  0
BLOCK
  5
91
330
8F
100
AcDbEntity
  8
0
100
AcDbBlockBegin
  2
2_129524_0_in_129213_0
 70
     2
 10
0.0
 20
0.0
 30
0.0
  3
2_129524_0_in_129213_0
  1

  0
ATTDEF
  5
93
330
8F
100
AcDbEntity
  8
AM_6
100
AcDbText
 10
57.0512669852846
 20
52.0512669852846
 30
0.0
 40
0.5
  1
INS-GT-M B
100
AcDbAttributeDefinition
  3

  2
NN
 70
     8
280
     0
  0
ATTDEF
  5
94
330
8F
100
AcDbEntity
  8
AM_6
100
AcDbText
 10
57.0512669852846
 20
51.5512669852846
 30
0.0
 40
0.5
  1
GT Normal Duty Bearing Inserts
100
AcDbAttributeDefinition
  3

  2
NT
 70
     8
280
     0
  0
ATTDEF
  5
95
330
8F
100
AcDbEntity
  8
AM_6
100
AcDbText
 10
57.0512669852846
 20
51.0512669852846
 30
0.0
 40
0.5
  1
129524
100
AcDbAttributeDefinition
  3

  2
NB
 70
     8
280
     0
  0
ATTDEF
  5
96
330
8F
100
AcDbEntity
  8
AM_6
100
AcDbText
 10
57.0512669852846
 20
50.5512669852846
 30
0.0
 40
0.5
  1
$PN.
100
AcDbAttributeDefinition
  3

  2
NBSYN
 70
     8
280
     0
  0
ATTDEF
  5
97
330
8F
100
AcDbEntity
  8
AM_6
100
AcDbText
 10
57.0512669852846
 20
50.0512669852846
 30
0.0
 40
0.5
  1
129524
100
AcDbAttributeDefinition
  3

  2
LINA
 70
     8
280
     0
  0
ATTDEF
  5
98
330
8F
100
AcDbEntity
  8
AM_6
100
AcDbText
 10
57.0512669852846
 20
49.5512669852846
 30
0.0
 40
0.5
  1
211
100
AcDbAttributeDefinition
  3

  2
SERIES
 70
     8
280
     0
  0
ATTDEF
  5
99
330
8F
100
AcDbEntity
  8
AM_6
100
AcDbText
 10
57.0512669852846
 20
49.0512669852846
 30
0.0
 40
0.5
  1
129524
100
AcDbAttributeDefinition
  3

  2
PN
 70
     8
280
     0
  0
ATTDEF
  5
9A
330
8F
100
AcDbEntity
  8
AM_6
100
AcDbText
 10
57.0512669852846
 20
48.5512669852846
 30
0.0
 40
0.5
  1
INS-GT-11
100
AcDbAttributeDefinition
  3

  2
DESCRIPTION
 70
     8
280
     0
  0
ATTDEF
  5
9B
330
8F
100
AcDbEntity
  8
AM_6
100
AcDbText
 10
57.0512669852846
 20
48.0512669852846
 30
0.0
 40
0.5
  1
49.0
100
AcDbAttributeDefinition
  3

  2
A
 70
     8
280
     0
  0
ATTDEF
  5
9C
330
8F
100
AcDbEntity
  8
AM_6
100
AcDbText
 10
57.0512669852846
 20
47.5512669852846
 30
0.0
 40
0.5
  1
22.1
100
AcDbAttributeDefinition
  3

  2
C
 70
     8
280
     0
  0
ATTDEF
  5
9D
330
8F
100
AcDbEntity
  8
AM_6
100
AcDbText
 10
57.0512669852846
 20
47.0512669852846
 30
0.0
 40
0.5
  1
100.0
100
AcDbAttributeDefinition
  3

  2
D
 70
     8
280
     0
  0
ATTDEF
  5
9E
330
8F
100
AcDbEntity
  8
AM_6
100
AcDbText
 10
57.0512669852846
 20
46.5512669852846
 30
0.0
 40
0.5
  1
6.4
100
AcDbAttributeDefinition
  3

  2
J
 70
     8
280
     0
  0
ATTDEF
  5
9F
330
8F
100
AcDbEntity
  8
AM_6
100
AcDbText
 10
57.0512669852846
 20
46.0512669852846
 30
0.0
 40
0.5
  1
87.1
100
AcDbAttributeDefinition
  3

  2
L
 70
     8
280
     0
  0
ATTDEF
  5
A0
330
8F
100
AcDbEntity
  8
AM_6
100
AcDbText
 10
57.0512669852846
 20
45.5512669852846
 30
0.0
 40
0.5
  1
#10 - 32 x 1/4
100
AcDbAttributeDefinition
  3

  2
N
 70
     8
280
     0
  0
ATTDEF
  5
A1
330
8F
100
AcDbEntity
  8
AM_6
100
AcDbText
 10
57.0512669852846
 20
45.0512669852846
 30
0.0
 40
0.5
  1
17.0
100
AcDbAttributeDefinition
  3

  2
W
 70
     8
280
     0
  0
ATTDEF
  5
A2
330
8F
100
AcDbEntity
  8
AM_6
100
AcDbText
 10
57.0512669852846
 20
44.5512669852846
 30
0.0
 40
0.5
  1
33.5
100
AcDbAttributeDefinition
  3

  2
X
 70
     8
280
     0
  0
ATTDEF
  5
A3
330
8F
100
AcDbEntity
  8
AM_6
100
AcDbText
 10
57.0512669852846
 20
44.0512669852846
 30
0.0
 40
0.5
  1
32.0
100
AcDbAttributeDefinition
  3

  2
Y
 70
     8
280
     0
  0
ATTDEF
  5
A4
330
8F
100
AcDbEntity
  8
AM_6
100
AcDbText
 10
57.0512669852846
 20
43.5512669852846
 30
0.0
 40
0.5
  1
baldor
100
AcDbAttributeDefinition
  3

  2
COMPANY
 70
     8
280
     0
  0
CIRCLE
  5
A7
330
8F
100
AcDbEntity
  8
AM_9
100
AcDbCircle
 10
0.0
 20
0.0
 30
0.0
 40
33.46266247964636
  0
ARC
  5
A8
330
8F
100
AcDbEntity
  8
AM_9
100
AcDbCircle
 10
-0.0000000000133369
 20
-0.0000000000063345
 30
0.0
 40
49.99999999998524
100
AcDbArc
 50
205.6308163567398
 51
207.6828541563363
  0
ARC
  5
A9
330
8F
100
AcDbEntity
  8
AM_9
100
AcDbCircle
 10
-0.0000000000781384
 20
0.0000000000409308
 30
0.0
 40
50.0000000000882
100
AcDbArc
 50
331.6391814686604
 51
334.3691836432569
  0
ARC
  5
AA
330
8F
100
AcDbEntity
  8
AM_9
100
AcDbCircle
 10
0.0000000000001208
 20
0.0000000000210747
 30
0.0
 40
50.00000000000992
100
AcDbArc
 50
207.7844751534423
 51
331.5476107017772
  0
CIRCLE
  5
AB
330
8F
100
AcDbEntity
  8
AM_9
100
AcDbCircle
 10
0.0
 20
0.0
 30
0.0
 40
47.79
  0
CIRCLE
  5
AC
330
8F
100
AcDbEntity
  8
AM_9
100
AcDbCircle
 10
0.0
 20
0.0
 30
0.0
 40
48.66228504524587
  0
CIRCLE
  5
AD
330
8F
100
AcDbEntity
  8
AM_9
100
AcDbCircle
 10
0.0
 20
0.0
 30
0.0
 40
35.60039682539682
  0
ARC
  5
AE
330
8F
100
AcDbEntity
  8
AM_9
100
AcDbCircle
 10
0.0000000000000817
 20
0.0000000000001421
 30
0.0
 40
38.71111111111102
100
AcDbArc
 50
5.038785436969808
 51
114.9612145630301
  0
ARC
  5
AF
330
8F
100
AcDbEntity
  8
AM_9
100
AcDbCircle
 10
-0.0000000000000107
 20
0.0000000000000018
 30
0.0
 40
38.7111111111111
100
AcDbArc
 50
125.0387854369701
 51
234.9612145630299
  0
ARC
  5
B0
330
8F
100
AcDbEntity
  8
AM_9
100
AcDbCircle
 10
0.000000000000008
 20
-0.0000000000000142
 30
0.0
 40
38.7111111111111
100
AcDbArc
 50
245.0387854369701
 51
354.96121456303
  0
CIRCLE
  5
B1
330
8F
100
AcDbEntity
  8
AM_9
100
AcDbCircle
 10
0.0
 20
0.0
 30
0.0
 40
32.48968253968254
  0
CIRCLE
  5
B2
330
8F
100
AcDbEntity
  8
AM_9
100
AcDbCircle
 10
0.0
 20
0.0
 30
0.0
 40
37.82711111111111
  0
LINE
  5
B5
330
8F
100
AcDbEntity
  8
AM_7
100
AcDbLine
 10
-52.0512669852846
 20
0.0
 30
0.0
 11
52.0512669852846
 21
0.0
 31
0.0
  0
LINE
  5
B6
330
8F
100
AcDbEntity
  8
AM_7
100
AcDbLine
 10
0.0
 20
-52.0512669852846
 30
0.0
 11
0.0
 21
52.0512669852846
 31
0.0
  0
CIRCLE
  5
B8
330
8F
100
AcDbEntity
  8
AM_4
100
AcDbCircle
 10
0.0
 20
0.0
 30
0.0
 40
49.57263522408057
  0
CIRCLE
  5
B9
330
8F
100
AcDbEntity
  8
AM_4
100
AcDbCircle
 10
0.0
 20
0.0
 30
0.0
 40
49.3549226454338
  0
CIRCLE
  5
BA
330
8F
100
AcDbEntity
  8
AM_4
100
AcDbCircle
 10
0.0
 20
0.0
 30
0.0
 40
48.88328504524586
  0
CIRCLE
  5
BB
330
8F
100
AcDbEntity
  8
AM_4
100
AcDbCircle
 10
0.0
 20
0.0
 30
0.0
 40
48.87462836067637
  0
CIRCLE
  5
BC
330
8F
100
AcDbEntity
  8
AM_4
100
AcDbCircle
 10
0.0
 20
0.0
 30
0.0
 40
48.01695196947391
  0
CIRCLE
  5
BD
330
8F
100
AcDbEntity
  8
AM_4
100
AcDbCircle
 10
0.0
 20
0.0
 30
0.0
 40
47.19396883195165
  0
ARC
  5
BE
330
8F
100
AcDbEntity
  8
AM_4
100
AcDbCircle
 10
-0.0000000000016733
 20
0.000000000002899
 30
0.0
 40
38.71111111110778
100
AcDbArc
 50
114.9612145630295
 51
125.0387854369706
  0
ARC
  5
BF
330
8F
100
AcDbEntity
  8
AM_4
100
AcDbCircle
 10
-0.0000000000005116
 20
-0.000000000000874
 30
0.0
 40
38.71111111111011
100
AcDbArc
 50
234.9612145630298
 51
245.0387854369702
  0
ARC
  5
C0
330
8F
100
AcDbEntity
  8
AM_4
100
AcDbCircle
 10
0.0000000000014495
 20
-0.0000000000000009
 30
0.0
 40
38.71111111110967
100
AcDbArc
 50
354.9612145630297
 51
5.038785436970241
  0
ENDBLK
  5
92
330
8F
100
AcDbEntity
  8
0
100
AcDbBlockEnd
  0
BLOCK
  5
C3
330
C1
100
AcDbEntity
  8
0
100
AcDbBlockBegin
  2
3_129950_0_in_129213_0
 70
     2
 10
0.0
 20
0.0
 30
0.0
  3
3_129950_0_in_129213_0
  1

  0
ATTDEF
  5
C5
330
C1
100
AcDbEntity
  8
AM_6
100
AcDbText
 10
46.15981049519058
 20
41.29026614249717
 30
0.0
 40
0.5
  1
Grip Tight Normal Duty Adapter and Nut Metric Bore
100
AcDbAttributeDefinition
  3

  2
NN
 70
     8
280
     0
  0
ATTDEF
  5
C6
330
C1
100
AcDbEntity
  8
AM_6
100
AcDbText
 10
46.15981049519058
 20
40.79026614249717
 30
0.0
 40
0.5
  1
GT and GTM Adapter & Lock Nut Assemblies
100
AcDbAttributeDefinition
  3

  2
NT
 70
     8
280
     0
  0
ATTDEF
  5
C7
330
C1
100
AcDbEntity
  8
AM_6
100
AcDbText
 10
46.15981049519058
 20
40.29026614249717
 30
0.0
 40
0.5
  1
129950
100
AcDbAttributeDefinition
  3

  2
NB
 70
     8
280
     0
  0
ATTDEF
  5
C8
330
C1
100
AcDbEntity
  8
AM_6
100
AcDbText
 10
46.15981049519058
 20
39.79026614249717
 30
0.0
 40
0.5
  1
$PN.
100
AcDbAttributeDefinition
  3

  2
NBSYN
 70
     8
280
     0
  0
ATTDEF
  5
C9
330
C1
100
AcDbEntity
  8
AM_6
100
AcDbText
 10
46.15981049519058
 20
39.29026614249717
 30
0.0
 40
0.5
  1
129950
100
AcDbAttributeDefinition
  3

  2
LINA
 70
     8
280
     0
  0
ATTDEF
  5
CA
330
C1
100
AcDbEntity
  8
AM_6
100
AcDbText
 10
46.15981049519058
 20
38.79026614249717
 30
0.0
 40
0.5
  1
211
100
AcDbAttributeDefinition
  3

  2
SERIES
 70
     8
280
     0
  0
ATTDEF
  5
CB
330
C1
100
AcDbEntity
  8
AM_6
100
AcDbText
 10
46.15981049519058
 20
38.29026614249717
 30
0.0
 40
0.5
  1
55
100
AcDbAttributeDefinition
  3

  2
SS
 70
     8
280
     0
  0
ATTDEF
  5
CC
330
C1
100
AcDbEntity
  8
AM_6
100
AcDbText
 10
46.15981049519058
 20
37.79026614249717
 30
0.0
 40
0.5
  1
129950
100
AcDbAttributeDefinition
  3

  2
PN
 70
     8
280
     0
  0
ATTDEF
  5
CD
330
C1
100
AcDbEntity
  8
AM_6
100
AcDbText
 10
46.15981049519058
 20
37.29026614249717
 30
0.0
 40
0.5
  1
AN-GT-11-55M
100
AcDbAttributeDefinition
  3

  2
DESCRIPTION
 70
     8
280
     0
  0
ATTDEF
  5
CE
330
C1
100
AcDbEntity
  8
AM_6
100
AcDbText
 10
46.15981049519058
 20
36.79026614249717
 30
0.0
 40
0.5
  1
48.8
100
AcDbAttributeDefinition
  3

  2
A
 70
     8
280
     0
  0
ATTDEF
  5
CF
330
C1
100
AcDbEntity
  8
AM_6
100
AcDbText
 10
46.15981049519058
 20
36.29026614249717
 30
0.0
 40
0.5
  1
24.0
100
AcDbAttributeDefinition
  3

  2
C
 70
     8
280
     0
  0
ATTDEF
  5
D0
330
C1
100
AcDbEntity
  8
AM_6
100
AcDbText
 10
46.15981049519058
 20
35.79026614249717
 30
0.0
 40
0.5
  1
100.0
100
AcDbAttributeDefinition
  3

  2
D
 70
     8
280
     0
  0
ATTDEF
  5
D1
330
C1
100
AcDbEntity
  8
AM_6
100
AcDbText
 10
46.15981049519058
 20
35.29026614249717
 30
0.0
 40
0.5
  1
6.8
100
AcDbAttributeDefinition
  3

  2
J
 70
     8
280
     0
  0
ATTDEF
  5
D2
330
C1
100
AcDbEntity
  8
AM_6
100
AcDbText
 10
46.15981049519058
 20
34.79026614249717
 30
0.0
 40
0.5
  1
82.6
100
AcDbAttributeDefinition
  3

  2
L
 70
     8
280
     0
  0
ATTDEF
  5
D3
330
C1
100
AcDbEntity
  8
AM_6
100
AcDbText
 10
46.15981049519058
 20
34.29026614249717
 30
0.0
 40
0.5
  1
10 - 32 x 1/4
100
AcDbAttributeDefinition
  3

  2
N
 70
     8
280
     0
  0
ATTDEF
  5
D4
330
C1
100
AcDbEntity
  8
AM_6
100
AcDbText
 10
46.15981049519058
 20
33.79026614249717
 30
0.0
 40
0.5
  1
17.9
100
AcDbAttributeDefinition
  3

  2
W
 70
     8
280
     0
  0
ATTDEF
  5
D5
330
C1
100
AcDbEntity
  8
AM_6
100
AcDbText
 10
46.15981049519058
 20
33.29026614249717
 30
0.0
 40
0.5
  1
30.2
100
AcDbAttributeDefinition
  3

  2
X
 70
     8
280
     0
  0
ATTDEF
  5
D6
330
C1
100
AcDbEntity
  8
AM_6
100
AcDbText
 10
46.15981049519058
 20
32.79026614249717
 30
0.0
 40
0.5
  1
31.0
100
AcDbAttributeDefinition
  3

  2
Y
 70
     8
280
     0
  0
ATTDEF
  5
D7
330
C1
100
AcDbEntity
  8
AM_6
100
AcDbText
 10
46.15981049519058
 20
32.29026614249717
 30
0.0
 40
0.5
  1
baldor
100
AcDbAttributeDefinition
  3

  2
COMPANY
 70
     8
280
     0
  0
LINE
  5
D8
330
C1
100
AcDbEntity
  8
AM_9
100
AcDbLine
 10
1.25
 20
30.81125355032462
 30
0.0
 11
1.25
 21
31.80711796368143
 31
0.0
  0
LINE
  5
D9
330
C1
100
AcDbEntity
  8
AM_9
100
AcDbLine
 10
-1.25
 20
30.81125355032461
 30
0.0
 11
-1.25
 21
31.80711796368143
 31
0.0
  0
ARC
  5
DA
330
C1
100
AcDbEntity
  8
AM_9
100
AcDbCircle
 10
-0.0000000000000001
 20
-0.0000000000000045
 30
0.0
 40
31.83167059950744
100
AcDbArc
 50
92.2505304562306
 51
87.7494695437694
  0
CIRCLE
  5
DB
330
C1
100
AcDbEntity
  8
AM_9
100
AcDbCircle
 10
0.0
 20
0.0
 30
0.0
 40
33.76111111111115
  0
CIRCLE
  5
DC
330
C1
100
AcDbEntity
  8
AM_9
100
AcDbCircle
 10
0.0
 20
0.0
 30
0.0
 40
37.12411111111111
  0
LINE
  5
DD
330
C1
100
AcDbEntity
  8
AM_9
100
AcDbLine
 10
-40.8682
 20
-1.981200000000003
 30
0.0
 11
-31.4068
 21
-1.981200000000003
 31
0.0
  0
LINE
  5
DE
330
C1
100
AcDbEntity
  8
AM_9
100
AcDbLine
 10
-31.4068
 20
1.981200000000003
 30
0.0
 11
-40.8682
 21
1.981200000000003
 31
0.0
  0
LINE
  5
DF
330
C1
100
AcDbEntity
  8
AM_9
100
AcDbLine
 10
-40.8682
 20
1.981200000000003
 30
0.0
 11
-41.22925359212985
 21
2.342253592129855
 31
0.0
  0
LINE
  5
E0
330
C1
100
AcDbEntity
  8
AM_9
100
AcDbLine
 10
-41.23261077177505
 20
-2.345610771775058
 30
0.0
 11
-40.8682
 21
-1.981200000000003
 31
0.0
  0
LINE
  5
E1
330
C1
100
AcDbEntity
  8
AM_9
100
AcDbLine
 10
-40.8682
 20
1.981200000000003
 30
0.0
 11
-40.8682
 21
-1.981200000000003
 31
0.0
  0
LINE
  5
E2
330
C1
100
AcDbEntity
  8
AM_9
100
AcDbLine
 10
-41.26965675967975
 20
1.582855311839683
 30
0.0
 11
-41.23329824945658
 21
2.346298248595269
 31
0.0
  0
LINE
  5
E3
330
C1
100
AcDbEntity
  8
AM_9
100
AcDbLine
 10
-41.23329824945299
 20
-2.346298248658476
 30
0.0
 11
-41.26987219131499
 21
-1.577228364101517
 31
0.0
  0
LINE
  5
E4
330
C1
100
AcDbEntity
  8
AM_9
100
AcDbLine
 10
-31.4068
 20
-1.981200000000003
 30
0.0
 11
-30.975
 21
-2.413000000000002
 31
0.0
  0
LINE
  5
E5
330
C1
100
AcDbEntity
  8
AM_9
100
AcDbLine
 10
-30.975
 20
2.413000000000002
 30
0.0
 11
-31.4068
 21
1.981200000000003
 31
0.0
  0
LINE
  5
E6
330
C1
100
AcDbEntity
  8
AM_9
100
AcDbLine
 10
-30.975
 20
2.413000000000002
 30
0.0
 11
-30.975
 21
-2.413000000000002
 31
0.0
  0
LINE
  5
E7
330
C1
100
AcDbEntity
  8
AM_9
100
AcDbLine
 10
-31.4068
 20
1.981200000000003
 30
0.0
 11
-31.4068
 21
-1.981200000000003
 31
0.0
  0
LINE
  5
E9
330
C1
100
AcDbEntity
  8
AM_5
100
AcDbLine
 10
-41.22944858957005
 20
-2.413000000000002
 30
0.0
 11
-30.975
 21
-2.413000000000002
 31
0.0
  0
LINE
  5
EA
330
C1
100
AcDbEntity
  8
AM_5
100
AcDbLine
 10
-41.22944858957005
 20
2.412999999999998
 30
0.0
 11
-30.975
 21
2.412999999999998
 31
0.0
  0
LWPOLYLINE
  5
EB
330
C1
100
AcDbEntity
  8
AM_4
100
AcDbPolyline
 90
       11
 70
     0
 43
0.0
 10
-41.26987219131499
 20
-1.577228364101517
 10
-41.27269474602571
 20
-1.501555327446133
 10
-41.28319494811426
 20
-1.178055548772516
 10
-41.29209226460674
 20
-0.8081561799579773
 10
-41.29770492790514
 20
-0.4353937157099685
 10
-41.29998221372675
 20
-0.0383294384767807
 10
-41.29859630211086
 20
0.3405047360549208
 10
-41.29371565756558
 20
0.7204492987874881
 10
-41.2861580861339
 20
1.069182157895054
 10
-41.27634669636089
 20
1.397570535542927
 10
-41.26965675967975
 20
1.582855311839683
  0
LINE
  5
EC
330
C1
100
AcDbEntity
  8
AM_4
100
AcDbLine
 10
38.54665748885829
 20
-3.4
 30
0.0
 11
41.15981049519057
 21
-3.4
 31
0.0
  0
LINE
  5
ED
330
C1
100
AcDbEntity
  8
AM_4
100
AcDbLine
 10
-17.63541887472818
 20
-37.34544150378839
 30
0.0
 11
-16.32884237156205
 21
-35.08238461632897
 31
0.0
  0
ARC
  5
EE
330
C1
100
AcDbEntity
  8
AM_4
100
AcDbCircle
 10
-0.0000000000000024
 20
-0.0000000000000071
 30
0.0
 40
41.29999999999999
100
AcDbArc
 50
244.7221880723924
 51
355.2778119276076
  0
LINE
  5
EF
330
C1
100
AcDbEntity
  8
AM_4
100
AcDbLine
 10
-16.32884237156207
 20
35.08238461632895
 30
0.0
 11
-17.63541887472821
 21
37.34544150378838
 31
0.0
  0
LINE
  5
F0
330
C1
100
AcDbEntity
  8
AM_4
100
AcDbLine
 10
41.15981049519058
 20
3.4
 30
0.0
 11
38.54665748885829
 21
3.4
 31
0.0
  0
ARC
  5
F1
330
C1
100
AcDbEntity
  8
AM_4
100
AcDbCircle
 10
0.0000000000000036
 20
-0.0000000000000036
 30
0.0
 40
41.3
100
AcDbArc
 50
4.72218807239237
 51
115.2778119276076
  0
LINE
  5
F2
330
C1
100
AcDbEntity
  8
AM_4
100
AcDbLine
 10
-23.52439162046239
 20
33.94544150378838
 30
0.0
 11
-22.21781511729625
 21
31.68238461632895
 31
0.0
  0
LINE
  5
F3
330
C1
100
AcDbEntity
  8
AM_4
100
AcDbLine
 10
-22.21781511729623
 20
-31.68238461632896
 30
0.0
 11
-23.52439162046237
 21
-33.94544150378839
 31
0.0
  0
ARC
  5
F4
330
C1
100
AcDbEntity
  8
AM_4
100
AcDbCircle
 10
0.0000000000000213
 20
-0.0000000000000071
 30
0.0
 40
41.30000000000002
100
AcDbArc
 50
124.7221880723925
 51
177.8170629050593
  0
LWPOLYLINE
  5
F5
330
C1
100
AcDbEntity
  8
AM_4
100
AcDbPolyline
 90
        7
 70
     0
 43
0.0
 10
-41.27002876089095
 20
1.573126210840529
 10
-41.10351310051768
 20
1.007833907967294
 10
-41.00547432280064
 20
0.3877169251083675
 10
-40.99248989507408
 20
-0.1880093895046154
 10
-41.05710181629712
 20
-0.7788755175501816
 10
-41.1470229730386
 20
-1.182484100106389
 10
-41.27002876089094
 20
-1.573126210840527
  0
ARC
  5
F6
330
C1
100
AcDbEntity
  8
AM_4
100
AcDbCircle
 10
-0.0000000000000853
 20
-0.0000000000000462
 30
0.0
 40
41.2999999999999
100
AcDbArc
 50
182.1829370949407
 51
235.2778119276076
  0
LINE
  5
F7
330
C1
100
AcDbEntity
  8
AM_4
100
AcDbLine
 10
1.25
 20
27.47157621979489
 30
0.0
 11
1.25
 21
30.81111111111111
 31
0.0
  0
LINE
  5
F8
330
C1
100
AcDbEntity
  8
AM_4
100
AcDbLine
 10
-1.25
 20
27.47157621979489
 30
0.0
 11
-1.250000000000001
 21
30.81111111111111
 31
0.0
  0
LINE
  5
F9
330
C1
100
AcDbEntity
  8
AM_4
100
AcDbLine
 10
-1.250000000000001
 20
30.81111111111111
 30
0.0
 11
1.25
 21
30.81111111111111
 31
0.0
  0
LINE
  5
FA
330
C1
100
AcDbEntity
  8
AM_4
100
AcDbLine
 10
38.54665748885829
 20
3.4
 30
0.0
 11
38.54665748885829
 21
-3.4
 31
0.0
  0
ARC
  5
FB
330
C1
100
AcDbEntity
  8
AM_4
100
AcDbCircle
 10
-0.0000000000000178
 20
-0.0000000000000178
 30
0.0
 40
40.34000000000001
100
AcDbArc
 50
4.834829739034658
 51
115.1651702609654
  0
LINE
  5
FC
330
C1
100
AcDbEntity
  8
AM_4
100
AcDbLine
 10
-22.21781511729625
 20
31.68238461632895
 30
0.0
 11
-16.32884237156207
 21
35.08238461632895
 31
0.0
  0
ARC
  5
FD
330
C1
100
AcDbEntity
  8
AM_4
100
AcDbCircle
 10
0.0000000000000036
 20
0.0000000000000071
 30
0.0
 40
40.34
100
AcDbArc
 50
124.8348297390347
 51
235.1651702609654
  0
LINE
  5
FE
330
C1
100
AcDbEntity
  8
AM_4
100
AcDbLine
 10
-16.32884237156205
 20
-35.08238461632897
 30
0.0
 11
-22.21781511729623
 21
-31.68238461632896
 31
0.0
  0
ARC
  5
FF
330
C1
100
AcDbEntity
  8
AM_4
100
AcDbCircle
 10
-0.0000000000000078
 20
0.0000000000000142
 30
0.0
 40
40.34
100
AcDbArc
 50
244.8348297390346
 51
355.1651702609653
  0
ARC
  5
100
330
C1
100
AcDbEntity
  8
AM_4
100
AcDbCircle
 10
0.0
 20
-0.0000000000000024
 30
0.0
 40
27.50000000000001
100
AcDbArc
 50
92.6052512650573
 51
87.39474873494272
  0
ARC
  5
101
330
C1
100
AcDbEntity
  8
AM_4
100
AcDbCircle
 10
0.0
 20
0.0000000000000007
 30
0.0
 40
30.81111111111111
100
AcDbArc
 50
92.32511528931556
 51
87.67488471068448
  0
ENDBLK
  5
C4
330
C1
100
AcDbEntity
  8
0
100
AcDbBlockEnd
  0
BLOCK
  5
104
330
102
100
AcDbEntity
  8
0
100
AcDbBlockBegin
  2
4_129428_0_in_129213_0
 70
     2
 10
0.0
 20
0.0
 30
0.0
  3
4_129428_0_in_129213_0
  1

  0
ATTDEF
  5
106
330
102
100
AcDbEntity
  8
AM_6
100
AcDbText
 10
117.7
 20
90.37
 30
0.0
 40
0.5
  1
GT-M
100
AcDbAttributeDefinition
  3

  2
NN
 70
     8
280
     0
  0
ATTDEF
  5
107
330
102
100
AcDbEntity
  8
AM_6
100
AcDbText
 10
117.7
 20
89.87
 30
0.0
 40
0.5
  1
GT Normal and Medium Duty Pillow Blocks
100
AcDbAttributeDefinition
  3

  2
NT
 70
     8
280
     0
  0
ATTDEF
  5
108
330
102
100
AcDbEntity
  8
AM_6
100
AcDbText
 10
117.7
 20
89.37
 30
0.0
 40
0.5
  1
129428
100
AcDbAttributeDefinition
  3

  2
NB
 70
     8
280
     0
  0
ATTDEF
  5
109
330
102
100
AcDbEntity
  8
AM_6
100
AcDbText
 10
117.7
 20
88.87
 30
0.0
 40
0.5
  1
$PN.$LUBE.
100
AcDbAttributeDefinition
  3

  2
NBSYN
 70
     8
280
     0
  0
ATTDEF
  5
10A
330
102
100
AcDbEntity
  8
AM_6
100
AcDbText
 10
117.7
 20
88.37
 30
0.0
 40
0.5
  1
129428
100
AcDbAttributeDefinition
  3

  2
LINA
 70
     8
280
     0
  0
ATTDEF
  5
10B
330
102
100
AcDbEntity
  8
AM_6
100
AcDbText
 10
117.7
 20
87.87
 30
0.0
 40
0.5
  1
211
100
AcDbAttributeDefinition
  3

  2
SERIES
 70
     8
280
     0
  0
ATTDEF
  5
10C
330
102
100
AcDbEntity
  8
AM_6
100
AcDbText
 10
117.7
 20
87.37
 30
0.0
 40
0.5
  1
129428
100
AcDbAttributeDefinition
  3

  2
PN
 70
     8
280
     0
  0
ATTDEF
  5
10D
330
102
100
AcDbEntity
  8
AM_6
100
AcDbText
 10
117.7
 20
86.87
 30
0.0
 40
0.5
  1
P2B-GT-11
100
AcDbAttributeDefinition
  3

  2
DECRIPTION
 70
     8
280
     0
  0
ATTDEF
  5
10E
330
102
100
AcDbEntity
  8
AM_6
100
AcDbText
 10
117.7
 20
86.37
 30
0.0
 40
0.5
  1
48.8
100
AcDbAttributeDefinition
  3

  2
A
 70
     8
280
     0
  0
ATTDEF
  5
10F
330
102
100
AcDbEntity
  8
AM_6
100
AcDbText
 10
117.7
 20
85.87
 30
0.0
 40
0.5
  1
225.4
100
AcDbAttributeDefinition
  3

  2
B
 70
     8
280
     0
  0
ATTDEF
  5
110
330
102
100
AcDbEntity
  8
AM_6
100
AcDbText
 10
117.7
 20
85.37
 30
0.0
 40
0.5
  1
58.7
100
AcDbAttributeDefinition
  3

  2
C
 70
     8
280
     0
  0
ATTDEF
  5
111
330
102
100
AcDbEntity
  8
AM_6
100
AcDbText
 10
117.7
 20
84.87
 30
0.0
 40
0.5
  1
161.9
100
AcDbAttributeDefinition
  3

  2
DMIN
 70
     8
280
     0
  0
ATTDEF
  5
112
330
102
100
AcDbEntity
  8
AM_6
100
AcDbText
 10
117.7
 20
84.37
 30
0.0
 40
0.5
  1
188.9
100
AcDbAttributeDefinition
  3

  2
DMAX
 70
     8
280
     0
  0
ATTDEF
  5
113
330
102
100
AcDbEntity
  8
AM_6
100
AcDbText
 10
117.7
 20
83.87
 30
0.0
 40
0.5
  1
M16
100
AcDbAttributeDefinition
  3

  2
F
 70
     8
280
     0
  0
ATTDEF
  5
114
330
102
100
AcDbEntity
  8
AM_6
100
AcDbText
 10
117.7
 20
83.37
 30
0.0
 40
0.5
  1
31.0
100
AcDbAttributeDefinition
  3

  2
G
 70
     8
280
     0
  0
ATTDEF
  5
115
330
102
100
AcDbEntity
  8
AM_6
100
AcDbText
 10
117.7
 20
82.87
 30
0.0
 40
0.5
  1
22.2
100
AcDbAttributeDefinition
  3

  2
H
 70
     8
280
     0
  0
ATTDEF
  5
116
330
102
100
AcDbEntity
  8
AM_6
100
AcDbText
 10
117.7
 20
82.37
 30
0.0
 40
0.5
  1
125.4
100
AcDbAttributeDefinition
  3

  2
J
 70
     8
280
     0
  0
ATTDEF
  5
117
330
102
100
AcDbEntity
  8
AM_6
100
AcDbText
 10
117.7
 20
81.87
 30
0.0
 40
0.5
  1
82.6
100
AcDbAttributeDefinition
  3

  2
L
 70
     8
280
     0
  0
ATTDEF
  5
118
330
102
100
AcDbEntity
  8
AM_6
100
AcDbText
 10
117.7
 20
81.37
 30
0.0
 40
0.5
  1
63.5
100
AcDbAttributeDefinition
  3

  2
M
 70
     8
280
     0
  0
ATTDEF
  5
119
330
102
100
AcDbEntity
  8
AM_6
100
AcDbText
 10
117.7
 20
80.87
 30
0.0
 40
0.5
  1
17.9
100
AcDbAttributeDefinition
  3

  2
R
 70
     8
280
     0
  0
ATTDEF
  5
11A
330
102
100
AcDbEntity
  8
AM_6
100
AcDbText
 10
117.7
 20
80.37
 30
0.0
 40
0.5
  1
31.0
100
AcDbAttributeDefinition
  3

  2
S
 70
     8
280
     0
  0
ATTDEF
  5
11B
330
102
100
AcDbEntity
  8
AM_6
100
AcDbText
 10
117.7
 20
79.87
 30
0.0
 40
0.5
  1
100.0
100
AcDbAttributeDefinition
  3

  2
U
 70
     8
280
     0
  0
ATTDEF
  5
11C
330
102
100
AcDbEntity
  8
AM_6
100
AcDbText
 10
117.7
 20
79.37
 30
0.0
 40
0.5
  1
200.0
100
AcDbAttributeDefinition
  3

  2
V
 70
     8
280
     0
  0
ATTDEF
  5
11D
330
102
100
AcDbEntity
  8
AM_6
100
AcDbText
 10
117.7
 20
78.87
 30
0.0
 40
0.5
  1
20.6
100
AcDbAttributeDefinition
  3

  2
W
 70
     8
280
     0
  0
ATTDEF
  5
11E
330
102
100
AcDbEntity
  8
AM_6
100
AcDbText
 10
117.7
 20
78.37
 30
0.0
 40
0.5
  1
4.8
100
AcDbAttributeDefinition
  3

  2
X
 70
     8
280
     0
  0
ATTDEF
  5
11F
330
102
100
AcDbEntity
  8
AM_6
100
AcDbText
 10
117.7
 20
77.87
 30
0.0
 40
0.5
  1
30.2
100
AcDbAttributeDefinition
  3

  2
Z
 70
     8
280
     0
  0
ATTDEF
  5
120
330
102
100
AcDbEntity
  8
AM_6
100
AcDbText
 10
117.7
 20
77.37
 30
0.0
 40
0.5
  1
baldor
100
AcDbAttributeDefinition
  3

  2
COMPANY
 70
     8
280
     0
  0
LINE
  5
121
330
102
100
AcDbEntity
  8
AM_9
100
AcDbLine
 10
-76.47400000000002
 20
-41.3
 30
0.0
 11
-76.47400000000002
 21
-48.7
 31
0.0
  0
LINE
  5
122
330
102
100
AcDbEntity
  8
AM_9
100
AcDbLine
 10
-74.474
 20
-41.3
 30
0.0
 11
-74.474
 21
-48.7
 31
0.0
  0
LINE
  5
123
330
102
100
AcDbEntity
  8
AM_9
100
AcDbLine
 10
76.47400000000003
 20
-41.3
 30
0.0
 11
76.47400000000003
 21
-48.7
 31
0.0
  0
LINE
  5
124
330
102
100
AcDbEntity
  8
AM_9
100
AcDbLine
 10
74.474
 20
-41.3
 30
0.0
 11
74.474
 21
-48.7
 31
0.0
  0
LINE
  5
125
330
102
100
AcDbEntity
  8
AM_9
100
AcDbLine
 10
112.7
 20
-48.7
 30
0.0
 11
74.474
 21
-48.7
 31
0.0
  0
LINE
  5
126
330
102
100
AcDbEntity
  8
AM_9
100
AcDbLine
 10
-74.474
 20
-48.7
 30
0.0
 11
-112.7
 21
-48.7
 31
0.0
  0
LINE
  5
127
330
102
100
AcDbEntity
  8
AM_9
100
AcDbLine
 10
8.51322
 20
59.90000000000001
 30
0.0
 11
8.51322
 21
61.31178585909561
 31
0.0
  0
LINE
  5
128
330
102
100
AcDbEntity
  8
AM_9
100
AcDbLine
 10
4.23717
 20
59.90000000000001
 30
0.0
 11
4.23717
 21
61.75480864184662
 31
0.0
  0
LINE
  5
129
330
102
100
AcDbEntity
  8
AM_9
100
AcDbLine
 10
2.37126
 20
59.90000000000001
 30
0.0
 11
2.37126
 21
61.85456431026248
 31
0.0
  0
LINE
  5
12A
330
102
100
AcDbEntity
  8
AM_9
100
AcDbLine
 10
-5.09238
 20
59.90000000000001
 30
0.0
 11
-5.09238
 21
61.69017479255182
 31
0.0
  0
LINE
  5
12B
330
102
100
AcDbEntity
  8
AM_9
100
AcDbLine
 10
-5.71435
 20
59.90000000000001
 30
0.0
 11
-5.71435
 21
61.63567314532628
 31
0.0
  0
LINE
  5
12C
330
102
100
AcDbEntity
  8
AM_9
100
AcDbLine
 10
-1.98253
 20
59.90000000000001
 30
0.0
 11
-1.98253
 21
61.86824366990787
 31
0.0
  0
LINE
  5
12D
330
102
100
AcDbEntity
  8
AM_9
100
AcDbLine
 10
1.74929
 20
59.90000000000001
 30
0.0
 11
1.74929
 21
61.87527765186912
 31
0.0
  0
LINE
  5
12E
330
102
100
AcDbEntity
  8
AM_9
100
AcDbLine
 10
2.83774
 20
59.90000000000001
 30
0.0
 11
2.83774
 21
61.83491919370798
 31
0.0
  0
LINE
  5
12F
330
102
100
AcDbEntity
  8
AM_9
100
AcDbLine
 10
1.28281
 20
59.90000000000001
 30
0.0
 11
1.28281
 21
61.88670615329189
 31
0.0
  0
LINE
  5
130
330
102
100
AcDbEntity
  8
AM_9
100
AcDbLine
 10
-4.6259
 20
59.90000000000001
 30
0.0
 11
-4.6259
 21
61.72690701136737
 31
0.0
  0
LINE
  5
131
330
102
100
AcDbEntity
  8
AM_9
100
AcDbLine
 10
-2.44901
 20
59.90000000000001
 30
0.0
 11
-2.44901
 21
61.85153474263913
 31
0.0
  0
LINE
  5
132
330
102
100
AcDbEntity
  8
AM_9
100
AcDbLine
 10
-6.18083
 20
59.90000000000001
 30
0.0
 11
-6.18083
 21
61.59064328703748
 31
0.0
  0
LINE
  5
133
330
102
100
AcDbEntity
  8
AM_9
100
AcDbLine
 10
2.44901
 20
59.90000000000001
 30
0.0
 11
2.44901
 21
61.85153474263913
 31
0.0
  0
LINE
  5
134
330
102
100
AcDbEntity
  8
AM_9
100
AcDbLine
 10
-5.7921
 20
59.90000000000001
 30
0.0
 11
-5.7921
 21
61.62841534219421
 31
0.0
  0
LINE
  5
135
330
102
100
AcDbEntity
  8
AM_9
100
AcDbLine
 10
5.40337
 20
59.90000000000001
 30
0.0
 11
5.40337
 21
61.66371374352259
 31
0.0
  0
LINE
  5
136
330
102
100
AcDbEntity
  8
AM_9
100
AcDbLine
 10
-5.01464
 20
59.90000000000001
 30
0.0
 11
-5.01464
 21
61.6965427367725
 31
0.0
  0
LINE
  5
137
330
102
100
AcDbEntity
  8
AM_9
100
AcDbLine
 10
1.67155
 20
59.90000000000001
 30
0.0
 11
1.67155
 21
61.87742658350862
 31
0.0
  0
LINE
  5
138
330
102
100
AcDbEntity
  8
AM_9
100
AcDbLine
 10
-2.06028
 20
59.90000000000001
 30
0.0
 11
-2.06028
 21
61.86570331226823
 31
0.0
  0
LINE
  5
139
330
102
100
AcDbEntity
  8
AM_9
100
AcDbLine
 10
4.93689
 20
59.90000000000001
 30
0.0
 11
4.93689
 21
61.7028128785706
 31
0.0
  0
LINE
  5
13A
330
102
100
AcDbEntity
  8
AM_9
100
AcDbLine
 10
3.07098
 20
59.90000000000001
 30
0.0
 11
3.07098
 21
61.82377440628803
 31
0.0
  0
LINE
  5
13B
330
102
100
AcDbEntity
  8
AM_9
100
AcDbLine
 10
-5.94759
 20
59.90000000000001
 30
0.0
 11
-5.94759
 21
61.61360379974454
 31
0.0
  0
LINE
  5
13C
330
102
100
AcDbEntity
  8
AM_9
100
AcDbLine
 10
-4.39266
 20
59.90000000000001
 30
0.0
 11
-4.39266
 21
61.74394333150737
 31
0.0
  0
LINE
  5
13D
330
102
100
AcDbEntity
  8
AM_9
100
AcDbLine
 10
-2.68225
 20
59.90000000000001
 30
0.0
 11
-2.68225
 21
61.8418590837751
 31
0.0
  0
LINE
  5
13E
330
102
100
AcDbEntity
  8
AM_9
100
AcDbLine
 10
5.32562
 20
59.90000000000001
 30
0.0
 11
5.32562
 21
61.67047730977598
 31
0.0
  0
LINE
  5
13F
330
102
100
AcDbEntity
  8
AM_9
100
AcDbLine
 10
1.51605
 20
59.90000000000001
 30
0.0
 11
1.51605
 21
61.8814317254982
 31
0.0
  0
LINE
  5
140
330
102
100
AcDbEntity
  8
AM_9
100
AcDbLine
 10
-4.859140000000001
 20
59.90000000000001
 30
0.0
 11
-4.859140000000001
 21
61.70898442253281
 31
0.0
  0
LINE
  5
141
330
102
100
AcDbEntity
  8
AM_9
100
AcDbLine
 10
1.04957
 20
59.90000000000001
 30
0.0
 11
1.04957
 21
61.89110116014335
 31
0.0
  0
LINE
  5
142
330
102
100
AcDbEntity
  8
AM_9
100
AcDbLine
 10
-2.21577
 20
59.90000000000001
 30
0.0
 11
-2.21577
 21
61.86032947945797
 31
0.0
  0
LINE
  5
143
330
102
100
AcDbEntity
  8
AM_9
100
AcDbLine
 10
-6.41407
 20
59.90000000000001
 30
0.0
 11
-6.41407
 21
61.56679061015849
 31
0.0
  0
LINE
  5
144
330
102
100
AcDbEntity
  8
AM_9
100
AcDbLine
 10
2.6045
 20
59.90000000000001
 30
0.0
 11
2.6045
 21
61.84518234874884
 31
0.0
  0
LINE
  5
145
330
102
100
AcDbEntity
  8
AM_9
100
AcDbLine
 10
4.859140000000001
 20
59.90000000000001
 30
0.0
 11
4.859140000000001
 21
61.70898442253281
 31
0.0
  0
LINE
  5
146
330
102
100
AcDbEntity
  8
AM_9
100
AcDbLine
 10
4.6259
 20
59.90000000000001
 30
0.0
 11
4.6259
 21
61.72690701136737
 31
0.0
  0
LINE
  5
147
330
102
100
AcDbEntity
  8
AM_9
100
AcDbLine
 10
-2.91549
 20
59.90000000000001
 30
0.0
 11
-2.91549
 21
61.83130208931309
 31
0.0
  0
LINE
  5
148
330
102
100
AcDbEntity
  8
AM_9
100
AcDbLine
 10
-8.35773
 20
59.90000000000001
 30
0.0
 11
-8.35773
 21
61.33317494836783
 31
0.0
  0
LINE
  5
149
330
102
100
AcDbEntity
  8
AM_9
100
AcDbLine
 10
3.30422
 20
59.90000000000001
 30
0.0
 11
3.30422
 21
61.81174750960855
 31
0.0
  0
LINE
  5
14A
330
102
100
AcDbEntity
  8
AM_9
100
AcDbLine
 10
-6.64731
 20
59.90000000000001
 30
0.0
 11
-6.64731
 21
61.54204473174332
 31
0.0
  0
LINE
  5
14B
330
102
100
AcDbEntity
  8
AM_9
100
AcDbLine
 10
6.491810000000001
 20
59.90000000000001
 30
0.0
 11
6.491810000000001
 21
61.55864198407804
 31
0.0
  0
LINE
  5
14C
330
102
100
AcDbEntity
  8
AM_9
100
AcDbLine
 10
0.816336
 20
59.90000000000001
 30
0.0
 11
0.816336
 21
61.8946168542556
 31
0.0
  0
LINE
  5
14D
330
102
100
AcDbEntity
  8
AM_9
100
AcDbLine
 10
-0.894082
 20
59.90000000000001
 30
0.0
 11
-0.894082
 21
61.89354261453509
 31
0.0
  0
LINE
  5
14E
330
102
100
AcDbEntity
  8
AM_9
100
AcDbLine
 10
-4.15943
 20
59.90000000000001
 30
0.0
 11
-4.15943
 21
61.76009344289479
 31
0.0
  0
LINE
  5
14F
330
102
100
AcDbEntity
  8
AM_9
100
AcDbLine
 10
-6.25858
 20
59.90000000000001
 30
0.0
 11
-6.25858
 21
61.58279123573074
 31
0.0
  0
LINE
  5
150
330
102
100
AcDbEntity
  8
AM_9
100
AcDbLine
 10
5.01464
 20
59.90000000000001
 30
0.0
 11
5.01464
 21
61.6965427367725
 31
0.0
  0
LINE
  5
151
330
102
100
AcDbEntity
  8
AM_9
100
AcDbLine
 10
-4.54816
 20
59.90000000000001
 30
0.0
 11
-4.54816
 21
61.73268373086007
 31
0.0
  0
LINE
  5
152
330
102
100
AcDbEntity
  8
AM_9
100
AcDbLine
 10
2.91549
 20
59.90000000000001
 30
0.0
 11
2.91549
 21
61.83130208931309
 31
0.0
  0
LINE
  5
153
330
102
100
AcDbEntity
  8
AM_9
100
AcDbLine
 10
-2.52675
 20
59.90000000000001
 30
0.0
 11
-2.52675
 21
61.84840769524705
 31
0.0
  0
LINE
  5
154
330
102
100
AcDbEntity
  8
AM_9
100
AcDbLine
 10
1.20507
 20
59.90000000000001
 30
0.0
 11
1.20507
 21
61.88826872917916
 31
0.0
  0
LINE
  5
155
330
102
100
AcDbEntity
  8
AM_9
100
AcDbLine
 10
-2.83774
 20
59.90000000000001
 30
0.0
 11
-2.83774
 21
61.83491919370798
 31
0.0
  0
LINE
  5
156
330
102
100
AcDbEntity
  8
AM_9
100
AcDbLine
 10
3.22647
 20
59.90000000000001
 30
0.0
 11
3.22647
 21
61.81585469229633
 31
0.0
  0
LINE
  5
157
330
102
100
AcDbEntity
  8
AM_9
100
AcDbLine
 10
4.703650000000001
 20
59.90000000000001
 30
0.0
 11
4.703650000000001
 21
61.72103107270241
 31
0.0
  0
LINE
  5
158
330
102
100
AcDbEntity
  8
AM_9
100
AcDbLine
 10
-4.23717
 20
59.90000000000001
 30
0.0
 11
-4.23717
 21
61.75480864184662
 31
0.0
  0
LINE
  5
159
330
102
100
AcDbEntity
  8
AM_9
100
AcDbLine
 10
0.894082
 20
59.90000000000001
 30
0.0
 11
0.894082
 21
61.89354261453511
 31
0.0
  0
LINE
  5
15A
330
102
100
AcDbEntity
  8
AM_9
100
AcDbLine
 10
-6.56956
 20
59.90000000000001
 30
0.0
 11
-6.56956
 21
61.55039302397991
 31
0.0
  0
LINE
  5
15B
330
102
100
AcDbEntity
  8
AM_9
100
AcDbLine
 10
8.8242
 20
59.90000000000001
 30
0.0
 11
8.8242
 21
61.26780144872179
 31
0.0
  0
LINE
  5
15C
330
102
100
AcDbEntity
  8
AM_9
100
AcDbLine
 10
4.31492
 20
59.90000000000001
 30
0.0
 11
4.31492
 21
61.74942481832196
 31
0.0
  0
LINE
  5
15D
330
102
100
AcDbEntity
  8
AM_9
100
AcDbLine
 10
3.6152
 20
59.90000000000001
 30
0.0
 11
3.6152
 21
61.79433897178605
 31
0.0
  0
LINE
  5
15E
330
102
100
AcDbEntity
  8
AM_9
100
AcDbLine
 10
-3.22647
 20
59.90000000000001
 30
0.0
 11
-3.22647
 21
61.81585469229633
 31
0.0
  0
LINE
  5
15F
330
102
100
AcDbEntity
  8
AM_9
100
AcDbLine
 10
2.37126
 20
59.90000000000001
 30
0.0
 11
5.40337
 21
59.90000000000001
 31
0.0
  0
LINE
  5
160
330
102
100
AcDbEntity
  8
AM_9
100
AcDbLine
 10
-3.84844
 20
59.90000000000001
 30
0.0
 11
-3.84844
 21
61.78025177648919
 31
0.0
  0
LINE
  5
161
330
102
100
AcDbEntity
  8
AM_9
100
AcDbLine
 10
-5.09238
 20
59.90000000000001
 30
0.0
 11
-1.98253
 21
59.90000000000001
 31
0.0
  0
LINE
  5
162
330
102
100
AcDbEntity
  8
AM_9
100
AcDbLine
 10
6.02534
 20
59.90000000000001
 30
0.0
 11
8.8242
 21
59.90000000000001
 31
0.0
  0
LINE
  5
163
330
102
100
AcDbEntity
  8
AM_9
100
AcDbLine
 10
6.02534
 20
59.90000000000001
 30
0.0
 11
6.02534
 21
61.60604903647366
 31
0.0
  0
LINE
  5
164
330
102
100
AcDbEntity
  8
AM_9
100
AcDbLine
 10
-8.8242
 20
59.90000000000001
 30
0.0
 11
-8.8242
 21
61.26780144872179
 31
0.0
  0
LINE
  5
165
330
102
100
AcDbEntity
  8
AM_9
100
AcDbLine
 10
-1.36056
 20
59.90000000000001
 30
0.0
 11
1.74929
 21
59.90000000000001
 31
0.0
  0
LINE
  5
166
330
102
100
AcDbEntity
  8
AM_9
100
AcDbLine
 10
0.505351
 20
59.90000000000001
 30
0.0
 11
0.505351
 21
61.89793712529357
 31
0.0
  0
LINE
  5
167
330
102
100
AcDbEntity
  8
AM_9
100
AcDbLine
 10
-1.36056
 20
59.90000000000001
 30
0.0
 11
-1.36056
 21
61.8850456611805
 31
0.0
  0
LINE
  5
168
330
102
100
AcDbEntity
  8
AM_9
100
AcDbLine
 10
-8.8242
 20
59.90000000000001
 30
0.0
 11
-5.71435
 21
59.90000000000001
 31
0.0
  0
LINE
  5
169
330
102
100
AcDbEntity
  8
AM_9
100
AcDbLine
 10
-6.95829
 20
59.90000000000001
 30
0.0
 11
-6.95829
 21
61.50765968784616
 31
0.0
  0
LINE
  5
16A
330
102
100
AcDbEntity
  8
AM_9
100
AcDbLine
 10
-94.44999999999999
 20
-41.3
 30
0.0
 11
-94.44999999999999
 21
-63.5
 31
0.0
  0
LINE
  5
16B
330
102
100
AcDbEntity
  8
AM_9
100
AcDbLine
 10
-103.2
 20
-41.3
 30
0.0
 11
-103.2
 21
-63.5
 31
0.0
  0
LINE
  5
16C
330
102
100
AcDbEntity
  8
AM_9
100
AcDbLine
 10
94.45
 20
-41.3
 30
0.0
 11
94.45
 21
-63.5
 31
0.0
  0
LINE
  5
16D
330
102
100
AcDbEntity
  8
AM_9
100
AcDbLine
 10
103.2
 20
-63.5
 30
0.0
 11
103.2
 21
-41.3
 31
0.0
  0
LINE
  5
16E
330
102
100
AcDbEntity
  8
AM_9
100
AcDbLine
 10
80.95
 20
-41.3
 30
0.0
 11
80.95
 21
-63.5
 31
0.0
  0
LINE
  5
16F
330
102
100
AcDbEntity
  8
AM_9
100
AcDbLine
 10
72.20000000000002
 20
-41.3
 30
0.0
 11
72.20000000000002
 21
-63.5
 31
0.0
  0
LINE
  5
170
330
102
100
AcDbEntity
  8
AM_9
100
AcDbLine
 10
-80.95
 20
-41.3
 30
0.0
 11
-80.95
 21
-63.5
 31
0.0
  0
LINE
  5
171
330
102
100
AcDbEntity
  8
AM_9
100
AcDbLine
 10
-72.19999999999999
 20
-63.5
 30
0.0
 11
-72.19999999999999
 21
-41.3
 31
0.0
  0
LINE
  5
172
330
102
100
AcDbEntity
  8
AM_9
100
AcDbLine
 10
62.7
 20
4.676188966956846
 30
0.0
 11
62.7
 21
-41.3
 31
0.0
  0
LINE
  5
173
330
102
100
AcDbEntity
  8
AM_9
100
AcDbLine
 10
-62.7
 20
-41.3
 30
0.0
 11
-62.7
 21
4.676188966956832
 31
0.0
  0
LINE
  5
174
330
102
100
AcDbEntity
  8
AM_9
100
AcDbLine
 10
97.60000000000001
 20
-41.3
 30
0.0
 11
97.60000000000001
 21
-43.52
 31
0.0
  0
LINE
  5
175
330
102
100
AcDbEntity
  8
AM_9
100
AcDbLine
 10
102.4
 20
-43.52
 30
0.0
 11
102.4
 21
-41.3
 31
0.0
  0
LINE
  5
176
330
102
100
AcDbEntity
  8
AM_9
100
AcDbLine
 10
97.60000000000001
 20
-43.52
 30
0.0
 11
102.4
 21
-43.52
 31
0.0
  0
LINE
  5
177
330
102
100
AcDbEntity
  8
AM_9
100
AcDbLine
 10
-102.4
 20
-41.3
 30
0.0
 11
-102.4
 21
-43.52
 31
0.0
  0
LINE
  5
178
330
102
100
AcDbEntity
  8
AM_9
100
AcDbLine
 10
-97.60000000000001
 20
-43.52
 30
0.0
 11
-97.60000000000001
 21
-41.3
 31
0.0
  0
LINE
  5
179
330
102
100
AcDbEntity
  8
AM_9
100
AcDbLine
 10
-102.4
 20
-43.52
 30
0.0
 11
-97.60000000000001
 21
-43.52
 31
0.0
  0
LINE
  5
17A
330
102
100
AcDbEntity
  8
AM_7
100
AcDbLine
 10
80.95
 20
-47.57000000000001
 30
0.0
 11
80.95
 21
90.37
 31
0.0
  0
LINE
  5
17B
330
102
100
AcDbEntity
  8
AM_7
100
AcDbLine
 10
-80.95
 20
-47.57000000000001
 30
0.0
 11
-80.95
 21
90.37
 31
0.0
  0
LINE
  5
17C
330
102
100
AcDbEntity
  8
AM_7
100
AcDbLine
 10
39.02324679964906
 20
39.02324679964907
 30
0.0
 11
51.66737162919657
 21
51.66737162919655
 31
0.0
  0
LINE
  5
17D
330
102
100
AcDbEntity
  8
AM_7
100
AcDbLine
 10
-100.0
 20
-43.742
 30
0.0
 11
-100.0
 21
-38.858
 31
0.0
  0
LINE
  5
17E
330
102
100
AcDbEntity
  8
AM_7
100
AcDbLine
 10
100.0
 20
-43.742
 30
0.0
 11
100.0
 21
-38.858
 31
0.0
  0
LINE
  5
17F
330
102
100
AcDbEntity
  8
AM_4
100
AcDbLine
 10
-4.548159999999973
 20
61.73268373086007
 30
0.0
 11
-4.62589999999999
 21
61.72690701136737
 31
0.0
  0
LINE
  5
180
330
102
100
AcDbEntity
  8
AM_4
100
AcDbLine
 10
51.63938092737092
 20
49.33546742606808
 30
0.0
 11
49.33546756482516
 21
51.63938078861384
 31
0.0
  0
ARC
  5
181
330
102
100
AcDbEntity
  8
AM_4
100
AcDbCircle
 10
49.19404606983075
 20
51.49795957113352
 30
0.0
 40
0.20000000000007
100
AcDbArc
 50
45.00000000000864
 51
107.300527191934
  0
ARC
  5
182
330
102
100
AcDbEntity
  8
AM_4
100
AcDbCircle
 10
51.49795957113356
 20
49.19404606983075
 30
0.0
 40
0.2000000000000436
100
AcDbArc
 50
342.6994728080636
 51
44.99999999999425
  0
LINE
  5
183
330
102
100
AcDbEntity
  8
AM_4
100
AcDbLine
 10
51.68891118378286
 20
49.13456933802198
 30
0.0
 11
49.13456933802199
 21
51.68891118378284
 31
0.0
  0
LINE
  5
184
330
102
100
AcDbEntity
  8
AM_4
100
AcDbLine
 10
49.13456933802199
 20
51.68891118378284
 30
0.0
 11
47.42082234503749
 21
51.15512113678766
 31
0.0
  0
LINE
  5
185
330
102
100
AcDbEntity
  8
AM_4
100
AcDbLine
 10
51.15512113678767
 20
47.42082234503747
 30
0.0
 11
51.68891118378286
 21
49.13456933802198
 31
0.0
  0
LINE
  5
186
330
102
100
AcDbEntity
  8
AM_4
100
AcDbLine
 10
51.15512113678766
 20
47.42082234503747
 30
0.0
 11
47.42082234503749
 21
51.15512113678766
 31
0.0
  0
ARC
  5
187
330
102
100
AcDbEntity
  8
AM_4
100
AcDbCircle
 10
47.56951417455944
 20
50.67774210516454
 30
0.0
 40
0.5000000000000175
100
AcDbArc
 50
107.3005271919452
 51
172.2172656968973
  0
ARC
  5
188
330
102
100
AcDbEntity
  8
AM_4
100
AcDbCircle
 10
50.67774210516458
 20
47.56951417455939
 30
0.0
 40
0.49999999999997
100
AcDbArc
 50
277.7827343031009
 51
342.6994728080582
  0
LINE
  5
189
330
102
100
AcDbEntity
  8
AM_4
100
AcDbLine
 10
50.74545061071166
 20
47.07411982832949
 30
0.0
 11
47.0741198283295
 21
50.74545061071164
 31
0.0
  0
ARC
  5
18A
330
102
100
AcDbEntity
  8
AM_4
100
AcDbCircle
 10
44.99556150950394
 20
51.02953937562921
 30
0.0
 40
2.097882530341326
100
AcDbArc
 50
269.3562542858255
 51
352.2172716776536
  0
ARC
  5
18B
330
102
100
AcDbEntity
  8
AM_4
100
AcDbCircle
 10
51.0295393756292
 20
44.99556150950394
 30
0.0
 40
2.097882530341313
100
AcDbArc
 50
97.78272832234592
 51
180.6437457141747
  0
LINE
  5
18C
330
102
100
AcDbEntity
  8
AM_4
100
AcDbLine
 10
48.93178925810907
 20
44.97199128346442
 30
0.0
 11
44.97199128346442
 21
48.93178925810906
 31
0.0
  0
LINE
  5
18D
330
102
100
AcDbEntity
  8
AM_4
100
AcDbLine
 10
44.97199128346442
 20
48.93178925810906
 30
0.0
 11
44.61843789287116
 21
48.57823586751581
 31
0.0
  0
LINE
  5
18E
330
102
100
AcDbEntity
  8
AM_4
100
AcDbLine
 10
48.57823586751582
 20
44.61843789287115
 30
0.0
 11
48.93178925810907
 21
44.9719912834644
 31
0.0
  0
LINE
  5
18F
330
102
100
AcDbEntity
  8
AM_4
100
AcDbLine
 10
42.14356415871825
 20
46.1033621333629
 30
0.0
 11
41.74629214608142
 21
45.70609012072607
 31
0.0
  0
LINE
  5
190
330
102
100
AcDbEntity
  8
AM_4
100
AcDbLine
 10
45.70500619130755
 20
41.74520821666289
 30
0.0
 11
46.10336213336291
 21
42.14356415871824
 31
0.0
  0
LINE
  5
191
330
102
100
AcDbEntity
  8
AM_4
100
AcDbLine
 10
46.95189027078676
 20
41.29503602129438
 30
0.0
 11
41.29503602129439
 21
46.95189027078676
 31
0.0
  0
LINE
  5
192
330
102
100
AcDbEntity
  8
AM_4
100
AcDbLine
 10
41.29503602129439
 20
46.95189027078676
 30
0.0
 11
43.76990975544729
 21
49.42676400493966
 31
0.0
  0
LINE
  5
193
330
102
100
AcDbEntity
  8
AM_4
100
AcDbLine
 10
49.42676400493966
 20
43.76990975544729
 30
0.0
 11
43.76990975544729
 21
49.42676400493966
 31
0.0
  0
LINE
  5
194
330
102
100
AcDbEntity
  8
AM_4
100
AcDbLine
 10
49.42676400493966
 20
43.76990975544729
 30
0.0
 11
46.95189027078676
 21
41.29503602129438
 31
0.0
  0
LINE
  5
195
330
102
100
AcDbEntity
  8
AM_4
100
AcDbLine
 10
45.18412331782039
 20
48.01255044256658
 30
0.0
 11
43.65266612144388
 21
49.30952037093626
 31
0.0
  0
LINE
  5
196
330
102
100
AcDbEntity
  8
AM_4
100
AcDbLine
 10
41.4122796552978
 20
47.06913390479016
 30
0.0
 11
42.70924958366748
 21
45.53767670841366
 31
0.0
  0
LINE
  5
197
330
102
100
AcDbEntity
  8
AM_4
100
AcDbLine
 10
42.70924958366748
 20
45.53767670841366
 30
0.0
 11
44.24070678004398
 21
44.24070678004398
 31
0.0
  0
LINE
  5
198
330
102
100
AcDbEntity
  8
AM_4
100
AcDbLine
 10
46.48109324619008
 20
46.48109324619007
 30
0.0
 11
45.18412331782039
 21
48.01255044256658
 31
0.0
  0
LINE
  5
199
330
102
100
AcDbEntity
  8
AM_4
100
AcDbLine
 10
49.30952037093627
 20
43.65266612144388
 30
0.0
 11
48.01255044256656
 21
45.18412331782039
 31
0.0
  0
LINE
  5
19A
330
102
100
AcDbEntity
  8
AM_4
100
AcDbLine
 10
48.01255044256656
 20
45.18412331782039
 30
0.0
 11
46.48109324619008
 21
46.48109324619007
 31
0.0
  0
LINE
  5
19B
330
102
100
AcDbEntity
  8
AM_4
100
AcDbLine
 10
44.24070678004398
 20
44.24070678004398
 30
0.0
 11
46.48109324619008
 21
46.48109324619007
 31
0.0
  0
LINE
  5
19C
330
102
100
AcDbEntity
  8
AM_4
100
AcDbLine
 10
44.24070678004398
 20
44.24070678004398
 30
0.0
 11
45.53767670841368
 21
42.70924958366748
 31
0.0
  0
LINE
  5
19D
330
102
100
AcDbEntity
  8
AM_4
100
AcDbLine
 10
45.53767670841368
 20
42.70924958366748
 30
0.0
 11
47.06913390479017
 21
41.41227965529779
 31
0.0
  0
ARC
  5
19E
330
102
100
AcDbEntity
  8
AM_4
100
AcDbCircle
 10
-0.0000000000000036
 20
-0.0000000000000071
 30
0.0
 40
49.99999999999999
100
AcDbArc
 50
209.3548944921922
 51
330.6451055078077
  0
LINE
  5
19F
330
102
100
AcDbEntity
  8
AM_4
100
AcDbLine
 10
43.58
 20
-56.1
 30
0.0
 11
-43.58000000000001
 21
-56.09999999999999
 31
0.0
  0
LWPOLYLINE
  5
1A0
330
102
100
AcDbEntity
  8
AM_4
100
AcDbPolyline
 90
        7
 70
     0
 43
0.0
 10
43.58
 20
-24.51088737683726
 10
44.07357339983461
 20
-23.61147976984822
 10
44.53411890431519
 20
-22.73130558098932
 10
44.75990282594572
 20
-22.28342655454714
 10
44.99386133692241
 20
-21.80716492334124
 10
45.0556918574966
 20
-21.67912893181632
 10
45.08000000000001
 20
-21.62853670501082
  0
LINE
  5
1A1
330
102
100
AcDbEntity
  8
AM_4
100
AcDbLine
 10
43.58
 20
-24.51088737683726
 30
0.0
 11
43.58
 21
-56.1
 31
0.0
  0
LWPOLYLINE
  5
1A2
330
102
100
AcDbEntity
  8
AM_4
100
AcDbPolyline
 90
       19
 70
     0
 43
0.0
 10
45.08000000000001
 20
-57.60000000000002
 10
45.07429204713762
 20
-57.46926638587852
 10
45.05721162951831
 20
-57.33952773349962
 10
45.0288887394336
 20
-57.21177143234623
 10
44.98953893117886
 20
-57.08696978501151
 10
44.93946168055497
 20
-56.96607260738897
 10
44.87903810567666
 20
-56.85000000000001
 10
44.80872806643349
 20
-56.73963534547344
 10
44.72906666467846
 20
-56.6358185854702
 10
44.64066017177982
 20
-56.53933982822019
 10
44.54418141452981
 20
-56.45093333532154
 10
44.44036465452657
 20
-56.37127193356653
 10
44.33
 20
-56.30096189432335
 10
44.21392739261105
 20
-56.24053831944503
 10
44.0930302149885
 20
-56.19046106882115
 10
43.96822856765377
 20
-56.1511112605664
 10
43.84047226650039
 20
-56.12278837048169
 10
43.71073361412149
 20
-56.10570795286239
 10
43.57999999999999
 20
-56.1
  0
LWPOLYLINE
  5
1A3
330
102
100
AcDbEntity
  8
AM_4
100
AcDbPolyline
 90
        7
 70
     0
 43
0.0
 10
-45.08000000000001
 20
-21.62853670501082
 10
-45.06152051403513
 20
-21.66701107590041
 10
-44.99669924524251
 20
-21.80130860827379
 10
-44.83651861207311
 20
-22.12886347622088
 10
-44.43374173365179
 20
-22.92689677097912
 10
-44.01896031573906
 20
-23.71330527646783
 10
-43.58000000000001
 20
-24.51088737683725
  0
LWPOLYLINE
  5
1A4
330
102
100
AcDbEntity
  8
AM_4
100
AcDbPolyline
 90
       19
 70
     0
 43
0.0
 10
-43.58000000000001
 20
-56.10000000000001
 10
-43.7107336141215
 20
-56.10570795286239
 10
-43.84047226650041
 20
-56.1227883704817
 10
-43.96822856765379
 20
-56.1511112605664
 10
-44.09303021498851
 20
-56.19046106882115
 10
-44.21392739261105
 20
-56.24053831944504
 10
-44.33000000000001
 20
-56.30096189432336
 10
-44.44036465452658
 20
-56.37127193356653
 10
-44.54418141452982
 20
-56.45093333532154
 10
-44.64066017177984
 20
-56.53933982822019
 10
-44.72906666467848
 20
-56.6358185854702
 10
-44.8087280664335
 20
-56.73963534547345
 10
-44.87903810567666
 20
-56.85000000000001
 10
-44.93946168055498
 20
-56.96607260738897
 10
-44.98953893117887
 20
-57.08696978501151
 10
-45.0288887394336
 20
-57.21177143234623
 10
-45.05721162951832
 20
-57.33952773349962
 10
-45.07429204713763
 20
-57.46926638587852
 10
-45.08000000000001
 20
-57.60000000000002
  0
LINE
  5
1A5
330
102
100
AcDbEntity
  8
AM_4
100
AcDbLine
 10
-43.58000000000001
 20
-24.51088737683725
 30
0.0
 11
-43.58000000000001
 21
-56.09999999999999
 31
0.0
  0
LINE
  5
1A6
330
102
100
AcDbEntity
  8
AM_4
100
AcDbLine
 10
46.58
 20
-41.2999999999999
 30
0.0
 11
111.2
 21
-41.3
 31
0.0
  0
LINE
  5
1A7
330
102
100
AcDbEntity
  8
AM_4
100
AcDbLine
 10
112.7
 20
-42.79999999999999
 30
0.0
 11
112.7
 21
-63.5
 31
0.0
  0
LWPOLYLINE
  5
1A8
330
102
100
AcDbEntity
  8
AM_4
100
AcDbPolyline
 90
       19
 70
     0
 43
0.0
 10
111.2
 20
-41.3
 10
111.3307336141215
 20
-41.30570795286238
 10
111.4604722665004
 20
-41.3227883704817
 10
111.5882285676538
 20
-41.3511112605664
 10
111.7130302149885
 20
-41.39046106882114
 10
111.8339273926111
 20
-41.44053831944503
 10
111.95
 20
-41.50096189432334
 10
112.0603646545266
 20
-41.57127193356651
 10
112.1641814145298
 20
-41.65093333532153
 10
112.2606601717798
 20
-41.73933982822018
 10
112.3490666646785
 20
-41.83581858547019
 10
112.4287280664335
 20
-41.93963534547343
 10
112.4990381056767
 20
-42.05
 10
112.559461680555
 20
-42.16607260738894
 10
112.6095389311789
 20
-42.28696978501149
 10
112.6488887394336
 20
-42.41177143234621
 10
112.6772116295183
 20
-42.5395277334996
 10
112.6942920471376
 20
-42.6692663858785
 10
112.7
 20
-42.79999999999999
  0
LINE
  5
1A9
330
102
100
AcDbEntity
  8
AM_4
100
AcDbLine
 10
112.7
 20
-63.5
 30
0.0
 11
45.08000000000001
 21
-63.5
 31
0.0
  0
LINE
  5
1AA
330
102
100
AcDbEntity
  8
AM_4
100
AcDbLine
 10
45.08000000000005
 20
-21.62853670501082
 30
0.0
 11
45.08000000000001
 21
-63.5
 31
0.0
  0
LINE
  5
1AB
330
102
100
AcDbEntity
  8
AM_4
100
AcDbLine
 10
46.58
 20
-63.5
 30
0.0
 11
46.58
 21
-41.2999999999999
 31
0.0
  0
LINE
  5
1AC
330
102
100
AcDbEntity
  8
AM_4
100
AcDbLine
 10
106.1777777777777
 20
-41.3
 30
0.0
 11
106.1777777777778
 21
-63.5
 31
0.0
  0
LINE
  5
1AD
330
102
100
AcDbEntity
  8
AM_4
100
AcDbLine
 10
-59.9649242068491
 20
15.35636235789066
 30
0.0
 11
-74.4739999999999
 21
-41.29999999999999
 31
0.0
  0
LINE
  5
1AE
330
102
100
AcDbEntity
  8
AM_4
100
AcDbLine
 10
74.47400000000005
 20
-41.29999999999999
 30
0.0
 11
59.96492420684914
 21
15.35636235789059
 31
0.0
  0
LWPOLYLINE
  5
1AF
330
102
100
AcDbEntity
  8
AM_4
100
AcDbPolyline
 90
       32
 70
     0
 43
0.0
 10
59.96492420684914
 20
15.35636235789059
 10
58.39834439913234
 20
20.52421427096122
 10
56.3873179286537
 20
25.53586452057042
 10
53.94714992114456
 20
30.35317142220153
 10
51.09641152855578
 20
34.93947236156367
 10
47.85679859137785
 20
39.25986281922408
 10
44.25296652019449
 20
43.28146201507688
 10
40.31234265312069
 20
46.97366315093367
 10
36.06491751719863
 20
50.30836634673854
 10
31.54301658237811
 20
53.26019249762261
 10
26.78105424517154
 20
55.80667642421627
 10
21.81527191431653
 20
57.92843784622911
 10
16.68346219177224
 20
59.60932887808503
 10
11.42468124819867
 20
60.83655692408188
 10
6.07895158191516
 20
61.60078203776903
 10
0.6869574235219539
 20
61.8961880045796
 10
-4.710264895660488
 20
61.72052660673518
 10
-10.07163925485125
 20
61.07513473354059
 10
-15.35636235789054
 20
59.96492420684911
 10
-20.52421427096117
 20
58.39834439913232
 10
-25.53586452057037
 20
56.3873179286537
 10
-30.35317142220148
 20
53.94714992114456
 10
-34.93947236156362
 20
51.09641152855578
 10
-39.25986281922404
 20
47.85679859137786
 10
-43.28146201507686
 20
44.25296652019451
 10
-46.97366315093365
 20
40.31234265312072
 10
-50.30836634673853
 20
36.06491751719867
 10
-53.2601924976226
 20
31.54301658237816
 10
-55.80667642421627
 20
26.78105424517158
 10
-57.92843784622912
 20
21.81527191431658
 10
-59.60932887808505
 20
16.68346219177229
 10
-59.96492420684911
 20
15.35636235789068
  0
LINE
  5
1B0
330
102
100
AcDbEntity
  8
AM_4
100
AcDbLine
 10
-45.08
 20
-63.5
 30
0.0
 11
-45.08000000000001
 21
-21.62853670501082
 31
0.0
  0
LWPOLYLINE
  5
1B1
330
102
100
AcDbEntity
  8
AM_4
100
AcDbPolyline
 90
       48
 70
     0
 43
0.0
 10
45.07999999999999
 20
-21.62853670501084
 10
46.79350817104608
 20
-17.61725270995009
 10
48.15088949021777
 20
-13.47189078417858
 10
49.14181346606691
 20
-9.22399963498942
 10
49.75873856880103
 20
-4.905908278974729
 10
49.99696962587877
 20
-0.5504799986886312
 10
49.85469355510791
 20
3.809137766776399
 10
49.33299316329566
 20
8.13976569381599
 10
48.43583890543503
 20
12.40844508900074
 10
47.17005866714488
 20
16.5826887246342
 10
45.54528580033762
 20
20.63072808617198
 10
43.5738858075943
 20
24.52175514979978
 10
41.2708622332236
 20
28.22615685009701
 10
38.6537424772301
 20
31.71574045334552
 10
35.74244440121704
 20
34.96394812125639
 10
32.55912474143273
 20
37.94605903215542
 10
29.12801048262908
 20
40.63937752136284
 10
25.47521447607901
 20
43.02340580890562
 10
21.62853670501093
 20
45.07999999999995
 10
17.61725270995017
 20
46.79350817104605
 10
13.47189078417867
 20
48.15088949021775
 10
9.22399963498951
 20
49.14181346606689
 10
4.905908278974821
 20
49.75873856880102
 10
0.5504799986887232
 20
49.99696962587877
 10
-3.809137766776307
 20
49.85469355510791
 10
-8.139765693815901
 20
49.33299316329568
 10
-12.40844508900065
 20
48.43583890543506
 10
-16.58268872463411
 20
47.17005866714491
 10
-20.63072808617189
 20
45.54528580033765
 10
-24.5217551497997
 20
43.57388580759434
 10
-28.22615685009694
 20
41.27086223322364
 10
-31.71574045334546
 20
38.65374247723015
 10
-34.96394812125632
 20
35.74244440121711
 10
-37.94605903215535
 20
32.5591247414328
 10
-40.63937752136278
 20
29.12801048262915
 10
-43.02340580890558
 20
25.4752144760791
 10
-45.07999999999991
 20
21.62853670501101
 10
-46.79350817104602
 20
17.61725270995025
 10
-48.15088949021772
 20
13.47189078417876
 10
-49.14181346606688
 20
9.223999634989601
 10
-49.75873856880101
 20
4.905908278974913
 10
-49.99696962587877
 20
0.550479998688815
 10
-49.85469355510792
 20
-3.809137766776216
 10
-49.3329931632957
 20
-8.13976569381581
 10
-48.43583890543508
 20
-12.40844508900056
 10
-47.17005866714494
 20
-16.58268872463403
 10
-45.54528580033769
 20
-20.63072808617181
 10
-45.08000000000001
 20
-21.62853670501082
  0
LWPOLYLINE
  5
1B2
330
102
100
AcDbEntity
  8
AM_4
100
AcDbPolyline
 90
       19
 70
     0
 43
0.0
 10
45.08000000000001
 20
-25.47717206132875
 10
45.08570795286238
 20
-26.85622238269203
 10
45.10278837048169
 20
-28.22477729841638
 10
45.1311112605664
 20
-29.5724212792371
 10
45.17046106882114
 20
-30.88889794073045
 10
45.22053831944503
 20
-32.16418810059212
 10
45.28096189432335
 20
-33.38858603066431
 10
45.35127193356652
 20
-34.55277332338751
 10
45.43093333532153
 20
-35.64788981050857
 10
45.51933982822018
 20
-36.66560099431107
 10
45.61581858547019
 20
-37.59816147817549
 10
45.71963534547343
 20
-38.4384739137242
 10
45.83
 20
-39.18014301592812
 10
45.94607260738895
 20
-39.81752423508747
 10
46.06696978501149
 20
-40.34576671526313
 10
46.19177143234621
 20
-40.76085021221944
 10
46.3195277334996
 20
-41.05961568991027
 10
46.4492663858785
 20
-41.2397893626509
 10
46.58
 20
-41.2999999999999
  0
LWPOLYLINE
  5
1B3
330
102
100
AcDbEntity
  8
AM_4
100
AcDbPolyline
 90
       19
 70
     0
 43
0.0
 10
-46.58
 20
-41.30000000000001
 10
-46.44926638587851
 20
-41.239789362651
 10
-46.3195277334996
 20
-41.05961568991039
 10
-46.19177143234621
 20
-40.76085021221955
 10
-46.06696978501149
 20
-40.34576671526325
 10
-45.94607260738895
 20
-39.81752423508758
 10
-45.83
 20
-39.18014301592823
 10
-45.71963534547343
 20
-38.4384739137243
 10
-45.61581858547019
 20
-37.5981614781756
 10
-45.51933982822018
 20
-36.66560099431118
 10
-45.43093333532153
 20
-35.64788981050867
 10
-45.35127193356651
 20
-34.55277332338761
 10
-45.28096189432334
 20
-33.38858603066442
 10
-45.22053831944503
 20
-32.16418810059222
 10
-45.17046106882114
 20
-30.88889794073054
 10
-45.1311112605664
 20
-29.57242127923719
 10
-45.10278837048168
 20
-28.22477729841647
 10
-45.08570795286238
 20
-26.85622238269212
 10
-45.08
 20
-25.47717206132888
  0
LINE
  5
1B4
330
102
100
AcDbEntity
  8
AM_4
100
AcDbLine
 10
-46.58
 20
-63.5
 30
0.0
 11
-46.58
 21
-41.30000000000001
 31
0.0
  0
LINE
  5
1B5
330
102
100
AcDbEntity
  8
AM_4
100
AcDbLine
 10
-45.08
 20
-63.5
 30
0.0
 11
-112.7
 21
-63.5
 31
0.0
  0
LINE
  5
1B6
330
102
100
AcDbEntity
  8
AM_4
100
AcDbLine
 10
-106.1777777777778
 20
-63.5
 30
0.0
 11
-106.1777777777778
 21
-41.3
 31
0.0
  0
LINE
  5
1B7
330
102
100
AcDbEntity
  8
AM_4
100
AcDbLine
 10
-111.2
 20
-41.3
 30
0.0
 11
-46.58
 21
-41.30000000000001
 31
0.0
  0
LWPOLYLINE
  5
1B8
330
102
100
AcDbEntity
  8
AM_4
100
AcDbPolyline
 90
       19
 70
     0
 43
0.0
 10
-112.7
 20
-42.80000017881393
 10
-112.6942920627223
 20
-42.66926656401201
 10
-112.677211660569
 20
-42.53952790959696
 10
-112.6488887857141
 20
-42.41177160506722
 10
-112.6095389923368
 20
-42.28696995304163
 10
-112.559461756125
 20
-42.16607276944941
 10
-112.4990381950836
 20
-42.05000015485741
 10
-112.428728168997
 20
-41.93963549194923
 10
-112.3490667796179
 20
-41.83581872244962
 10
-112.2606602982204
 20
-41.73933995466074
 10
-112.1641815515092
 20
-41.65093345026092
 10
-112.0603648010024
 20
-41.57127203612998
 10
-111.9500001548574
 20
-41.50096198373032
 10
-111.8339275546715
 20
-41.44053839501507
 10
-111.7130303830187
 20
-41.39046112997912
 10
-111.5882287403748
 20
-41.35111130684686
 10
-111.4604724425978
 20
-41.32278840153241
 10
-111.330733792255
 20
-41.30570796844705
 10
-111.200000178814
 20
-41.30000000000001
  0
LINE
  5
1B9
330
102
100
AcDbEntity
  8
AM_4
100
AcDbLine
 10
-112.7
 20
-42.8
 30
0.0
 11
-112.7
 21
-63.5
 31
0.0
  0
ENDBLK
  5
105
330
102
100
AcDbEntity
  8
0
100
AcDbBlockEnd
  0
ENDSEC
  0
SECTION
  2
ENTITIES
  0
INSERT
  5
6F
330
1F
100
AcDbEntity
  8
0
100
AcDbBlockReference
  2
1_129213_0
 10
0.0
 20
0.0
 30
0.0
  0
POINT
  5
1BB
330
1F
100
AcDbEntity
  8
ConnectionPoints
100
AcDbPoint
 10
0.0
 20
0.0
 30
0.0
  0
POINT
  5
1BC
330
1F
100
AcDbEntity
  8
ConnectionPoints
100
AcDbPoint
 10
0.0
 20
0.0
 30
-17.9
  0
POINT
  5
1BD
330
1F
100
AcDbEntity
  8
ConnectionPoints
100
AcDbPoint
 10
0.0
 20
0.0
 30
0.0
  0
POINT
  5
1BE
330
1F
100
AcDbEntity
  8
ConnectionPoints
100
AcDbPoint
 10
0.0
 20
0.0
 30
0.0
  0
ENDSEC
  0
SECTION
  2
OBJECTS
  0
DICTIONARY
  5
C
330
0
100
AcDbDictionary
281
     1
  3
ACAD_DETAILVIEWSTYLE
350
1C6
  3
ACAD_GROUP
350
D
  3
ACAD_LAYOUT
350
1A
  3
ACAD_MATERIAL
350
43
  3
ACAD_MLEADERSTYLE
350
6B
  3
ACAD_MLINESTYLE
350
17
  3
ACAD_PLOTSETTINGS
350
19
  3
ACAD_PLOTSTYLENAME
350
E
  3
ACAD_SCALELIST
350
47
  3
ACAD_SECTIONVIEWSTYLE
350
1C7
  3
ACAD_TABLESTYLE
350
69
  3
ACAD_VISUALSTYLE
350
2A
  3
ACDB_RECOMPOSE_DATA
350
1C3
  3
AcDbVariableDictionary
350
1BF
  0
SUN
  5
6D
330
29
100
AcDbSun
 90
        1
290
     0
 63
     7
421
 16777215
 40
1.0
291
     1
 91
  2455826
 92
 54000000
292
     0
 70
     2
 71
   256
280
     1
  0
DICTIONARY
  5
1C6
102
{ACAD_REACTORS
330
C
102
}
330
C
100
AcDbDictionary
281
     1
  0
DICTIONARY
  5
D
102
{ACAD_REACTORS
330
C
102
}
330
C
100
AcDbDictionary
281
     1
  0
DICTIONARY
  5
1A
102
{ACAD_REACTORS
330
C
102
}
330
C
100
AcDbDictionary
281
     1
  3
Layout1
350
1E
  3
Layout2
350
26
  3
Model
350
22
  0
DICTIONARY
  5
43
102
{ACAD_REACTORS
330
C
102
}
330
C
100
AcDbDictionary
281
     1
  3
ByBlock
350
45
  3
ByLayer
350
44
  3
Global
350
46
  0
DICTIONARY
  5
6B
102
{ACAD_REACTORS
330
C
102
}
330
C
100
AcDbDictionary
281
     1
  3
Standard
350
6C
  0
DICTIONARY
  5
17
102
{ACAD_REACTORS
330
C
102
}
330
C
100
AcDbDictionary
281
     1
  3
Standard
350
18
  0
DICTIONARY
  5
19
102
{ACAD_REACTORS
330
C
102
}
330
C
100
AcDbDictionary
281
     1
  0
ACDBDICTIONARYWDFLT
  5
E
102
{ACAD_REACTORS
330
C
102
}
330
C
100
AcDbDictionary
281
     1
  3
Normal
350
F
100
AcDbDictionaryWithDefault
340
F
  0
DICTIONARY
  5
47
102
{ACAD_REACTORS
330
C
102
}
330
C
100
AcDbDictionary
281
     1
  3
A0
350
48
  3
A1
350
49
  3
A2
350
4A
  3
A3
350
4B
  3
A4
350
4C
  3
A5
350
4D
  3
A6
350
4E
  3
A7
350
4F
  3
A8
350
50
  3
A9
350
51
  3
B0
350
52
  3
B1
350
53
  3
B2
350
54
  3
B3
350
55
  3
B4
350
56
  3
B5
350
57
  3
B6
350
58
  3
B7
350
59
  3
B8
350
5A
  3
B9
350
5B
  3
C0
350
5C
  3
C1
350
5D
  3
C2
350
5E
  3
C3
350
5F
  3
C4
350
60
  3
C5
350
61
  3
C6
350
62
  3
C7
350
63
  3
C8
350
64
  3
C9
350
65
  3
D0
350
66
  3
D1
350
67
  3
D2
350
68
  0
DICTIONARY
  5
1C7
102
{ACAD_REACTORS
330
C
102
}
330
C
100
AcDbDictionary
281
     1
  0
DICTIONARY
  5
69
102
{ACAD_REACTORS
330
C
102
}
330
C
100
AcDbDictionary
281
     1
  3
Standard
350
6A
  0
DICTIONARY
  5
2A
102
{ACAD_REACTORS
330
C
102
}
330
C
100
AcDbDictionary
281
     1
  3
2dWireframe
350
2F
  3
Basic
350
32
  3
Brighten
350
36
  3
ColorChange
350
3A
  3
Conceptual
350
34
  3
Dim
350
35
  3
EdgeColorOff
350
3D
  3
Facepattern
350
39
  3
Flat
350
2B
  3
FlatWithEdges
350
2C
  3
Gouraud
350
2D
  3
GouraudWithEdges
350
2E
  3
Hidden
350
31
  3
JitterOff
350
3B
  3
Linepattern
350
38
  3
OverhangOff
350
3C
  3
Realistic
350
33
  3
Shaded
350
42
  3
Shaded with edges
350
41
  3
Shades of Gray
350
3E
  3
Sketchy
350
3F
  3
Thicken
350
37
  3
Wireframe
350
30
  3
X-Ray
350
40
  0
XRECORD
  5
1C3
102
{ACAD_REACTORS
330
C
102
}
330
C
100
AcDbXrecord
280
     1
 90
        1
330
6A
  0
DICTIONARY
  5
1BF
102
{ACAD_REACTORS
330
C
102
}
330
C
100
AcDbDictionary
281
     1
  3
CANNOSCALE
350
1C0
  3
CMLEADERSTYLE
350
1C5
  3
CTABLESTYLE
350
1C4
  0
LAYOUT
  5
1E
102
{ACAD_REACTORS
330
1A
102
}
330
1A
100
AcDbPlotSettings
  1

  2
none_device
  4

  6

 40
0.0
 41
0.0
 42
0.0
 43
0.0
 44
0.0
 45
0.0
 46
0.0
 47
0.0
 48
0.0
 49
0.0
140
0.0
141
0.0
142
1.0
143
1.0
 70
   688
 72
     1
 73
     0
 74
     5
  7

 75
    16
 76
     0
 77
     2
 78
   300
147
1.0
148
0.0
149
0.0
100
AcDbLayout
  1
Layout1
 70
     1
 71
     1
 10
0.0
 20
0.0
 11
420.0
 21
297.0
 12
0.0
 22
0.0
 32
0.0
 14
1.000000000000000E+20
 24
1.000000000000000E+20
 34
1.000000000000000E+20
 15
-1.000000000000000E+20
 25
-1.000000000000000E+20
 35
-1.000000000000000E+20
146
0.0
 13
0.0
 23
0.0
 33
0.0
 16
1.0
 26
0.0
 36
0.0
 17
0.0
 27
1.0
 37
0.0
 76
     0
330
1B
  0
LAYOUT
  5
26
102
{ACAD_REACTORS
330
1A
102
}
330
1A
100
AcDbPlotSettings
  1

  2
none_device
  4

  6

 40
0.0
 41
0.0
 42
0.0
 43
0.0
 44
0.0
 45
0.0
 46
0.0
 47
0.0
 48
0.0
 49
0.0
140
0.0
141
0.0
142
1.0
143
1.0
 70
   688
 72
     1
 73
     0
 74
     5
  7

 75
    16
 76
     0
 77
     2
 78
   300
147
1.0
148
0.0
149
0.0
100
AcDbLayout
  1
Layout2
 70
     1
 71
     2
 10
0.0
 20
0.0
 11
0.0
 21
0.0
 12
0.0
 22
0.0
 32
0.0
 14
0.0
 24
0.0
 34
0.0
 15
0.0
 25
0.0
 35
0.0
146
0.0
 13
0.0
 23
0.0
 33
0.0
 16
1.0
 26
0.0
 36
0.0
 17
0.0
 27
1.0
 37
0.0
 76
     0
330
23
  0
LAYOUT
  5
22
102
{ACAD_REACTORS
330
1A
102
}
330
1A
100
AcDbPlotSettings
  1

  2
none_device
  4
Letter_(8.50_x_11.00_Inches)
  6

 40
6.35
 41
6.35
 42
6.35000508
 43
6.35000508
 44
215.9
 45
279.4
 46
0.0
 47
0.0
 48
0.0
 49
0.0
140
0.0
141
0.0
142
1.0
143
1.0
 70
  1712
 72
     1
 73
     0
 74
     0
  7

 75
     0
 76
     0
 77
     2
 78
   300
147
1.0
148
0.0
149
0.0
100
AcDbLayout
  1
Model
 70
     1
 71
     0
 10
0.0
 20
0.0
 11
420.0
 21
297.0
 12
0.0
 22
0.0
 32
0.0
 14
1.000000000000000E+20
 24
1.000000000000000E+20
 34
1.000000000000000E+20
 15
-1.000000000000000E+20
 25
-1.000000000000000E+20
 35
-1.000000000000000E+20
146
0.0
 13
0.0
 23
0.0
 33
0.0
 16
1.0
 26
0.0
 36
0.0
 17
0.0
 27
1.0
 37
0.0
 76
     0
330
1F
331
29
  0
MATERIAL
  5
45
102
{ACAD_REACTORS
330
43
102
}
330
43
100
AcDbMaterial
  1
ByBlock
 72
     1
 94
      127
  0
MATERIAL
  5
44
102
{ACAD_REACTORS
330
43
102
}
330
43
100
AcDbMaterial
  1
ByLayer
 72
     1
 94
      127
  0
MATERIAL
  5
46
102
{ACAD_REACTORS
330
43
102
}
330
43
100
AcDbMaterial
  1
Global
 72
     1
 94
      127
  0
MLEADERSTYLE
  5
6C
102
{ACAD_REACTORS
330
6B
102
}
330
6B
100
AcDbMLeaderStyle
179
     2
170
     2
171
     1
172
     0
 90
        2
 40
0.0
 41
0.0
173
     1
 91
-1056964608
340
14
 92
       -2
290
     1
 42
2.0
291
     1
 43
8.0
  3
Standard
341
0
 44
4.0
300

342
11
174
     1
178
     6
175
     1
176
     0
 93
-1056964608
 45
4.0
292
     0
297
     0
 46
4.0
343
0
 94
-1056964608
 47
1.0
 49
1.0
140
1.0
293
     1
141
0.0
294
     1
177
     0
142
1.0
295
     0
296
     0
143
3.75
271
     0
272
     9
273
     9
298
     0
  0
MLINESTYLE
  5
18
102
{ACAD_REACTORS
330
17
102
}
330
17
100
AcDbMlineStyle
  2
Standard
 70
     0
  3

 62
   256
 51
90.0
 52
90.0
 71
     2
 49
0.5
 62
   256
  6
BYLAYER
 49
-0.5
 62
   256
  6
BYLAYER
  0
ACDBPLACEHOLDER
  5
F
102
{ACAD_REACTORS
330
E
102
}
330
E
  0
SCALE
  5
48
102
{ACAD_REACTORS
330
47
102
}
330
47
100
AcDbScale
 70
     0
300
1:1
140
1.0
141
1.0
290
     1
  0
SCALE
  5
49
102
{ACAD_REACTORS
330
47
102
}
330
47
100
AcDbScale
 70
     0
300
1:2
140
1.0
141
2.0
290
     0
  0
SCALE
  5
4A
102
{ACAD_REACTORS
330
47
102
}
330
47
100
AcDbScale
 70
     0
300
1:4
140
1.0
141
4.0
290
     0
  0
SCALE
  5
4B
102
{ACAD_REACTORS
330
47
102
}
330
47
100
AcDbScale
 70
     0
300
1:5
140
1.0
141
5.0
290
     0
  0
SCALE
  5
4C
102
{ACAD_REACTORS
330
47
102
}
330
47
100
AcDbScale
 70
     0
300
1:8
140
1.0
141
8.0
290
     0
  0
SCALE
  5
4D
102
{ACAD_REACTORS
330
47
102
}
330
47
100
AcDbScale
 70
     0
300
1:10
140
1.0
141
10.0
290
     0
  0
SCALE
  5
4E
102
{ACAD_REACTORS
330
47
102
}
330
47
100
AcDbScale
 70
     0
300
1:16
140
1.0
141
16.0
290
     0
  0
SCALE
  5
4F
102
{ACAD_REACTORS
330
47
102
}
330
47
100
AcDbScale
 70
     0
300
1:20
140
1.0
141
20.0
290
     0
  0
SCALE
  5
50
102
{ACAD_REACTORS
330
47
102
}
330
47
100
AcDbScale
 70
     0
300
1:30
140
1.0
141
30.0
290
     0
  0
SCALE
  5
51
102
{ACAD_REACTORS
330
47
102
}
330
47
100
AcDbScale
 70
     0
300
1:40
140
1.0
141
40.0
290
     0
  0
SCALE
  5
52
102
{ACAD_REACTORS
330
47
102
}
330
47
100
AcDbScale
 70
     0
300
1:50
140
1.0
141
50.0
290
     0
  0
SCALE
  5
53
102
{ACAD_REACTORS
330
47
102
}
330
47
100
AcDbScale
 70
     0
300
1:100
140
1.0
141
100.0
290
     0
  0
SCALE
  5
54
102
{ACAD_REACTORS
330
47
102
}
330
47
100
AcDbScale
 70
     0
300
2:1
140
2.0
141
1.0
290
     0
  0
SCALE
  5
55
102
{ACAD_REACTORS
330
47
102
}
330
47
100
AcDbScale
 70
     0
300
4:1
140
4.0
141
1.0
290
     0
  0
SCALE
  5
56
102
{ACAD_REACTORS
330
47
102
}
330
47
100
AcDbScale
 70
     0
300
8:1
140
8.0
141
1.0
290
     0
  0
SCALE
  5
57
102
{ACAD_REACTORS
330
47
102
}
330
47
100
AcDbScale
 70
     0
300
10:1
140
10.0
141
1.0
290
     0
  0
SCALE
  5
58
102
{ACAD_REACTORS
330
47
102
}
330
47
100
AcDbScale
 70
     0
300
100:1
140
100.0
141
1.0
290
     0
  0
SCALE
  5
59
102
{ACAD_REACTORS
330
47
102
}
330
47
100
AcDbScale
 70
     0
300
1/128" = 1'-0"
140
0.0078125
141
12.0
290
     0
  0
SCALE
  5
5A
102
{ACAD_REACTORS
330
47
102
}
330
47
100
AcDbScale
 70
     0
300
1/64" = 1'-0"
140
0.015625
141
12.0
290
     0
  0
SCALE
  5
5B
102
{ACAD_REACTORS
330
47
102
}
330
47
100
AcDbScale
 70
     0
300
1/32" = 1'-0"
140
0.03125
141
12.0
290
     0
  0
SCALE
  5
5C
102
{ACAD_REACTORS
330
47
102
}
330
47
100
AcDbScale
 70
     0
300
1/16" = 1'-0"
140
0.0625
141
12.0
290
     0
  0
SCALE
  5
5D
102
{ACAD_REACTORS
330
47
102
}
330
47
100
AcDbScale
 70
     0
300
3/32" = 1'-0"
140
0.09375
141
12.0
290
     0
  0
SCALE
  5
5E
102
{ACAD_REACTORS
330
47
102
}
330
47
100
AcDbScale
 70
     0
300
1/8" = 1'-0"
140
0.125
141
12.0
290
     0
  0
SCALE
  5
5F
102
{ACAD_REACTORS
330
47
102
}
330
47
100
AcDbScale
 70
     0
300
3/16" = 1'-0"
140
0.1875
141
12.0
290
     0
  0
SCALE
  5
60
102
{ACAD_REACTORS
330
47
102
}
330
47
100
AcDbScale
 70
     0
300
1/4" = 1'-0"
140
0.25
141
12.0
290
     0
  0
SCALE
  5
61
102
{ACAD_REACTORS
330
47
102
}
330
47
100
AcDbScale
 70
     0
300
3/8" = 1'-0"
140
0.375
141
12.0
290
     0
  0
SCALE
  5
62
102
{ACAD_REACTORS
330
47
102
}
330
47
100
AcDbScale
 70
     0
300
1/2" = 1'-0"
140
0.5
141
12.0
290
     0
  0
SCALE
  5
63
102
{ACAD_REACTORS
330
47
102
}
330
47
100
AcDbScale
 70
     0
300
3/4" = 1'-0"
140
0.75
141
12.0
290
     0
  0
SCALE
  5
64
102
{ACAD_REACTORS
330
47
102
}
330
47
100
AcDbScale
 70
     0
300
1" = 1'-0"
140
1.0
141
12.0
290
     0
  0
SCALE
  5
65
102
{ACAD_REACTORS
330
47
102
}
330
47
100
AcDbScale
 70
     0
300
1-1/2" = 1'-0"
140
1.5
141
12.0
290
     0
  0
SCALE
  5
66
102
{ACAD_REACTORS
330
47
102
}
330
47
100
AcDbScale
 70
     0
300
3" = 1'-0"
140
3.0
141
12.0
290
     0
  0
SCALE
  5
67
102
{ACAD_REACTORS
330
47
102
}
330
47
100
AcDbScale
 70
     0
300
6" = 1'-0"
140
6.0
141
12.0
290
     0
  0
SCALE
  5
68
102
{ACAD_REACTORS
330
47
102
}
330
47
100
AcDbScale
 70
     0
300
1'-0" = 1'-0"
140
12.0
141
12.0
290
     0
  0
TABLESTYLE
  5
6A
102
{ACAD_REACTORS
330
69
102
}
102
{ACAD_XDICTIONARY
360
1C1
102
}
330
69
100
AcDbTableStyle
  3
Standard
 70
     0
 71
     0
 40
0.06
 41
0.06
280
     0
281
     0
  7
Standard
140
4.5
170
     2
 62
     0
 63
   257
283
     0
 90
        4
 91
        0
  1

274
    -2
284
     1
 64
     0
275
    -2
285
     1
 65
     0
276
    -2
286
     1
 66
     0
277
    -2
287
     1
 67
     0
278
    -2
288
     1
 68
     0
279
    -2
289
     1
 69
     0
  7
Standard
140
6.0
170
     5
 62
     0
 63
   257
283
     0
 90
        4
 91
        0
  1

274
    -2
284
     1
 64
     0
275
    -2
285
     1
 65
     0
276
    -2
286
     1
 66
     0
277
    -2
287
     1
 67
     0
278
    -2
288
     1
 68
     0
279
    -2
289
     1
 69
     0
  7
Standard
140
4.5
170
     5
 62
     0
 63
   257
283
     0
 90
        4
 91
        0
  1

274
    -2
284
     1
 64
     0
275
    -2
285
     1
 65
     0
276
    -2
286
     1
 66
     0
277
    -2
287
     1
 67
     0
278
    -2
288
     1
 68
     0
279
    -2
289
     1
 69
     0
  0
VISUALSTYLE
  5
2F
102
{ACAD_REACTORS
330
2A
102
}
330
2A
100
AcDbVisualStyle
  2
2dWireframe
 70
     4
177
     3
291
     0
 70
    58
 90
        0
176
     1
 90
        2
176
     1
 90
        0
176
     1
 90
        0
176
     1
 40
0.6
176
     1
 40
30.0
176
     1
 62
     7
420
 16777215
176
     1
 90
        1
176
     1
 90
        4
176
     1
 62
     7
176
     1
 62
   257
176
     1
 90
        1
176
     1
 90
        1
176
     1
 40
1.0
176
     1
 90
        0
176
     1
 62
   257
176
     1
 40
1.0
176
     1
 90
        1
176
     1
 90
        6
176
     1
 90
        2
176
     1
 62
     7
176
     1
 90
        5
176
     1
 90
        0
176
     1
 90
        0
176
     1
290
     0
176
     1
 90
        1
176
     1
 40
0.0
176
     1
 90
        0
176
     1
290
     1
176
     1
290
     1
176
     1
290
     0
176
     1
290
     0
176
     1
290
     0
176
     1
290
     0
176
     1
290
     0
176
     1
290
     0
176
     1
290
     0
176
     1
 90
       50
176
     1
 40
0.0
176
     1
 40
1.0
176
     1
 90
        0
176
     1
 62
    18
420
        0
176
     1
 90
       50
176
     1
 90
        3
176
     1
 62
     5
420
      255
176
     1
290
     0
176
     1
 90
       50
176
     1
 90
       50
176
     1
 90
       50
176
     1
290
     0
176
     1
 90
       50
176
     1
 62
   256
176
     0
 40
1.0
176
     0
 90
        2
176
     1
  1
strokes_ogs.tif
176
     1
290
     0
176
     1
 40
1.0
176
     1
 40
1.0
176
     1
  0
VISUALSTYLE
  5
32
102
{ACAD_REACTORS
330
2A
102
}
330
2A
100
AcDbVisualStyle
  2
Basic
 70
     7
177
     3
291
     1
 70
    58
 90
        1
176
     1
 90
        0
176
     1
 90
        1
176
     1
 90
        0
176
     1
 40
0.6
176
     1
 40
30.0
176
     1
 62
     7
420
 16777215
176
     1
 90
        0
176
     1
 90
        4
176
     1
 62
     7
176
     1
 62
   257
176
     1
 90
        1
176
     1
 90
        1
176
     1
 40
1.0
176
     1
 90
        8
176
     1
 62
     7
176
     1
 40
1.0
176
     1
 90
        1
176
     1
 90
        6
176
     1
 90
        2
176
     1
 62
     7
176
     1
 90
        5
176
     1
 90
        0
176
     1
 90
        0
176
     1
290
     0
176
     1
 90
        1
176
     1
 40
0.0
176
     1
 90
        0
176
     1
290
     0
176
     1
290
     1
176
     1
290
     1
176
     1
290
     0
176
     1
290
     0
176
     1
290
     0
176
     1
290
     0
176
     1
290
     0
176
     1
290
     0
176
     1
 90
       50
176
     1
 40
0.0
176
     1
 40
1.0
176
     1
 90
        0
176
     1
 62
    18
420
        0
176
     1
 90
       50
176
     1
 90
        3
176
     1
 62
     5
420
      255
176
     1
290
     0
176
     1
 90
       50
176
     1
 90
       50
176
     1
 90
       50
176
     1
290
     0
176
     1
 90
       50
176
     1
 62
   256
176
     0
 40
1.0
176
     0
 90
        2
176
     1
  1
strokes_ogs.tif
176
     1
290
     0
176
     1
 40
1.0
176
     1
 40
1.0
176
     1
  0
VISUALSTYLE
  5
36
102
{ACAD_REACTORS
330
2A
102
}
330
2A
100
AcDbVisualStyle
  2
Brighten
 70
    12
177
     3
291
     1
 70
    58
 90
        2
176
     1
 90
        2
176
     1
 90
        0
176
     1
 90
        0
176
     1
 40
0.6
176
     1
 40
30.0
176
     1
 62
     7
420
 16777215
176
     1
 90
        1
176
     1
 90
        4
176
     1
 62
     7
176
     1
 62
   257
176
     1
 90
        1
176
     1
 90
        1
176
     1
 40
1.0
176
     1
 90
        8
176
     1
 62
     7
176
     1
 40
1.0
176
     1
 90
        1
176
     1
 90
        6
176
     1
 90
        2
176
     1
 62
     7
176
     1
 90
        5
176
     1
 90
        0
176
     1
 90
        0
176
     1
290
     0
176
     1
 90
        1
176
     1
 40
50.0
176
     1
 90
        0
176
     1
290
     0
176
     1
290
     1
176
     1
290
     1
176
     1
290
     0
176
     1
290
     0
176
     1
290
     0
176
     1
290
     0
176
     1
290
     0
176
     1
290
     0
176
     1
 90
       50
176
     1
 40
0.0
176
     1
 40
1.0
176
     1
 90
        0
176
     1
 62
    18
420
        0
176
     1
 90
       50
176
     1
 90
        3
176
     1
 62
     5
420
      255
176
     1
290
     0
176
     1
 90
       50
176
     1
 90
       50
176
     1
 90
       50
176
     1
290
     0
176
     1
 90
       50
176
     1
 62
   256
176
     0
 40
1.0
176
     0
 90
        2
176
     1
  1
strokes_ogs.tif
176
     1
290
     0
176
     1
 40
1.0
176
     1
 40
1.0
176
     1
  0
VISUALSTYLE
  5
3A
102
{ACAD_REACTORS
330
2A
102
}
330
2A
100
AcDbVisualStyle
  2
ColorChange
 70
    16
177
     3
291
     1
 70
    58
 90
        2
176
     1
 90
        2
176
     1
 90
        3
176
     1
 90
        0
176
     1
 40
0.6
176
     1
 40
30.0
176
     1
 62
     8
420
  8421504
176
     1
 90
        1
176
     1
 90
        4
176
     1
 62
     7
176
     1
 62
   257
176
     1
 90
        1
176
     1
 90
        1
176
     1
 40
1.0
176
     1
 90
        8
176
     1
 62
     8
420
  8421504
176
     1
 40
1.0
176
     1
 90
        1
176
     1
 90
        6
176
     1
 90
        2
176
     1
 62
     7
176
     1
 90
        5
176
     1
 90
        0
176
     1
 90
        0
176
     1
290
     0
176
     1
 90
        1
176
     1
 40
0.0
176
     1
 90
        0
176
     1
290
     0
176
     1
290
     1
176
     1
290
     1
176
     1
290
     0
176
     1
290
     0
176
     1
290
     0
176
     1
290
     0
176
     1
290
     0
176
     1
290
     0
176
     1
 90
       50
176
     1
 40
0.0
176
     1
 40
1.0
176
     1
 90
        0
176
     1
 62
    18
420
        0
176
     1
 90
       50
176
     1
 90
        3
176
     1
 62
     5
420
      255
176
     1
290
     0
176
     1
 90
       50
176
     1
 90
       50
176
     1
 90
       50
176
     1
290
     0
176
     1
 90
       50
176
     1
 62
   256
176
     0
 40
1.0
176
     0
 90
        2
176
     1
  1
strokes_ogs.tif
176
     1
290
     0
176
     1
 40
1.0
176
     1
 40
1.0
176
     1
  0
VISUALSTYLE
  5
34
102
{ACAD_REACTORS
330
2A
102
}
330
2A
100
AcDbVisualStyle
  2
Conceptual
 70
     9
177
     3
291
     0
 70
    58
 90
        3
176
     1
 90
        2
176
     1
 90
        0
176
     1
 90
        0
176
     1
 40
0.6
176
     1
 40
30.0
176
     1
 62
     7
420
 16777215
176
     1
 90
        2
176
     1
 90
        2
176
     1
 62
     7
176
     1
 62
   257
176
     1
 90
        1
176
     1
 90
        1
176
     1
 40
179.0
176
     1
 90
        8
176
     1
 62
     7
176
     1
 40
1.0
176
     1
 90
        1
176
     1
 90
        6
176
     1
 90
        2
176
     1
 62
     7
176
     1
 90
        3
176
     1
 90
        0
176
     1
 90
        0
176
     1
290
     0
176
     1
 90
        1
176
     1
 40
0.0
176
     1
 90
        0
176
     1
290
     0
176
     1
290
     1
176
     1
290
     1
176
     1
290
     0
176
     1
290
     0
176
     1
290
     0
176
     1
290
     0
176
     1
290
     0
176
     1
290
     0
176
     1
 90
       50
176
     1
 40
0.0
176
     1
 40
1.0
176
     1
 90
        0
176
     1
 62
    18
420
        0
176
     1
 90
       50
176
     1
 90
        3
176
     1
 62
     5
420
      255
176
     1
290
     0
176
     1
 90
       50
176
     1
 90
       50
176
     1
 90
       50
176
     1
290
     0
176
     1
 90
       50
176
     1
 62
   256
176
     0
 40
1.0
176
     0
 90
        2
176
     1
  1
strokes_ogs.tif
176
     1
290
     0
176
     1
 40
1.0
176
     1
 40
1.0
176
     1
  0
VISUALSTYLE
  5
35
102
{ACAD_REACTORS
330
2A
102
}
330
2A
100
AcDbVisualStyle
  2
Dim
 70
    11
177
     3
291
     1
 70
    58
 90
        2
176
     1
 90
        2
176
     1
 90
        0
176
     1
 90
        0
176
     1
 40
0.6
176
     1
 40
30.0
176
     1
 62
     7
420
 16777215
176
     1
 90
        1
176
     1
 90
        4
176
     1
 62
     7
176
     1
 62
   257
176
     1
 90
        1
176
     1
 90
        1
176
     1
 40
1.0
176
     1
 90
        8
176
     1
 62
     7
176
     1
 40
1.0
176
     1
 90
        1
176
     1
 90
        6
176
     1
 90
        2
176
     1
 62
     7
176
     1
 90
        5
176
     1
 90
        0
176
     1
 90
        0
176
     1
290
     0
176
     1
 90
        1
176
     1
 40
-50.0
176
     1
 90
        0
176
     1
290
     0
176
     1
290
     1
176
     1
290
     1
176
     1
290
     0
176
     1
290
     0
176
     1
290
     0
176
     1
290
     0
176
     1
290
     0
176
     1
290
     0
176
     1
 90
       50
176
     1
 40
0.0
176
     1
 40
1.0
176
     1
 90
        0
176
     1
 62
    18
420
        0
176
     1
 90
       50
176
     1
 90
        3
176
     1
 62
     5
420
      255
176
     1
290
     0
176
     1
 90
       50
176
     1
 90
       50
176
     1
 90
       50
176
     1
290
     0
176
     1
 90
       50
176
     1
 62
   256
176
     0
 40
1.0
176
     0
 90
        2
176
     1
  1
strokes_ogs.tif
176
     1
290
     0
176
     1
 40
1.0
176
     1
 40
1.0
176
     1
  0
VISUALSTYLE
  5
3D
102
{ACAD_REACTORS
330
2A
102
}
330
2A
100
AcDbVisualStyle
  2
EdgeColorOff
 70
    22
177
     3
291
     1
 70
    58
 90
        2
176
     0
 90
        2
176
     0
 90
        0
176
     0
 90
        0
176
     0
 40
0.6
176
     0
 40
30.0
176
     0
 62
     7
420
 16777215
176
     0
 90
        1
176
     0
 90
        4
176
     0
 62
     7
176
     0
 62
   257
176
     0
 90
        1
176
     0
 90
        1
176
     0
 40
1.0
176
     0
 90
        8
176
     2
 62
     7
176
     0
 40
1.0
176
     0
 90
        1
176
     0
 90
        6
176
     0
 90
        2
176
     0
 62
     7
176
     0
 90
        5
176
     0
 90
        0
176
     0
 90
        0
176
     0
290
     0
176
     0
 90
        1
176
     0
 40
0.0
176
     0
 90
        0
176
     0
290
     0
176
     0
290
     1
176
     0
290
     1
176
     0
290
     0
176
     0
290
     0
176
     0
290
     0
176
     0
290
     0
176
     0
290
     0
176
     0
290
     0
176
     0
 90
       50
176
     0
 40
0.0
176
     0
 40
1.0
176
     0
 90
        0
176
     0
 62
    18
420
        0
176
     0
 90
       50
176
     0
 90
        3
176
     0
 62
     5
420
      255
176
     0
290
     0
176
     0
 90
       50
176
     0
 90
       50
176
     0
 90
       50
176
     0
290
     0
176
     0
 90
       50
176
     0
 62
   256
176
     0
 40
1.0
176
     0
 90
        2
176
     0
  1
strokes_ogs.tif
176
     0
290
     0
176
     0
 40
1.0
176
     0
 40
1.0
176
     0
  0
VISUALSTYLE
  5
39
102
{ACAD_REACTORS
330
2A
102
}
330
2A
100
AcDbVisualStyle
  2
Facepattern
 70
    15
177
     3
291
     1
 70
    58
 90
        2
176
     1
 90
        2
176
     1
 90
        0
176
     1
 90
        0
176
     1
 40
0.6
176
     1
 40
30.0
176
     1
 62
     7
420
 16777215
176
     1
 90
        1
176
     1
 90
        4
176
     1
 62
     7
176
     1
 62
   257
176
     1
 90
        1
176
     1
 90
        1
176
     1
 40
1.0
176
     1
 90
        8
176
     1
 62
     7
176
     1
 40
1.0
176
     1
 90
        1
176
     1
 90
        6
176
     1
 90
        2
176
     1
 62
     7
176
     1
 90
        5
176
     1
 90
        0
176
     1
 90
        0
176
     1
290
     0
176
     1
 90
        1
176
     1
 40
0.0
176
     1
 90
        0
176
     1
290
     0
176
     1
290
     1
176
     1
290
     1
176
     1
290
     0
176
     1
290
     0
176
     1
290
     0
176
     1
290
     0
176
     1
290
     0
176
     1
290
     0
176
     1
 90
       50
176
     1
 40
0.0
176
     1
 40
1.0
176
     1
 90
        0
176
     1
 62
    18
420
        0
176
     1
 90
       50
176
     1
 90
        3
176
     1
 62
     5
420
      255
176
     1
290
     0
176
     1
 90
       50
176
     1
 90
       50
176
     1
 90
       50
176
     1
290
     0
176
     1
 90
       50
176
     1
 62
   256
176
     0
 40
1.0
176
     0
 90
        2
176
     1
  1
strokes_ogs.tif
176
     1
290
     0
176
     1
 40
1.0
176
     1
 40
1.0
176
     1
  0
VISUALSTYLE
  5
2B
102
{ACAD_REACTORS
330
2A
102
}
330
2A
100
AcDbVisualStyle
  2
Flat
 70
     0
177
     3
291
     1
 70
    58
 90
        2
176
     1
 90
        1
176
     1
 90
        1
176
     1
 90
        2
176
     1
 40
0.6
176
     1
 40
30.0
176
     1
 62
     7
420
 16777215
176
     1
 90
        0
176
     1
 90
        0
176
     1
 62
     7
176
     1
 62
   257
176
     1
 90
        1
176
     1
 90
        1
176
     1
 40
1.0
176
     1
 90
        8
176
     1
 62
     7
176
     1
 40
1.0
176
     1
 90
        1
176
     1
 90
        6
176
     1
 90
        2
176
     1
 62
     7
176
     1
 90
        5
176
     1
 90
        0
176
     1
 90
        0
176
     1
290
     0
176
     1
 90
       13
176
     1
 40
0.0
176
     1
 90
        0
176
     1
290
     0
176
     1
290
     1
176
     1
290
     1
176
     1
290
     0
176
     1
290
     0
176
     1
290
     0
176
     1
290
     0
176
     1
290
     0
176
     1
290
     0
176
     1
 90
       50
176
     1
 40
0.0
176
     1
 40
1.0
176
     1
 90
        0
176
     1
 62
    18
420
        0
176
     1
 90
       50
176
     1
 90
        3
176
     1
 62
     5
420
      255
176
     1
290
     0
176
     1
 90
       50
176
     1
 90
       50
176
     1
 90
       50
176
     1
290
     0
176
     1
 90
       50
176
     1
 62
   256
176
     0
 40
1.0
176
     0
 90
        2
176
     1
  1
strokes_ogs.tif
176
     1
290
     0
176
     1
 40
1.0
176
     1
 40
1.0
176
     1
  0
VISUALSTYLE
  5
2C
102
{ACAD_REACTORS
330
2A
102
}
330
2A
100
AcDbVisualStyle
  2
FlatWithEdges
 70
     1
177
     3
291
     1
 70
    58
 90
        2
176
     1
 90
        1
176
     1
 90
        1
176
     1
 90
        2
176
     1
 40
0.6
176
     1
 40
30.0
176
     1
 62
     7
420
 16777215
176
     1
 90
        1
176
     1
 90
        0
176
     1
 62
     7
176
     1
 62
   257
176
     1
 90
        1
176
     1
 90
        1
176
     1
 40
1.0
176
     1
 90
        0
176
     1
 62
   257
176
     1
 40
1.0
176
     1
 90
        1
176
     1
 90
        6
176
     1
 90
        2
176
     1
 62
     7
176
     1
 90
        5
176
     1
 90
        0
176
     1
 90
        0
176
     1
290
     0
176
     1
 90
       13
176
     1
 40
0.0
176
     1
 90
        0
176
     1
290
     0
176
     1
290
     1
176
     1
290
     1
176
     1
290
     0
176
     1
290
     0
176
     1
290
     0
176
     1
290
     0
176
     1
290
     0
176
     1
290
     0
176
     1
 90
       50
176
     1
 40
0.0
176
     1
 40
1.0
176
     1
 90
        0
176
     1
 62
    18
420
        0
176
     1
 90
       50
176
     1
 90
        3
176
     1
 62
     5
420
      255
176
     1
290
     0
176
     1
 90
       50
176
     1
 90
       50
176
     1
 90
       50
176
     1
290
     0
176
     1
 90
       50
176
     1
 62
   256
176
     0
 40
1.0
176
     0
 90
        2
176
     1
  1
strokes_ogs.tif
176
     1
290
     0
176
     1
 40
1.0
176
     1
 40
1.0
176
     1
  0
VISUALSTYLE
  5
2D
102
{ACAD_REACTORS
330
2A
102
}
330
2A
100
AcDbVisualStyle
  2
Gouraud
 70
     2
177
     3
291
     1
 70
    58
 90
        2
176
     1
 90
        2
176
     1
 90
        1
176
     1
 90
        2
176
     1
 40
0.6
176
     1
 40
30.0
176
     1
 62
     7
420
 16777215
176
     1
 90
        0
176
     1
 90
        0
176
     1
 62
     7
176
     1
 62
   257
176
     1
 90
        1
176
     1
 90
        1
176
     1
 40
1.0
176
     1
 90
        0
176
     1
 62
     7
176
     1
 40
1.0
176
     1
 90
        1
176
     1
 90
        6
176
     1
 90
        2
176
     1
 62
     7
176
     1
 90
        5
176
     1
 90
        0
176
     1
 90
        0
176
     1
290
     0
176
     1
 90
       13
176
     1
 40
0.0
176
     1
 90
        0
176
     1
290
     0
176
     1
290
     1
176
     1
290
     1
176
     1
290
     0
176
     1
290
     0
176
     1
290
     0
176
     1
290
     0
176
     1
290
     0
176
     1
290
     0
176
     1
 90
       50
176
     1
 40
0.0
176
     1
 40
1.0
176
     1
 90
        0
176
     1
 62
    18
420
        0
176
     1
 90
       50
176
     1
 90
        3
176
     1
 62
     5
420
      255
176
     1
290
     0
176
     1
 90
       50
176
     1
 90
       50
176
     1
 90
       50
176
     1
290
     0
176
     1
 90
       50
176
     1
 62
   256
176
     0
 40
1.0
176
     0
 90
        2
176
     1
  1
strokes_ogs.tif
176
     1
290
     0
176
     1
 40
1.0
176
     1
 40
1.0
176
     1
  0
VISUALSTYLE
  5
2E
102
{ACAD_REACTORS
330
2A
102
}
330
2A
100
AcDbVisualStyle
  2
GouraudWithEdges
 70
     3
177
     3
291
     1
 70
    58
 90
        2
176
     1
 90
        2
176
     1
 90
        1
176
     1
 90
        2
176
     1
 40
0.6
176
     1
 40
30.0
176
     1
 62
     7
420
 16777215
176
     1
 90
        1
176
     1
 90
        0
176
     1
 62
     7
176
     1
 62
   257
176
     1
 90
        1
176
     1
 90
        1
176
     1
 40
1.0
176
     1
 90
        0
176
     1
 62
   257
176
     1
 40
1.0
176
     1
 90
        1
176
     1
 90
        6
176
     1
 90
        2
176
     1
 62
     7
176
     1
 90
        5
176
     1
 90
        0
176
     1
 90
        0
176
     1
290
     0
176
     1
 90
       13
176
     1
 40
0.0
176
     1
 90
        0
176
     1
290
     0
176
     1
290
     1
176
     1
290
     1
176
     1
290
     0
176
     1
290
     0
176
     1
290
     0
176
     1
290
     0
176
     1
290
     0
176
     1
290
     0
176
     1
 90
       50
176
     1
 40
0.0
176
     1
 40
1.0
176
     1
 90
        0
176
     1
 62
    18
420
        0
176
     1
 90
       50
176
     1
 90
        3
176
     1
 62
     5
420
      255
176
     1
290
     0
176
     1
 90
       50
176
     1
 90
       50
176
     1
 90
       50
176
     1
290
     0
176
     1
 90
       50
176
     1
 62
   256
176
     0
 40
1.0
176
     0
 90
        2
176
     1
  1
strokes_ogs.tif
176
     1
290
     0
176
     1
 40
1.0
176
     1
 40
1.0
176
     1
  0
VISUALSTYLE
  5
31
102
{ACAD_REACTORS
330
2A
102
}
330
2A
100
AcDbVisualStyle
  2
Hidden
 70
     6
177
     3
291
     0
 70
    58
 90
        1
176
     1
 90
        2
176
     1
 90
        2
176
     1
 90
        0
176
     1
 40
0.6
176
     1
 40
30.0
176
     1
 62
     7
420
 16777215
176
     1
 90
        2
176
     1
 90
        2
176
     1
 62
     7
176
     1
 62
   257
176
     1
 90
        2
176
     1
 90
        1
176
     1
 40
40.0
176
     1
 90
        0
176
     1
 62
   257
176
     1
 40
1.0
176
     1
 90
        1
176
     1
 90
        6
176
     1
 90
        2
176
     1
 62
     7
176
     1
 90
        3
176
     1
 90
        0
176
     1
 90
        0
176
     1
290
     0
176
     1
 90
        1
176
     1
 40
0.0
176
     1
 90
        0
176
     1
290
     0
176
     1
290
     1
176
     1
290
     1
176
     1
290
     0
176
     1
290
     0
176
     1
290
     0
176
     1
290
     0
176
     1
290
     0
176
     1
290
     0
176
     1
 90
       50
176
     1
 40
0.0
176
     1
 40
1.0
176
     1
 90
        0
176
     1
 62
    18
420
        0
176
     1
 90
       50
176
     1
 90
        3
176
     1
 62
     5
420
      255
176
     1
290
     0
176
     1
 90
       50
176
     1
 90
       50
176
     1
 90
       50
176
     1
290
     0
176
     1
 90
       50
176
     1
 62
   256
176
     0
 40
1.0
176
     0
 90
        2
176
     1
  1
strokes_ogs.tif
176
     1
290
     0
176
     1
 40
1.0
176
     1
 40
1.0
176
     1
  0
VISUALSTYLE
  5
3B
102
{ACAD_REACTORS
330
2A
102
}
330
2A
100
AcDbVisualStyle
  2
JitterOff
 70
    20
177
     3
291
     1
 70
    58
 90
        2
176
     0
 90
        2
176
     0
 90
        0
176
     0
 90
        0
176
     0
 40
0.6
176
     0
 40
30.0
176
     0
 62
     7
420
 16777215
176
     0
 90
        1
176
     0
 90
        4
176
     0
 62
     7
176
     0
 62
   257
176
     0
 90
        1
176
     0
 90
        1
176
     0
 40
1.0
176
     0
 90
       10
176
     2
 62
     7
176
     0
 40
1.0
176
     0
 90
        1
176
     0
 90
        6
176
     0
 90
        2
176
     0
 62
     7
176
     0
 90
        5
176
     0
 90
        0
176
     0
 90
        0
176
     0
290
     0
176
     0
 90
        1
176
     0
 40
0.0
176
     0
 90
        0
176
     0
290
     0
176
     0
290
     1
176
     0
290
     1
176
     0
290
     0
176
     0
290
     0
176
     0
290
     0
176
     0
290
     0
176
     0
290
     0
176
     0
290
     0
176
     0
 90
       50
176
     0
 40
0.0
176
     0
 40
1.0
176
     0
 90
        0
176
     0
 62
    18
420
        0
176
     0
 90
       50
176
     0
 90
        3
176
     0
 62
     5
420
      255
176
     0
290
     0
176
     0
 90
       50
176
     0
 90
       50
176
     0
 90
       50
176
     0
290
     0
176
     0
 90
       50
176
     0
 62
   256
176
     0
 40
1.0
176
     0
 90
        2
176
     0
  1
strokes_ogs.tif
176
     0
290
     0
176
     0
 40
1.0
176
     0
 40
1.0
176
     0
  0
VISUALSTYLE
  5
38
102
{ACAD_REACTORS
330
2A
102
}
330
2A
100
AcDbVisualStyle
  2
Linepattern
 70
    14
177
     3
291
     1
 70
    58
 90
        2
176
     1
 90
        2
176
     1
 90
        0
176
     1
 90
        0
176
     1
 40
0.6
176
     1
 40
30.0
176
     1
 62
     7
420
 16777215
176
     1
 90
        1
176
     1
 90
        4
176
     1
 62
     7
176
     1
 62
   257
176
     1
 90
        7
176
     1
 90
        7
176
     1
 40
1.0
176
     1
 90
        8
176
     1
 62
     7
176
     1
 40
1.0
176
     1
 90
        1
176
     1
 90
        6
176
     1
 90
        2
176
     1
 62
     7
176
     1
 90
        5
176
     1
 90
        0
176
     1
 90
        0
176
     1
290
     0
176
     1
 90
        1
176
     1
 40
0.0
176
     1
 90
        0
176
     1
290
     0
176
     1
290
     1
176
     1
290
     1
176
     1
290
     0
176
     1
290
     0
176
     1
290
     0
176
     1
290
     0
176
     1
290
     0
176
     1
290
     0
176
     1
 90
       50
176
     1
 40
0.0
176
     1
 40
1.0
176
     1
 90
        0
176
     1
 62
    18
420
        0
176
     1
 90
       50
176
     1
 90
        3
176
     1
 62
     5
420
      255
176
     1
290
     0
176
     1
 90
       50
176
     1
 90
       50
176
     1
 90
       50
176
     1
290
     0
176
     1
 90
       50
176
     1
 62
   256
176
     0
 40
1.0
176
     0
 90
        2
176
     1
  1
strokes_ogs.tif
176
     1
290
     0
176
     1
 40
1.0
176
     1
 40
1.0
176
     1
  0
VISUALSTYLE
  5
3C
102
{ACAD_REACTORS
330
2A
102
}
330
2A
100
AcDbVisualStyle
  2
OverhangOff
 70
    21
177
     3
291
     1
 70
    58
 90
        2
176
     0
 90
        2
176
     0
 90
        0
176
     0
 90
        0
176
     0
 40
0.6
176
     0
 40
30.0
176
     0
 62
     7
420
 16777215
176
     0
 90
        1
176
     0
 90
        4
176
     0
 62
     7
176
     0
 62
   257
176
     0
 90
        1
176
     0
 90
        1
176
     0
 40
1.0
176
     0
 90
        9
176
     2
 62
     7
176
     0
 40
1.0
176
     0
 90
        1
176
     0
 90
        6
176
     0
 90
        2
176
     0
 62
     7
176
     0
 90
        5
176
     0
 90
        0
176
     0
 90
        0
176
     0
290
     0
176
     0
 90
        1
176
     0
 40
0.0
176
     0
 90
        0
176
     0
290
     0
176
     0
290
     1
176
     0
290
     1
176
     0
290
     0
176
     0
290
     0
176
     0
290
     0
176
     0
290
     0
176
     0
290
     0
176
     0
290
     0
176
     0
 90
       50
176
     0
 40
0.0
176
     0
 40
1.0
176
     0
 90
        0
176
     0
 62
    18
420
        0
176
     0
 90
       50
176
     0
 90
        3
176
     0
 62
     5
420
      255
176
     0
290
     0
176
     0
 90
       50
176
     0
 90
       50
176
     0
 90
       50
176
     0
290
     0
176
     0
 90
       50
176
     0
 62
   256
176
     0
 40
1.0
176
     0
 90
        2
176
     0
  1
strokes_ogs.tif
176
     0
290
     0
176
     0
 40
1.0
176
     0
 40
1.0
176
     0
  0
VISUALSTYLE
  5
33
102
{ACAD_REACTORS
330
2A
102
}
330
2A
100
AcDbVisualStyle
  2
Realistic
 70
     8
177
     3
291
     0
 70
    58
 90
        2
176
     1
 90
        3
176
     1
 90
        0
176
     1
 90
        2
176
     1
 40
0.6
176
     1
 40
30.0
176
     1
 62
     7
420
 16777215
176
     1
 90
        0
176
     1
 90
        0
176
     1
 62
     7
176
     1
 62
   257
176
     1
 90
        1
176
     1
 90
        1
176
     1
 40
1.0
176
     1
 90
        8
176
     1
 62
   257
176
     1
 40
1.0
176
     1
 90
        1
176
     1
 90
        6
176
     1
 90
        2
176
     1
 62
     7
176
     1
 90
        3
176
     1
 90
        0
176
     1
 90
        0
176
     1
290
     0
176
     1
 90
       13
176
     1
 40
0.0
176
     1
 90
        0
176
     1
290
     0
176
     1
290
     1
176
     1
290
     1
176
     1
290
     0
176
     1
290
     0
176
     1
290
     0
176
     1
290
     0
176
     1
290
     0
176
     1
290
     0
176
     1
 90
       50
176
     1
 40
0.0
176
     1
 40
1.0
176
     1
 90
        0
176
     1
 62
    18
420
        0
176
     1
 90
       50
176
     1
 90
        3
176
     1
 62
     5
420
      255
176
     1
290
     0
176
     1
 90
       50
176
     1
 90
       50
176
     1
 90
       50
176
     1
290
     0
176
     1
 90
       50
176
     1
 62
   256
176
     0
 40
1.0
176
     0
 90
        2
176
     1
  1
strokes_ogs.tif
176
     1
290
     0
176
     1
 40
1.0
176
     1
 40
1.0
176
     1
  0
VISUALSTYLE
  5
42
102
{ACAD_REACTORS
330
2A
102
}
330
2A
100
AcDbVisualStyle
  2
Shaded
 70
    27
177
     3
291
     0
 70
    58
 90
        2
176
     1
 90
        2
176
     1
 90
        1
176
     1
 90
        2
176
     1
 40
0.6
176
     1
 40
30.0
176
     1
 62
     7
420
 16777215
176
     1
 90
        0
176
     1
 90
        4
176
     1
 62
     7
176
     1
 62
   257
176
     1
 90
        1
176
     1
 90
        1
176
     1
 40
1.0
176
     1
 90
        8
176
     1
 62
   257
176
     1
 40
1.0
176
     1
 90
        1
176
     1
 90
        6
176
     1
 90
        2
176
     1
 62
     8
420
  7895160
176
     1
 90
        3
176
     1
 90
        0
176
     1
 90
        0
176
     1
290
     0
176
     1
 90
        5
176
     1
 40
0.0
176
     1
 90
        0
176
     1
290
     0
176
     1
290
     1
176
     1
290
     1
176
     1
290
     0
176
     1
290
     0
176
     1
290
     0
176
     1
290
     0
176
     1
290
     0
176
     1
290
     0
176
     1
 90
       50
176
     1
 40
0.0
176
     1
 40
1.0
176
     1
 90
        0
176
     1
 62
    18
420
        0
176
     1
 90
       50
176
     1
 90
        3
176
     1
 62
     5
420
      255
176
     1
290
     0
176
     1
 90
       50
176
     1
 90
       50
176
     1
 90
       50
176
     1
290
     0
176
     1
 90
       50
176
     1
 62
   256
176
     0
 40
1.0
176
     0
 90
        2
176
     1
  1
strokes_ogs.tif
176
     1
290
     0
176
     1
 40
1.0
176
     1
 40
1.0
176
     1
  0
VISUALSTYLE
  5
41
102
{ACAD_REACTORS
330
2A
102
}
330
2A
100
AcDbVisualStyle
  2
Shaded with edges
 70
    26
177
     3
291
     0
 70
    58
 90
        2
176
     1
 90
        2
176
     1
 90
        1
176
     1
 90
        2
176
     1
 40
0.6
176
     1
 40
30.0
176
     1
 62
     7
420
 16777215
176
     1
 90
        1
176
     1
 90
       10
176
     1
 62
     7
176
     1
 62
   257
176
     1
 90
        2
176
     1
 90
        1
176
     1
 40
1.0
176
     1
 90
        8
176
     1
 62
   257
176
     1
 40
1.0
176
     1
 90
        1
176
     1
 90
        6
176
     1
 90
        2
176
     1
 62
     7
176
     1
 90
        3
176
     1
 90
        0
176
     1
 90
        0
176
     1
290
     0
176
     1
 90
        5
176
     1
 40
0.0
176
     1
 90
        0
176
     1
290
     0
176
     1
290
     1
176
     1
290
     1
176
     1
290
     0
176
     1
290
     0
176
     1
290
     0
176
     1
290
     0
176
     1
290
     0
176
     1
290
     0
176
     1
 90
       50
176
     1
 40
0.0
176
     1
 40
1.0
176
     1
 90
        0
176
     1
 62
    18
420
        0
176
     1
 90
       50
176
     1
 90
        3
176
     1
 62
     5
420
      255
176
     1
290
     0
176
     1
 90
       50
176
     1
 90
       50
176
     1
 90
       50
176
     1
290
     0
176
     1
 90
       50
176
     1
 62
   256
176
     0
 40
1.0
176
     0
 90
        2
176
     1
  1
strokes_ogs.tif
176
     1
290
     0
176
     1
 40
1.0
176
     1
 40
1.0
176
     1
  0
VISUALSTYLE
  5
3E
102
{ACAD_REACTORS
330
2A
102
}
330
2A
100
AcDbVisualStyle
  2
Shades of Gray
 70
    23
177
     3
291
     0
 70
    58
 90
        2
176
     1
 90
        2
176
     1
 90
        3
176
     1
 90
        0
176
     1
 40
0.6
176
     1
 40
30.0
176
     1
 62
     7
420
 16777215
176
     1
 90
        2
176
     1
 90
        2
176
     1
 62
     7
176
     1
 62
     7
176
     1
 90
        1
176
     1
 90
        1
176
     1
 40
40.0
176
     1
 90
        8
176
     1
 62
     7
176
     1
 40
1.0
176
     1
 90
        1
176
     1
 90
        6
176
     1
 90
        2
176
     1
 62
     7
176
     1
 90
        3
176
     1
 90
        0
176
     1
 90
        0
176
     1
290
     0
176
     1
 90
        1
176
     1
 40
0.0
176
     1
 90
        0
176
     1
290
     0
176
     1
290
     1
176
     1
290
     1
176
     1
290
     0
176
     1
290
     0
176
     1
290
     0
176
     1
290
     0
176
     1
290
     0
176
     1
290
     0
176
     1
 90
       50
176
     1
 40
0.0
176
     1
 40
1.0
176
     1
 90
        0
176
     1
 62
    18
420
        0
176
     1
 90
       50
176
     1
 90
        3
176
     1
 62
     5
420
      255
176
     1
290
     0
176
     1
 90
       50
176
     1
 90
       50
176
     1
 90
       50
176
     1
290
     0
176
     1
 90
       50
176
     1
 62
   256
176
     0
 40
1.0
176
     0
 90
        2
176
     1
  1
strokes_ogs.tif
176
     1
290
     0
176
     1
 40
1.0
176
     1
 40
1.0
176
     1
  0
VISUALSTYLE
  5
3F
102
{ACAD_REACTORS
330
2A
102
}
330
2A
100
AcDbVisualStyle
  2
Sketchy
 70
    24
177
     3
291
     0
 70
    58
 90
        1
176
     1
 90
        2
176
     1
 90
        2
176
     1
 90
        0
176
     1
 40
0.6
176
     1
 40
30.0
176
     1
 62
     7
420
 16777215
176
     1
 90
        2
176
     1
 90
        2
176
     1
 62
     7
176
     1
 62
     7
176
     1
 90
        1
176
     1
 90
        1
176
     1
 40
40.0
176
     1
 90
       11
176
     1
 62
     7
176
     1
 40
1.0
176
     1
 90
        1
176
     1
 90
        6
176
     1
 90
        2
176
     1
 62
     7
176
     1
 90
        6
176
     1
 90
        0
176
     1
 90
        0
176
     1
290
     0
176
     1
 90
        1
176
     1
 40
0.0
176
     1
 90
        0
176
     1
290
     0
176
     1
290
     1
176
     1
290
     1
176
     1
290
     0
176
     1
290
     0
176
     1
290
     0
176
     1
290
     0
176
     1
290
     0
176
     1
290
     0
176
     1
 90
       50
176
     1
 40
0.0
176
     1
 40
1.0
176
     1
 90
        0
176
     1
 62
    18
420
        0
176
     1
 90
       50
176
     1
 90
        3
176
     1
 62
     5
420
      255
176
     1
290
     0
176
     1
 90
       50
176
     1
 90
       50
176
     1
 90
       50
176
     1
290
     0
176
     1
 90
       50
176
     1
 62
   256
176
     0
 40
1.0
176
     0
 90
        2
176
     1
  1
strokes_ogs.tif
176
     1
290
     0
176
     1
 40
1.0
176
     1
 40
1.0
176
     1
  0
VISUALSTYLE
  5
37
102
{ACAD_REACTORS
330
2A
102
}
330
2A
100
AcDbVisualStyle
  2
Thicken
 70
    13
177
     3
291
     1
 70
    58
 90
        2
176
     1
 90
        2
176
     1
 90
        0
176
     1
 90
        0
176
     1
 40
0.6
176
     1
 40
30.0
176
     1
 62
     7
420
 16777215
176
     1
 90
        1
176
     1
 90
        4
176
     1
 62
     7
176
     1
 62
   257
176
     1
 90
        1
176
     1
 90
        1
176
     1
 40
1.0
176
     1
 90
       12
176
     1
 62
     7
176
     1
 40
1.0
176
     1
 90
        1
176
     1
 90
        6
176
     1
 90
        2
176
     1
 62
     7
176
     1
 90
        5
176
     1
 90
        0
176
     1
 90
        0
176
     1
290
     0
176
     1
 90
        1
176
     1
 40
0.0
176
     1
 90
        0
176
     1
290
     0
176
     1
290
     1
176
     1
290
     1
176
     1
290
     0
176
     1
290
     0
176
     1
290
     0
176
     1
290
     0
176
     1
290
     0
176
     1
290
     0
176
     1
 90
       50
176
     1
 40
0.0
176
     1
 40
1.0
176
     1
 90
        0
176
     1
 62
    18
420
        0
176
     1
 90
       50
176
     1
 90
        3
176
     1
 62
     5
420
      255
176
     1
290
     0
176
     1
 90
       50
176
     1
 90
       50
176
     1
 90
       50
176
     1
290
     0
176
     1
 90
       50
176
     1
 62
   256
176
     0
 40
1.0
176
     0
 90
        2
176
     1
  1
strokes_ogs.tif
176
     1
290
     0
176
     1
 40
1.0
176
     1
 40
1.0
176
     1
  0
VISUALSTYLE
  5
30
102
{ACAD_REACTORS
330
2A
102
}
330
2A
100
AcDbVisualStyle
  2
Wireframe
 70
     5
177
     3
291
     0
 70
    58
 90
        0
176
     1
 90
        2
176
     1
 90
        0
176
     1
 90
        0
176
     1
 40
0.6
176
     1
 40
30.0
176
     1
 62
     7
420
 16777215
176
     1
 90
        1
176
     1
 90
        4
176
     1
 62
     7
176
     1
 62
   257
176
     1
 90
        1
176
     1
 90
        1
176
     1
 40
1.0
176
     1
 90
        0
176
     1
 62
   257
176
     1
 40
1.0
176
     1
 90
        1
176
     1
 90
        6
176
     1
 90
        2
176
     1
 62
     7
176
     1
 90
        3
176
     1
 90
        0
176
     1
 90
        0
176
     1
290
     0
176
     1
 90
        1
176
     1
 40
0.0
176
     1
 90
        0
176
     1
290
     0
176
     1
290
     1
176
     1
290
     1
176
     1
290
     0
176
     1
290
     0
176
     1
290
     0
176
     1
290
     0
176
     1
290
     0
176
     1
290
     0
176
     1
 90
       50
176
     1
 40
0.0
176
     1
 40
1.0
176
     1
 90
        0
176
     1
 62
    18
420
        0
176
     1
 90
       50
176
     1
 90
        3
176
     1
 62
     5
420
      255
176
     1
290
     0
176
     1
 90
       50
176
     1
 90
       50
176
     1
 90
       50
176
     1
290
     0
176
     1
 90
       50
176
     1
 62
   256
176
     0
 40
1.0
176
     0
 90
        2
176
     1
  1
strokes_ogs.tif
176
     1
290
     0
176
     1
 40
1.0
176
     1
 40
1.0
176
     1
  0
VISUALSTYLE
  5
40
102
{ACAD_REACTORS
330
2A
102
}
330
2A
100
AcDbVisualStyle
  2
X-Ray
 70
    25
177
     3
291
     0
 70
    58
 90
        2
176
     1
 90
        2
176
     1
 90
        1
176
     1
 90
        1
176
     1
 40
0.5
176
     1
 40
30.0
176
     1
 62
     7
420
 16777215
176
     1
 90
        1
176
     1
 90
        0
176
     1
 62
     7
176
     1
 62
   257
176
     1
 90
        1
176
     1
 90
        1
176
     1
 40
1.0
176
     1
 90
        8
176
     1
 62
     7
176
     1
 40
1.0
176
     1
 90
        1
176
     1
 90
        6
176
     1
 90
        2
176
     1
 62
     7
176
     1
 90
        3
176
     1
 90
        0
176
     1
 90
        0
176
     1
290
     0
176
     1
 90
       13
176
     1
 40
0.0
176
     1
 90
        0
176
     1
290
     0
176
     1
290
     1
176
     1
290
     1
176
     1
290
     0
176
     1
290
     0
176
     1
290
     0
176
     1
290
     0
176
     1
290
     0
176
     1
290
     0
176
     1
 90
       50
176
     1
 40
0.0
176
     1
 40
1.0
176
     1
 90
        0
176
     1
 62
    18
420
        0
176
     1
 90
       50
176
     1
 90
        3
176
     1
 62
     5
420
      255
176
     1
290
     0
176
     1
 90
       50
176
     1
 90
       50
176
     1
 90
       50
176
     1
290
     0
176
     1
 90
       50
176
     1
 62
   256
176
     0
 40
1.0
176
     0
 90
        2
176
     1
  1
strokes_ogs.tif
176
     1
290
     0
176
     1
 40
1.0
176
     1
 40
1.0
176
     1
  0
DICTIONARYVAR
  5
1C0
102
{ACAD_REACTORS
330
1BF
102
}
330
1BF
100
DictionaryVariables
280
     0
  1
1:1
  0
DICTIONARYVAR
  5
1C5
102
{ACAD_REACTORS
330
1BF
102
}
330
1BF
100
DictionaryVariables
280
     0
  1
Standard
  0
DICTIONARYVAR
  5
1C4
102
{ACAD_REACTORS
330
1BF
102
}
330
1BF
100
DictionaryVariables
280
     0
  1
Standard
  0
DICTIONARY
  5
1C1
330
6A
100
AcDbDictionary
280
     1
281
     1
  3
ACAD_ROUNDTRIP_2008_TABLESTYLE_CELLSTYLEMAP
360
1C2
  0
CELLSTYLEMAP
  5
1C2
102
{ACAD_REACTORS
330
1C1
102
}
330
1C1
100
AcDbCellStyleMap
 90
        3
300
CELLSTYLE
  1
TABLEFORMAT_BEGIN
 90
        5
170
     1
 91
        0
 92
    32768
 62
   257
 93
        1
300
CONTENTFORMAT
  1
CONTENTFORMAT_BEGIN
 90
        0
 91
        0
 92
        4
 93
        0
300

 40
0.0
140
1.0
 94
        5
 62
     0
340
11
144
6.0
309
CONTENTFORMAT_END
171
     1
301
MARGIN
  1
CELLMARGIN_BEGIN
 40
1.5
 40
1.5
 40
1.5
 40
1.5
 40
1.5
 40
1.5
309
CELLMARGIN_END
 94
        6
 95
        1
302
GRIDFORMAT
  1
GRIDFORMAT_BEGIN
 90
        0
 91
        1
 62
     0
 92
       -2
340
14
 93
        0
 40
0.045
309
GRIDFORMAT_END
 95
        2
302
GRIDFORMAT
  1
GRIDFORMAT_BEGIN
 90
        0
 91
        1
 62
     0
 92
       -2
340
14
 93
        0
 40
0.045
309
GRIDFORMAT_END
 95
        4
302
GRIDFORMAT
  1
GRIDFORMAT_BEGIN
 90
        0
 91
        1
 62
     0
 92
       -2
340
14
 93
        0
 40
0.045
309
GRIDFORMAT_END
 95
        8
302
GRIDFORMAT
  1
GRIDFORMAT_BEGIN
 90
        0
 91
        1
 62
     0
 92
       -2
340
14
 93
        0
 40
0.045
309
GRIDFORMAT_END
 95
       16
302
GRIDFORMAT
  1
GRIDFORMAT_BEGIN
 90
        0
 91
        1
 62
     0
 92
       -2
340
14
 93
        0
 40
0.045
309
GRIDFORMAT_END
 95
       32
302
GRIDFORMAT
  1
GRIDFORMAT_BEGIN
 90
        0
 91
        1
 62
     0
 92
       -2
340
14
 93
        0
 40
0.045
309
GRIDFORMAT_END
309
TABLEFORMAT_END
  1
CELLSTYLE_BEGIN
 90
        1
 91
        1
300
_TITLE
309
CELLSTYLE_END
300
CELLSTYLE
  1
TABLEFORMAT_BEGIN
 90
        5
170
     1
 91
        0
 92
        0
 62
   257
 93
        1
300
CONTENTFORMAT
  1
CONTENTFORMAT_BEGIN
 90
        0
 91
        0
 92
        4
 93
        0
300

 40
0.0
140
1.0
 94
        5
 62
     0
340
11
144
4.5
309
CONTENTFORMAT_END
171
     1
301
MARGIN
  1
CELLMARGIN_BEGIN
 40
1.5
 40
1.5
 40
1.5
 40
1.5
 40
1.5
 40
1.5
309
CELLMARGIN_END
 94
        6
 95
        1
302
GRIDFORMAT
  1
GRIDFORMAT_BEGIN
 90
        0
 91
        1
 62
     0
 92
       -2
340
14
 93
        0
 40
0.045
309
GRIDFORMAT_END
 95
        2
302
GRIDFORMAT
  1
GRIDFORMAT_BEGIN
 90
        0
 91
        1
 62
     0
 92
       -2
340
14
 93
        0
 40
0.045
309
GRIDFORMAT_END
 95
        4
302
GRIDFORMAT
  1
GRIDFORMAT_BEGIN
 90
        0
 91
        1
 62
     0
 92
       -2
340
14
 93
        0
 40
0.045
309
GRIDFORMAT_END
 95
        8
302
GRIDFORMAT
  1
GRIDFORMAT_BEGIN
 90
        0
 91
        1
 62
     0
 92
       -2
340
14
 93
        0
 40
0.045
309
GRIDFORMAT_END
 95
       16
302
GRIDFORMAT
  1
GRIDFORMAT_BEGIN
 90
        0
 91
        1
 62
     0
 92
       -2
340
14
 93
        0
 40
0.045
309
GRIDFORMAT_END
 95
       32
302
GRIDFORMAT
  1
GRIDFORMAT_BEGIN
 90
        0
 91
        1
 62
     0
 92
       -2
340
14
 93
        0
 40
0.045
309
GRIDFORMAT_END
309
TABLEFORMAT_END
  1
CELLSTYLE_BEGIN
 90
        2
 91
        1
300
_HEADER
309
CELLSTYLE_END
300
CELLSTYLE
  1
TABLEFORMAT_BEGIN
 90
        5
170
     1
 91
        0
 92
        0
 62
   257
 93
        1
300
CONTENTFORMAT
  1
CONTENTFORMAT_BEGIN
 90
        0
 91
        0
 92
        4
 93
        0
300

 40
0.0
140
1.0
 94
        2
 62
     0
340
11
144
4.5
309
CONTENTFORMAT_END
171
     1
301
MARGIN
  1
CELLMARGIN_BEGIN
 40
1.5
 40
1.5
 40
1.5
 40
1.5
 40
1.5
 40
1.5
309
CELLMARGIN_END
 94
        6
 95
        1
302
GRIDFORMAT
  1
GRIDFORMAT_BEGIN
 90
        0
 91
        1
 62
     0
 92
       -2
340
14
 93
        0
 40
0.045
309
GRIDFORMAT_END
 95
        2
302
GRIDFORMAT
  1
GRIDFORMAT_BEGIN
 90
        0
 91
        1
 62
     0
 92
       -2
340
14
 93
        0
 40
0.045
309
GRIDFORMAT_END
 95
        4
302
GRIDFORMAT
  1
GRIDFORMAT_BEGIN
 90
        0
 91
        1
 62
     0
 92
       -2
340
14
 93
        0
 40
0.045
309
GRIDFORMAT_END
 95
        8
302
GRIDFORMAT
  1
GRIDFORMAT_BEGIN
 90
        0
 91
        1
 62
     0
 92
       -2
340
14
 93
        0
 40
0.045
309
GRIDFORMAT_END
 95
       16
302
GRIDFORMAT
  1
GRIDFORMAT_BEGIN
 90
        0
 91
        1
 62
     0
 92
       -2
340
14
 93
        0
 40
0.045
309
GRIDFORMAT_END
 95
       32
302
GRIDFORMAT
  1
GRIDFORMAT_BEGIN
 90
        0
 91
        1
 62
     0
 92
       -2
340
14
 93
        0
 40
0.045
309
GRIDFORMAT_END
309
TABLEFORMAT_END
  1
CELLSTYLE_BEGIN
 90
        3
 91
        2
300
_DATA
309
CELLSTYLE_END
  0
ENDSEC
  0
EOF