0
SECTION
  2
HEADER
  9
$ACADVER
  1
AC1027
  9
$ACADMAINTVER
 70
     8
  9
$DWGCODEPAGE
  3
ANSI_1252
  9
$REQUIREDVERSIONS
160
                 0
  9
$COMMENTS
  1
File was created by Cadenas
  9
$CUSTOMPROPERTYTAG
  1
NN
  9
$CUSTOMPROPERTY
  1
Grip Tight Two-Bolt Pillow Block Metric Bore
  9
$CUSTOMPROPERTYTAG
  1
NT
  9
$CUSTOMPROPERTY
  1
GT Normal Duty Pillow Blocks
  9
$CUSTOMPROPERTYTAG
  1
NB
  9
$CUSTOMPROPERTY
  1
129208
  9
$CUSTOMPROPERTYTAG
  1
NBSYN
  9
$CUSTOMPROPERTY
  1
$PN.$LUBE.
  9
$CUSTOMPROPERTYTAG
  1
LINA
  9
$CUSTOMPROPERTY
  1
129208
  9
$CUSTOMPROPERTYTAG
  1
SERIES
  9
$CUSTOMPROPERTY
  1
206
  9
$CUSTOMPROPERTYTAG
  1
SS
  9
$CUSTOMPROPERTY
  1
30
  9
$CUSTOMPROPERTYTAG
  1
PN
  9
$CUSTOMPROPERTY
  1
129208
  9
$CUSTOMPROPERTYTAG
  1
DESCRIPTION
  9
$CUSTOMPROPERTY
  1
P2B-GTU-30M
  9
$CUSTOMPROPERTYTAG
  1
A
  9
$CUSTOMPROPERTY
  1
40.9
  9
$CUSTOMPROPERTYTAG
  1
B
  9
$CUSTOMPROPERTY
  1
158.8
  9
$CUSTOMPROPERTYTAG
  1
C
  9
$CUSTOMPROPERTY
  1
44.1
  9
$CUSTOMPROPERTYTAG
  1
DMIN
  9
$CUSTOMPROPERTY
  1
108.0
  9
$CUSTOMPROPERTYTAG
  1
DMAX
  9
$CUSTOMPROPERTY
  1
127.0
  9
$CUSTOMPROPERTYTAG
  1
F
  9
$CUSTOMPROPERTY
  1
M12
  9
$CUSTOMPROPERTYTAG
  1
G
  9
$CUSTOMPROPERTY
  1
23.8
  9
$CUSTOMPROPERTYTAG
  1
H
  9
$CUSTOMPROPERTY
  1
17.9
  9
$CUSTOMPROPERTYTAG
  1
J
  9
$CUSTOMPROPERTY
  1
84.1
  9
$CUSTOMPROPERTYTAG
  1
L
  9
$CUSTOMPROPERTY
  1
50.8
  9
$CUSTOMPROPERTYTAG
  1
M
  9
$CUSTOMPROPERTY
  1
42.9
  9
$CUSTOMPROPERTYTAG
  1
R
  9
$CUSTOMPROPERTY
  1
13.5
  9
$CUSTOMPROPERTYTAG
  1
S
  9
$CUSTOMPROPERTY
  1
27.4
  9
$CUSTOMPROPERTYTAG
  1
U
  9
$CUSTOMPROPERTY
  1
73.0
  9
$CUSTOMPROPERTYTAG
  1
V
  9
$CUSTOMPROPERTY
  1
146.1
  9
$CUSTOMPROPERTYTAG
  1
W
  9
$CUSTOMPROPERTY
  1
14.3
  9
$CUSTOMPROPERTYTAG
  1
X
  9
$CUSTOMPROPERTY
  1
4.8
  9
$CUSTOMPROPERTYTAG
  1
Z
  9
$CUSTOMPROPERTY
  1
26.2
  9
$CUSTOMPROPERTYTAG
  1
COMPANY
  9
$CUSTOMPROPERTY
  1
baldor
  9
$INSBASE
 10
0.0
 20
0.0
 30
0.0
  9
$EXTMIN
 10
1.000000000000000E+20
 20
1.000000000000000E+20
 30
1.000000000000000E+20
  9
$EXTMAX
 10
-1.000000000000000E+20
 20
-1.000000000000000E+20
 30
-1.000000000000000E+20
  9
$LIMMIN
 10
0.0
 20
0.0
  9
$LIMMAX
 10
420.0
 20
297.0
  9
$ORTHOMODE
 70
     0
  9
$REGENMODE
 70
     1
  9
$FILLMODE
 70
     1
  9
$QTEXTMODE
 70
     0
  9
$MIRRTEXT
 70
     1
  9
$LTSCALE
 40
1.0
  9
$ATTMODE
 70
     1
  9
$TEXTSIZE
 40
2.5
  9
$TRACEWID
 40
1.0
  9
$TEXTSTYLE
  7
Standard
  9
$CLAYER
  8
0
  9
$CELTYPE
  6
ByLayer
  9
$CECOLOR
 62
   256
  9
$CELTSCALE
 40
1.0
  9
$DISPSILH
 70
     0
  9
$DIMSCALE
 40
1.0
  9
$DIMASZ
 40
2.5
  9
$DIMEXO
 40
0.625
  9
$DIMDLI
 40
3.75
  9
$DIMRND
 40
0.0
  9
$DIMDLE
 40
0.0
  9
$DIMEXE
 40
1.25
  9
$DIMTP
 40
0.0
  9
$DIMTM
 40
0.0
  9
$DIMTXT
 40
2.5
  9
$DIMCEN
 40
2.5
  9
$DIMTSZ
 40
0.0
  9
$DIMTOL
 70
     0
  9
$DIMLIM
 70
     0
  9
$DIMTIH
 70
     0
  9
$DIMTOH
 70
     0
  9
$DIMSE1
 70
     0
  9
$DIMSE2
 70
     0
  9
$DIMTAD
 70
     1
  9
$DIMZIN
 70
     8
  9
$DIMBLK
  1

  9
$DIMASO
 70
     1
  9
$DIMSHO
 70
     1
  9
$DIMPOST
  1

  9
$DIMAPOST
  1

  9
$DIMALT
 70
     0
  9
$DIMALTD
 70
     3
  9
$DIMALTF
 40
0.03937007874016
  9
$DIMLFAC
 40
1.0
  9
$DIMTOFL
 70
     1
  9
$DIMTVP
 40
0.0
  9
$DIMTIX
 70
     0
  9
$DIMSOXD
 70
     0
  9
$DIMSAH
 70
     0
  9
$DIMBLK1
  1

  9
$DIMBLK2
  1

  9
$DIMSTYLE
  2
ISO-25
  9
$DIMCLRD
 70
     0
  9
$DIMCLRE
 70
     0
  9
$DIMCLRT
 70
     0
  9
$DIMTFAC
 40
1.0
  9
$DIMGAP
 40
0.625
  9
$DIMJUST
 70
     0
  9
$DIMSD1
 70
     0
  9
$DIMSD2
 70
     0
  9
$DIMTOLJ
 70
     0
  9
$DIMTZIN
 70
     8
  9
$DIMALTZ
 70
     0
  9
$DIMALTTZ
 70
     0
  9
$DIMUPT
 70
     0
  9
$DIMDEC
 70
     2
  9
$DIMTDEC
 70
     2
  9
$DIMALTU
 70
     2
  9
$DIMALTTD
 70
     3
  9
$DIMTXSTY
  7
Standard
  9
$DIMAUNIT
 70
     0
  9
$DIMADEC
 70
     0
  9
$DIMALTRND
 40
0.0
  9
$DIMAZIN
 70
     0
  9
$DIMDSEP
 70
    44
  9
$DIMATFIT
 70
     3
  9
$DIMFRAC
 70
     0
  9
$DIMLDRBLK
  1

  9
$DIMLUNIT
 70
     2
  9
$DIMLWD
 70
    -2
  9
$DIMLWE
 70
    -2
  9
$DIMTMOVE
 70
     0
  9
$DIMFXL
 40
1.0
  9
$DIMFXLON
 70
     0
  9
$DIMJOGANG
 40
0.7853981633974483
  9
$DIMTFILL
 70
     0
  9
$DIMTFILLCLR
 70
     0
  9
$DIMARCSYM
 70
     0
  9
$DIMLTYPE
  6

  9
$DIMLTEX1
  6

  9
$DIMLTEX2
  6

  9
$DIMTXTDIRECTION
 70
     0
  9
$LUNITS
 70
     2
  9
$LUPREC
 70
     4
  9
$SKETCHINC
 40
1.0
  9
$FILLETRAD
 40
10.0
  9
$AUNITS
 70
     0
  9
$AUPREC
 70
     0
  9
$MENU
  1
.
  9
$ELEVATION
 40
0.0
  9
$PELEVATION
 40
0.0
  9
$THICKNESS
 40
0.0
  9
$LIMCHECK
 70
     0
  9
$CHAMFERA
 40
0.0
  9
$CHAMFERB
 40
0.0
  9
$CHAMFERC
 40
0.0
  9
$CHAMFERD
 40
0.0
  9
$SKPOLY
 70
     0
  9
$TDCREATE
 40
2458168.995140879
  9
$TDUCREATE
 40
2458168.953474213
  9
$TDUPDATE
 40
2458168.995141065
  9
$TDUUPDATE
 40
2458168.953474398
  9
$TDINDWG
 40
0.0000000116
  9
$TDUSRTIMER
 40
0.0000000116
  9
$USRTIMER
 70
     1
  9
$ANGBASE
 50
0.0
  9
$ANGDIR
 70
     0
  9
$PDMODE
 70
     0
  9
$PDSIZE
 40
0.0
  9
$PLINEWID
 40
0.0
  9
$SPLFRAME
 70
     0
  9
$SPLINETYPE
 70
     6
  9
$SPLINESEGS
 70
     8
  9
$HANDSEED
  5
2A0
  9
$SURFTAB1
 70
     6
  9
$SURFTAB2
 70
     6
  9
$SURFTYPE
 70
     6
  9
$SURFU
 70
     6
  9
$SURFV
 70
     6
  9
$UCSBASE
  2

  9
$UCSNAME
  2

  9
$UCSORG
 10
0.0
 20
0.0
 30
0.0
  9
$UCSXDIR
 10
1.0
 20
0.0
 30
0.0
  9
$UCSYDIR
 10
0.0
 20
1.0
 30
0.0
  9
$UCSORTHOREF
  2

  9
$UCSORTHOVIEW
 70
     0
  9
$UCSORGTOP
 10
0.0
 20
0.0
 30
0.0
  9
$UCSORGBOTTOM
 10
0.0
 20
0.0
 30
0.0
  9
$UCSORGLEFT
 10
0.0
 20
0.0
 30
0.0
  9
$UCSORGRIGHT
 10
0.0
 20
0.0
 30
0.0
  9
$UCSORGFRONT
 10
0.0
 20
0.0
 30
0.0
  9
$UCSORGBACK
 10
0.0
 20
0.0
 30
0.0
  9
$PUCSBASE
  2

  9
$PUCSNAME
  2

  9
$PUCSORG
 10
0.0
 20
0.0
 30
0.0
  9
$PUCSXDIR
 10
1.0
 20
0.0
 30
0.0
  9
$PUCSYDIR
 10
0.0
 20
1.0
 30
0.0
  9
$PUCSORTHOREF
  2

  9
$PUCSORTHOVIEW
 70
     0
  9
$PUCSORGTOP
 10
0.0
 20
0.0
 30
0.0
  9
$PUCSORGBOTTOM
 10
0.0
 20
0.0
 30
0.0
  9
$PUCSORGLEFT
 10
0.0
 20
0.0
 30
0.0
  9
$PUCSORGRIGHT
 10
0.0
 20
0.0
 30
0.0
  9
$PUCSORGFRONT
 10
0.0
 20
0.0
 30
0.0
  9
$PUCSORGBACK
 10
0.0
 20
0.0
 30
0.0
  9
$USERI1
 70
     0
  9
$USERI2
 70
     0
  9
$USERI3
 70
     0
  9
$USERI4
 70
     0
  9
$USERI5
 70
     0
  9
$USERR1
 40
0.0
  9
$USERR2
 40
0.0
  9
$USERR3
 40
0.0
  9
$USERR4
 40
0.0
  9
$USERR5
 40
0.0
  9
$WORLDVIEW
 70
     1
  9
$SHADEDGE
 70
     3
  9
$SHADEDIF
 70
    70
  9
$TILEMODE
 70
     1
  9
$MAXACTVP
 70
    64
  9
$PINSBASE
 10
0.0
 20
0.0
 30
0.0
  9
$PLIMCHECK
 70
     0
  9
$PEXTMIN
 10
1.000000000000000E+20
 20
1.000000000000000E+20
 30
1.000000000000000E+20
  9
$PEXTMAX
 10
-1.000000000000000E+20
 20
-1.000000000000000E+20
 30
-1.000000000000000E+20
  9
$PLIMMIN
 10
0.0
 20
0.0
  9
$PLIMMAX
 10
420.0
 20
297.0
  9
$UNITMODE
 70
     0
  9
$VISRETAIN
 70
     1
  9
$PLINEGEN
 70
     0
  9
$PSLTSCALE
 70
     1
  9
$TREEDEPTH
 70
  3020
  9
$CMLSTYLE
  2
Standard
  9
$CMLJUST
 70
     0
  9
$CMLSCALE
 40
20.0
  9
$PROXYGRAPHICS
 70
     1
  9
$MEASUREMENT
 70
     1
  9
$CELWEIGHT
370
    -1
  9
$ENDCAPS
280
     0
  9
$JOINSTYLE
280
     0
  9
$LWDISPLAY
290
     0
  9
$INSUNITS
 70
     4
  9
$HYPERLINKBASE
  1

  9
$STYLESHEET
  1

  9
$XEDIT
290
     1
  9
$CEPSNTYPE
380
     0
  9
$PSTYLEMODE
290
     1
  9
$FINGERPRINTGUID
  2
{82A42FD0-BEE1-463F-A943-C221688CB1F3}
  9
$VERSIONGUID
  2
{FAEB1C32-E019-11D5-929B-00C0DF256EC4}
  9
$EXTNAMES
290
     1
  9
$PSVPSCALE
 40
0.0
  9
$OLESTARTUP
290
     0
  9
$SORTENTS
280
   127
  9
$INDEXCTL
280
     0
  9
$HIDETEXT
280
     1
  9
$XCLIPFRAME
280
     2
  9
$HALOGAP
280
     0
  9
$OBSCOLOR
 70
   257
  9
$OBSLTYPE
280
     0
  9
$INTERSECTIONDISPLAY
280
     0
  9
$INTERSECTIONCOLOR
 70
   257
  9
$DIMASSOC
280
     2
  9
$PROJECTNAME
  1

  9
$CAMERADISPLAY
290
     0
  9
$LENSLENGTH
 40
50.0
  9
$CAMERAHEIGHT
 40
0.0
  9
$STEPSPERSEC
 40
2.0
  9
$STEPSIZE
 40
6.0
  9
$3DDWFPREC
 40
2.0
  9
$PSOLWIDTH
 40
5.0
  9
$PSOLHEIGHT
 40
80.0
  9
$LOFTANG1
 40
1.570796326794897
  9
$LOFTANG2
 40
1.570796326794897
  9
$LOFTMAG1
 40
0.0
  9
$LOFTMAG2
 40
0.0
  9
$LOFTPARAM
 70
     7
  9
$LOFTNORMALS
280
     1
  9
$LATITUDE
 40
37.795
  9
$LONGITUDE
 40
-122.394
  9
$NORTHDIRECTION
 40
0.0
  9
$TIMEZONE
 70
 -8000
  9
$LIGHTGLYPHDISPLAY
280
     1
  9
$TILEMODELIGHTSYNCH
280
     1
  9
$CMATERIAL
347
44
  9
$SOLIDHIST
280
     0
  9
$SHOWHIST
280
     1
  9
$DWFFRAME
280
     2
  9
$DGNFRAME
280
     2
  9
$REALWORLDSCALE
290
     1
  9
$INTERFERECOLOR
 62
   256
  9
$CSHADOW
280
     0
  9
$SHADOWPLANELOCATION
 40
0.0
  0
ENDSEC
  0
SECTION
  2
CLASSES
  0
CLASS
  1
ACDBDICTIONARYWDFLT
  2
AcDbDictionaryWithDefault
  3
ObjectDBX Classes
 90
        0
 91
        4
280
     0
281
     0
  0
CLASS
  1
VISUALSTYLE
  2
AcDbVisualStyle
  3
ObjectDBX Classes
 90
     4095
 91
        4
280
     0
281
     0
  0
CLASS
  1
MATERIAL
  2
AcDbMaterial
  3
ObjectDBX Classes
 90
     1153
 91
        4
280
     0
281
     0
  0
CLASS
  1
SCALE
  2
AcDbScale
  3
ObjectDBX Classes
 90
     1153
 91
        4
280
     0
281
     0
  0
CLASS
  1
TABLESTYLE
  2
AcDbTableStyle
  3
ObjectDBX Classes
 90
     4095
 91
        4
280
     0
281
     0
  0
CLASS
  1
MLEADERSTYLE
  2
AcDbMLeaderStyle
  3
ACDB_MLEADERSTYLE_CLASS
 90
     4095
 91
        4
280
     0
281
     0
  0
CLASS
  1
SUN
  2
AcDbSun
  3
SCENEOE
 90
     1153
 91
        4
280
     0
281
     0
  0
CLASS
  1
DICTIONARYVAR
  2
AcDbDictionaryVar
  3
ObjectDBX Classes
 90
        0
 91
        4
280
     0
281
     0
  0
CLASS
  1
CELLSTYLEMAP
  2
AcDbCellStyleMap
  3
ObjectDBX Classes
 90
     1152
 91
        4
280
     0
281
     0
  0
ENDSEC
  0
SECTION
  2
TABLES
  0
TABLE
  2
VPORT
  5
8
330
0
100
AcDbSymbolTable
 70
     1
  0
VPORT
  5
29
330
8
100
AcDbSymbolTableRecord
100
AcDbViewportTableRecord
  2
*Active
 70
     0
 10
0.0
 20
0.0
 11
1.0
 21
1.0
 12
-2.59499999999997
 22
6.659999084472503
 13
0.0
 23
0.0
 14
10.0
 24
10.0
 15
10.0
 25
10.0
 16
0.0
 26
0.0
 36
1.0
 17
0.0
 27
0.0
 37
0.0
 40
101.1023981323239
 41
0.5417675644875529
 42
50.0
 43
0.0
 44
0.0
 50
0.0
 51
0.0
 71
     0
 72
   100
 73
     1
 74
     3
 75
     0
 76
     0
 77
     0
 78
     0
281
     0
 65
     1
110
0.0
120
0.0
130
0.0
111
1.0
121
0.0
131
0.0
112
0.0
122
1.0
132
0.0
 79
     0
146
0.0
348
2F
 60
     3
 61
     5
292
     1
282
     1
141
0.0
142
0.0
 63
   250
361
6D
  0
ENDTAB
  0
TABLE
  2
LTYPE
  5
5
330
0
100
AcDbSymbolTable
 70
     3
  0
LTYPE
  5
14
330
5
100
AcDbSymbolTableRecord
100
AcDbLinetypeTableRecord
  2
ByBlock
 70
     0
  3

 72
    65
 73
     0
 40
0.0
  0
LTYPE
  5
15
330
5
100
AcDbSymbolTableRecord
100
AcDbLinetypeTableRecord
  2
ByLayer
 70
     0
  3

 72
    65
 73
     0
 40
0.0
  0
LTYPE
  5
16
330
5
100
AcDbSymbolTableRecord
100
AcDbLinetypeTableRecord
  2
Continuous
 70
     0
  3
Solid line
 72
    65
 73
     0
 40
0.0
  0
LTYPE
  5
A5
330
5
100
AcDbSymbolTableRecord
100
AcDbLinetypeTableRecord
  2
Dashed
 70
     0
  3

 72
    65
 73
     2
 40
2.0
 49
1.0
 74
     0
 49
-1.0
 74
     0
  0
LTYPE
  5
119
330
5
100
AcDbSymbolTableRecord
100
AcDbLinetypeTableRecord
  2
Center
 70
     0
  3

 72
    65
 73
     4
 40
1.5
 49
0.45
 74
     0
 49
-0.5
 74
     0
 49
0.05
 74
     0
 49
-0.5
 74
     0
  0
ENDTAB
  0
TABLE
  2
LAYER
  5
2
330
0
100
AcDbSymbolTable
 70
     7
  0
LAYER
  5
10
330
2
100
AcDbSymbolTableRecord
100
AcDbLayerTableRecord
  2
0
 70
     0
 62
     7
  6
Continuous
370
    -3
390
F
347
46
348
0
  0
LAYER
  5
72
330
2
100
AcDbSymbolTableRecord
100
AcDbLayerTableRecord
  2
AM_6
 70
     0
 62
    -2
  6
Continuous
370
    35
390
F
347
46
348
0
  0
LAYER
  5
A6
330
2
100
AcDbSymbolTableRecord
100
AcDbLayerTableRecord
  2
AM_9
 70
     0
 62
     6
  6
Dashed
370
    25
390
F
347
46
348
0
  0
LAYER
  5
11A
330
2
100
AcDbSymbolTableRecord
100
AcDbLayerTableRecord
  2
AM_7
 70
     0
 62
     7
  6
Center
370
    25
390
F
347
46
348
0
  0
LAYER
  5
11C
330
2
100
AcDbSymbolTableRecord
100
AcDbLayerTableRecord
  2
AM_4
 70
     0
 62
     7
  6
Continuous
370
    50
390
F
347
46
348
0
  0
LAYER
  5
129
330
2
100
AcDbSymbolTableRecord
100
AcDbLayerTableRecord
  2
AM_5
 70
     0
 62
     3
  6
Continuous
370
    25
390
F
347
46
348
0
  0
LAYER
  5
292
330
2
100
AcDbSymbolTableRecord
100
AcDbLayerTableRecord
  2
ConnectionPoints
 70
     0
 62
     7
  6
Continuous
370
    50
390
F
347
46
348
0
  0
ENDTAB
  0
TABLE
  2
STYLE
  5
3
330
0
100
AcDbSymbolTable
 70
     1
  0
STYLE
  5
11
330
3
100
AcDbSymbolTableRecord
100
AcDbTextStyleTableRecord
  2
Standard
 70
     0
 40
0.0
 41
1.0
 50
0.0
 71
     0
 42
2.5
  3
txt
  4

  0
ENDTAB
  0
TABLE
  2
VIEW
  5
6
330
0
100
AcDbSymbolTable
 70
     0
  0
ENDTAB
  0
TABLE
  2
UCS
  5
7
330
0
100
AcDbSymbolTable
 70
     0
  0
ENDTAB
  0
TABLE
  2
APPID
  5
9
330
0
100
AcDbSymbolTable
 70
     1
  0
APPID
  5
12
330
9
100
AcDbSymbolTableRecord
100
AcDbRegAppTableRecord
  2
ACAD
 70
     0
  0
ENDTAB
  0
TABLE
  2
DIMSTYLE
  5
A
330
0
100
AcDbSymbolTable
 70
     1
100
AcDbDimStyleTable
  0
DIMSTYLE
105
27
330
A
100
AcDbSymbolTableRecord
100
AcDbDimStyleTableRecord
  2
ISO-25
 70
     0
 41
2.5
 42
0.625
 43
3.75
 44
1.25
 73
     0
 74
     0
 77
     1
 78
     8
140
2.5
141
2.5
143
0.03937007874016
147
0.625
171
     3
172
     1
178
     0
271
     2
272
     2
274
     3
278
    44
283
     0
284
     8
340
11
  0
ENDTAB
  0
TABLE
  2
BLOCK_RECORD
  5
1
330
0
100
AcDbSymbolTable
 70
     5
  0
BLOCK_RECORD
  5
1F
330
1
100
AcDbSymbolTableRecord
100
AcDbBlockTableRecord
  2
*Model_Space
340
22
 70
     0
280
     1
281
     0
  0
BLOCK_RECORD
  5
1B
330
1
100
AcDbSymbolTableRecord
100
AcDbBlockTableRecord
  2
*Paper_Space
340
1E
 70
     0
280
     1
281
     0
  0
BLOCK_RECORD
  5
23
330
1
100
AcDbSymbolTableRecord
100
AcDbBlockTableRecord
  2
*Paper_Space0
340
26
 70
     0
280
     1
281
     0
  0
BLOCK_RECORD
  5
6E
330
1
100
AcDbSymbolTableRecord
100
AcDbBlockTableRecord
  2
1_129208_2
340
0
102
{BLKREFS
331
6F
102
}
 70
     0
280
     1
281
     0
  0
BLOCK_RECORD
  5
8F
330
1
100
AcDbSymbolTableRecord
100
AcDbBlockTableRecord
  2
2_129519_0_in_129208_2
340
0
102
{BLKREFS
331
90
102
}
 70
     0
280
     1
281
     0
  0
BLOCK_RECORD
  5
D4
330
1
100
AcDbSymbolTableRecord
100
AcDbBlockTableRecord
  2
3_129945_0_in_129208_2
340
0
102
{BLKREFS
331
D5
102
}
 70
     0
280
     1
281
     0
  0
BLOCK_RECORD
  5
12B
330
1
100
AcDbSymbolTableRecord
100
AcDbBlockTableRecord
  2
4_129419_0_in_129208_2
340
0
102
{BLKREFS
331
12C
102
}
 70
     0
280
     1
281
     0
  0
ENDTAB
  0
ENDSEC
  0
SECTION
  2
BLOCKS
  0
BLOCK
  5
20
330
1F
100
AcDbEntity
  8
0
100
AcDbBlockBegin
  2
*Model_Space
 70
     0
 10
0.0
 20
0.0
 30
0.0
  3
*Model_Space
  1

  0
ENDBLK
  5
21
330
1F
100
AcDbEntity
  8
0
100
AcDbBlockEnd
  0
BLOCK
  5
1C
330
1B
100
AcDbEntity
 67
     1
  8
0
100
AcDbBlockBegin
  2
*Paper_Space
 70
     0
 10
0.0
 20
0.0
 30
0.0
  3
*Paper_Space
  1

  0
ENDBLK
  5
1D
330
1B
100
AcDbEntity
 67
     1
  8
0
100
AcDbBlockEnd
  0
BLOCK
  5
24
330
23
100
AcDbEntity
  8
0
100
AcDbBlockBegin
  2
*Paper_Space0
 70
     0
 10
0.0
 20
0.0
 30
0.0
  3
*Paper_Space0
  1

  0
ENDBLK
  5
25
330
23
100
AcDbEntity
  8
0
100
AcDbBlockEnd
  0
BLOCK
  5
70
330
6E
100
AcDbEntity
  8
0
100
AcDbBlockBegin
  2
1_129208_2
 70
     2
 10
0.0
 20
0.0
 30
0.0
  3
1_129208_2
  1

  0
ATTDEF
  5
73
330
6E
100
AcDbEntity
  8
AM_6
100
AcDbText
 10
29.255
 20
56.21999816894531
 30
0.0
 40
0.5
  1
Grip Tight Two-Bolt Pillow Block Metric Bore
100
AcDbAttributeDefinition
  3

  2
NN
 70
     8
280
     0
  0
ATTDEF
  5
74
330
6E
100
AcDbEntity
  8
AM_6
100
AcDbText
 10
29.255
 20
55.71999816894531
 30
0.0
 40
0.5
  1
GT Normal Duty Pillow Blocks
100
AcDbAttributeDefinition
  3

  2
NT
 70
     8
280
     0
  0
ATTDEF
  5
75
330
6E
100
AcDbEntity
  8
AM_6
100
AcDbText
 10
29.255
 20
55.21999816894531
 30
0.0
 40
0.5
  1
129208
100
AcDbAttributeDefinition
  3

  2
NB
 70
     8
280
     0
  0
ATTDEF
  5
76
330
6E
100
AcDbEntity
  8
AM_6
100
AcDbText
 10
29.255
 20
54.71999816894531
 30
0.0
 40
0.5
  1
$PN.$LUBE.
100
AcDbAttributeDefinition
  3

  2
NBSYN
 70
     8
280
     0
  0
ATTDEF
  5
77
330
6E
100
AcDbEntity
  8
AM_6
100
AcDbText
 10
29.255
 20
54.21999816894531
 30
0.0
 40
0.5
  1
129208
100
AcDbAttributeDefinition
  3

  2
LINA
 70
     8
280
     0
  0
ATTDEF
  5
78
330
6E
100
AcDbEntity
  8
AM_6
100
AcDbText
 10
29.255
 20
53.71999816894531
 30
0.0
 40
0.5
  1
206
100
AcDbAttributeDefinition
  3

  2
SERIES
 70
     8
280
     0
  0
ATTDEF
  5
79
330
6E
100
AcDbEntity
  8
AM_6
100
AcDbText
 10
29.255
 20
53.21999816894531
 30
0.0
 40
0.5
  1
30
100
AcDbAttributeDefinition
  3

  2
SS
 70
     8
280
     0
  0
ATTDEF
  5
7A
330
6E
100
AcDbEntity
  8
AM_6
100
AcDbText
 10
29.255
 20
52.71999816894531
 30
0.0
 40
0.5
  1
129208
100
AcDbAttributeDefinition
  3

  2
PN
 70
     8
280
     0
  0
ATTDEF
  5
7B
330
6E
100
AcDbEntity
  8
AM_6
100
AcDbText
 10
29.255
 20
52.21999816894531
 30
0.0
 40
0.5
  1
P2B-GTU-30M
100
AcDbAttributeDefinition
  3

  2
DESCRIPTION
 70
     8
280
     0
  0
ATTDEF
  5
7C
330
6E
100
AcDbEntity
  8
AM_6
100
AcDbText
 10
29.255
 20
51.71999816894531
 30
0.0
 40
0.5
  1
40.9
100
AcDbAttributeDefinition
  3

  2
A
 70
     8
280
     0
  0
ATTDEF
  5
7D
330
6E
100
AcDbEntity
  8
AM_6
100
AcDbText
 10
29.255
 20
51.21999816894531
 30
0.0
 40
0.5
  1
158.8
100
AcDbAttributeDefinition
  3

  2
B
 70
     8
280
     0
  0
ATTDEF
  5
7E
330
6E
100
AcDbEntity
  8
AM_6
100
AcDbText
 10
29.255
 20
50.71999816894531
 30
0.0
 40
0.5
  1
44.1
100
AcDbAttributeDefinition
  3

  2
C
 70
     8
280
     0
  0
ATTDEF
  5
7F
330
6E
100
AcDbEntity
  8
AM_6
100
AcDbText
 10
29.255
 20
50.21999816894531
 30
0.0
 40
0.5
  1
108.0
100
AcDbAttributeDefinition
  3

  2
DMIN
 70
     8
280
     0
  0
ATTDEF
  5
80
330
6E
100
AcDbEntity
  8
AM_6
100
AcDbText
 10
29.255
 20
49.71999816894531
 30
0.0
 40
0.5
  1
127.0
100
AcDbAttributeDefinition
  3

  2
DMAX
 70
     8
280
     0
  0
ATTDEF
  5
81
330
6E
100
AcDbEntity
  8
AM_6
100
AcDbText
 10
29.255
 20
49.21999816894531
 30
0.0
 40
0.5
  1
M12
100
AcDbAttributeDefinition
  3

  2
F
 70
     8
280
     0
  0
ATTDEF
  5
82
330
6E
100
AcDbEntity
  8
AM_6
100
AcDbText
 10
29.255
 20
48.71999816894531
 30
0.0
 40
0.5
  1
23.8
100
AcDbAttributeDefinition
  3

  2
G
 70
     8
280
     0
  0
ATTDEF
  5
83
330
6E
100
AcDbEntity
  8
AM_6
100
AcDbText
 10
29.255
 20
48.21999816894531
 30
0.0
 40
0.5
  1
17.9
100
AcDbAttributeDefinition
  3

  2
H
 70
     8
280
     0
  0
ATTDEF
  5
84
330
6E
100
AcDbEntity
  8
AM_6
100
AcDbText
 10
29.255
 20
47.71999816894531
 30
0.0
 40
0.5
  1
84.1
100
AcDbAttributeDefinition
  3

  2
J
 70
     8
280
     0
  0
ATTDEF
  5
85
330
6E
100
AcDbEntity
  8
AM_6
100
AcDbText
 10
29.255
 20
47.21999816894531
 30
0.0
 40
0.5
  1
50.8
100
AcDbAttributeDefinition
  3

  2
L
 70
     8
280
     0
  0
ATTDEF
  5
86
330
6E
100
AcDbEntity
  8
AM_6
100
AcDbText
 10
29.255
 20
46.71999816894531
 30
0.0
 40
0.5
  1
42.9
100
AcDbAttributeDefinition
  3

  2
M
 70
     8
280
     0
  0
ATTDEF
  5
87
330
6E
100
AcDbEntity
  8
AM_6
100
AcDbText
 10
29.255
 20
46.21999816894531
 30
0.0
 40
0.5
  1
13.5
100
AcDbAttributeDefinition
  3

  2
R
 70
     8
280
     0
  0
ATTDEF
  5
88
330
6E
100
AcDbEntity
  8
AM_6
100
AcDbText
 10
29.255
 20
45.71999816894531
 30
0.0
 40
0.5
  1
27.4
100
AcDbAttributeDefinition
  3

  2
S
 70
     8
280
     0
  0
ATTDEF
  5
89
330
6E
100
AcDbEntity
  8
AM_6
100
AcDbText
 10
29.255
 20
45.21999816894531
 30
0.0
 40
0.5
  1
73.0
100
AcDbAttributeDefinition
  3

  2
U
 70
     8
280
     0
  0
ATTDEF
  5
8A
330
6E
100
AcDbEntity
  8
AM_6
100
AcDbText
 10
29.255
 20
44.71999816894531
 30
0.0
 40
0.5
  1
146.1
100
AcDbAttributeDefinition
  3

  2
V
 70
     8
280
     0
  0
ATTDEF
  5
8B
330
6E
100
AcDbEntity
  8
AM_6
100
AcDbText
 10
29.255
 20
44.21999816894531
 30
0.0
 40
0.5
  1
14.3
100
AcDbAttributeDefinition
  3

  2
W
 70
     8
280
     0
  0
ATTDEF
  5
8C
330
6E
100
AcDbEntity
  8
AM_6
100
AcDbText
 10
29.255
 20
43.71999816894531
 30
0.0
 40
0.5
  1
4.8
100
AcDbAttributeDefinition
  3

  2
X
 70
     8
280
     0
  0
ATTDEF
  5
8D
330
6E
100
AcDbEntity
  8
AM_6
100
AcDbText
 10
29.255
 20
43.21999816894531
 30
0.0
 40
0.5
  1
26.2
100
AcDbAttributeDefinition
  3

  2
Z
 70
     8
280
     0
  0
ATTDEF
  5
8E
330
6E
100
AcDbEntity
  8
AM_6
100
AcDbText
 10
29.255
 20
42.71999816894531
 30
0.0
 40
0.5
  1
baldor
100
AcDbAttributeDefinition
  3

  2
COMPANY
 70
     8
280
     0
  0
INSERT
  5
90
330
6E
100
AcDbEntity
  8
0
100
AcDbBlockReference
  2
2_129519_0_in_129208_2
 10
0.0
 20
0.0
 30
0.0
  0
INSERT
  5
D5
330
6E
100
AcDbEntity
  8
0
100
AcDbBlockReference
  2
3_129945_0_in_129208_2
 10
0.0
 20
0.0
 30
0.0
  0
INSERT
  5
12C
330
6E
100
AcDbEntity
  8
0
100
AcDbBlockReference
  2
4_129419_0_in_129208_2
 10
0.0
 20
0.0
 30
0.0
  0
ENDBLK
  5
71
330
6E
100
AcDbEntity
  8
0
100
AcDbBlockEnd
  0
BLOCK
  5
91
330
8F
100
AcDbEntity
  8
0
100
AcDbBlockBegin
  2
2_129519_0_in_129208_2
 70
     2
 10
0.0
 20
0.0
 30
0.0
  3
2_129519_0_in_129208_2
  1

  0
ATTDEF
  5
93
330
8F
100
AcDbEntity
  8
AM_6
100
AcDbText
 10
16.88
 20
30.98792201028492
 30
0.0
 40
0.5
  1
INS-GT-M B
100
AcDbAttributeDefinition
  3

  2
NN
 70
     8
280
     0
  0
ATTDEF
  5
94
330
8F
100
AcDbEntity
  8
AM_6
100
AcDbText
 10
16.88
 20
30.48792201028492
 30
0.0
 40
0.5
  1
GT Normal Duty Bearing Inserts
100
AcDbAttributeDefinition
  3

  2
NT
 70
     8
280
     0
  0
ATTDEF
  5
95
330
8F
100
AcDbEntity
  8
AM_6
100
AcDbText
 10
16.88
 20
29.98792201028492
 30
0.0
 40
0.5
  1
129519
100
AcDbAttributeDefinition
  3

  2
NB
 70
     8
280
     0
  0
ATTDEF
  5
96
330
8F
100
AcDbEntity
  8
AM_6
100
AcDbText
 10
16.88
 20
29.48792201028492
 30
0.0
 40
0.5
  1
$PN.
100
AcDbAttributeDefinition
  3

  2
NBSYN
 70
     8
280
     0
  0
ATTDEF
  5
97
330
8F
100
AcDbEntity
  8
AM_6
100
AcDbText
 10
16.88
 20
28.98792201028492
 30
0.0
 40
0.5
  1
129519
100
AcDbAttributeDefinition
  3

  2
LINA
 70
     8
280
     0
  0
ATTDEF
  5
98
330
8F
100
AcDbEntity
  8
AM_6
100
AcDbText
 10
16.88
 20
28.48792201028492
 30
0.0
 40
0.5
  1
206
100
AcDbAttributeDefinition
  3

  2
SERIES
 70
     8
280
     0
  0
ATTDEF
  5
99
330
8F
100
AcDbEntity
  8
AM_6
100
AcDbText
 10
16.88
 20
27.98792201028492
 30
0.0
 40
0.5
  1
129519
100
AcDbAttributeDefinition
  3

  2
PN
 70
     8
280
     0
  0
ATTDEF
  5
9A
330
8F
100
AcDbEntity
  8
AM_6
100
AcDbText
 10
16.88
 20
27.48792201028492
 30
0.0
 40
0.5
  1
INS-GT-06
100
AcDbAttributeDefinition
  3

  2
DESCRIPTION
 70
     8
280
     0
  0
ATTDEF
  5
9B
330
8F
100
AcDbEntity
  8
AM_6
100
AcDbText
 10
16.88
 20
26.98792201028492
 30
0.0
 40
0.5
  1
40.9
100
AcDbAttributeDefinition
  3

  2
A
 70
     8
280
     0
  0
ATTDEF
  5
9C
330
8F
100
AcDbEntity
  8
AM_6
100
AcDbText
 10
16.88
 20
26.48792201028492
 30
0.0
 40
0.5
  1
17.5
100
AcDbAttributeDefinition
  3

  2
C
 70
     8
280
     0
  0
ATTDEF
  5
9D
330
8F
100
AcDbEntity
  8
AM_6
100
AcDbText
 10
16.88
 20
25.98792201028492
 30
0.0
 40
0.5
  1
62.0
100
AcDbAttributeDefinition
  3

  2
D
 70
     8
280
     0
  0
ATTDEF
  5
9E
330
8F
100
AcDbEntity
  8
AM_6
100
AcDbText
 10
16.88
 20
25.48792201028492
 30
0.0
 40
0.5
  1
4.1
100
AcDbAttributeDefinition
  3

  2
J
 70
     8
280
     0
  0
ATTDEF
  5
9F
330
8F
100
AcDbEntity
  8
AM_6
100
AcDbText
 10
16.88
 20
24.98792201028492
 30
0.0
 40
0.5
  1
52.8
100
AcDbAttributeDefinition
  3

  2
L
 70
     8
280
     0
  0
ATTDEF
  5
A0
330
8F
100
AcDbEntity
  8
AM_6
100
AcDbText
 10
16.88
 20
24.48792201028492
 30
0.0
 40
0.5
  1
#10 - 32 x 1/4
100
AcDbAttributeDefinition
  3

  2
N
 70
     8
280
     0
  0
ATTDEF
  5
A1
330
8F
100
AcDbEntity
  8
AM_6
100
AcDbText
 10
16.88
 20
23.98792201028492
 30
0.0
 40
0.5
  1
13.2
100
AcDbAttributeDefinition
  3

  2
W
 70
     8
280
     0
  0
ATTDEF
  5
A2
330
8F
100
AcDbEntity
  8
AM_6
100
AcDbText
 10
16.88
 20
23.48792201028492
 30
0.0
 40
0.5
  1
28.7
100
AcDbAttributeDefinition
  3

  2
X
 70
     8
280
     0
  0
ATTDEF
  5
A3
330
8F
100
AcDbEntity
  8
AM_6
100
AcDbText
 10
16.88
 20
22.98792201028492
 30
0.0
 40
0.5
  1
27.7
100
AcDbAttributeDefinition
  3

  2
Y
 70
     8
280
     0
  0
ATTDEF
  5
A4
330
8F
100
AcDbEntity
  8
AM_6
100
AcDbText
 10
16.88
 20
22.48792201028492
 30
0.0
 40
0.5
  1
baldor
100
AcDbAttributeDefinition
  3

  2
COMPANY
 70
     8
280
     0
  0
LINE
  5
A7
330
8F
100
AcDbEntity
  8
AM_9
100
AcDbLine
 10
-21.525
 20
-19.69523809523809
 30
0.0
 11
-10.7625
 21
-19.69523809523809
 31
0.0
  0
LINE
  5
A8
330
8F
100
AcDbEntity
  8
AM_9
100
AcDbLine
 10
-10.7625
 20
19.69523809523809
 30
0.0
 11
-21.525
 21
19.69523809523809
 31
0.0
  0
LINE
  5
A9
330
8F
100
AcDbEntity
  8
AM_9
100
AcDbLine
 10
-10.7625
 20
19.69523809523809
 30
0.0
 11
-10.7625
 21
-19.69523809523809
 31
0.0
  0
LINE
  5
AA
330
8F
100
AcDbEntity
  8
AM_9
100
AcDbLine
 10
-10.7625
 20
-19.69523809523809
 30
0.0
 11
11.88
 21
-20.48593161845499
 31
0.0
  0
LINE
  5
AB
330
8F
100
AcDbEntity
  8
AM_9
100
AcDbLine
 10
11.88
 20
20.48593161845499
 30
0.0
 11
-10.7625
 21
19.69523809523809
 31
0.0
  0
LINE
  5
AC
330
8F
100
AcDbEntity
  8
AM_9
100
AcDbLine
 10
-17.9375
 20
-21.58095238095238
 30
0.0
 11
-14.35
 21
-21.58095238095238
 31
0.0
  0
LINE
  5
AD
330
8F
100
AcDbEntity
  8
AM_9
100
AcDbLine
 10
-14.35
 20
21.58095238095238
 30
0.0
 11
-17.9375
 21
21.58095238095238
 31
0.0
  0
LINE
  5
AE
330
8F
100
AcDbEntity
  8
AM_9
100
AcDbLine
 10
11.88
 20
22.76666666666667
 30
0.0
 11
11.88
 21
-22.76666666666667
 31
0.0
  0
LINE
  5
AF
330
8F
100
AcDbEntity
  8
AM_9
100
AcDbLine
 10
11.88
 20
22.76666666666667
 30
0.0
 11
11.18
 21
23.46666666666667
 31
0.0
  0
LINE
  5
B0
330
8F
100
AcDbEntity
  8
AM_9
100
AcDbLine
 10
11.18
 20
-23.46666666666667
 30
0.0
 11
11.88
 21
-22.76666666666667
 31
0.0
  0
LINE
  5
B1
330
8F
100
AcDbEntity
  8
AM_9
100
AcDbLine
 10
-21.525
 20
22.76666666666667
 30
0.0
 11
-21.525
 21
-22.76666666666667
 31
0.0
  0
LINE
  5
B2
330
8F
100
AcDbEntity
  8
AM_9
100
AcDbLine
 10
-21.525
 20
-22.76666666666667
 30
0.0
 11
-20.825
 21
-23.46666666666667
 31
0.0
  0
LINE
  5
B3
330
8F
100
AcDbEntity
  8
AM_9
100
AcDbLine
 10
-20.825
 20
23.46666666666667
 30
0.0
 11
-21.525
 21
22.76666666666667
 31
0.0
  0
LINE
  5
B4
330
8F
100
AcDbEntity
  8
AM_9
100
AcDbLine
 10
-20.825
 20
23.46666666666667
 30
0.0
 11
-20.825
 21
-23.46666666666667
 31
0.0
  0
LINE
  5
B5
330
8F
100
AcDbEntity
  8
AM_9
100
AcDbLine
 10
-17.9375
 20
23.46666666666667
 30
0.0
 11
-17.9375
 21
-23.46666666666667
 31
0.0
  0
LINE
  5
B6
330
8F
100
AcDbEntity
  8
AM_9
100
AcDbLine
 10
-20.825
 20
-23.46666666666667
 30
0.0
 11
-17.9375
 21
-23.46666666666667
 31
0.0
  0
LINE
  5
B7
330
8F
100
AcDbEntity
  8
AM_9
100
AcDbLine
 10
-17.9375
 20
23.46666666666667
 30
0.0
 11
-20.825
 21
23.46666666666667
 31
0.0
  0
LINE
  5
B8
330
8F
100
AcDbEntity
  8
AM_9
100
AcDbLine
 10
11.18
 20
23.46666666666667
 30
0.0
 11
11.18
 21
-23.46666666666667
 31
0.0
  0
LINE
  5
B9
330
8F
100
AcDbEntity
  8
AM_9
100
AcDbLine
 10
8.75
 20
-23.46666666666667
 30
0.0
 11
11.18
 21
-23.46666666666667
 31
0.0
  0
LINE
  5
BA
330
8F
100
AcDbEntity
  8
AM_9
100
AcDbLine
 10
11.18
 20
23.46666666666667
 30
0.0
 11
8.75
 21
23.46666666666667
 31
0.0
  0
LINE
  5
BB
330
8F
100
AcDbEntity
  8
AM_9
100
AcDbLine
 10
-14.35
 20
23.46666666666667
 30
0.0
 11
-14.35
 21
-23.46666666666667
 31
0.0
  0
LINE
  5
BC
330
8F
100
AcDbEntity
  8
AM_9
100
AcDbLine
 10
-14.35
 20
-23.46666666666667
 30
0.0
 11
-8.750000000000002
 21
-23.46666666666667
 31
0.0
  0
LINE
  5
BD
330
8F
100
AcDbEntity
  8
AM_9
100
AcDbLine
 10
-8.750000000000002
 20
23.46666666666667
 30
0.0
 11
-14.35
 21
23.46666666666667
 31
0.0
  0
LINE
  5
BE
330
8F
100
AcDbEntity
  8
AM_9
100
AcDbLine
 10
-4.919999999999999
 20
-29.25
 30
0.0
 11
-3.28
 21
-29.25
 31
0.0
  0
LINE
  5
BF
330
8F
100
AcDbEntity
  8
AM_9
100
AcDbLine
 10
-3.28
 20
29.25
 30
0.0
 11
-4.919999999999999
 21
29.25
 31
0.0
  0
LINE
  5
C0
330
8F
100
AcDbEntity
  8
AM_9
100
AcDbLine
 10
-8.750000000000002
 20
28.77802961806126
 30
0.0
 11
-8.750000000000002
 21
-28.77802961799537
 31
0.0
  0
ARC
  5
C1
330
8F
100
AcDbEntity
  8
AM_9
100
AcDbCircle
 10
-8.050000000000013
 20
-28.77802961806126
 30
0.0
 40
0.6999999999999886
100
AcDbArc
 50
180.0
 51
248.5875329531157
  0
ARC
  5
C2
330
8F
100
AcDbEntity
  8
AM_9
100
AcDbCircle
 10
-8.050000000000013
 20
28.77802961806126
 30
0.0
 40
0.6999999999999892
100
AcDbArc
 50
111.4124670468843
 51
180.0
  0
LINE
  5
C3
330
8F
100
AcDbEntity
  8
AM_9
100
AcDbLine
 10
8.75
 20
28.77802961806125
 30
0.0
 11
8.75
 21
-28.77802961799537
 31
0.0
  0
ARC
  5
C4
330
8F
100
AcDbEntity
  8
AM_9
100
AcDbCircle
 10
8.050000000000008
 20
-28.77802961806126
 30
0.0
 40
0.6999999999999915
100
AcDbArc
 50
291.4124638199226
 51
0.0
  0
ARC
  5
C5
330
8F
100
AcDbEntity
  8
AM_9
100
AcDbCircle
 10
8.050000000000008
 20
28.77802961806126
 30
0.0
 40
0.6999999999999922
100
AcDbArc
 50
0.0
 51
68.5875361800774
  0
LINE
  5
C6
330
8F
100
AcDbEntity
  8
AM_9
100
AcDbLine
 10
-8.305555555555568
 20
29.4297130979997
 30
0.0
 11
-8.305555555555566
 21
-29.4297130979997
 31
0.0
  0
ARC
  5
C7
330
8F
100
AcDbEntity
  8
AM_9
100
AcDbCircle
 10
0.0000000000009353
 20
-8.249999999997037
 30
0.0
 40
22.7500000000031
100
AcDbArc
 50
248.5875329531164
 51
256.9564183455459
  0
ARC
  5
C8
330
8F
100
AcDbEntity
  8
AM_9
100
AcDbCircle
 10
0.0000000000006093
 20
8.249999999998106
 30
0.0
 40
22.75000000000199
100
AcDbArc
 50
103.0435816544539
 51
111.4124670468838
  0
LINE
  5
C9
330
8F
100
AcDbEntity
  8
AM_9
100
AcDbLine
 10
-5.134496124031005
 20
30.4130198653593
 30
0.0
 11
-5.134496124031005
 21
-30.4130198653593
 31
0.0
  0
LINE
  5
CA
330
8F
100
AcDbEntity
  8
AM_9
100
AcDbLine
 10
-4.919999999999999
 20
30.24253509716422
 30
0.0
 11
-4.919999999999999
 21
-30.24253509714587
 31
0.0
  0
ARC
  5
CB
330
8F
100
AcDbEntity
  8
AM_9
100
AcDbCircle
 10
-5.095
 20
-30.24253509716422
 30
0.0
 40
0.1750000000000017
100
AcDbArc
 50
256.9564183455476
 51
0.0
  0
ARC
  5
CC
330
8F
100
AcDbEntity
  8
AM_9
100
AcDbCircle
 10
-5.095
 20
30.24253509716422
 30
0.0
 40
0.1750000000000007
100
AcDbArc
 50
0.0
 51
103.0435816544524
  0
LINE
  5
CD
330
8F
100
AcDbEntity
  8
AM_9
100
AcDbLine
 10
-3.28
 20
30.61044722271896
 30
0.0
 11
-3.28
 21
-30.61044722262046
 31
0.0
  0
ARC
  5
CE
330
8F
100
AcDbEntity
  8
AM_9
100
AcDbCircle
 10
-3.105000000000004
 20
-30.61044722271896
 30
0.0
 40
0.1749999999999958
100
AcDbArc
 50
180.0
 51
262.0943900499425
  0
ARC
  5
CF
330
8F
100
AcDbEntity
  8
AM_9
100
AcDbCircle
 10
-3.105000000000004
 20
30.61044722271896
 30
0.0
 40
0.1749999999999959
100
AcDbArc
 50
97.9056099500575
 51
180.0
  0
LINE
  5
D0
330
8F
100
AcDbEntity
  8
AM_9
100
AcDbLine
 10
-3.129069767441857
 20
30.78378402289507
 30
0.0
 11
-3.129069767441857
 21
-30.78378402289508
 31
0.0
  0
LINE
  5
D1
330
8F
100
AcDbEntity
  8
AM_9
100
AcDbLine
 10
8.305555518852028
 20
29.42971311239288
 30
0.0
 11
8.305555518852028
 21
-29.42971311239288
 31
0.0
  0
ARC
  5
D2
330
8F
100
AcDbEntity
  8
AM_9
100
AcDbCircle
 10
0.0000000000000482
 20
-8.250000000000398
 30
0.0
 40
22.74999999999962
100
AcDbArc
 50
262.09439004994
 51
291.4124669475932
  0
ARC
  5
D3
330
8F
100
AcDbEntity
  8
AM_9
100
AcDbCircle
 10
0.0000000000000071
 20
8.25000000000006
 30
0.0
 40
22.74999999999994
100
AcDbArc
 50
68.58753305240703
 51
97.90560995005978
  0
ENDBLK
  5
92
330
8F
100
AcDbEntity
  8
0
100
AcDbBlockEnd
  0
BLOCK
  5
D6
330
D4
100
AcDbEntity
  8
0
100
AcDbBlockBegin
  2
3_129945_0_in_129208_2
 70
     2
 10
0.0
 20
0.0
 30
0.0
  3
3_129945_0_in_129208_2
  1

  0
ATTDEF
  5
D8
330
D4
100
AcDbEntity
  8
AM_6
100
AcDbText
 10
18.5
 20
25.40000000000002
 30
0.0
 40
0.5
  1
Grip Tight Normal Duty Adapter and Nut Metric Bore
100
AcDbAttributeDefinition
  3

  2
NN
 70
     8
280
     0
  0
ATTDEF
  5
D9
330
D4
100
AcDbEntity
  8
AM_6
100
AcDbText
 10
18.5
 20
24.90000000000002
 30
0.0
 40
0.5
  1
GT and GTM Adapter & Lock Nut Assemblies
100
AcDbAttributeDefinition
  3

  2
NT
 70
     8
280
     0
  0
ATTDEF
  5
DA
330
D4
100
AcDbEntity
  8
AM_6
100
AcDbText
 10
18.5
 20
24.40000000000002
 30
0.0
 40
0.5
  1
129945
100
AcDbAttributeDefinition
  3

  2
NB
 70
     8
280
     0
  0
ATTDEF
  5
DB
330
D4
100
AcDbEntity
  8
AM_6
100
AcDbText
 10
18.5
 20
23.90000000000002
 30
0.0
 40
0.5
  1
$PN.
100
AcDbAttributeDefinition
  3

  2
NBSYN
 70
     8
280
     0
  0
ATTDEF
  5
DC
330
D4
100
AcDbEntity
  8
AM_6
100
AcDbText
 10
18.5
 20
23.40000000000002
 30
0.0
 40
0.5
  1
129945
100
AcDbAttributeDefinition
  3

  2
LINA
 70
     8
280
     0
  0
ATTDEF
  5
DD
330
D4
100
AcDbEntity
  8
AM_6
100
AcDbText
 10
18.5
 20
22.90000000000002
 30
0.0
 40
0.5
  1
206
100
AcDbAttributeDefinition
  3

  2
SERIES
 70
     8
280
     0
  0
ATTDEF
  5
DE
330
D4
100
AcDbEntity
  8
AM_6
100
AcDbText
 10
18.5
 20
22.40000000000002
 30
0.0
 40
0.5
  1
30
100
AcDbAttributeDefinition
  3

  2
SS
 70
     8
280
     0
  0
ATTDEF
  5
DF
330
D4
100
AcDbEntity
  8
AM_6
100
AcDbText
 10
18.5
 20
21.90000000000002
 30
0.0
 40
0.5
  1
129945
100
AcDbAttributeDefinition
  3

  2
PN
 70
     8
280
     0
  0
ATTDEF
  5
E0
330
D4
100
AcDbEntity
  8
AM_6
100
AcDbText
 10
18.5
 20
21.40000000000002
 30
0.0
 40
0.5
  1
AN-GT-06-30M
100
AcDbAttributeDefinition
  3

  2
DESCRIPTION
 70
     8
280
     0
  0
ATTDEF
  5
E1
330
D4
100
AcDbEntity
  8
AM_6
100
AcDbText
 10
18.5
 20
20.90000000000002
 30
0.0
 40
0.5
  1
40.9
100
AcDbAttributeDefinition
  3

  2
A
 70
     8
280
     0
  0
ATTDEF
  5
E2
330
D4
100
AcDbEntity
  8
AM_6
100
AcDbText
 10
18.5
 20
20.40000000000002
 30
0.0
 40
0.5
  1
18.0
100
AcDbAttributeDefinition
  3

  2
C
 70
     8
280
     0
  0
ATTDEF
  5
E3
330
D4
100
AcDbEntity
  8
AM_6
100
AcDbText
 10
18.5
 20
19.90000000000002
 30
0.0
 40
0.5
  1
62.0
100
AcDbAttributeDefinition
  3

  2
D
 70
     8
280
     0
  0
ATTDEF
  5
E4
330
D4
100
AcDbEntity
  8
AM_6
100
AcDbText
 10
18.5
 20
19.40000000000002
 30
0.0
 40
0.5
  1
4.8
100
AcDbAttributeDefinition
  3

  2
J
 70
     8
280
     0
  0
ATTDEF
  5
E5
330
D4
100
AcDbEntity
  8
AM_6
100
AcDbText
 10
18.5
 20
18.90000000000002
 30
0.0
 40
0.5
  1
50.8
100
AcDbAttributeDefinition
  3

  2
L
 70
     8
280
     0
  0
ATTDEF
  5
E6
330
D4
100
AcDbEntity
  8
AM_6
100
AcDbText
 10
18.5
 20
18.40000000000002
 30
0.0
 40
0.5
  1
10 - 32 x 1/4
100
AcDbAttributeDefinition
  3

  2
N
 70
     8
280
     0
  0
ATTDEF
  5
E7
330
D4
100
AcDbEntity
  8
AM_6
100
AcDbText
 10
18.5
 20
17.90000000000002
 30
0.0
 40
0.5
  1
13.5
100
AcDbAttributeDefinition
  3

  2
W
 70
     8
280
     0
  0
ATTDEF
  5
E8
330
D4
100
AcDbEntity
  8
AM_6
100
AcDbText
 10
18.5
 20
17.40000000000002
 30
0.0
 40
0.5
  1
26.2
100
AcDbAttributeDefinition
  3

  2
X
 70
     8
280
     0
  0
ATTDEF
  5
E9
330
D4
100
AcDbEntity
  8
AM_6
100
AcDbText
 10
18.5
 20
16.90000000000002
 30
0.0
 40
0.5
  1
27.4
100
AcDbAttributeDefinition
  3

  2
Y
 70
     8
280
     0
  0
ATTDEF
  5
EA
330
D4
100
AcDbEntity
  8
AM_6
100
AcDbText
 10
18.5
 20
16.40000000000002
 30
0.0
 40
0.5
  1
baldor
100
AcDbAttributeDefinition
  3

  2
COMPANY
 70
     8
280
     0
  0
LWPOLYLINE
  5
EB
330
D4
100
AcDbEntity
  8
AM_9
100
AcDbPolyline
 90
        3
 70
     0
 43
0.0
 10
-25.41186640410727
 20
0.6606414161323887
 10
-25.47502327836784
 20
0.4075128928055506
 10
-25.48
 20
0.3800700710933154
  0
LWPOLYLINE
  5
EC
330
D4
100
AcDbEntity
  8
AM_9
100
AcDbPolyline
 90
       17
 70
     0
 43
0.0
 10
-20.86946452669632
 20
0.8797522990084565
 10
-21.01630847444974
 20
1.162754500787207
 10
-21.23524395681874
 20
1.463987014378448
 10
-21.50908777843939
 20
1.734366635016734
 10
-21.82268903237093
 20
1.957589387049899
 10
-22.17852730063711
 20
2.132749307900196
 10
-22.5684550835036
 20
2.251142901493713
 10
-22.97519473374777
 20
2.304835115678469
 10
-23.39679702248886
 20
2.290375018971572
 10
-23.80440395654783
 20
2.207239934220486
 10
-24.20340358834622
 20
2.052130911867083
 10
-24.49165008670236
 20
1.884763235130803
 10
-24.75420569840856
 20
1.679576312551891
 10
-24.99588260130304
 20
1.426728772199409
 10
-25.19721101120374
 20
1.140723706015187
 10
-25.36619848226268
 20
0.7921138515025744
 10
-25.41186640410727
 20
0.6606414161323887
  0
LWPOLYLINE
  5
ED
330
D4
100
AcDbEntity
  8
AM_9
100
AcDbPolyline
 90
       17
 70
     0
 43
0.0
 10
-25.36772522489642
 20
-0.7881118188155096
 10
-25.25098202001023
 20
-1.045217092728727
 10
-25.04795670955481
 20
-1.360990126531489
 10
-24.79691984709331
 20
-1.64012890538234
 10
-24.49242510236218
 20
-1.884129364570076
 10
-24.15271196888942
 20
-2.076374347844959
 10
-23.77589466179756
 20
-2.215391384418392
 10
-23.37054489386155
 20
-2.293352500831136
 10
-22.95759932196966
 20
-2.303900272982856
 10
-22.53698952110367
 20
-2.244123183776967
 10
-22.14084860788908
 20
-2.117479408686072
 10
-21.76118203281644
 20
-1.919596319847178
 10
-21.43606451892934
 20
-1.67076015623775
 10
-21.15076024858272
 20
-1.359637859933721
 10
-20.9391749996524
 20
-1.026495565329838
 10
-20.78471193852137
 20
-0.6496030822380815
 10
-20.76511948499805
 20
-0.5820309549710464
  0
LINE
  5
EE
330
D4
100
AcDbEntity
  8
AM_9
100
AcDbLine
 10
-25.48
 20
-0.3800700710933208
 30
0.0
 11
-25.46651851976763
 21
-0.4504422331187912
 31
0.0
  0
LINE
  5
EF
330
D4
100
AcDbEntity
  8
AM_9
100
AcDbLine
 10
-25.48
 20
0.3800700710933154
 30
0.0
 11
-25.48
 21
2.4
 31
0.0
  0
LINE
  5
F0
330
D4
100
AcDbEntity
  8
AM_9
100
AcDbLine
 10
-25.48
 20
-2.4
 30
0.0
 11
-25.48
 21
-0.3800700710933208
 31
0.0
  0
LINE
  5
F1
330
D4
100
AcDbEntity
  8
AM_9
100
AcDbLine
 10
-13.1
 20
19.3305706841345
 30
0.0
 11
-26.2
 21
19.3305706841345
 31
0.0
  0
LINE
  5
F2
330
D4
100
AcDbEntity
  8
AM_9
100
AcDbLine
 10
-13.1
 20
20.07220721975039
 30
0.0
 11
-13.82000000000001
 21
20.69863009414059
 31
0.0
  0
LINE
  5
F3
330
D4
100
AcDbEntity
  8
AM_9
100
AcDbLine
 10
-13.82000000000001
 20
20.69863009414059
 30
0.0
 11
-25.48
 21
20.69863009414058
 31
0.0
  0
LINE
  5
F4
330
D4
100
AcDbEntity
  8
AM_9
100
AcDbLine
 10
-25.48
 20
20.69863009414058
 30
0.0
 11
-26.2
 21
20.07220721975037
 31
0.0
  0
LINE
  5
F5
330
D4
100
AcDbEntity
  8
AM_9
100
AcDbLine
 10
-13.1
 20
-19.33057068413452
 30
0.0
 11
-26.2
 21
-19.33057068413452
 31
0.0
  0
LINE
  5
F6
330
D4
100
AcDbEntity
  8
AM_9
100
AcDbLine
 10
-26.2
 20
-20.07220721975039
 30
0.0
 11
-25.48
 21
-20.6986300941406
 31
0.0
  0
LINE
  5
F7
330
D4
100
AcDbEntity
  8
AM_9
100
AcDbLine
 10
-25.48
 20
-20.6986300941406
 30
0.0
 11
-13.82000000000001
 21
-20.69863009414061
 31
0.0
  0
LINE
  5
F8
330
D4
100
AcDbEntity
  8
AM_9
100
AcDbLine
 10
-13.82000000000001
 20
-20.69863009414061
 30
0.0
 11
-13.1
 21
-20.0722072197504
 31
0.0
  0
LINE
  5
F9
330
D4
100
AcDbEntity
  8
AM_9
100
AcDbLine
 10
-13.1
 20
21.73057068413451
 30
0.0
 11
-26.2
 21
21.73057068413451
 31
0.0
  0
LINE
  5
FA
330
D4
100
AcDbEntity
  8
AM_9
100
AcDbLine
 10
-13.1
 20
-21.73057068413452
 30
0.0
 11
-26.2
 21
-21.73057068413452
 31
0.0
  0
LINE
  5
FB
330
D4
100
AcDbEntity
  8
AM_9
100
AcDbLine
 10
-19.65
 20
18.94920634920635
 30
0.0
 11
-26.2
 21
18.94920634920635
 31
0.0
  0
LINE
  5
FC
330
D4
100
AcDbEntity
  8
AM_9
100
AcDbLine
 10
13.5
 20
14.94782592887674
 30
0.0
 11
-27.4
 21
14.94782592887675
 31
0.0
  0
LINE
  5
FD
330
D4
100
AcDbEntity
  8
AM_9
100
AcDbLine
 10
-27.4
 20
-15.0
 30
0.0
 11
13.5
 21
-15.0
 31
0.0
  0
LINE
  5
FE
330
D4
100
AcDbEntity
  8
AM_9
100
AcDbLine
 10
-19.65
 20
18.90793276021477
 30
0.0
 11
-9.824999999999541
 21
18.90793276021477
 31
0.0
  0
LINE
  5
FF
330
D4
100
AcDbEntity
  8
AM_9
100
AcDbLine
 10
-19.65
 20
-18.94920634920636
 30
0.0
 11
-9.824999999999541
 21
-18.94920634920636
 31
0.0
  0
LINE
  5
100
330
D4
100
AcDbEntity
  8
AM_9
100
AcDbLine
 10
-9.824999999999541
 20
18.90793276021477
 30
0.0
 11
13.5
 21
19.72416421191825
 31
0.0
  0
LINE
  5
101
330
D4
100
AcDbEntity
  8
AM_9
100
AcDbLine
 10
-9.824999999999541
 20
18.90793276021477
 30
0.0
 11
-9.824999999999541
 21
-18.94920634920636
 31
0.0
  0
LINE
  5
102
330
D4
100
AcDbEntity
  8
AM_9
100
AcDbLine
 10
13.5
 20
19.72416421191825
 30
0.0
 11
13.5
 21
-19.76373329760136
 31
0.0
  0
LINE
  5
103
330
D4
100
AcDbEntity
  8
AM_9
100
AcDbLine
 10
-9.824999999999541
 20
-18.94920634920636
 30
0.0
 11
13.5
 21
-19.76373329760136
 31
0.0
  0
LINE
  5
104
330
D4
100
AcDbEntity
  8
AM_9
100
AcDbLine
 10
-16.375
 20
-20.76349206349207
 30
0.0
 11
-13.1
 21
-20.76349206349207
 31
0.0
  0
LINE
  5
105
330
D4
100
AcDbEntity
  8
AM_9
100
AcDbLine
 10
-13.1
 20
20.76349206349207
 30
0.0
 11
-16.375
 21
20.76349206349207
 31
0.0
  0
LINE
  5
106
330
D4
100
AcDbEntity
  8
AM_9
100
AcDbLine
 10
-19.65
 20
22.8317777777778
 30
0.0
 11
-19.65
 21
-22.8317777777778
 31
0.0
  0
LINE
  5
107
330
D4
100
AcDbEntity
  8
AM_9
100
AcDbLine
 10
-16.375
 20
22.8317777777778
 30
0.0
 11
-16.375
 21
-22.8317777777778
 31
0.0
  0
LINE
  5
108
330
D4
100
AcDbEntity
  8
AM_9
100
AcDbLine
 10
-19.65
 20
-22.8317777777778
 30
0.0
 11
-16.375
 21
-22.8317777777778
 31
0.0
  0
LINE
  5
109
330
D4
100
AcDbEntity
  8
AM_9
100
AcDbLine
 10
-16.375
 20
22.8317777777778
 30
0.0
 11
-19.65
 21
22.8317777777778
 31
0.0
  0
LINE
  5
10A
330
D4
100
AcDbEntity
  8
AM_9
100
AcDbLine
 10
-26.2
 20
22.47220721975037
 30
0.0
 11
-25.48
 21
23.09863009414059
 31
0.0
  0
LINE
  5
10B
330
D4
100
AcDbEntity
  8
AM_9
100
AcDbLine
 10
-25.48
 20
-23.09863009414059
 30
0.0
 11
-26.2
 21
-22.47220721975037
 31
0.0
  0
LINE
  5
10C
330
D4
100
AcDbEntity
  8
AM_9
100
AcDbLine
 10
-13.1
 20
2.4
 30
0.0
 11
-18.93732612055642
 21
2.399999999999999
 31
0.0
  0
LINE
  5
10D
330
D4
100
AcDbEntity
  8
AM_9
100
AcDbLine
 10
-13.82
 20
23.0986300941406
 30
0.0
 11
-13.1
 21
22.47220721975039
 31
0.0
  0
LINE
  5
10E
330
D4
100
AcDbEntity
  8
AM_9
100
AcDbLine
 10
-13.1
 20
24.68000000000002
 30
0.0
 11
-13.82
 21
25.40000000000002
 31
0.0
  0
LINE
  5
10F
330
D4
100
AcDbEntity
  8
AM_9
100
AcDbLine
 10
-13.1
 20
24.68000000000002
 30
0.0
 11
-13.1
 21
-24.68000000000002
 31
0.0
  0
LINE
  5
110
330
D4
100
AcDbEntity
  8
AM_9
100
AcDbLine
 10
-25.48
 20
23.09863009414059
 30
0.0
 11
-13.82
 21
23.0986300941406
 31
0.0
  0
LINE
  5
111
330
D4
100
AcDbEntity
  8
AM_9
100
AcDbLine
 10
-13.82
 20
25.40000000000001
 30
0.0
 11
-16.32449768160741
 21
25.40000000000001
 31
0.0
  0
LINE
  5
112
330
D4
100
AcDbEntity
  8
AM_9
100
AcDbLine
 10
-13.82
 20
-23.09863009414061
 30
0.0
 11
-25.48
 21
-23.09863009414059
 31
0.0
  0
LINE
  5
113
330
D4
100
AcDbEntity
  8
AM_9
100
AcDbLine
 10
-19.48261205564142
 20
-2.399999999999999
 30
0.0
 11
-13.1
 21
-2.4
 31
0.0
  0
LINE
  5
114
330
D4
100
AcDbEntity
  8
AM_9
100
AcDbLine
 10
-22.05000000000001
 20
-25.40000000000001
 30
0.0
 11
-13.82
 21
-25.40000000000001
 31
0.0
  0
LINE
  5
115
330
D4
100
AcDbEntity
  8
AM_9
100
AcDbLine
 10
-13.1
 20
-22.47220721975039
 30
0.0
 11
-13.82
 21
-23.09863009414061
 31
0.0
  0
LINE
  5
116
330
D4
100
AcDbEntity
  8
AM_9
100
AcDbLine
 10
-13.82
 20
25.40000000000001
 30
0.0
 11
-13.82
 21
-25.40000000000002
 31
0.0
  0
LINE
  5
117
330
D4
100
AcDbEntity
  8
AM_9
100
AcDbLine
 10
-13.82
 20
-25.40000000000002
 30
0.0
 11
-13.1
 21
-24.68000000000002
 31
0.0
  0
CIRCLE
  5
118
330
D4
100
AcDbEntity
  8
AM_9
100
AcDbCircle
 10
-23.1
 20
-0.0000000000000007
 30
0.0
 40
1.981200000000001
  0
LINE
  5
11B
330
D4
100
AcDbEntity
  8
AM_7
100
AcDbLine
 10
-23.1
 20
-2.533649999999998
 30
0.0
 11
-23.1
 21
2.533649999999998
 31
0.0
  0
LINE
  5
11D
330
D4
100
AcDbEntity
  8
AM_4
100
AcDbLine
 10
-27.4
 20
18.90793276021476
 30
0.0
 11
-26.2
 21
18.90793276021476
 31
0.0
  0
LINE
  5
11E
330
D4
100
AcDbEntity
  8
AM_4
100
AcDbLine
 10
-27.4
 20
18.90793276021476
 30
0.0
 11
-27.4
 21
-18.94920634920635
 31
0.0
  0
LINE
  5
11F
330
D4
100
AcDbEntity
  8
AM_4
100
AcDbLine
 10
-27.4
 20
-18.94920634920635
 30
0.0
 11
-26.2
 21
-18.94920634920635
 31
0.0
  0
LINE
  5
120
330
D4
100
AcDbEntity
  8
AM_4
100
AcDbLine
 10
-18.93732612055642
 20
2.399999999999999
 30
0.0
 11
-26.2
 21
2.4
 31
0.0
  0
LINE
  5
121
330
D4
100
AcDbEntity
  8
AM_4
100
AcDbLine
 10
-25.48
 20
25.4
 30
0.0
 11
-26.2
 21
24.68
 31
0.0
  0
LINE
  5
122
330
D4
100
AcDbEntity
  8
AM_4
100
AcDbLine
 10
-26.2
 20
-2.4
 30
0.0
 11
-19.48261205564142
 21
-2.399999999999999
 31
0.0
  0
LINE
  5
123
330
D4
100
AcDbEntity
  8
AM_4
100
AcDbLine
 10
-26.2
 20
24.68
 30
0.0
 11
-26.2
 21
-24.68
 31
0.0
  0
LINE
  5
124
330
D4
100
AcDbEntity
  8
AM_4
100
AcDbLine
 10
-26.2
 20
-24.68
 30
0.0
 11
-25.48
 21
-25.4
 31
0.0
  0
LINE
  5
125
330
D4
100
AcDbEntity
  8
AM_4
100
AcDbLine
 10
-16.32449768160741
 20
25.40000000000001
 30
0.0
 11
-25.48
 21
25.40000000000001
 31
0.0
  0
LINE
  5
126
330
D4
100
AcDbEntity
  8
AM_4
100
AcDbLine
 10
-25.48
 20
25.40000000000001
 30
0.0
 11
-25.48000000000001
 21
2.4
 31
0.0
  0
LINE
  5
127
330
D4
100
AcDbEntity
  8
AM_4
100
AcDbLine
 10
-25.48
 20
-2.4
 30
0.0
 11
-25.48
 21
-25.40000000000001
 31
0.0
  0
LINE
  5
128
330
D4
100
AcDbEntity
  8
AM_4
100
AcDbLine
 10
-25.48
 20
-25.40000000000001
 30
0.0
 11
-22.05000000000001
 21
-25.40000000000001
 31
0.0
  0
ARC
  5
12A
330
D4
100
AcDbEntity
  8
AM_5
100
AcDbCircle
 10
-23.10000500001667
 20
0.0000000000000001
 30
0.0
 40
2.413
100
AcDbArc
 50
74.99999999999996
 51
15.0
  0
ENDBLK
  5
D7
330
D4
100
AcDbEntity
  8
0
100
AcDbBlockEnd
  0
BLOCK
  5
12D
330
12B
100
AcDbEntity
  8
0
100
AcDbBlockBegin
  2
4_129419_0_in_129208_2
 70
     2
 10
0.0
 20
0.0
 30
0.0
  3
4_129419_0_in_129208_2
  1

  0
ATTDEF
  5
12F
330
12B
100
AcDbEntity
  8
AM_6
100
AcDbText
 10
29.255
 20
56.21999816894531
 30
0.0
 40
0.5
  1
GT-M
100
AcDbAttributeDefinition
  3

  2
NN
 70
     8
280
     0
  0
ATTDEF
  5
130
330
12B
100
AcDbEntity
  8
AM_6
100
AcDbText
 10
29.255
 20
55.71999816894531
 30
0.0
 40
0.5
  1
GT Normal and Medium Duty Pillow Blocks
100
AcDbAttributeDefinition
  3

  2
NT
 70
     8
280
     0
  0
ATTDEF
  5
131
330
12B
100
AcDbEntity
  8
AM_6
100
AcDbText
 10
29.255
 20
55.21999816894531
 30
0.0
 40
0.5
  1
129419
100
AcDbAttributeDefinition
  3

  2
NB
 70
     8
280
     0
  0
ATTDEF
  5
132
330
12B
100
AcDbEntity
  8
AM_6
100
AcDbText
 10
29.255
 20
54.71999816894531
 30
0.0
 40
0.5
  1
$PN.$LUBE.
100
AcDbAttributeDefinition
  3

  2
NBSYN
 70
     8
280
     0
  0
ATTDEF
  5
133
330
12B
100
AcDbEntity
  8
AM_6
100
AcDbText
 10
29.255
 20
54.21999816894531
 30
0.0
 40
0.5
  1
129419
100
AcDbAttributeDefinition
  3

  2
LINA
 70
     8
280
     0
  0
ATTDEF
  5
134
330
12B
100
AcDbEntity
  8
AM_6
100
AcDbText
 10
29.255
 20
53.71999816894531
 30
0.0
 40
0.5
  1
206
100
AcDbAttributeDefinition
  3

  2
SERIES
 70
     8
280
     0
  0
ATTDEF
  5
135
330
12B
100
AcDbEntity
  8
AM_6
100
AcDbText
 10
29.255
 20
53.21999816894531
 30
0.0
 40
0.5
  1
129419
100
AcDbAttributeDefinition
  3

  2
PN
 70
     8
280
     0
  0
ATTDEF
  5
136
330
12B
100
AcDbEntity
  8
AM_6
100
AcDbText
 10
29.255
 20
52.71999816894531
 30
0.0
 40
0.5
  1
P2B-GTU-06
100
AcDbAttributeDefinition
  3

  2
DECRIPTION
 70
     8
280
     0
  0
ATTDEF
  5
137
330
12B
100
AcDbEntity
  8
AM_6
100
AcDbText
 10
29.255
 20
52.21999816894531
 30
0.0
 40
0.5
  1
40.9
100
AcDbAttributeDefinition
  3

  2
A
 70
     8
280
     0
  0
ATTDEF
  5
138
330
12B
100
AcDbEntity
  8
AM_6
100
AcDbText
 10
29.255
 20
51.71999816894531
 30
0.0
 40
0.5
  1
158.8
100
AcDbAttributeDefinition
  3

  2
B
 70
     8
280
     0
  0
ATTDEF
  5
139
330
12B
100
AcDbEntity
  8
AM_6
100
AcDbText
 10
29.255
 20
51.21999816894531
 30
0.0
 40
0.5
  1
44.1
100
AcDbAttributeDefinition
  3

  2
C
 70
     8
280
     0
  0
ATTDEF
  5
13A
330
12B
100
AcDbEntity
  8
AM_6
100
AcDbText
 10
29.255
 20
50.71999816894531
 30
0.0
 40
0.5
  1
108.0
100
AcDbAttributeDefinition
  3

  2
DMIN
 70
     8
280
     0
  0
ATTDEF
  5
13B
330
12B
100
AcDbEntity
  8
AM_6
100
AcDbText
 10
29.255
 20
50.21999816894531
 30
0.0
 40
0.5
  1
127.0
100
AcDbAttributeDefinition
  3

  2
DMAX
 70
     8
280
     0
  0
ATTDEF
  5
13C
330
12B
100
AcDbEntity
  8
AM_6
100
AcDbText
 10
29.255
 20
49.71999816894531
 30
0.0
 40
0.5
  1
M12
100
AcDbAttributeDefinition
  3

  2
F
 70
     8
280
     0
  0
ATTDEF
  5
13D
330
12B
100
AcDbEntity
  8
AM_6
100
AcDbText
 10
29.255
 20
49.21999816894531
 30
0.0
 40
0.5
  1
23.8
100
AcDbAttributeDefinition
  3

  2
G
 70
     8
280
     0
  0
ATTDEF
  5
13E
330
12B
100
AcDbEntity
  8
AM_6
100
AcDbText
 10
29.255
 20
48.71999816894531
 30
0.0
 40
0.5
  1
17.9
100
AcDbAttributeDefinition
  3

  2
H
 70
     8
280
     0
  0
ATTDEF
  5
13F
330
12B
100
AcDbEntity
  8
AM_6
100
AcDbText
 10
29.255
 20
48.21999816894531
 30
0.0
 40
0.5
  1
82.6
100
AcDbAttributeDefinition
  3

  2
J
 70
     8
280
     0
  0
ATTDEF
  5
140
330
12B
100
AcDbEntity
  8
AM_6
100
AcDbText
 10
29.255
 20
47.71999816894531
 30
0.0
 40
0.5
  1
50.8
100
AcDbAttributeDefinition
  3

  2
L
 70
     8
280
     0
  0
ATTDEF
  5
141
330
12B
100
AcDbEntity
  8
AM_6
100
AcDbText
 10
29.255
 20
47.21999816894531
 30
0.0
 40
0.5
  1
42.9
100
AcDbAttributeDefinition
  3

  2
M
 70
     8
280
     0
  0
ATTDEF
  5
142
330
12B
100
AcDbEntity
  8
AM_6
100
AcDbText
 10
29.255
 20
46.71999816894531
 30
0.0
 40
0.5
  1
13.5
100
AcDbAttributeDefinition
  3

  2
R
 70
     8
280
     0
  0
ATTDEF
  5
143
330
12B
100
AcDbEntity
  8
AM_6
100
AcDbText
 10
29.255
 20
46.21999816894531
 30
0.0
 40
0.5
  1
27.4
100
AcDbAttributeDefinition
  3

  2
S
 70
     8
280
     0
  0
ATTDEF
  5
144
330
12B
100
AcDbEntity
  8
AM_6
100
AcDbText
 10
29.255
 20
45.71999816894531
 30
0.0
 40
0.5
  1
73.0
100
AcDbAttributeDefinition
  3

  2
U
 70
     8
280
     0
  0
ATTDEF
  5
145
330
12B
100
AcDbEntity
  8
AM_6
100
AcDbText
 10
29.255
 20
45.21999816894531
 30
0.0
 40
0.5
  1
146.1
100
AcDbAttributeDefinition
  3

  2
V
 70
     8
280
     0
  0
ATTDEF
  5
146
330
12B
100
AcDbEntity
  8
AM_6
100
AcDbText
 10
29.255
 20
44.71999816894531
 30
0.0
 40
0.5
  1
14.3
100
AcDbAttributeDefinition
  3

  2
W
 70
     8
280
     0
  0
ATTDEF
  5
147
330
12B
100
AcDbEntity
  8
AM_6
100
AcDbText
 10
29.255
 20
44.21999816894531
 30
0.0
 40
0.5
  1
4.8
100
AcDbAttributeDefinition
  3

  2
X
 70
     8
280
     0
  0
ATTDEF
  5
148
330
12B
100
AcDbEntity
  8
AM_6
100
AcDbText
 10
29.255
 20
43.71999816894531
 30
0.0
 40
0.5
  1
26.2
100
AcDbAttributeDefinition
  3

  2
Z
 70
     8
280
     0
  0
ATTDEF
  5
149
330
12B
100
AcDbEntity
  8
AM_6
100
AcDbText
 10
29.255
 20
43.21999816894531
 30
0.0
 40
0.5
  1
baldor
100
AcDbAttributeDefinition
  3

  2
COMPANY
 70
     8
280
     0
  0
LINE
  5
14A
330
12B
100
AcDbEntity
  8
AM_9
100
AcDbLine
 10
-1.295029999999999
 20
38.81028664216615
 30
0.0
 11
1.295029999999999
 21
38.81028664216615
 31
0.0
  0
LINE
  5
14B
330
12B
100
AcDbEntity
  8
AM_9
100
AcDbLine
 10
-1.221030000000001
 20
39.13953589101306
 30
0.0
 11
-1.295030000000001
 21
39.08544742325331
 31
0.0
  0
LINE
  5
14C
330
12B
100
AcDbEntity
  8
AM_9
100
AcDbLine
 10
1.295030000000001
 20
39.08544742325331
 30
0.0
 11
1.221029999999999
 21
39.13953589101305
 31
0.0
  0
LINE
  5
14D
330
12B
100
AcDbEntity
  8
AM_9
100
AcDbLine
 10
1.221030000000002
 20
39.13953589101306
 30
0.0
 11
1.073020000000002
 21
39.17843419580598
 31
0.0
  0
LINE
  5
14E
330
12B
100
AcDbEntity
  8
AM_9
100
AcDbLine
 10
-1.073019999999998
 20
39.17843419580598
 30
0.0
 11
-1.221029999999999
 21
39.13953589101306
 31
0.0
  0
LINE
  5
14F
330
12B
100
AcDbEntity
  8
AM_9
100
AcDbLine
 10
1.073019999999996
 20
39.17843419580598
 30
0.0
 11
0.8510190000000084
 21
39.20357351547942
 31
0.0
  0
LINE
  5
150
330
12B
100
AcDbEntity
  8
AM_9
100
AcDbLine
 10
-0.8510189999999963
 20
39.20357351547942
 30
0.0
 11
-1.073019999999996
 21
39.17843419580598
 31
0.0
  0
LINE
  5
151
330
12B
100
AcDbEntity
  8
AM_9
100
AcDbLine
 10
0.5550119999999994
 20
39.21590672815178
 30
0.0
 11
-0.5550120000000003
 21
39.21590672815178
 31
0.0
  0
LINE
  5
152
330
12B
100
AcDbEntity
  8
AM_9
100
AcDbLine
 10
0.851019000000005
 20
39.20357351547942
 30
0.0
 11
0.5550120000000005
 21
39.21590672815177
 31
0.0
  0
LINE
  5
153
330
12B
100
AcDbEntity
  8
AM_9
100
AcDbLine
 10
-0.5550120000000145
 20
39.21590672815177
 30
0.0
 11
-0.8510189999999911
 21
39.20357351547942
 31
0.0
  0
LINE
  5
154
330
12B
100
AcDbEntity
  8
AM_9
100
AcDbLine
 10
-0.5550119999999974
 20
39.42957074569795
 30
0.0
 11
0.5550119999999996
 21
39.42957074569795
 31
0.0
  0
LINE
  5
155
330
12B
100
AcDbEntity
  8
AM_9
100
AcDbLine
 10
-0.8510189999999875
 20
39.43861357368436
 30
0.0
 11
-0.5550120000000838
 21
39.42957074569795
 31
0.0
  0
LINE
  5
156
330
12B
100
AcDbEntity
  8
AM_9
100
AcDbLine
 10
0.5550120000000283
 20
39.42957074569794
 30
0.0
 11
0.851018999999932
 21
39.43861357368435
 31
0.0
  0
LINE
  5
157
330
12B
100
AcDbEntity
  8
AM_9
100
AcDbLine
 10
0.8510189999999807
 20
39.43861357368435
 30
0.0
 11
1.073019999999961
 21
39.45623573181302
 31
0.0
  0
LINE
  5
158
330
12B
100
AcDbEntity
  8
AM_9
100
AcDbLine
 10
-1.07302000000003
 20
39.45623573181303
 30
0.0
 11
-0.8510189999999989
 21
39.43861357368435
 31
0.0
  0
LINE
  5
159
330
12B
100
AcDbEntity
  8
AM_9
100
AcDbLine
 10
1.073019999999983
 20
39.45623573181302
 30
0.0
 11
1.22103
 21
39.48150379703259
 31
0.0
  0
LINE
  5
15A
330
12B
100
AcDbEntity
  8
AM_9
100
AcDbLine
 10
-1.221030000000006
 20
39.48150379703259
 30
0.0
 11
-1.073020000000011
 21
39.45623573181303
 31
0.0
  0
LINE
  5
15B
330
12B
100
AcDbEntity
  8
AM_9
100
AcDbLine
 10
-1.295030000000005
 20
39.51302961766408
 30
0.0
 11
-1.221030000000003
 21
39.48150379703259
 31
0.0
  0
LINE
  5
15C
330
12B
100
AcDbEntity
  8
AM_9
100
AcDbLine
 10
1.221029999999999
 20
39.4815037970326
 30
0.0
 11
1.295030000000001
 21
39.51302961766409
 31
0.0
  0
LINE
  5
15D
330
12B
100
AcDbEntity
  8
AM_9
100
AcDbLine
 10
-1.221030000000001
 20
39.59280134140421
 30
0.0
 11
-1.29503
 21
39.56867310561601
 31
0.0
  0
LINE
  5
15E
330
12B
100
AcDbEntity
  8
AM_9
100
AcDbLine
 10
1.295030000000001
 20
39.568673105616
 30
0.0
 11
1.221029999999999
 21
39.5928013414042
 31
0.0
  0
LINE
  5
15F
330
12B
100
AcDbEntity
  8
AM_9
100
AcDbLine
 10
1.221030000000002
 20
39.59280134140422
 30
0.0
 11
1.073020000000005
 21
39.60928596853899
 31
0.0
  0
LINE
  5
160
330
12B
100
AcDbEntity
  8
AM_9
100
AcDbLine
 10
-1.073020000000002
 20
39.60928596853899
 30
0.0
 11
-1.221030000000005
 21
39.59280134140422
 31
0.0
  0
LINE
  5
161
330
12B
100
AcDbEntity
  8
AM_9
100
AcDbLine
 10
1.073020000000002
 20
39.60928596853898
 30
0.0
 11
0.8510190000000036
 21
39.61950951788145
 31
0.0
  0
LINE
  5
162
330
12B
100
AcDbEntity
  8
AM_9
100
AcDbLine
 10
-0.8510189999999968
 20
39.61950951788145
 30
0.0
 11
-1.073019999999995
 21
39.60928596853898
 31
0.0
  0
LINE
  5
163
330
12B
100
AcDbEntity
  8
AM_9
100
AcDbLine
 10
0.8510190000000084
 20
39.61950951788146
 30
0.0
 11
0.5550119999999902
 21
39.62439084730389
 31
0.0
  0
LINE
  5
164
330
12B
100
AcDbEntity
  8
AM_9
100
AcDbLine
 10
0.5550119999999996
 20
39.62439084730389
 30
0.0
 11
-0.5550120000000001
 21
39.62439084730389
 31
0.0
  0
LINE
  5
165
330
12B
100
AcDbEntity
  8
AM_9
100
AcDbLine
 10
-0.5550120000000041
 20
39.62439084730389
 30
0.0
 11
-0.8510189999999893
 21
39.61950951788145
 31
0.0
  0
LINE
  5
166
330
12B
100
AcDbEntity
  8
AM_9
100
AcDbLine
 10
1.73904
 20
39.53505190283678
 30
0.0
 11
1.739040000000001
 21
39.69678350152312
 31
0.0
  0
LINE
  5
167
330
12B
100
AcDbEntity
  8
AM_9
100
AcDbLine
 10
-1.73904
 20
39.5350519028368
 30
0.0
 11
-1.73904
 21
39.69678350152312
 31
0.0
  0
LINE
  5
168
330
12B
100
AcDbEntity
  8
AM_9
100
AcDbLine
 10
1.29503
 20
39.53505190283681
 30
0.0
 11
1.29503
 21
39.67393702075677
 31
0.0
  0
LINE
  5
169
330
12B
100
AcDbEntity
  8
AM_9
100
AcDbLine
 10
-1.29503
 20
39.5350519028368
 30
0.0
 11
-1.29503
 21
39.67393702075677
 31
0.0
  0
LINE
  5
16A
330
12B
100
AcDbEntity
  8
AM_9
100
AcDbLine
 10
1.66504
 20
39.56867310561601
 30
0.0
 11
1.66504
 21
39.68993093187836
 31
0.0
  0
LINE
  5
16B
330
12B
100
AcDbEntity
  8
AM_9
100
AcDbLine
 10
-1.66504
 20
39.568673105616
 30
0.0
 11
-1.66504
 21
39.68993093187837
 31
0.0
  0
LINE
  5
16C
330
12B
100
AcDbEntity
  8
AM_9
100
AcDbLine
 10
1.51703
 20
39.59280134140421
 30
0.0
 11
1.51703
 21
39.68170619183479
 31
0.0
  0
LINE
  5
16D
330
12B
100
AcDbEntity
  8
AM_9
100
AcDbLine
 10
1.07302
 20
39.40150705823826
 30
0.0
 11
1.07302
 21
39.66799456977176
 31
0.0
  0
LINE
  5
16E
330
12B
100
AcDbEntity
  8
AM_9
100
AcDbLine
 10
-1.51703
 20
39.59280134140421
 30
0.0
 11
-1.51703
 21
39.68170619183479
 31
0.0
  0
LINE
  5
16F
330
12B
100
AcDbEntity
  8
AM_9
100
AcDbLine
 10
-1.07302
 20
39.40150705823826
 30
0.0
 11
-1.07302
 21
39.66799456977175
 31
0.0
  0
LINE
  5
170
330
12B
100
AcDbEntity
  8
AM_9
100
AcDbLine
 10
-1.295029999999999
 20
39.68993093187837
 30
0.0
 11
1.295029999999999
 21
39.68993093187837
 31
0.0
  0
LINE
  5
171
330
12B
100
AcDbEntity
  8
AM_9
100
AcDbLine
 10
-0.8510189999999997
 20
39.39184074307646
 30
0.0
 11
-0.8510189999999999
 21
39.66413620342379
 31
0.0
  0
LINE
  5
172
330
12B
100
AcDbEntity
  8
AM_9
100
AcDbLine
 10
0.8510190000000011
 20
39.39184074307646
 30
0.0
 11
0.8510190000000001
 21
39.66413620342379
 31
0.0
  0
LINE
  5
173
330
12B
100
AcDbEntity
  8
AM_9
100
AcDbLine
 10
1.22103
 20
39.61447437174951
 30
0.0
 11
1.22103
 21
39.67104223986936
 31
0.0
  0
LINE
  5
174
330
12B
100
AcDbEntity
  8
AM_9
100
AcDbLine
 10
-1.22103
 20
39.61447437174952
 30
0.0
 11
-1.22103
 21
39.67104223986937
 31
0.0
  0
LINE
  5
175
330
12B
100
AcDbEntity
  8
AM_9
100
AcDbLine
 10
0.9250200000000001
 20
39.62439084730387
 30
0.0
 11
0.9250200000000001
 21
39.66479447315339
 31
0.0
  0
LINE
  5
176
330
12B
100
AcDbEntity
  8
AM_9
100
AcDbLine
 10
-0.9250199999999998
 20
39.62439084730387
 30
0.0
 11
-0.9250199999999998
 21
39.6647944731534
 31
0.0
  0
LINE
  5
177
330
12B
100
AcDbEntity
  8
AM_9
100
AcDbLine
 10
-0.5550119999999998
 20
39.62911967243784
 30
0.0
 11
-0.5550119999999998
 21
39.6614420375243
 31
0.0
  0
LINE
  5
178
330
12B
100
AcDbEntity
  8
AM_9
100
AcDbLine
 10
0.5550119999999998
 20
39.62911967243784
 30
0.0
 11
0.5550119999999998
 21
39.6614420375243
 31
0.0
  0
LINE
  5
179
330
12B
100
AcDbEntity
  8
AM_9
100
AcDbLine
 10
0.9250200000000001
 20
37.69999999999999
 30
0.0
 11
0.9250200000000001
 21
39.58895059541878
 31
0.0
  0
LINE
  5
17A
330
12B
100
AcDbEntity
  8
AM_9
100
AcDbLine
 10
0.555012
 20
37.69999999999999
 30
0.0
 11
0.555012
 21
39.59844986476617
 31
0.0
  0
LINE
  5
17B
330
12B
100
AcDbEntity
  8
AM_9
100
AcDbLine
 10
-0.5550119999999997
 20
37.69999999999999
 30
0.0
 11
-0.5550119999999997
 21
39.59844986476616
 31
0.0
  0
LINE
  5
17C
330
12B
100
AcDbEntity
  8
AM_9
100
AcDbLine
 10
1.22103
 20
39.42957074569795
 30
0.0
 11
1.22103
 21
39.56225638397789
 31
0.0
  0
LINE
  5
17D
330
12B
100
AcDbEntity
  8
AM_9
100
AcDbLine
 10
-1.22103
 20
39.42957074569795
 30
0.0
 11
-1.22103
 21
39.5622563839779
 31
0.0
  0
LINE
  5
17E
330
12B
100
AcDbEntity
  8
AM_9
100
AcDbLine
 10
-1.73904
 20
39.24009783224807
 30
0.0
 11
-1.73904
 21
39.46481300340341
 31
0.0
  0
LINE
  5
17F
330
12B
100
AcDbEntity
  8
AM_9
100
AcDbLine
 10
1.739040000000001
 20
39.24009783224807
 30
0.0
 11
1.739040000000001
 21
39.46481300340343
 31
0.0
  0
LINE
  5
180
330
12B
100
AcDbEntity
  8
AM_9
100
AcDbLine
 10
-1.295029999999999
 20
39.1656278249679
 30
0.0
 11
-1.29503
 21
39.35161760314784
 31
0.0
  0
LINE
  5
181
330
12B
100
AcDbEntity
  8
AM_9
100
AcDbLine
 10
1.29503
 20
39.1656278249679
 30
0.0
 11
1.29503
 21
39.35161760314784
 31
0.0
  0
LINE
  5
182
330
12B
100
AcDbEntity
  8
AM_9
100
AcDbLine
 10
1.66504
 20
37.69999999999999
 30
0.0
 11
1.66504
 21
39.42037134119236
 31
0.0
  0
LINE
  5
183
330
12B
100
AcDbEntity
  8
AM_9
100
AcDbLine
 10
-1.66504
 20
37.69999999999999
 30
0.0
 11
-1.66504
 21
39.42037134119236
 31
0.0
  0
LINE
  5
184
330
12B
100
AcDbEntity
  8
AM_9
100
AcDbLine
 10
1.07302
 20
37.69999999999999
 30
0.0
 11
1.07302
 21
39.33694876620275
 31
0.0
  0
LINE
  5
185
330
12B
100
AcDbEntity
  8
AM_9
100
AcDbLine
 10
-1.07302
 20
37.69999999999999
 30
0.0
 11
-1.07302
 21
39.33588920190552
 31
0.0
  0
LINE
  5
186
330
12B
100
AcDbEntity
  8
AM_9
100
AcDbLine
 10
-0.8510189999999996
 20
37.69999999999999
 30
0.0
 11
-0.8510189999999996
 21
39.33056817086552
 31
0.0
  0
LINE
  5
187
330
12B
100
AcDbEntity
  8
AM_9
100
AcDbLine
 10
-0.2590059999999997
 20
37.69999999999999
 30
0.0
 11
-0.2590059999999997
 21
39.33056817086552
 31
0.0
  0
LINE
  5
188
330
12B
100
AcDbEntity
  8
AM_9
100
AcDbLine
 10
1.51703
 20
37.69999999999999
 30
0.0
 11
1.51703
 21
39.38201855759046
 31
0.0
  0
LINE
  5
189
330
12B
100
AcDbEntity
  8
AM_9
100
AcDbLine
 10
-1.51703
 20
37.69999999999999
 30
0.0
 11
-1.51703
 21
39.38201855759046
 31
0.0
  0
LINE
  5
18A
330
12B
100
AcDbEntity
  8
AM_9
100
AcDbLine
 10
1.221030000000001
 20
37.69999999999999
 30
0.0
 11
1.221030000000001
 21
39.34117145708297
 31
0.0
  0
LINE
  5
18B
330
12B
100
AcDbEntity
  8
AM_9
100
AcDbLine
 10
-1.22103
 20
37.69999999999999
 30
0.0
 11
-1.22103
 21
39.34117145708297
 31
0.0
  0
LINE
  5
18C
330
12B
100
AcDbEntity
  8
AM_9
100
AcDbLine
 10
0.8510190000000003
 20
37.69999999999999
 30
0.0
 11
0.8510190000000003
 21
39.33056817086552
 31
0.0
  0
LINE
  5
18D
330
12B
100
AcDbEntity
  8
AM_9
100
AcDbLine
 10
0.185004
 20
37.69999999999999
 30
0.0
 11
0.1850039999999991
 21
39.33056817086552
 31
0.0
  0
LINE
  5
18E
330
12B
100
AcDbEntity
  8
AM_9
100
AcDbLine
 10
-0.9250199999999996
 20
37.69999999999999
 30
0.0
 11
-0.9250199999999998
 21
39.58895059541878
 31
0.0
  0
LINE
  5
18F
330
12B
100
AcDbEntity
  8
AM_9
100
AcDbLine
 10
-0.1110019999999995
 20
37.69999999999999
 30
0.0
 11
-0.1110019999999995
 21
38.77647592589609
 31
0.0
  0
LINE
  5
190
330
12B
100
AcDbEntity
  8
AM_9
100
AcDbLine
 10
0.3330070000000006
 20
37.69999999999999
 30
0.0
 11
0.3330070000000003
 21
38.77647592589609
 31
0.0
  0
LINE
  5
191
330
12B
100
AcDbEntity
  8
AM_9
100
AcDbLine
 10
1.29503
 20
37.69999999999999
 30
0.0
 11
1.29503
 21
38.70689207828497
 31
0.0
  0
LINE
  5
192
330
12B
100
AcDbEntity
  8
AM_9
100
AcDbLine
 10
1.73904
 20
37.69999999999999
 30
0.0
 11
1.739040000000001
 21
38.70689207828497
 31
0.0
  0
LINE
  5
193
330
12B
100
AcDbEntity
  8
AM_9
100
AcDbLine
 10
-1.739039999999999
 20
37.69999999999999
 30
0.0
 11
1.73904
 21
37.69999999999999
 31
0.0
  0
LINE
  5
194
330
12B
100
AcDbEntity
  8
AM_9
100
AcDbLine
 10
-1.739039999999999
 20
37.69999999999999
 30
0.0
 11
-1.739039999999999
 21
38.70689207828497
 31
0.0
  0
LINE
  5
195
330
12B
100
AcDbEntity
  8
AM_9
100
AcDbLine
 10
-1.295029999999999
 20
37.69999999999999
 30
0.0
 11
-1.295029999999999
 21
38.70689207828497
 31
0.0
  0
LWPOLYLINE
  5
196
330
12B
100
AcDbEntity
  8
AM_9
100
AcDbPolyline
 90
        3
 70
     0
 43
0.0
 10
3.464101615137759
 20
29.8399061660723
 10
2.886751345948132
 20
30.57795924729195
 10
2.309401076758505
 20
31.37136336244881
  0
LWPOLYLINE
  5
197
330
12B
100
AcDbEntity
  8
AM_9
100
AcDbPolyline
 90
        3
 70
     0
 43
0.0
 10
2.309401076758505
 20
31.37136336244881
 10
1.15989238292913
 20
31.28533942152372
 10
0.0000000000000016
 20
31.25411972844541
  0
LWPOLYLINE
  5
198
330
12B
100
AcDbEntity
  8
AM_9
100
AcDbPolyline
 90
        3
 70
     0
 43
0.0
 10
-2.309401076758502
 20
31.37136336244881
 10
-2.884155423673191
 20
30.58141198282994
 10
-3.464101615137758
 20
29.8399061660723
  0
LWPOLYLINE
  5
199
330
12B
100
AcDbEntity
  8
AM_9
100
AcDbPolyline
 90
        3
 70
     0
 43
0.0
 10
0.0000000000000016
 20
31.25411972844541
 10
-1.15470053837925
 20
31.28506602847849
 10
-2.309401076758502
 20
31.37136336244881
  0
LINE
  5
19A
330
12B
100
AcDbEntity
  8
AM_9
100
AcDbLine
 10
-2.309401076758502
 20
31.37136336244881
 30
0.0
 11
-2.309401076758502
 21
33.6117498285949
 31
0.0
  0
LINE
  5
19B
330
12B
100
AcDbEntity
  8
AM_9
100
AcDbLine
 10
2.309401076758505
 20
31.37136336244881
 30
0.0
 11
2.309401076758505
 21
33.6117498285949
 31
0.0
  0
LINE
  5
19C
330
12B
100
AcDbEntity
  8
AM_9
100
AcDbLine
 10
2.309401076758505
 20
33.6117498285949
 30
0.0
 11
2.681559561070083
 21
33.21724667358828
 31
0.0
  0
LWPOLYLINE
  5
19D
330
12B
100
AcDbEntity
  8
AM_9
100
AcDbPolyline
 90
        3
 70
     0
 43
0.0
 10
0.0000000000000017
 20
33.72899346259832
 10
1.154700538379253
 20
33.69804716256522
 10
2.309401076758505
 20
33.6117498285949
  0
LINE
  5
19E
330
12B
100
AcDbEntity
  8
AM_9
100
AcDbLine
 10
-2.679505015964238
 20
33.2194789643717
 30
0.0
 11
-2.309401076758502
 21
33.6117498285949
 31
0.0
  0
LWPOLYLINE
  5
19F
330
12B
100
AcDbEntity
  8
AM_9
100
AcDbPolyline
 90
        3
 70
     0
 43
0.0
 10
-2.309401076758502
 20
33.6117498285949
 10
-1.159892382929127
 20
33.69777376952
 10
0.0000000000000017
 20
33.72899346259832
  0
LWPOLYLINE
  5
1A0
330
12B
100
AcDbEntity
  8
AM_9
100
AcDbPolyline
 90
        3
 70
     0
 43
0.0
 10
-3.464101615137758
 20
29.8399061660723
 10
-4.041451884327383
 20
29.16374568491884
 10
-4.618802153517005
 20
28.54293623770261
  0
LWPOLYLINE
  5
1A1
330
12B
100
AcDbEntity
  8
AM_9
100
AcDbPolyline
 90
        3
 70
     0
 43
0.0
 10
4.618802153517009
 20
28.54293623770261
 10
4.044047806602324
 20
29.16083973547131
 10
3.464101615137759
 20
29.8399061660723
  0
LINE
  5
1A2
330
12B
100
AcDbEntity
  8
AM_9
100
AcDbLine
 10
-2.799999999999994
 20
28.4256926036992
 30
0.0
 11
-2.799999999999994
 21
28.07206150623422
 31
0.0
  0
LINE
  5
1A3
330
12B
100
AcDbEntity
  8
AM_9
100
AcDbLine
 10
2.799999999999997
 20
28.07169088239383
 30
0.0
 11
2.799999999999997
 21
28.4256926036992
 31
0.0
  0
LWPOLYLINE
  5
1A4
330
12B
100
AcDbEntity
  8
AM_9
100
AcDbPolyline
 90
       20
 70
     0
 43
0.0
 10
2.799999987440363
 20
28.07195168388201
 10
2.781555288801473
 20
28.29810358157401
 10
2.688258817064124
 20
28.6197008709124
 10
2.519586342559832
 20
28.92247331781567
 10
2.2790753853813
 20
29.19840523339894
 10
1.974600432643615
 20
29.44075723168311
 10
1.613066023092722
 20
29.64355881304544
 10
1.205994270851378
 20
29.80205160601979
 10
0.7643009217434832
 20
29.91197344846418
 10
0.3009594636413088
 20
29.97146943641029
 10
-0.1700176534309316
 20
29.97856312536423
 10
-0.6361941723328646
 20
29.93396057794919
 10
-1.083717028196821
 20
29.83811254114681
 10
-1.500772012024555
 20
29.693812097412
 10
-1.875709043698172
 20
29.50335437964413
 10
-2.197886729604726
 20
29.2719672779561
 10
-2.457819122070758
 20
29.00414407755427
 10
-2.648410638915798
 20
28.70740296594233
 10
-2.763119533048717
 20
28.38934308167538
 10
-2.799999997343248
 20
28.07205296354056
  0
LWPOLYLINE
  5
1A5
330
12B
100
AcDbEntity
  8
AM_9
100
AcDbPolyline
 90
       11
 70
     0
 43
0.0
 10
-2.799999997343248
 20
28.07205296354056
 10
-2.799934283320491
 20
28.05857110832184
 10
-2.756860489165891
 20
27.72492516001409
 10
-2.636407176242113
 20
27.39737555139608
 10
-2.440967448918178
 20
27.08580644704691
 10
-2.177092462228951
 20
26.7994719313599
 10
-1.850567230068866
 20
26.54722943857415
 10
-1.471904375514774
 20
26.33730255981739
 10
-1.050689315016524
 20
26.17710631205305
 10
-0.5997250510644545
 20
26.07149235218197
 10
0.0000000000000018
 20
26.02233306656936
  0
LINE
  5
1A6
330
12B
100
AcDbEntity
  8
AM_9
100
AcDbLine
 10
-18.375
 20
-31.0
 30
0.0
 11
18.375
 21
-31.0
 31
0.0
  0
LINE
  5
1A7
330
12B
100
AcDbEntity
  8
AM_9
100
AcDbLine
 10
15.68833075734159
 20
30.99999999999999
 30
0.0
 11
-15.68833075734158
 21
30.99999999999999
 31
0.0
  0
LINE
  5
1A8
330
12B
100
AcDbEntity
  8
AM_9
100
AcDbLine
 10
-19.87499999999999
 20
-38.43333333333327
 30
0.0
 11
19.87500000000001
 21
-38.43333333333327
 31
0.0
  0
LINE
  5
1A9
330
12B
100
AcDbEntity
  8
AM_9
100
AcDbLine
 10
-18.37499999999999
 20
-36.93333333333333
 30
0.0
 11
18.37500000000001
 21
-36.93333333333331
 31
0.0
  0
LINE
  5
1AA
330
12B
100
AcDbEntity
  8
AM_9
100
AcDbLine
 10
19.87500000000001
 20
-5.854081632653087
 30
0.0
 11
19.87500000000001
 21
-38.43333333333327
 31
0.0
  0
LINE
  5
1AB
330
12B
100
AcDbEntity
  8
AM_9
100
AcDbLine
 10
18.37500000000001
 20
7.349999999999982
 30
0.0
 11
18.37500000000001
 21
6.732933981556576
 31
0.0
  0
LINE
  5
1AC
330
12B
100
AcDbEntity
  8
AM_9
100
AcDbLine
 10
18.37500000000002
 20
-36.93333333333332
 30
0.0
 11
19.87499999999999
 21
-38.43333333333329
 31
0.0
  0
LINE
  5
1AD
330
12B
100
AcDbEntity
  8
AM_9
100
AcDbLine
 10
18.37500000000001
 20
-6.732933981556561
 30
0.0
 11
18.37500000000001
 21
-36.93333333333331
 31
0.0
  0
LWPOLYLINE
  5
1AE
330
12B
100
AcDbEntity
  8
AM_9
100
AcDbPolyline
 90
       10
 70
     0
 43
0.0
 10
18.37500000000001
 20
6.732933981556576
 10
18.40336780056128
 20
5.260853867589815
 10
18.46419735328599
 20
3.772944934139731
 10
18.54562649321076
 20
1.673173248892483
 10
18.56680410502372
 20
0.6144585310085271
 10
18.5684187574666
 20
-0.4467669147340952
 10
18.53500666278507
 20
-2.020181636353098
 10
18.47219588662089
 20
-3.592200588398389
 10
18.40663259104558
 20
-5.166582600369479
 10
18.37500000000001
 20
-6.732933981556561
  0
LINE
  5
1AF
330
12B
100
AcDbEntity
  8
AM_9
100
AcDbLine
 10
-19.87499999999999
 20
-5.854081632653017
 30
0.0
 11
-19.87499999999999
 21
-38.43333333333327
 31
0.0
  0
LINE
  5
1B0
330
12B
100
AcDbEntity
  8
AM_9
100
AcDbLine
 10
-18.37499999999999
 20
7.350000000000058
 30
0.0
 11
-18.37499999999999
 21
6.732933981556569
 31
0.0
  0
LWPOLYLINE
  5
1B1
330
12B
100
AcDbEntity
  8
AM_9
100
AcDbPolyline
 90
       10
 70
     0
 43
0.0
 10
-18.37499999999999
 20
-6.732933981556527
 10
-18.40336780056126
 20
-5.260853867589767
 10
-18.46419735328597
 20
-3.772944934139676
 10
-18.54562649321073
 20
-1.673173248892726
 10
-18.5668041050237
 20
-0.6144585310089226
 10
-18.56841875746658
 20
0.446766914733554
 10
-18.53500666278505
 20
2.020181636352689
 10
-18.47219588662088
 20
3.592200588398105
 10
-18.40663259104557
 20
5.166582600369334
 10
-18.37499999999999
 20
6.732933981556541
  0
LINE
  5
1B2
330
12B
100
AcDbEntity
  8
AM_9
100
AcDbLine
 10
-18.37499999999999
 20
-6.732933981556569
 30
0.0
 11
-18.37499999999999
 21
-36.93333333333333
 31
0.0
  0
LINE
  5
1B3
330
12B
100
AcDbEntity
  8
AM_9
100
AcDbLine
 10
-19.87499999999997
 20
-38.43333333333329
 30
0.0
 11
-18.375
 21
-36.93333333333332
 31
0.0
  0
ELLIPSE
  5
1B4
330
12B
100
AcDbEntity
  8
AM_9
100
AcDbEllipse
 10
-0.0000000000000002
 20
30.90056633785211
 30
0.0
 11
-2.799999999999997
 21
4.172325168567450E-8
 31
0.0
210
0.0
220
0.0
230
1.0
 40
0.7071067811865481
 41
3.141592668490954
 42
6.283185322080747
  0
ELLIPSE
  5
1B5
330
12B
100
AcDbEntity
  8
AM_9
100
AcDbEllipse
 10
0.0000000000000796
 20
31.25411972844423
 30
0.0
 11
-2.800000000003131
 21
4.172325168572120E-8
 31
0.0
210
0.0
220
0.0
230
1.0
 40
0.7071067811861627
 41
4.53570867360374
 42
4.755696167727899
  0
ELLIPSE
  5
1B6
330
12B
100
AcDbEntity
  8
AM_9
100
AcDbEllipse
 10
-0.00000000000004
 20
31.25411972844535
 30
0.0
 11
-2.799999999999939
 21
3.429011037612515E-16
 31
0.0
210
0.0
220
0.0
230
1.0
 40
0.7071067811865627
 41
5.19820377396505
 42
5.686542226259199
  0
LINE
  5
1B7
330
12B
100
AcDbEntity
  8
AM_9
100
AcDbLine
 10
20.55
 20
-11.79591836734699
 30
0.0
 11
20.55
 21
-42.89999999999997
 31
0.0
  0
LINE
  5
1B8
330
12B
100
AcDbEntity
  8
AM_9
100
AcDbLine
 10
-20.54999999999999
 20
-11.79591836734693
 30
0.0
 11
-20.54999999999999
 21
-42.89999999999997
 31
0.0
  0
ELLIPSE
  5
1B9
330
12B
100
AcDbEntity
  8
AM_9
100
AcDbEllipse
 10
-0.0000000000000364
 20
30.90056633785211
 30
0.0
 11
-4.000000000000069
 21
4.898587196589498E-16
 31
0.0
210
0.0
220
0.0
230
1.0
 40
0.7071067811865428
 41
3.987196689215475
 42
5.436875837039188
  0
LWPOLYLINE
  5
1BA
330
12B
100
AcDbEntity
  8
AM_9
100
AcDbPolyline
 90
       22
 70
     0
 43
0.0
 10
-2.026683453359332
 20
32.08362437820312
 10
-2.063092372440752
 20
32.12471209449037
 10
-2.116630019120412
 20
32.19630747326978
 10
-2.148443164043687
 20
32.25177750943856
 10
-2.163620822978792
 20
32.28905884977787
 10
-2.168316784672195
 20
32.3086134050388
 10
-2.168661901814806
 20
32.31779047943881
 10
-2.164959101276551
 20
32.3360623629768
 10
-2.151568896203673
 20
32.37115994484687
 10
-2.122544729934274
 20
32.424044169015
 10
-2.073795140257064
 20
32.49181205093388
 10
-1.994207148493778
 20
32.57925342160171
 10
-1.887204609734824
 20
32.67396861123246
 10
-1.752193939119722
 20
32.77171038121948
 10
-1.589413105237755
 20
32.86841421015772
 10
-1.400095191688314
 20
32.96013233643954
 10
-1.186767147047255
 20
33.04305569073333
 10
-0.9523707107203583
 20
33.11399605657886
 10
-0.7005712634706136
 20
33.17022936209583
 10
-0.4356307496674363
 20
33.20958906025364
 10
-0.1622650489762868
 20
33.23053801625137
 10
0.1049014447845835
 20
33.23248780179574
  0
LWPOLYLINE
  5
1BB
330
12B
100
AcDbEntity
  8
AM_9
100
AcDbPolyline
 90
        3
 70
     0
 43
0.0
 10
-1.693883615941382
 20
31.82095693612192
 10
-1.740711296456198
 20
31.85036300384566
 10
-1.748489406929117
 20
31.8554217578644
  0
LWPOLYLINE
  5
1BC
330
12B
100
AcDbEntity
  8
AM_9
100
AcDbPolyline
 90
        3
 70
     0
 43
0.0
 10
1.816968555547485
 20
31.90233878222026
 10
1.779221466012734
 20
31.87593033560188
 10
1.703201549131261
 20
31.82666973423707
  0
LWPOLYLINE
  5
1BD
330
12B
100
AcDbEntity
  8
AM_9
100
AcDbPolyline
 90
        3
 70
     0
 43
0.0
 10
1.911687144296056
 20
31.97561765479782
 10
1.909051492388456
 20
31.97342089457844
 10
1.816968555547485
 20
31.90233878222026
  0
LWPOLYLINE
  5
1BE
330
12B
100
AcDbEntity
  8
AM_9
100
AcDbPolyline
 90
       23
 70
     0
 43
0.0
 10
0.1049014447845835
 20
33.23248780179574
 10
0.1145039440611892
 20
33.2322199068312
 10
0.3894975016684343
 20
33.21449368043992
 10
0.657351865655134
 20
33.17798519395568
 10
0.9130574487520958
 20
33.12406770246169
 10
1.15196916074944
 20
33.05483169762645
 10
1.369955620223139
 20
32.97304876847077
 10
1.563574111449647
 20
32.88210864175957
 10
1.730247067694737
 20
32.78592192282895
 10
1.868427431449872
 20
32.68878276807564
 10
1.977527310728856
 20
32.59538913949265
 10
2.058486496806765
 20
32.5103084864348
 10
2.113681233403244
 20
32.437712687252
 10
2.146845307697633
 20
32.3810431154202
 10
2.162984490374189
 20
32.34248002364001
 10
2.168192772592198
 20
32.32180886367126
 10
2.168713572139033
 20
32.31251271283404
 10
2.166282673354365
 20
32.29841993251776
 10
2.155455261769859
 20
32.26718743931035
 10
2.130033938195899
 20
32.21775262902842
 10
2.085632299510993
 20
32.15279538946658
 10
2.01093799581064
 20
32.06713220447111
 10
1.911687144296056
 20
31.97561765479782
  0
ELLIPSE
  5
1BF
330
12B
100
AcDbEntity
  8
AM_9
100
AcDbEllipse
 10
0.000000000000115
 20
31.25411972844541
 30
0.0
 11
-2.79999999999984
 21
3.429011037612394E-16
 31
0.0
210
0.0
220
0.0
230
1.0
 40
0.707106781186561
 41
3.73565795268725
 42
4.123043453709009
  0
ELLIPSE
  5
1C0
330
12B
100
AcDbEntity
  8
AM_9
100
AcDbEllipse
 10
-0.0000000000017712
 20
33.21201468370121
 30
0.0
 11
-2.596022899207903
 21
3.179211134028191E-16
 31
0.0
210
0.0
220
0.0
230
1.0
 40
0.7071067811865487
 41
-3.995677860081691
 42
-3.873846747429422
  0
ELLIPSE
  5
1C1
330
12B
100
AcDbEntity
  8
AM_9
100
AcDbEllipse
 10
-0.0000000000000028
 20
33.21201468369996
 30
0.0
 11
-2.596022899205396
 21
3.179211134025120E-16
 31
0.0
210
0.0
220
0.0
230
1.0
 40
0.70710678118655
 41
2.430410928335091
 42
7.101324563701279
  0
ELLIPSE
  5
1C2
330
12B
100
AcDbEntity
  8
AM_9
100
AcDbEllipse
 10
0.0000000000321767
 20
33.21201468369129
 30
0.0
 11
-2.596022899254192
 21
3.179211134084879E-16
 31
0.0
210
0.0
220
0.0
230
1.0
 40
0.7071067811765378
 41
0.8455100140891227
 42
0.8598387624546088
  0
ELLIPSE
  5
1C3
330
12B
100
AcDbEntity
  8
AM_9
100
AcDbEllipse
 10
0.0000000000000031
 20
33.59020119857119
 30
0.0
 11
-2.640547998623287
 21
3.233738654508958E-16
 31
0.0
210
0.0
220
0.0
230
1.0
 40
0.7071067811865486
 41
3.694307766686567
 42
5.730470194082813
  0
ELLIPSE
  5
1C4
330
12B
100
AcDbEntity
  8
AM_9
100
AcDbEllipse
 10
-0.0000000000000017
 20
34.71396971856105
 30
0.0
 11
-1.806192440606058
 21
2.211947791032354E-16
 31
0.0
210
0.0
220
0.0
230
1.0
 40
0.7071067811865508
 41
3.88872248126307
 42
5.583517697259011
  0
LINE
  5
1C5
330
12B
100
AcDbEntity
  8
AM_9
100
AcDbLine
 10
1.369030000000097
 20
39.67667925225598
 30
0.0
 11
1.739040000000001
 21
39.67667925225598
 31
0.0
  0
LINE
  5
1C6
330
12B
100
AcDbEntity
  8
AM_9
100
AcDbLine
 10
-1.295029999999999
 20
39.67667925225598
 30
0.0
 11
1.29503
 21
39.67667925225598
 31
0.0
  0
LINE
  5
1C7
330
12B
100
AcDbEntity
  8
AM_9
100
AcDbLine
 10
-1.739040000000001
 20
39.67667925225598
 30
0.0
 11
-1.369030000000097
 21
39.67667925225598
 31
0.0
  0
LINE
  5
1C8
330
12B
100
AcDbEntity
  8
AM_9
100
AcDbLine
 10
-0.5550120000000001
 20
39.37204167852614
 30
0.0
 11
0.5550119999999996
 21
39.37204167852614
 31
0.0
  0
LINE
  5
1C9
330
12B
100
AcDbEntity
  8
AM_9
100
AcDbLine
 10
0.5550119999999797
 20
39.37204167852614
 30
0.0
 11
0.925019999999891
 21
39.38201855759046
 31
0.0
  0
LINE
  5
1CA
330
12B
100
AcDbEntity
  8
AM_9
100
AcDbLine
 10
0.925019999999964
 20
39.38201855759046
 30
0.0
 11
1.221029999999995
 21
39.40150705823826
 31
0.0
  0
LINE
  5
1CB
330
12B
100
AcDbEntity
  8
AM_9
100
AcDbLine
 10
1.221029999999994
 20
39.40150705823826
 30
0.0
 11
1.517029999999982
 21
39.43861357368435
 31
0.0
  0
LINE
  5
1CC
330
12B
100
AcDbEntity
  8
AM_9
100
AcDbLine
 10
1.517029999999993
 20
39.43861357368435
 30
0.0
 11
1.66504
 21
39.4732363810101
 31
0.0
  0
LINE
  5
1CD
330
12B
100
AcDbEntity
  8
AM_9
100
AcDbLine
 10
1.66504
 20
39.47323638101011
 30
0.0
 11
1.739040000000001
 21
39.51302961766409
 31
0.0
  0
LINE
  5
1CE
330
12B
100
AcDbEntity
  8
AM_9
100
AcDbLine
 10
1.739040000000001
 20
39.56867310561601
 30
0.0
 11
1.665040000000002
 21
39.59844986476616
 31
0.0
  0
LINE
  5
1CF
330
12B
100
AcDbEntity
  8
AM_9
100
AcDbLine
 10
1.665039999999999
 20
39.59844986476616
 30
0.0
 11
1.517029999999998
 21
39.61950951788145
 31
0.0
  0
LINE
  5
1D0
330
12B
100
AcDbEntity
  8
AM_9
100
AcDbLine
 10
1.517030000000005
 20
39.61950951788146
 30
0.0
 11
1.221030000000001
 21
39.63811755503911
 31
0.0
  0
LINE
  5
1D1
330
12B
100
AcDbEntity
  8
AM_9
100
AcDbLine
 10
1.221029999999995
 20
39.63811755503911
 30
0.0
 11
0.9250199999999977
 21
39.64650358255567
 31
0.0
  0
LINE
  5
1D2
330
12B
100
AcDbEntity
  8
AM_9
100
AcDbLine
 10
0.9250200000000021
 20
39.64650358255567
 30
0.0
 11
-0.9250200000000195
 21
39.64650358255567
 31
0.0
  0
LINE
  5
1D3
330
12B
100
AcDbEntity
  8
AM_9
100
AcDbLine
 10
-0.9250199999999925
 20
39.64650358255567
 30
0.0
 11
-1.221030000000005
 21
39.63811755503911
 31
0.0
  0
LINE
  5
1D4
330
12B
100
AcDbEntity
  8
AM_9
100
AcDbLine
 10
-1.221030000000001
 20
39.63811755503911
 30
0.0
 11
-1.517029999999997
 21
39.61950951788146
 31
0.0
  0
LINE
  5
1D5
330
12B
100
AcDbEntity
  8
AM_9
100
AcDbLine
 10
-1.517029999999999
 20
39.61950951788145
 30
0.0
 11
-1.665040000000001
 21
39.59844986476616
 31
0.0
  0
LINE
  5
1D6
330
12B
100
AcDbEntity
  8
AM_9
100
AcDbLine
 10
-1.665040000000001
 20
39.59844986476617
 30
0.0
 11
-1.739040000000001
 21
39.56867310561601
 31
0.0
  0
LINE
  5
1D7
330
12B
100
AcDbEntity
  8
AM_9
100
AcDbLine
 10
-1.739040000000004
 20
39.51302961766408
 30
0.0
 11
-1.665040000000003
 21
39.4732363810101
 31
0.0
  0
LINE
  5
1D8
330
12B
100
AcDbEntity
  8
AM_9
100
AcDbLine
 10
-1.665040000000004
 20
39.4732363810101
 30
0.0
 11
-1.517030000000014
 21
39.43861357368436
 31
0.0
  0
LINE
  5
1D9
330
12B
100
AcDbEntity
  8
AM_9
100
AcDbLine
 10
-1.517029999999999
 20
39.43861357368435
 30
0.0
 11
-1.22103000000001
 21
39.40150705823826
 31
0.0
  0
LINE
  5
1DA
330
12B
100
AcDbEntity
  8
AM_9
100
AcDbLine
 10
-1.221030000000015
 20
39.40150705823826
 30
0.0
 11
-0.925019999999983
 21
39.38201855759046
 31
0.0
  0
LINE
  5
1DB
330
12B
100
AcDbEntity
  8
AM_9
100
AcDbLine
 10
-0.925019999999964
 20
39.38201855759046
 30
0.0
 11
-0.5550120000000526
 21
39.37204167852614
 31
0.0
  0
LINE
  5
1DC
330
12B
100
AcDbEntity
  8
AM_9
100
AcDbLine
 10
-1.295029999999999
 20
38.70689207828497
 30
0.0
 11
1.29503
 21
38.70689207828498
 31
0.0
  0
LINE
  5
1DD
330
12B
100
AcDbEntity
  8
AM_9
100
AcDbLine
 10
1.73904
 20
39.08544742325332
 30
0.0
 11
1.665040000000001
 21
39.15266123019482
 31
0.0
  0
LINE
  5
1DE
330
12B
100
AcDbEntity
  8
AM_9
100
AcDbLine
 10
1.665040000000001
 20
39.15266123019481
 30
0.0
 11
1.51703
 21
39.20357351547942
 31
0.0
  0
LINE
  5
1DF
330
12B
100
AcDbEntity
  8
AM_9
100
AcDbLine
 10
1.51703
 20
39.20357351547942
 30
0.0
 11
1.221029999999997
 21
39.25195757146259
 31
0.0
  0
LINE
  5
1E0
330
12B
100
AcDbEntity
  8
AM_9
100
AcDbLine
 10
1.22103
 20
39.2519575714626
 30
0.0
 11
0.9250200000000021
 21
39.27520308782629
 31
0.0
  0
LINE
  5
1E1
330
12B
100
AcDbEntity
  8
AM_9
100
AcDbLine
 10
0.9250200000000055
 20
39.27520308782628
 30
0.0
 11
0.5550120000000075
 21
39.28659063952355
 31
0.0
  0
LINE
  5
1E2
330
12B
100
AcDbEntity
  8
AM_9
100
AcDbLine
 10
0.5550119999999994
 20
39.28659063952355
 30
0.0
 11
-0.5550120000000003
 21
39.28659063952355
 31
0.0
  0
LINE
  5
1E3
330
12B
100
AcDbEntity
  8
AM_9
100
AcDbLine
 10
-0.5550120000000248
 20
39.28659063952355
 30
0.0
 11
-0.9250199999999847
 21
39.27520308782629
 31
0.0
  0
LINE
  5
1E4
330
12B
100
AcDbEntity
  8
AM_9
100
AcDbLine
 10
-0.9250199999999968
 20
39.27520308782629
 30
0.0
 11
-1.221030000000008
 21
39.25195757146259
 31
0.0
  0
LINE
  5
1E5
330
12B
100
AcDbEntity
  8
AM_9
100
AcDbLine
 10
-1.221030000000002
 20
39.25195757146259
 30
0.0
 11
-1.517029999999996
 21
39.20357351547942
 31
0.0
  0
LINE
  5
1E6
330
12B
100
AcDbEntity
  8
AM_9
100
AcDbLine
 10
-1.517029999999999
 20
39.20357351547942
 30
0.0
 11
-1.66504
 21
39.15266123019481
 31
0.0
  0
LINE
  5
1E7
330
12B
100
AcDbEntity
  8
AM_9
100
AcDbLine
 10
-1.66504
 20
39.15266123019482
 30
0.0
 11
-1.739040000000001
 21
39.08544742325333
 31
0.0
  0
LWPOLYLINE
  5
1E8
330
12B
100
AcDbEntity
  8
AM_9
100
AcDbPolyline
 90
       11
 70
     0
 43
0.0
 10
0.0000000000000018
 20
26.02233306656936
 10
0.4693778459748638
 20
26.05254669903081
 10
0.9255091125170438
 20
26.14126481328172
 10
1.355146520577948
 20
26.28629897586678
 10
1.746657579085305
 20
26.48200858505576
 10
2.08890295010546
 20
26.72303910320966
 10
2.372332601384839
 20
27.00075832463789
 10
2.588229267796202
 20
27.30715555963927
 10
2.731079889081908
 20
27.63216504879926
 10
2.795673028399632
 20
27.96555714090782
 10
2.799999987440363
 20
28.07195168388201
  0
LINE
  5
1E9
330
12B
100
AcDbEntity
  8
AM_9
100
AcDbLine
 10
7.150000000000008
 20
-24.99999999999999
 30
0.0
 11
7.150000000000008
 21
-42.9
 31
0.0
  0
LINE
  5
1EA
330
12B
100
AcDbEntity
  8
AM_9
100
AcDbLine
 10
-7.149999999999993
 20
-25.0
 30
0.0
 11
-7.149999999999993
 21
-42.9
 31
0.0
  0
LINE
  5
1EB
330
12B
100
AcDbEntity
  8
AM_9
100
AcDbLine
 10
-16.69999999999999
 20
-26.79
 30
0.0
 11
-11.89999999999999
 21
-26.79
 31
0.0
  0
LINE
  5
1EC
330
12B
100
AcDbEntity
  8
AM_9
100
AcDbLine
 10
-16.69999999999999
 20
-25.0
 30
0.0
 11
-16.69999999999999
 21
-26.79
 31
0.0
  0
LINE
  5
1ED
330
12B
100
AcDbEntity
  8
AM_9
100
AcDbLine
 10
-11.89999999999999
 20
-26.79
 30
0.0
 11
-11.89999999999999
 21
-25.0
 31
0.0
  0
ELLIPSE
  5
1EE
330
12B
100
AcDbEntity
  8
AM_9
100
AcDbEllipse
 10
-0.0000000000000591
 20
28.42569260369928
 30
0.0
 11
-4.000000000000103
 21
4.898587196589539E-16
 31
0.0
210
0.0
220
0.0
230
1.0
 40
0.7071067811865475
 41
0.0
 42
6.283185307179586
  0
ELLIPSE
  5
1EF
330
12B
100
AcDbEntity
  8
AM_9
100
AcDbEllipse
 10
-0.0000000000000036
 20
28.42569260369919
 30
0.0
 11
-2.799999999999988
 21
3.429011037612574E-16
 31
0.0
210
0.0
220
0.0
230
1.0
 40
0.7071067811865478
 41
0.0
 42
6.283185307179586
  0
LINE
  5
1F0
330
12B
100
AcDbEntity
  8
AM_7
100
AcDbLine
 10
24.255
 20
0.0
 30
0.0
 11
-29.445
 21
0.0
 31
0.0
  0
LINE
  5
1F1
330
12B
100
AcDbEntity
  8
AM_7
100
AcDbLine
 10
-0.0000000000000066
 20
-29.13
 30
0.0
 11
-0.0000000000000066
 21
56.21999816894531
 31
0.0
  0
LINE
  5
1F2
330
12B
100
AcDbEntity
  8
AM_7
100
AcDbLine
 10
-14.30000000000001
 20
-26.969
 30
0.0
 11
-14.30000000000001
 21
-23.031
 31
0.0
  0
LINE
  5
1F3
330
12B
100
AcDbEntity
  8
AM_4
100
AcDbLine
 10
1.29503
 20
39.67393702075677
 30
0.0
 11
1.295029999999999
 21
39.7
 31
0.0
  0
LINE
  5
1F4
330
12B
100
AcDbEntity
  8
AM_4
100
AcDbLine
 10
-1.29503
 20
39.67393702075677
 30
0.0
 11
-1.295029999999999
 21
39.7
 31
0.0
  0
LINE
  5
1F5
330
12B
100
AcDbEntity
  8
AM_4
100
AcDbLine
 10
-1.22103
 20
39.67104223986938
 30
0.0
 11
-1.22103
 21
39.69160610929097
 31
0.0
  0
LINE
  5
1F6
330
12B
100
AcDbEntity
  8
AM_4
100
AcDbLine
 10
1.22103
 20
39.67104223986938
 30
0.0
 11
1.22103
 21
39.69160610929097
 31
0.0
  0
LINE
  5
1F7
330
12B
100
AcDbEntity
  8
AM_4
100
AcDbLine
 10
1.07302
 20
39.66799456977176
 30
0.0
 11
1.07302
 21
39.68612355490391
 31
0.0
  0
LINE
  5
1F8
330
12B
100
AcDbEntity
  8
AM_4
100
AcDbLine
 10
-1.07302
 20
39.66799456977175
 30
0.0
 11
-1.07302
 21
39.68612355490391
 31
0.0
  0
LINE
  5
1F9
330
12B
100
AcDbEntity
  8
AM_4
100
AcDbLine
 10
-1.221030000000002
 20
39.69160610929097
 30
0.0
 11
-1.295030000000001
 21
39.69678350152313
 31
0.0
  0
LINE
  5
1FA
330
12B
100
AcDbEntity
  8
AM_4
100
AcDbLine
 10
-1.073020000000001
 20
39.68612355490392
 30
0.0
 11
-1.221029999999999
 21
39.69160610929097
 31
0.0
  0
LINE
  5
1FB
330
12B
100
AcDbEntity
  8
AM_4
100
AcDbLine
 10
1.073019999999997
 20
39.68612355490392
 30
0.0
 11
0.5550120000000153
 21
39.6792691276427
 31
0.0
  0
LINE
  5
1FC
330
12B
100
AcDbEntity
  8
AM_4
100
AcDbLine
 10
1.221030000000002
 20
39.69160610929097
 30
0.0
 11
1.073019999999998
 21
39.68612355490392
 31
0.0
  0
LINE
  5
1FD
330
12B
100
AcDbEntity
  8
AM_4
100
AcDbLine
 10
1.295030000000003
 20
39.69678350152314
 30
0.0
 11
1.221030000000003
 21
39.69160610929097
 31
0.0
  0
LINE
  5
1FE
330
12B
100
AcDbEntity
  8
AM_4
100
AcDbLine
 10
1.295029999999999
 20
39.7
 30
0.0
 11
-1.295029999999999
 21
39.7
 31
0.0
  0
LINE
  5
1FF
330
12B
100
AcDbEntity
  8
AM_4
100
AcDbLine
 10
-0.8510189999999999
 20
39.66413620342379
 30
0.0
 11
-0.8510189999999999
 21
39.68170619183479
 31
0.0
  0
LINE
  5
200
330
12B
100
AcDbEntity
  8
AM_4
100
AcDbLine
 10
0.5550119999999998
 20
39.67926912764271
 30
0.0
 11
-1.073020000000003
 21
39.68612355490392
 31
0.0
  0
LINE
  5
201
330
12B
100
AcDbEntity
  8
AM_4
100
AcDbLine
 10
-0.5550119999999998
 20
39.6614420375243
 30
0.0
 11
-0.5550119999999998
 21
39.67926912764271
 31
0.0
  0
LINE
  5
202
330
12B
100
AcDbEntity
  8
AM_4
100
AcDbLine
 10
0.5550119999999998
 20
39.6614420375243
 30
0.0
 11
0.5550119999999998
 21
39.67926912764271
 31
0.0
  0
LINE
  5
203
330
12B
100
AcDbEntity
  8
AM_4
100
AcDbLine
 10
0.8510190000000001
 20
39.66413620342379
 30
0.0
 11
0.8510190000000001
 21
39.68170619183479
 31
0.0
  0
LINE
  5
204
330
12B
100
AcDbEntity
  8
AM_4
100
AcDbLine
 10
0.5550120000000001
 20
39.59844986476617
 30
0.0
 11
0.5550120000000001
 21
39.62911967243784
 31
0.0
  0
LINE
  5
205
330
12B
100
AcDbEntity
  8
AM_4
100
AcDbLine
 10
-0.5550119999999996
 20
39.59844986476616
 30
0.0
 11
-0.5550119999999996
 21
39.62911967243784
 31
0.0
  0
LINE
  5
206
330
12B
100
AcDbEntity
  8
AM_4
100
AcDbLine
 10
-0.9250199999999998
 20
39.58895059541878
 30
0.0
 11
-0.9250199999999998
 21
39.62439084730387
 31
0.0
  0
LINE
  5
207
330
12B
100
AcDbEntity
  8
AM_4
100
AcDbLine
 10
0.9250200000000001
 20
39.58895059541878
 30
0.0
 11
0.9250200000000001
 21
39.62439084730387
 31
0.0
  0
LINE
  5
208
330
12B
100
AcDbEntity
  8
AM_4
100
AcDbLine
 10
-1.22103
 20
39.5622563839779
 30
0.0
 11
-1.22103
 21
39.61447437174952
 31
0.0
  0
LINE
  5
209
330
12B
100
AcDbEntity
  8
AM_4
100
AcDbLine
 10
1.22103
 20
39.56225638397789
 30
0.0
 11
1.22103
 21
39.61447437174951
 31
0.0
  0
LINE
  5
20A
330
12B
100
AcDbEntity
  8
AM_4
100
AcDbLine
 10
1.51703
 20
39.38201855759046
 30
0.0
 11
1.51703
 21
39.59280134140421
 31
0.0
  0
LINE
  5
20B
330
12B
100
AcDbEntity
  8
AM_4
100
AcDbLine
 10
-1.51703
 20
39.38201855759046
 30
0.0
 11
-1.51703
 21
39.59280134140421
 31
0.0
  0
LINE
  5
20C
330
12B
100
AcDbEntity
  8
AM_4
100
AcDbLine
 10
-1.66504
 20
39.42037134119236
 30
0.0
 11
-1.66504
 21
39.56867310561601
 31
0.0
  0
LINE
  5
20D
330
12B
100
AcDbEntity
  8
AM_4
100
AcDbLine
 10
1.66504
 20
39.42037134119236
 30
0.0
 11
1.66504
 21
39.56867310561601
 31
0.0
  0
LINE
  5
20E
330
12B
100
AcDbEntity
  8
AM_4
100
AcDbLine
 10
-1.29503
 20
39.35161760314784
 30
0.0
 11
-1.29503
 21
39.53505190283681
 31
0.0
  0
LINE
  5
20F
330
12B
100
AcDbEntity
  8
AM_4
100
AcDbLine
 10
1.29503
 20
39.35161760314784
 30
0.0
 11
1.295029999999999
 21
39.5350519028368
 31
0.0
  0
LINE
  5
210
330
12B
100
AcDbEntity
  8
AM_4
100
AcDbLine
 10
-1.22103
 20
39.34117145708298
 30
0.0
 11
-1.22103
 21
39.42957074569795
 31
0.0
  0
LINE
  5
211
330
12B
100
AcDbEntity
  8
AM_4
100
AcDbLine
 10
1.22103
 20
39.34117145708298
 30
0.0
 11
1.22103
 21
39.42957074569795
 31
0.0
  0
LINE
  5
212
330
12B
100
AcDbEntity
  8
AM_4
100
AcDbLine
 10
1.07302
 20
39.33694876620275
 30
0.0
 11
1.07302
 21
39.40150705823826
 31
0.0
  0
LINE
  5
213
330
12B
100
AcDbEntity
  8
AM_4
100
AcDbLine
 10
-1.07302
 20
39.33588920190552
 30
0.0
 11
-1.07302
 21
39.40150705823826
 31
0.0
  0
LINE
  5
214
330
12B
100
AcDbEntity
  8
AM_4
100
AcDbLine
 10
-0.8510189999999996
 20
39.33056817086552
 30
0.0
 11
-0.8510189999999996
 21
39.39184074307646
 31
0.0
  0
LINE
  5
215
330
12B
100
AcDbEntity
  8
AM_4
100
AcDbLine
 10
-0.2590059999999997
 20
39.33056817086552
 30
0.0
 11
-0.2590059999999988
 21
39.4732363810101
 31
0.0
  0
LWPOLYLINE
  5
216
330
12B
100
AcDbEntity
  8
AM_4
100
AcDbPolyline
 90
        3
 70
     0
 43
0.0
 10
2.681559561070083
 20
33.21724667358828
 10
2.884155423673194
 20
32.99384633082622
 10
3.464101615137756
 20
32.31477990022523
  0
LWPOLYLINE
  5
217
330
12B
100
AcDbEntity
  8
AM_4
100
AcDbPolyline
 90
        3
 70
     0
 43
0.0
 10
-3.464101615137746
 20
32.31477990022523
 10
-2.886751345948126
 20
32.99094038137869
 10
-2.679505015964238
 20
33.2194789643717
  0
LWPOLYLINE
  5
218
330
12B
100
AcDbEntity
  8
AM_4
100
AcDbPolyline
 90
        3
 70
     0
 43
0.0
 10
-4.618802153517005
 20
30.78332270384871
 10
-4.044047806602318
 20
31.57327408346758
 10
-3.464101615137746
 20
32.31477990022523
  0
LWPOLYLINE
  5
219
330
12B
100
AcDbEntity
  8
AM_4
100
AcDbPolyline
 90
        3
 70
     0
 43
0.0
 10
3.464101615137756
 20
32.31477990022523
 10
4.041451884327383
 20
31.57672681900558
 10
4.618802153517009
 20
30.78332270384871
  0
LINE
  5
21A
330
12B
100
AcDbEntity
  8
AM_4
100
AcDbLine
 10
-2.799999999999994
 20
31.25411972844538
 30
0.0
 11
-2.799999999999994
 21
30.9005663378521
 31
0.0
  0
LINE
  5
21B
330
12B
100
AcDbEntity
  8
AM_4
100
AcDbLine
 10
2.799999999999997
 20
30.9005663378521
 30
0.0
 11
2.799999999999997
 21
31.25411972844538
 31
0.0
  0
ELLIPSE
  5
21C
330
12B
100
AcDbEntity
  8
AM_4
100
AcDbEllipse
 10
0.0000000000000165
 20
30.90056633785208
 30
0.0
 11
-2.799999999999979
 21
3.429011037612563E-16
 31
0.0
210
0.0
220
0.0
230
1.0
 40
0.7071067811865465
 41
0.0
 42
3.141592653589793
  0
ELLIPSE
  5
21D
330
12B
100
AcDbEntity
  8
AM_4
100
AcDbEllipse
 10
0.0000000000000075
 20
31.25411972844537
 30
0.0
 11
-2.799999999999991
 21
3.429011037612578E-16
 31
0.0
210
0.0
220
0.0
230
1.0
 40
0.7071067811865483
 41
5.686542226259212
 42
10.01884325986684
  0
LWPOLYLINE
  5
21E
330
12B
100
AcDbEntity
  8
AM_4
100
AcDbPolyline
 90
        3
 70
     0
 43
0.0
 10
4.618802153517009
 20
30.78332270384871
 10
4.044047806602318
 20
30.16541920608002
 10
3.464101615137761
 20
29.48635277547903
  0
LWPOLYLINE
  5
21F
330
12B
100
AcDbEntity
  8
AM_4
100
AcDbPolyline
 90
        3
 70
     0
 43
0.0
 10
2.309401076758505
 20
25.71450911295642
 10
2.884155423673191
 20
26.33241261072511
 10
3.464101615137756
 20
27.01147904132611
  0
LWPOLYLINE
  5
220
330
12B
100
AcDbEntity
  8
AM_4
100
AcDbPolyline
 90
        3
 70
     0
 43
0.0
 10
3.464101615137756
 20
27.01147904132611
 10
4.041451884327381
 20
27.74953212254575
 10
4.618802153517009
 20
28.54293623770261
  0
LINE
  5
221
330
12B
100
AcDbEntity
  8
AM_4
100
AcDbLine
 10
4.618802153517009
 20
28.54293623770261
 30
0.0
 11
4.618802153517009
 21
30.78332270384871
 31
0.0
  0
LWPOLYLINE
  5
222
330
12B
100
AcDbEntity
  8
AM_4
100
AcDbPolyline
 90
        3
 70
     0
 43
0.0
 10
-3.464101615137756
 20
29.48635277547903
 10
-4.041451884327377
 20
30.16251325663249
 10
-4.618802153517005
 20
30.78332270384871
  0
LINE
  5
223
330
12B
100
AcDbEntity
  8
AM_4
100
AcDbLine
 10
-4.618802153517005
 20
28.54293623770261
 30
0.0
 11
-4.618802153517005
 21
30.78332270384871
 31
0.0
  0
LWPOLYLINE
  5
224
330
12B
100
AcDbEntity
  8
AM_4
100
AcDbPolyline
 90
        3
 70
     0
 43
0.0
 10
-4.618802153517005
 20
28.54293623770261
 10
-4.044047806602314
 20
27.75298485808373
 10
-3.464101615137752
 20
27.01147904132611
  0
LWPOLYLINE
  5
225
330
12B
100
AcDbEntity
  8
AM_4
100
AcDbPolyline
 90
        3
 70
     0
 43
0.0
 10
-3.464101615137752
 20
27.01147904132611
 10
-2.886751345948129
 20
26.33531856017266
 10
-2.309401076758502
 20
25.71450911295642
  0
LINE
  5
226
330
12B
100
AcDbEntity
  8
AM_4
100
AcDbLine
 10
-2.309401076758502
 20
25.71450911295642
 30
0.0
 11
-2.309401076758502
 21
27.95489557910253
 31
0.0
  0
LWPOLYLINE
  5
227
330
12B
100
AcDbEntity
  8
AM_4
100
AcDbPolyline
 90
        3
 70
     0
 43
0.0
 10
-2.309401076758502
 20
25.71450911295642
 10
-1.159892382929127
 20
25.62848517203133
 10
0.0000000000000019
 20
25.59726547895302
  0
LWPOLYLINE
  5
228
330
12B
100
AcDbEntity
  8
AM_4
100
AcDbPolyline
 90
        3
 70
     0
 43
0.0
 10
0.0000000000000019
 20
25.59726547895302
 10
1.154700538379254
 20
25.6282117789861
 10
2.309401076758505
 20
25.71450911295642
  0
LINE
  5
229
330
12B
100
AcDbEntity
  8
AM_4
100
AcDbLine
 10
2.309401076758505
 20
25.71450911295642
 30
0.0
 11
2.309401076758506
 21
27.95489557910253
 31
0.0
  0
LWPOLYLINE
  5
22A
330
12B
100
AcDbEntity
  8
AM_4
100
AcDbPolyline
 90
        3
 70
     0
 43
0.0
 10
3.464101615137761
 20
29.48635277547903
 10
2.886751345948134
 20
28.7482996942594
 10
2.309401076758506
 20
27.95489557910253
  0
LWPOLYLINE
  5
22B
330
12B
100
AcDbEntity
  8
AM_4
100
AcDbPolyline
 90
        3
 70
     0
 43
0.0
 10
2.309401076758506
 20
27.95489557910253
 10
1.159892382929131
 20
28.04091952002762
 10
0.0000000000000021
 20
28.07213921310594
  0
LWPOLYLINE
  5
22C
330
12B
100
AcDbEntity
  8
AM_4
100
AcDbPolyline
 90
        3
 70
     0
 43
0.0
 10
0.0000000000000021
 20
28.07213921310594
 10
-1.15470053837925
 20
28.04119291307284
 10
-2.309401076758502
 20
27.95489557910253
  0
ELLIPSE
  5
22D
330
12B
100
AcDbEntity
  8
AM_4
100
AcDbEllipse
 10
0.0000000000000058
 20
30.90056633785215
 30
0.0
 11
-4.00000000000002
 21
4.898587196589436E-16
 31
0.0
210
0.0
220
0.0
230
1.0
 40
0.7071067811865498
 41
5.436875837039209
 42
10.27038199639506
  0
LWPOLYLINE
  5
22E
330
12B
100
AcDbEntity
  8
AM_4
100
AcDbPolyline
 90
        3
 70
     0
 43
0.0
 10
-2.309401076758502
 20
27.95489557910253
 10
-2.884155423673188
 20
28.74484695872141
 10
-3.464101615137756
 20
29.48635277547903
  0
ELLIPSE
  5
22F
330
12B
100
AcDbEntity
  8
AM_4
100
AcDbEllipse
 10
-0.0000000000077307
 20
33.21201468370673
 30
0.0
 11
-2.596022899217693
 21
3.179211134040180E-16
 31
0.0
210
0.0
220
0.0
230
1.0
 40
0.7071067811865206
 41
-4.060834792437734
 42
-3.995677860081957
  0
ELLIPSE
  5
230
330
12B
100
AcDbEntity
  8
AM_4
100
AcDbEllipse
 10
0.0000000000000049
 20
33.21201468369998
 30
0.0
 11
-2.596022899205388
 21
3.179211134025110E-16
 31
0.0
210
0.0
220
0.0
230
1.0
 40
0.7071067811865606
 41
0.9284400874806487
 42
2.222350514741744
  0
LWPOLYLINE
  5
231
330
12B
100
AcDbEntity
  8
AM_4
100
AcDbPolyline
 90
       15
 70
     0
 43
0.0
 10
1.569526751518424
 20
31.74969200265809
 10
1.625961317712531
 20
31.7809597723111
 10
1.868946381839826
 20
31.93743348990179
 10
2.086769942901936
 20
32.11602945133352
 10
2.275610508060201
 20
32.31431967182763
 10
2.432047712895175
 20
32.52907909074347
 10
2.55345089278227
 20
32.7563984386493
 10
2.638271437913605
 20
32.99204026733831
 10
2.686054642619767
 20
33.2318847226019
 10
2.697175832982385
 20
33.4722530714044
 10
2.672466981140592
 20
33.71001548589963
 10
2.613015564712436
 20
33.94217257430663
 10
2.519952642730691
 20
34.16632711680928
 10
2.394287421928939
 20
34.3803906754
 10
2.263842120050404
 20
34.5513464728335
  0
LINE
  5
232
330
12B
100
AcDbEntity
  8
AM_4
100
AcDbLine
 10
-1.572044246622964
 20
31.7510504754347
 30
0.0
 11
-1.550367080327023
 21
31.7394616248748
 31
0.0
  0
LWPOLYLINE
  5
233
330
12B
100
AcDbEntity
  8
AM_4
100
AcDbPolyline
 90
       16
 70
     0
 43
0.0
 10
-2.205928406245324
 20
34.61657356551535
 10
-2.27610696733205
 20
34.53680143617379
 10
-2.43244699182138
 20
34.32200014600974
 10
-2.553746919605701
 20
34.0946508238195
 10
-2.638461416159446
 20
33.85899120500217
 10
-2.686138633183823
 20
33.61914024459243
 10
-2.697155746162544
 20
33.37877515281706
 10
-2.67234552568202
 20
33.14102421970596
 10
-2.612796130168967
 20
32.90888703670043
 10
-2.519638257233106
 20
32.68475846013733
 10
-2.393880931150431
 20
32.47072691359073
 10
-2.236583238077751
 20
32.26898559702074
 10
-2.049151046925207
 20
32.08195640807245
 10
-1.833623264052627
 20
31.91223406156426
 10
-1.592792073202039
 20
31.76237408505358
 10
-1.572044246622964
 20
31.7510504754347
  0
ELLIPSE
  5
234
330
12B
100
AcDbEntity
  8
AM_4
100
AcDbEllipse
 10
-0.0000000000052991
 20
33.21201468369384
 30
0.0
 11
-2.596022899197
 21
3.179211134014838E-16
 31
0.0
210
0.0
220
0.0
230
1.0
 40
0.7071067811860999
 41
0.8598387624597699
 42
0.9284400874805955
  0
ELLIPSE
  5
235
330
12B
100
AcDbEntity
  8
AM_4
100
AcDbEllipse
 10
-0.0000000000000053
 20
33.59020119857119
 30
0.0
 11
-2.640547998623274
 21
3.934723169095109E-8
 31
0.0
210
0.0
220
0.0
230
1.0
 40
0.7071067811865493
 41
5.730470212252054
 42
9.977493092035397
  0
LINE
  5
236
330
12B
100
AcDbEntity
  8
AM_4
100
AcDbLine
 10
-1.537254407736892
 20
35.38448445307326
 30
0.0
 11
-2.247376280880917
 21
34.5704546314056
 31
0.0
  0
LINE
  5
237
330
12B
100
AcDbEntity
  8
AM_4
100
AcDbLine
 10
2.247376280880921
 20
34.5704546314056
 30
0.0
 11
1.537254407736897
 21
35.38448445307326
 31
0.0
  0
ELLIPSE
  5
238
330
12B
100
AcDbEntity
  8
AM_4
100
AcDbEllipse
 10
0.0000000000000384
 20
34.71396971856103
 30
0.0
 11
-1.806192440606105
 21
2.691436492577545E-8
 31
0.0
210
0.0
220
0.0
230
1.0
 40
0.707106781186548
 41
-0.6996675932166054
 42
-0.5527150949275326
  0
ELLIPSE
  5
239
330
12B
100
AcDbEntity
  8
AM_4
100
AcDbEllipse
 10
-0.000000000000003
 20
34.71396971856105
 30
0.0
 11
-1.806192440606066
 21
2.211947791032365E-16
 31
0.0
210
0.0
220
0.0
230
1.0
 40
0.7071067811865475
 41
5.730470194082807
 42
9.977493073866155
  0
ELLIPSE
  5
23A
330
12B
100
AcDbEntity
  8
AM_4
100
AcDbEllipse
 10
0.0000000000000021
 20
34.78965363437812
 30
0.0
 11
1.629112860038468
 21
2.427567333040340E-8
 31
0.0
210
0.0
220
0.0
230
1.0
 40
0.7071067811865495
 41
0.0
 42
6.283185307179586
  0
LINE
  5
23B
330
12B
100
AcDbEntity
  8
AM_4
100
AcDbLine
 10
-1.263517394540544
 20
35.62884414287266
 30
0.0
 11
-1.37462822157981
 21
35.54350469207662
 31
0.0
  0
LWPOLYLINE
  5
23C
330
12B
100
AcDbEntity
  8
AM_4
100
AcDbPolyline
 90
       13
 70
     0
 43
0.0
 10
1.316334572487967
 20
35.59016056102567
 10
1.13615520437092
 20
35.71036852200588
 10
0.924365478533857
 20
35.8166933528442
 10
0.6942700798963167
 20
35.90010264673921
 10
0.4506450164328366
 20
35.95898579493124
 10
0.1983070447256094
 20
35.99231239954187
 10
-0.057903517731167
 20
35.99951934142184
 10
-0.3131389110755105
 20
35.98045927674708
 10
-0.5625569891781511
 20
35.93538529843359
 10
-0.8014321202179263
 20
35.86493145357914
 10
-1.025180425293148
 20
35.7700936520118
 10
-1.229355032590606
 20
35.65224509827496
 10
-1.263517394540544
 20
35.62884414287266
  0
ELLIPSE
  5
23D
330
12B
100
AcDbEntity
  8
AM_4
100
AcDbEllipse
 10
0.00000000000051
 20
34.71396971856169
 30
0.0
 11
-1.806192440605437
 21
2.211947791031594E-16
 31
0.0
210
0.0
220
0.0
230
1.0
 40
0.7071067811864123
 41
3.694307766686375
 42
3.888722481262999
  0
LINE
  5
23E
330
12B
100
AcDbEntity
  8
AM_4
100
AcDbLine
 10
-22.05
 20
-24.99999999999999
 30
0.0
 11
-14.7
 21
39.7
 31
0.0
  0
LINE
  5
23F
330
12B
100
AcDbEntity
  8
AM_4
100
AcDbLine
 10
-1.739039999999999
 20
38.70689207828497
 30
0.0
 11
-1.73904
 21
39.24009783224807
 31
0.0
  0
LINE
  5
240
330
12B
100
AcDbEntity
  8
AM_4
100
AcDbLine
 10
-1.73904
 20
39.24009783224807
 30
0.0
 11
1.739040000000001
 21
39.24009783224807
 31
0.0
  0
LINE
  5
241
330
12B
100
AcDbEntity
  8
AM_4
100
AcDbLine
 10
1.739040000000001
 20
39.24009783224807
 30
0.0
 11
1.739040000000001
 21
38.70689207828497
 31
0.0
  0
LINE
  5
242
330
12B
100
AcDbEntity
  8
AM_4
100
AcDbLine
 10
1.739040000000001
 20
38.70689207828497
 30
0.0
 11
1.29503
 21
38.70689207828497
 31
0.0
  0
LINE
  5
243
330
12B
100
AcDbEntity
  8
AM_4
100
AcDbLine
 10
1.29503
 20
38.70689207828497
 30
0.0
 11
1.295029999999999
 21
39.1656278249679
 31
0.0
  0
LINE
  5
244
330
12B
100
AcDbEntity
  8
AM_4
100
AcDbLine
 10
1.295029999999999
 20
39.1656278249679
 30
0.0
 11
0.3330070000000004
 21
39.1656278249679
 31
0.0
  0
LINE
  5
245
330
12B
100
AcDbEntity
  8
AM_4
100
AcDbLine
 10
0.3330070000000004
 20
39.1656278249679
 30
0.0
 11
0.3330070000000003
 21
38.77647592589609
 31
0.0
  0
LINE
  5
246
330
12B
100
AcDbEntity
  8
AM_4
100
AcDbLine
 10
0.3330070000000003
 20
38.77647592589609
 30
0.0
 11
-0.1110019999999995
 21
38.77647592589609
 31
0.0
  0
LINE
  5
247
330
12B
100
AcDbEntity
  8
AM_4
100
AcDbLine
 10
-0.1110019999999995
 20
38.77647592589609
 30
0.0
 11
-0.1110019999999984
 21
39.1656278249679
 31
0.0
  0
LINE
  5
248
330
12B
100
AcDbEntity
  8
AM_4
100
AcDbLine
 10
-0.1110019999999984
 20
39.1656278249679
 30
0.0
 11
-1.295029999999999
 21
39.1656278249679
 31
0.0
  0
LINE
  5
249
330
12B
100
AcDbEntity
  8
AM_4
100
AcDbLine
 10
-1.295029999999999
 20
39.1656278249679
 30
0.0
 11
-1.295029999999999
 21
38.70689207828497
 31
0.0
  0
LINE
  5
24A
330
12B
100
AcDbEntity
  8
AM_4
100
AcDbLine
 10
-1.295029999999999
 20
38.70689207828497
 30
0.0
 11
-1.739039999999999
 21
38.70689207828497
 31
0.0
  0
LINE
  5
24B
330
12B
100
AcDbEntity
  8
AM_4
100
AcDbLine
 10
-0.9250200000000541
 20
39.62439084730388
 30
0.0
 11
0.5550120000000001
 21
39.62911967243784
 31
0.0
  0
LINE
  5
24C
330
12B
100
AcDbEntity
  8
AM_4
100
AcDbLine
 10
0.5550119999999815
 20
39.62911967243784
 30
0.0
 11
0.9250199999999813
 21
39.62439084730389
 31
0.0
  0
LINE
  5
24D
330
12B
100
AcDbEntity
  8
AM_4
100
AcDbLine
 10
0.9250199999999943
 20
39.62439084730389
 30
0.0
 11
1.221029999999995
 21
39.61447437174952
 31
0.0
  0
LINE
  5
24E
330
12B
100
AcDbEntity
  8
AM_4
100
AcDbLine
 10
1.221029999999996
 20
39.61447437174952
 30
0.0
 11
1.517029999999979
 21
39.59280134140421
 31
0.0
  0
LINE
  5
24F
330
12B
100
AcDbEntity
  8
AM_4
100
AcDbLine
 10
1.517029999999991
 20
39.59280134140421
 30
0.0
 11
1.665040000000002
 21
39.56867310561601
 31
0.0
  0
LINE
  5
250
330
12B
100
AcDbEntity
  8
AM_4
100
AcDbLine
 10
1.665040000000003
 20
39.56867310561601
 30
0.0
 11
1.739040000000004
 21
39.53505190283681
 31
0.0
  0
LINE
  5
251
330
12B
100
AcDbEntity
  8
AM_4
100
AcDbLine
 10
1.73904
 20
39.53505190283678
 30
0.0
 11
1.739040000000001
 21
39.46481300340343
 31
0.0
  0
LINE
  5
252
330
12B
100
AcDbEntity
  8
AM_4
100
AcDbLine
 10
1.739040000000001
 20
39.46481300340343
 30
0.0
 11
1.665040000000002
 21
39.42037134119236
 31
0.0
  0
LINE
  5
253
330
12B
100
AcDbEntity
  8
AM_4
100
AcDbLine
 10
1.665040000000001
 20
39.42037134119236
 30
0.0
 11
1.517029999999998
 21
39.38201855759046
 31
0.0
  0
LINE
  5
254
330
12B
100
AcDbEntity
  8
AM_4
100
AcDbLine
 10
1.517029999999999
 20
39.38201855759046
 30
0.0
 11
1.221029999999997
 21
39.34117145708297
 31
0.0
  0
LINE
  5
255
330
12B
100
AcDbEntity
  8
AM_4
100
AcDbLine
 10
1.221030000000019
 20
39.34117145708296
 30
0.0
 11
0.8510190000000118
 21
39.33056817086551
 31
0.0
  0
LINE
  5
256
330
12B
100
AcDbEntity
  8
AM_4
100
AcDbLine
 10
0.8510190000000003
 20
39.33056817086552
 30
0.0
 11
0.8510190000000017
 21
39.39184074307646
 31
0.0
  0
LINE
  5
257
330
12B
100
AcDbEntity
  8
AM_4
100
AcDbLine
 10
0.8510189999999789
 20
39.39184074307647
 30
0.0
 11
1.073019999999989
 21
39.40150705823826
 31
0.0
  0
LINE
  5
258
330
12B
100
AcDbEntity
  8
AM_4
100
AcDbLine
 10
1.073019999999997
 20
39.40150705823826
 30
0.0
 11
1.221030000000005
 21
39.42957074569794
 31
0.0
  0
LINE
  5
259
330
12B
100
AcDbEntity
  8
AM_4
100
AcDbLine
 10
1.22103
 20
39.42957074569794
 30
0.0
 11
1.295029999999995
 21
39.46481300340341
 31
0.0
  0
LINE
  5
25A
330
12B
100
AcDbEntity
  8
AM_4
100
AcDbLine
 10
1.295030000000002
 20
39.53505190283681
 30
0.0
 11
1.221030000000002
 21
39.5622563839779
 31
0.0
  0
LINE
  5
25B
330
12B
100
AcDbEntity
  8
AM_4
100
AcDbLine
 10
1.221029999999996
 20
39.56225638397789
 30
0.0
 11
1.073019999999999
 21
39.58104447636014
 31
0.0
  0
LINE
  5
25C
330
12B
100
AcDbEntity
  8
AM_4
100
AcDbLine
 10
1.073020000000005
 20
39.58104447636014
 30
0.0
 11
0.8510189999999971
 21
39.59280134140421
 31
0.0
  0
LINE
  5
25D
330
12B
100
AcDbEntity
  8
AM_4
100
AcDbLine
 10
0.8510189999999893
 20
39.59280134140421
 30
0.0
 11
0.5550120000000196
 21
39.59844986476616
 31
0.0
  0
LINE
  5
25E
330
12B
100
AcDbEntity
  8
AM_4
100
AcDbLine
 10
0.555012
 20
39.59844986476617
 30
0.0
 11
-0.5550119999999997
 21
39.59844986476616
 31
0.0
  0
LINE
  5
25F
330
12B
100
AcDbEntity
  8
AM_4
100
AcDbLine
 10
-0.5550120000000041
 20
39.59844986476616
 30
0.0
 11
-0.851019000000005
 21
39.59280134140421
 31
0.0
  0
LINE
  5
260
330
12B
100
AcDbEntity
  8
AM_4
100
AcDbLine
 10
-0.851018999999998
 20
39.59280134140421
 30
0.0
 11
-1.073019999999995
 21
39.58104447636014
 31
0.0
  0
LINE
  5
261
330
12B
100
AcDbEntity
  8
AM_4
100
AcDbLine
 10
-1.073020000000002
 20
39.58104447636014
 30
0.0
 11
-1.221030000000006
 21
39.56225638397789
 31
0.0
  0
LINE
  5
262
330
12B
100
AcDbEntity
  8
AM_4
100
AcDbLine
 10
-1.221029999999999
 20
39.5622563839779
 30
0.0
 11
-1.295029999999997
 21
39.53505190283681
 31
0.0
  0
LINE
  5
263
330
12B
100
AcDbEntity
  8
AM_4
100
AcDbLine
 10
-1.295030000000001
 20
39.46481300340342
 30
0.0
 11
-1.221030000000006
 21
39.42957074569794
 31
0.0
  0
LINE
  5
264
330
12B
100
AcDbEntity
  8
AM_4
100
AcDbLine
 10
-1.221030000000014
 20
39.42957074569794
 30
0.0
 11
-1.073020000000006
 21
39.40150705823826
 31
0.0
  0
LINE
  5
265
330
12B
100
AcDbEntity
  8
AM_4
100
AcDbLine
 10
-1.073020000000027
 20
39.40150705823826
 30
0.0
 11
-0.8510190000000171
 21
39.39184074307647
 31
0.0
  0
LINE
  5
266
330
12B
100
AcDbEntity
  8
AM_4
100
AcDbLine
 10
-0.8510189999999996
 20
39.39184074307646
 30
0.0
 11
-0.2590059999999997
 21
39.39184074307646
 31
0.0
  0
LINE
  5
267
330
12B
100
AcDbEntity
  8
AM_4
100
AcDbLine
 10
-0.2590059999999988
 20
39.4732363810101
 30
0.0
 11
0.1850040000000003
 21
39.4732363810101
 31
0.0
  0
LINE
  5
268
330
12B
100
AcDbEntity
  8
AM_4
100
AcDbLine
 10
0.1850040000000003
 20
39.4732363810101
 30
0.0
 11
0.1850039999999991
 21
39.33056817086552
 31
0.0
  0
LINE
  5
269
330
12B
100
AcDbEntity
  8
AM_4
100
AcDbLine
 10
0.1850039999999991
 20
39.33056817086552
 30
0.0
 11
-0.9250199999999996
 21
39.33056817086552
 31
0.0
  0
LINE
  5
26A
330
12B
100
AcDbEntity
  8
AM_4
100
AcDbLine
 10
-0.9250199999999882
 20
39.33056817086551
 30
0.0
 11
-1.221029999999995
 21
39.34117145708296
 31
0.0
  0
LINE
  5
26B
330
12B
100
AcDbEntity
  8
AM_4
100
AcDbLine
 10
-1.221029999999997
 20
39.34117145708297
 30
0.0
 11
-1.51703
 21
39.38201855759046
 31
0.0
  0
LINE
  5
26C
330
12B
100
AcDbEntity
  8
AM_4
100
AcDbLine
 10
-1.517029999999999
 20
39.38201855759046
 30
0.0
 11
-1.665039999999998
 21
39.42037134119236
 31
0.0
  0
LINE
  5
26D
330
12B
100
AcDbEntity
  8
AM_4
100
AcDbLine
 10
-1.665040000000002
 20
39.42037134119236
 30
0.0
 11
-1.739040000000002
 21
39.46481300340343
 31
0.0
  0
LINE
  5
26E
330
12B
100
AcDbEntity
  8
AM_4
100
AcDbLine
 10
-1.73904
 20
39.46481300340341
 30
0.0
 11
-1.739040000000001
 21
39.5350519028368
 31
0.0
  0
LINE
  5
26F
330
12B
100
AcDbEntity
  8
AM_4
100
AcDbLine
 10
-1.739040000000003
 20
39.5350519028368
 30
0.0
 11
-1.665040000000002
 21
39.56867310561601
 31
0.0
  0
LINE
  5
270
330
12B
100
AcDbEntity
  8
AM_4
100
AcDbLine
 10
-1.665040000000009
 20
39.56867310561601
 30
0.0
 11
-1.517030000000015
 21
39.59280134140421
 31
0.0
  0
LINE
  5
271
330
12B
100
AcDbEntity
  8
AM_4
100
AcDbLine
 10
-1.517030000000026
 20
39.59280134140421
 30
0.0
 11
-1.22103000000001
 21
39.61447437174952
 31
0.0
  0
LINE
  5
272
330
12B
100
AcDbEntity
  8
AM_4
100
AcDbLine
 10
-1.221030000000022
 20
39.61447437174952
 30
0.0
 11
-0.925020000000022
 21
39.62439084730389
 31
0.0
  0
LINE
  5
273
330
12B
100
AcDbEntity
  8
AM_4
100
AcDbLine
 10
-1.73904
 20
39.69678350152312
 30
0.0
 11
-1.739040000000001
 21
39.7
 31
0.0
  0
LINE
  5
274
330
12B
100
AcDbEntity
  8
AM_4
100
AcDbLine
 10
1.29503
 20
39.67667925225598
 30
0.0
 11
1.369030000000097
 21
39.67667925225598
 31
0.0
  0
LINE
  5
275
330
12B
100
AcDbEntity
  8
AM_4
100
AcDbLine
 10
-1.369030000000097
 20
39.67667925225598
 30
0.0
 11
-1.295029999999999
 21
39.67667925225598
 31
0.0
  0
LINE
  5
276
330
12B
100
AcDbEntity
  8
AM_4
100
AcDbLine
 10
1.73904
 20
39.69678350152314
 30
0.0
 11
1.665040000000001
 21
39.68993093187838
 31
0.0
  0
LINE
  5
277
330
12B
100
AcDbEntity
  8
AM_4
100
AcDbLine
 10
1.665040000000001
 20
39.68993093187838
 30
0.0
 11
1.517030000000001
 21
39.68170619183479
 31
0.0
  0
LINE
  5
278
330
12B
100
AcDbEntity
  8
AM_4
100
AcDbLine
 10
1.517030000000002
 20
39.68170619183479
 30
0.0
 11
1.221029999999997
 21
39.67104223986937
 31
0.0
  0
LINE
  5
279
330
12B
100
AcDbEntity
  8
AM_4
100
AcDbLine
 10
1.221029999999994
 20
39.67104223986937
 30
0.0
 11
0.9250199999999934
 21
39.66479447315339
 31
0.0
  0
LINE
  5
27A
330
12B
100
AcDbEntity
  8
AM_4
100
AcDbLine
 10
0.9250199999999795
 20
39.66479447315339
 30
0.0
 11
-0.9250199999999986
 21
39.66479447315339
 31
0.0
  0
LINE
  5
27B
330
12B
100
AcDbEntity
  8
AM_4
100
AcDbLine
 10
-0.9250200000000008
 20
39.66479447315339
 30
0.0
 11
-1.221030000000001
 21
39.67104223986937
 31
0.0
  0
LINE
  5
27C
330
12B
100
AcDbEntity
  8
AM_4
100
AcDbLine
 10
-1.22103
 20
39.67104223986937
 30
0.0
 11
-1.517029999999998
 21
39.68170619183479
 31
0.0
  0
LINE
  5
27D
330
12B
100
AcDbEntity
  8
AM_4
100
AcDbLine
 10
-1.517029999999998
 20
39.68170619183479
 30
0.0
 11
-1.665039999999998
 21
39.68993093187838
 31
0.0
  0
LINE
  5
27E
330
12B
100
AcDbEntity
  8
AM_4
100
AcDbLine
 10
-1.665040000000003
 20
39.68993093187838
 30
0.0
 11
-1.739040000000002
 21
39.69678350152314
 31
0.0
  0
LINE
  5
27F
330
12B
100
AcDbEntity
  8
AM_4
100
AcDbLine
 10
14.7
 20
39.7
 30
0.0
 11
1.739040000000001
 21
39.7
 31
0.0
  0
LINE
  5
280
330
12B
100
AcDbEntity
  8
AM_4
100
AcDbLine
 10
-1.739040000000001
 20
39.7
 30
0.0
 11
-14.7
 21
39.7
 31
0.0
  0
LINE
  5
281
330
12B
100
AcDbEntity
  8
AM_4
100
AcDbLine
 10
1.739040000000001
 20
39.7
 30
0.0
 11
1.739040000000001
 21
39.69678350152312
 31
0.0
  0
LINE
  5
282
330
12B
100
AcDbEntity
  8
AM_4
100
AcDbLine
 10
14.70000000000001
 20
39.7
 30
0.0
 11
22.05
 21
-24.99999999999999
 31
0.0
  0
LWPOLYLINE
  5
283
330
12B
100
AcDbEntity
  8
AM_4
100
AcDbPolyline
 90
       37
 70
     0
 43
0.0
 10
15.90000000000001
 20
-25.0
 10
15.83949569965877
 20
-21.78375496526132
 10
15.65844327289412
 20
-18.59198749725884
 10
15.3582206379962
 20
-15.44898887366597
 10
14.94111267049596
 20
-12.37867921180269
 10
14.41029381388275
 20
-9.404425422099445
 10
13.76980392017259
 20
-6.548863371799423
 10
13.02451750419499
 20
-3.833725612340914
 10
12.18010664559177
 20
-1.279675981518395
 10
11.24299782086613
 20
1.093847660800236
 10
10.220322994016
 20
3.268781366524184
 10
9.119865337981656
 20
5.228572576892007
 10
7.950000000000025
 20
6.958306097438513
 10
6.719630361677149
 20
8.444817611630699
 10
5.438120278878163
 20
9.676793869265364
 10
4.115222817130112
 20
10.64485878713429
 10
2.761006024904226
 20
11.34164480667895
 10
1.3857763096878
 20
11.76184896555968
 10
0.0000000000000358
 20
11.9022732564012
 10
-1.385776309687728
 20
11.76184896555969
 10
-2.761006024904154
 20
11.34164480667897
 10
-4.115222817130041
 20
10.64485878713434
 10
-5.438120278878094
 20
9.676793869265406
 10
-6.719630361677082
 20
8.444817611630754
 10
-7.949999999999962
 20
6.958306097438582
 10
-9.119865337981595
 20
5.22857257689209
 10
-10.22032299401594
 20
3.268781366524275
 10
-11.24299782086607
 20
1.093847660800336
 10
-12.18010664559172
 20
-1.279675981518284
 10
-13.02451750419494
 20
-3.833725612340796
 10
-13.76980392017255
 20
-6.548863371799305
 10
-14.41029381388271
 20
-9.404425422099319
 10
-14.94111267049592
 20
-12.37867921180255
 10
-15.35822063799617
 20
-15.44898887366583
 10
-15.6584432728941
 20
-18.5919874972587
 10
-15.83949569965875
 20
-21.78375496526118
 10
-15.9
 20
-24.99999999999986
  0
LINE
  5
284
330
12B
100
AcDbEntity
  8
AM_4
100
AcDbLine
 10
-17.42537331484498
 20
15.70929884755513
 30
0.0
 11
17.42537331484498
 21
15.70929884755513
 31
0.0
  0
LINE
  5
285
330
12B
100
AcDbEntity
  8
AM_4
100
AcDbLine
 10
22.05
 20
-42.9
 30
0.0
 11
22.05
 21
-24.99999999999999
 31
0.0
  0
LINE
  5
286
330
12B
100
AcDbEntity
  8
AM_4
100
AcDbLine
 10
22.05
 20
-24.99999999999999
 30
0.0
 11
-22.05
 21
-25.0
 31
0.0
  0
LINE
  5
287
330
12B
100
AcDbEntity
  8
AM_4
100
AcDbLine
 10
17.90000000000002
 20
-25.0
 30
0.0
 11
17.90000000000002
 21
-30.96666666666667
 31
0.0
  0
LINE
  5
288
330
12B
100
AcDbEntity
  8
AM_4
100
AcDbLine
 10
-22.05
 20
-25.0
 30
0.0
 11
-22.04999999999999
 21
-42.89999999999997
 31
0.0
  0
LINE
  5
289
330
12B
100
AcDbEntity
  8
AM_4
100
AcDbLine
 10
0.0000000000000049
 20
-30.96666666666667
 30
0.0
 11
22.05000000000001
 21
-30.96666666666666
 31
0.0
  0
LINE
  5
28A
330
12B
100
AcDbEntity
  8
AM_4
100
AcDbLine
 10
22.05
 20
-42.9
 30
0.0
 11
-22.04999999999999
 21
-42.89999999999997
 31
0.0
  0
LWPOLYLINE
  5
28B
330
12B
100
AcDbEntity
  8
AM_4
100
AcDbPolyline
 90
       19
 70
     0
 43
0.0
 10
-18.64999999999998
 20
-25.00000000000001
 10
-18.51926638587849
 20
-25.0057079528624
 10
-18.38952773349958
 20
-25.0227883704817
 10
-18.2617714323462
 20
-25.05111126056641
 10
-18.13696978501148
 20
-25.09046106882115
 10
-18.01607260738893
 20
-25.14053831944504
 10
-17.89999999999998
 20
-25.20096189432336
 10
-17.78963534547341
 20
-25.27127193356652
 10
-17.68581858547018
 20
-25.35093333532154
 10
-17.58933982822017
 20
-25.43933982822019
 10
-17.50093333532152
 20
-25.5358185854702
 10
-17.4212719335665
 20
-25.63963534547344
 10
-17.35096189432333
 20
-25.75000000000001
 10
-17.29053831944502
 20
-25.86607260738896
 10
-17.24046106882113
 20
-25.9869697850115
 10
-17.20111126056639
 20
-26.11177143234622
 10
-17.17278837048168
 20
-26.23952773349961
 10
-17.15570795286238
 20
-26.36926638587851
 10
-17.14999999999999
 20
-26.5
  0
LINE
  5
28C
330
12B
100
AcDbEntity
  8
AM_4
100
AcDbLine
 10
-17.14999999999999
 20
-26.5
 30
0.0
 11
0.0000000000000084
 21
-26.5
 31
0.0
  0
LINE
  5
28D
330
12B
100
AcDbEntity
  8
AM_4
100
AcDbLine
 10
-17.14999999999999
 20
-26.5
 30
0.0
 11
-17.14999999999999
 21
-42.89999999999997
 31
0.0
  0
LINE
  5
28E
330
12B
100
AcDbEntity
  8
AM_4
100
AcDbLine
 10
17.15000000000001
 20
-30.96666666666664
 30
0.0
 11
17.15000000000001
 21
-42.89999999999997
 31
0.0
  0
LINE
  5
28F
330
12B
100
AcDbEntity
  8
AM_4
100
AcDbLine
 10
0.0000000000000084
 20
-26.5
 30
0.0
 11
0.0000000000000049
 21
-30.96666666666667
 31
0.0
  0
LINE
  5
290
330
12B
100
AcDbEntity
  8
AM_4
100
AcDbLine
 10
15.90000000000001
 20
-25.0
 30
0.0
 11
15.90000000000001
 21
-30.96666666666667
 31
0.0
  0
LWPOLYLINE
  5
291
330
12B
100
AcDbEntity
  8
AM_4
100
AcDbPolyline
 90
       10
 70
     0
 43
0.0
 10
0.0000000000000084
 20
-26.5
 10
0.0241075235194069
 20
-26.49259545343976
 10
0.9934742908480716
 20
-26.19626970250707
 10
1.961711861887048
 20
-25.90865982260984
 10
2.942490353209417
 20
-25.63474557313073
 10
3.919133743468997
 20
-25.3904683908084
 10
4.627562747989839
 20
-25.23852436174641
 10
5.331222546692452
 20
-25.11649814514839
 10
6.041659552282915
 20
-25.03165796509339
 10
6.741661516273269
 20
-25.00000000000001
  0
ENDBLK
  5
12E
330
12B
100
AcDbEntity
  8
0
100
AcDbBlockEnd
  0
ENDSEC
  0
SECTION
  2
ENTITIES
  0
INSERT
  5
6F
330
1F
100
AcDbEntity
  8
0
100
AcDbBlockReference
  2
1_129208_2
 10
0.0
 20
0.0
 30
0.0
  0
POINT
  5
293
330
1F
100
AcDbEntity
  8
ConnectionPoints
100
AcDbPoint
 10
0.0
 20
0.0
 30
0.0
  0
POINT
  5
294
330
1F
100
AcDbEntity
  8
ConnectionPoints
100
AcDbPoint
 10
13.5
 20
0.0
 30
-0.0000000000000008
  0
POINT
  5
295
330
1F
100
AcDbEntity
  8
ConnectionPoints
100
AcDbPoint
 10
0.0
 20
0.0
 30
0.0
  0
POINT
  5
296
330
1F
100
AcDbEntity
  8
ConnectionPoints
100
AcDbPoint
 10
0.0
 20
0.0
 30
0.0
  0
ENDSEC
  0
SECTION
  2
OBJECTS
  0
DICTIONARY
  5
C
330
0
100
AcDbDictionary
281
     1
  3
ACAD_DETAILVIEWSTYLE
350
29E
  3
ACAD_GROUP
350
D
  3
ACAD_LAYOUT
350
1A
  3
ACAD_MATERIAL
350
43
  3
ACAD_MLEADERSTYLE
350
6B
  3
ACAD_MLINESTYLE
350
17
  3
ACAD_PLOTSETTINGS
350
19
  3
ACAD_PLOTSTYLENAME
350
E
  3
ACAD_SCALELIST
350
47
  3
ACAD_SECTIONVIEWSTYLE
350
29F
  3
ACAD_TABLESTYLE
350
69
  3
ACAD_VISUALSTYLE
350
2A
  3
ACDB_RECOMPOSE_DATA
350
29B
  3
AcDbVariableDictionary
350
297
  0
SUN
  5
6D
330
29
100
AcDbSun
 90
        1
290
     0
 63
     7
421
 16777215
 40
1.0
291
     1
 91
  2455826
 92
 54000000
292
     0
 70
     2
 71
   256
280
     1
  0
DICTIONARY
  5
29E
102
{ACAD_REACTORS
330
C
102
}
330
C
100
AcDbDictionary
281
     1
  0
DICTIONARY
  5
D
102
{ACAD_REACTORS
330
C
102
}
330
C
100
AcDbDictionary
281
     1
  0
DICTIONARY
  5
1A
102
{ACAD_REACTORS
330
C
102
}
330
C
100
AcDbDictionary
281
     1
  3
Layout1
350
1E
  3
Layout2
350
26
  3
Model
350
22
  0
DICTIONARY
  5
43
102
{ACAD_REACTORS
330
C
102
}
330
C
100
AcDbDictionary
281
     1
  3
ByBlock
350
45
  3
ByLayer
350
44
  3
Global
350
46
  0
DICTIONARY
  5
6B
102
{ACAD_REACTORS
330
C
102
}
330
C
100
AcDbDictionary
281
     1
  3
Standard
350
6C
  0
DICTIONARY
  5
17
102
{ACAD_REACTORS
330
C
102
}
330
C
100
AcDbDictionary
281
     1
  3
Standard
350
18
  0
DICTIONARY
  5
19
102
{ACAD_REACTORS
330
C
102
}
330
C
100
AcDbDictionary
281
     1
  0
ACDBDICTIONARYWDFLT
  5
E
102
{ACAD_REACTORS
330
C
102
}
330
C
100
AcDbDictionary
281
     1
  3
Normal
350
F
100
AcDbDictionaryWithDefault
340
F
  0
DICTIONARY
  5
47
102
{ACAD_REACTORS
330
C
102
}
330
C
100
AcDbDictionary
281
     1
  3
A0
350
48
  3
A1
350
49
  3
A2
350
4A
  3
A3
350
4B
  3
A4
350
4C
  3
A5
350
4D
  3
A6
350
4E
  3
A7
350
4F
  3
A8
350
50
  3
A9
350
51
  3
B0
350
52
  3
B1
350
53
  3
B2
350
54
  3
B3
350
55
  3
B4
350
56
  3
B5
350
57
  3
B6
350
58
  3
B7
350
59
  3
B8
350
5A
  3
B9
350
5B
  3
C0
350
5C
  3
C1
350
5D
  3
C2
350
5E
  3
C3
350
5F
  3
C4
350
60
  3
C5
350
61
  3
C6
350
62
  3
C7
350
63
  3
C8
350
64
  3
C9
350
65
  3
D0
350
66
  3
D1
350
67
  3
D2
350
68
  0
DICTIONARY
  5
29F
102
{ACAD_REACTORS
330
C
102
}
330
C
100
AcDbDictionary
281
     1
  0
DICTIONARY
  5
69
102
{ACAD_REACTORS
330
C
102
}
330
C
100
AcDbDictionary
281
     1
  3
Standard
350
6A
  0
DICTIONARY
  5
2A
102
{ACAD_REACTORS
330
C
102
}
330
C
100
AcDbDictionary
281
     1
  3
2dWireframe
350
2F
  3
Basic
350
32
  3
Brighten
350
36
  3
ColorChange
350
3A
  3
Conceptual
350
34
  3
Dim
350
35
  3
EdgeColorOff
350
3D
  3
Facepattern
350
39
  3
Flat
350
2B
  3
FlatWithEdges
350
2C
  3
Gouraud
350
2D
  3
GouraudWithEdges
350
2E
  3
Hidden
350
31
  3
JitterOff
350
3B
  3
Linepattern
350
38
  3
OverhangOff
350
3C
  3
Realistic
350
33
  3
Shaded
350
42
  3
Shaded with edges
350
41
  3
Shades of Gray
350
3E
  3
Sketchy
350
3F
  3
Thicken
350
37
  3
Wireframe
350
30
  3
X-Ray
350
40
  0
XRECORD
  5
29B
102
{ACAD_REACTORS
330
C
102
}
330
C
100
AcDbXrecord
280
     1
 90
        1
330
6A
  0
DICTIONARY
  5
297
102
{ACAD_REACTORS
330
C
102
}
330
C
100
AcDbDictionary
281
     1
  3
CANNOSCALE
350
298
  3
CMLEADERSTYLE
350
29D
  3
CTABLESTYLE
350
29C
  0
LAYOUT
  5
1E
102
{ACAD_REACTORS
330
1A
102
}
330
1A
100
AcDbPlotSettings
  1

  2
none_device
  4

  6

 40
0.0
 41
0.0
 42
0.0
 43
0.0
 44
0.0
 45
0.0
 46
0.0
 47
0.0
 48
0.0
 49
0.0
140
0.0
141
0.0
142
1.0
143
1.0
 70
   688
 72
     1
 73
     0
 74
     5
  7

 75
    16
 76
     0
 77
     2
 78
   300
147
1.0
148
0.0
149
0.0
100
AcDbLayout
  1
Layout1
 70
     1
 71
     1
 10
0.0
 20
0.0
 11
420.0
 21
297.0
 12
0.0
 22
0.0
 32
0.0
 14
1.000000000000000E+20
 24
1.000000000000000E+20
 34
1.000000000000000E+20
 15
-1.000000000000000E+20
 25
-1.000000000000000E+20
 35
-1.000000000000000E+20
146
0.0
 13
0.0
 23
0.0
 33
0.0
 16
1.0
 26
0.0
 36
0.0
 17
0.0
 27
1.0
 37
0.0
 76
     0
330
1B
  0
LAYOUT
  5
26
102
{ACAD_REACTORS
330
1A
102
}
330
1A
100
AcDbPlotSettings
  1

  2
none_device
  4

  6

 40
0.0
 41
0.0
 42
0.0
 43
0.0
 44
0.0
 45
0.0
 46
0.0
 47
0.0
 48
0.0
 49
0.0
140
0.0
141
0.0
142
1.0
143
1.0
 70
   688
 72
     1
 73
     0
 74
     5
  7

 75
    16
 76
     0
 77
     2
 78
   300
147
1.0
148
0.0
149
0.0
100
AcDbLayout
  1
Layout2
 70
     1
 71
     2
 10
0.0
 20
0.0
 11
0.0
 21
0.0
 12
0.0
 22
0.0
 32
0.0
 14
0.0
 24
0.0
 34
0.0
 15
0.0
 25
0.0
 35
0.0
146
0.0
 13
0.0
 23
0.0
 33
0.0
 16
1.0
 26
0.0
 36
0.0
 17
0.0
 27
1.0
 37
0.0
 76
     0
330
23
  0
LAYOUT
  5
22
102
{ACAD_REACTORS
330
1A
102
}
330
1A
100
AcDbPlotSettings
  1

  2
none_device
  4
Letter_(8.50_x_11.00_Inches)
  6

 40
6.35
 41
6.35
 42
6.35000508
 43
6.35000508
 44
215.9
 45
279.4
 46
0.0
 47
0.0
 48
0.0
 49
0.0
140
0.0
141
0.0
142
1.0
143
1.0
 70
  1712
 72
     1
 73
     0
 74
     0
  7

 75
     0
 76
     0
 77
     2
 78
   300
147
1.0
148
0.0
149
0.0
100
AcDbLayout
  1
Model
 70
     1
 71
     0
 10
0.0
 20
0.0
 11
420.0
 21
297.0
 12
0.0
 22
0.0
 32
0.0
 14
1.000000000000000E+20
 24
1.000000000000000E+20
 34
1.000000000000000E+20
 15
-1.000000000000000E+20
 25
-1.000000000000000E+20
 35
-1.000000000000000E+20
146
0.0
 13
0.0
 23
0.0
 33
0.0
 16
1.0
 26
0.0
 36
0.0
 17
0.0
 27
1.0
 37
0.0
 76
     0
330
1F
331
29
  0
MATERIAL
  5
45
102
{ACAD_REACTORS
330
43
102
}
330
43
100
AcDbMaterial
  1
ByBlock
 72
     1
 94
      127
  0
MATERIAL
  5
44
102
{ACAD_REACTORS
330
43
102
}
330
43
100
AcDbMaterial
  1
ByLayer
 72
     1
 94
      127
  0
MATERIAL
  5
46
102
{ACAD_REACTORS
330
43
102
}
330
43
100
AcDbMaterial
  1
Global
 72
     1
 94
      127
  0
MLEADERSTYLE
  5
6C
102
{ACAD_REACTORS
330
6B
102
}
330
6B
100
AcDbMLeaderStyle
179
     2
170
     2
171
     1
172
     0
 90
        2
 40
0.0
 41
0.0
173
     1
 91
-1056964608
340
14
 92
       -2
290
     1
 42
2.0
291
     1
 43
8.0
  3
Standard
341
0
 44
4.0
300

342
11
174
     1
178
     6
175
     1
176
     0
 93
-1056964608
 45
4.0
292
     0
297
     0
 46
4.0
343
0
 94
-1056964608
 47
1.0
 49
1.0
140
1.0
293
     1
141
0.0
294
     1
177
     0
142
1.0
295
     0
296
     0
143
3.75
271
     0
272
     9
273
     9
298
     0
  0
MLINESTYLE
  5
18
102
{ACAD_REACTORS
330
17
102
}
330
17
100
AcDbMlineStyle
  2
Standard
 70
     0
  3

 62
   256
 51
90.0
 52
90.0
 71
     2
 49
0.5
 62
   256
  6
BYLAYER
 49
-0.5
 62
   256
  6
BYLAYER
  0
ACDBPLACEHOLDER
  5
F
102
{ACAD_REACTORS
330
E
102
}
330
E
  0
SCALE
  5
48
102
{ACAD_REACTORS
330
47
102
}
330
47
100
AcDbScale
 70
     0
300
1:1
140
1.0
141
1.0
290
     1
  0
SCALE
  5
49
102
{ACAD_REACTORS
330
47
102
}
330
47
100
AcDbScale
 70
     0
300
1:2
140
1.0
141
2.0
290
     0
  0
SCALE
  5
4A
102
{ACAD_REACTORS
330
47
102
}
330
47
100
AcDbScale
 70
     0
300
1:4
140
1.0
141
4.0
290
     0
  0
SCALE
  5
4B
102
{ACAD_REACTORS
330
47
102
}
330
47
100
AcDbScale
 70
     0
300
1:5
140
1.0
141
5.0
290
     0
  0
SCALE
  5
4C
102
{ACAD_REACTORS
330
47
102
}
330
47
100
AcDbScale
 70
     0
300
1:8
140
1.0
141
8.0
290
     0
  0
SCALE
  5
4D
102
{ACAD_REACTORS
330
47
102
}
330
47
100
AcDbScale
 70
     0
300
1:10
140
1.0
141
10.0
290
     0
  0
SCALE
  5
4E
102
{ACAD_REACTORS
330
47
102
}
330
47
100
AcDbScale
 70
     0
300
1:16
140
1.0
141
16.0
290
     0
  0
SCALE
  5
4F
102
{ACAD_REACTORS
330
47
102
}
330
47
100
AcDbScale
 70
     0
300
1:20
140
1.0
141
20.0
290
     0
  0
SCALE
  5
50
102
{ACAD_REACTORS
330
47
102
}
330
47
100
AcDbScale
 70
     0
300
1:30
140
1.0
141
30.0
290
     0
  0
SCALE
  5
51
102
{ACAD_REACTORS
330
47
102
}
330
47
100
AcDbScale
 70
     0
300
1:40
140
1.0
141
40.0
290
     0
  0
SCALE
  5
52
102
{ACAD_REACTORS
330
47
102
}
330
47
100
AcDbScale
 70
     0
300
1:50
140
1.0
141
50.0
290
     0
  0
SCALE
  5
53
102
{ACAD_REACTORS
330
47
102
}
330
47
100
AcDbScale
 70
     0
300
1:100
140
1.0
141
100.0
290
     0
  0
SCALE
  5
54
102
{ACAD_REACTORS
330
47
102
}
330
47
100
AcDbScale
 70
     0
300
2:1
140
2.0
141
1.0
290
     0
  0
SCALE
  5
55
102
{ACAD_REACTORS
330
47
102
}
330
47
100
AcDbScale
 70
     0
300
4:1
140
4.0
141
1.0
290
     0
  0
SCALE
  5
56
102
{ACAD_REACTORS
330
47
102
}
330
47
100
AcDbScale
 70
     0
300
8:1
140
8.0
141
1.0
290
     0
  0
SCALE
  5
57
102
{ACAD_REACTORS
330
47
102
}
330
47
100
AcDbScale
 70
     0
300
10:1
140
10.0
141
1.0
290
     0
  0
SCALE
  5
58
102
{ACAD_REACTORS
330
47
102
}
330
47
100
AcDbScale
 70
     0
300
100:1
140
100.0
141
1.0
290
     0
  0
SCALE
  5
59
102
{ACAD_REACTORS
330
47
102
}
330
47
100
AcDbScale
 70
     0
300
1/128" = 1'-0"
140
0.0078125
141
12.0
290
     0
  0
SCALE
  5
5A
102
{ACAD_REACTORS
330
47
102
}
330
47
100
AcDbScale
 70
     0
300
1/64" = 1'-0"
140
0.015625
141
12.0
290
     0
  0
SCALE
  5
5B
102
{ACAD_REACTORS
330
47
102
}
330
47
100
AcDbScale
 70
     0
300
1/32" = 1'-0"
140
0.03125
141
12.0
290
     0
  0
SCALE
  5
5C
102
{ACAD_REACTORS
330
47
102
}
330
47
100
AcDbScale
 70
     0
300
1/16" = 1'-0"
140
0.0625
141
12.0
290
     0
  0
SCALE
  5
5D
102
{ACAD_REACTORS
330
47
102
}
330
47
100
AcDbScale
 70
     0
300
3/32" = 1'-0"
140
0.09375
141
12.0
290
     0
  0
SCALE
  5
5E
102
{ACAD_REACTORS
330
47
102
}
330
47
100
AcDbScale
 70
     0
300
1/8" = 1'-0"
140
0.125
141
12.0
290
     0
  0
SCALE
  5
5F
102
{ACAD_REACTORS
330
47
102
}
330
47
100
AcDbScale
 70
     0
300
3/16" = 1'-0"
140
0.1875
141
12.0
290
     0
  0
SCALE
  5
60
102
{ACAD_REACTORS
330
47
102
}
330
47
100
AcDbScale
 70
     0
300
1/4" = 1'-0"
140
0.25
141
12.0
290
     0
  0
SCALE
  5
61
102
{ACAD_REACTORS
330
47
102
}
330
47
100
AcDbScale
 70
     0
300
3/8" = 1'-0"
140
0.375
141
12.0
290
     0
  0
SCALE
  5
62
102
{ACAD_REACTORS
330
47
102
}
330
47
100
AcDbScale
 70
     0
300
1/2" = 1'-0"
140
0.5
141
12.0
290
     0
  0
SCALE
  5
63
102
{ACAD_REACTORS
330
47
102
}
330
47
100
AcDbScale
 70
     0
300
3/4" = 1'-0"
140
0.75
141
12.0
290
     0
  0
SCALE
  5
64
102
{ACAD_REACTORS
330
47
102
}
330
47
100
AcDbScale
 70
     0
300
1" = 1'-0"
140
1.0
141
12.0
290
     0
  0
SCALE
  5
65
102
{ACAD_REACTORS
330
47
102
}
330
47
100
AcDbScale
 70
     0
300
1-1/2" = 1'-0"
140
1.5
141
12.0
290
     0
  0
SCALE
  5
66
102
{ACAD_REACTORS
330
47
102
}
330
47
100
AcDbScale
 70
     0
300
3" = 1'-0"
140
3.0
141
12.0
290
     0
  0
SCALE
  5
67
102
{ACAD_REACTORS
330
47
102
}
330
47
100
AcDbScale
 70
     0
300
6" = 1'-0"
140
6.0
141
12.0
290
     0
  0
SCALE
  5
68
102
{ACAD_REACTORS
330
47
102
}
330
47
100
AcDbScale
 70
     0
300
1'-0" = 1'-0"
140
12.0
141
12.0
290
     0
  0
TABLESTYLE
  5
6A
102
{ACAD_REACTORS
330
69
102
}
102
{ACAD_XDICTIONARY
360
299
102
}
330
69
100
AcDbTableStyle
  3
Standard
 70
     0
 71
     0
 40
0.06
 41
0.06
280
     0
281
     0
  7
Standard
140
4.5
170
     2
 62
     0
 63
   257
283
     0
 90
        4
 91
        0
  1

274
    -2
284
     1
 64
     0
275
    -2
285
     1
 65
     0
276
    -2
286
     1
 66
     0
277
    -2
287
     1
 67
     0
278
    -2
288
     1
 68
     0
279
    -2
289
     1
 69
     0
  7
Standard
140
6.0
170
     5
 62
     0
 63
   257
283
     0
 90
        4
 91
        0
  1

274
    -2
284
     1
 64
     0
275
    -2
285
     1
 65
     0
276
    -2
286
     1
 66
     0
277
    -2
287
     1
 67
     0
278
    -2
288
     1
 68
     0
279
    -2
289
     1
 69
     0
  7
Standard
140
4.5
170
     5
 62
     0
 63
   257
283
     0
 90
        4
 91
        0
  1

274
    -2
284
     1
 64
     0
275
    -2
285
     1
 65
     0
276
    -2
286
     1
 66
     0
277
    -2
287
     1
 67
     0
278
    -2
288
     1
 68
     0
279
    -2
289
     1
 69
     0
  0
VISUALSTYLE
  5
2F
102
{ACAD_REACTORS
330
2A
102
}
330
2A
100
AcDbVisualStyle
  2
2dWireframe
 70
     4
177
     3
291
     0
 70
    58
 90
        0
176
     1
 90
        2
176
     1
 90
        0
176
     1
 90
        0
176
     1
 40
0.6
176
     1
 40
30.0
176
     1
 62
     7
420
 16777215
176
     1
 90
        1
176
     1
 90
        4
176
     1
 62
     7
176
     1
 62
   257
176
     1
 90
        1
176
     1
 90
        1
176
     1
 40
1.0
176
     1
 90
        0
176
     1
 62
   257
176
     1
 40
1.0
176
     1
 90
        1
176
     1
 90
        6
176
     1
 90
        2
176
     1
 62
     7
176
     1
 90
        5
176
     1
 90
        0
176
     1
 90
        0
176
     1
290
     0
176
     1
 90
        1
176
     1
 40
0.0
176
     1
 90
        0
176
     1
290
     1
176
     1
290
     1
176
     1
290
     0
176
     1
290
     0
176
     1
290
     0
176
     1
290
     0
176
     1
290
     0
176
     1
290
     0
176
     1
290
     0
176
     1
 90
       50
176
     1
 40
0.0
176
     1
 40
1.0
176
     1
 90
        0
176
     1
 62
    18
420
        0
176
     1
 90
       50
176
     1
 90
        3
176
     1
 62
     5
420
      255
176
     1
290
     0
176
     1
 90
       50
176
     1
 90
       50
176
     1
 90
       50
176
     1
290
     0
176
     1
 90
       50
176
     1
 62
   256
176
     0
 40
1.0
176
     0
 90
        2
176
     1
  1
strokes_ogs.tif
176
     1
290
     0
176
     1
 40
1.0
176
     1
 40
1.0
176
     1
  0
VISUALSTYLE
  5
32
102
{ACAD_REACTORS
330
2A
102
}
330
2A
100
AcDbVisualStyle
  2
Basic
 70
     7
177
     3
291
     1
 70
    58
 90
        1
176
     1
 90
        0
176
     1
 90
        1
176
     1
 90
        0
176
     1
 40
0.6
176
     1
 40
30.0
176
     1
 62
     7
420
 16777215
176
     1
 90
        0
176
     1
 90
        4
176
     1
 62
     7
176
     1
 62
   257
176
     1
 90
        1
176
     1
 90
        1
176
     1
 40
1.0
176
     1
 90
        8
176
     1
 62
     7
176
     1
 40
1.0
176
     1
 90
        1
176
     1
 90
        6
176
     1
 90
        2
176
     1
 62
     7
176
     1
 90
        5
176
     1
 90
        0
176
     1
 90
        0
176
     1
290
     0
176
     1
 90
        1
176
     1
 40
0.0
176
     1
 90
        0
176
     1
290
     0
176
     1
290
     1
176
     1
290
     1
176
     1
290
     0
176
     1
290
     0
176
     1
290
     0
176
     1
290
     0
176
     1
290
     0
176
     1
290
     0
176
     1
 90
       50
176
     1
 40
0.0
176
     1
 40
1.0
176
     1
 90
        0
176
     1
 62
    18
420
        0
176
     1
 90
       50
176
     1
 90
        3
176
     1
 62
     5
420
      255
176
     1
290
     0
176
     1
 90
       50
176
     1
 90
       50
176
     1
 90
       50
176
     1
290
     0
176
     1
 90
       50
176
     1
 62
   256
176
     0
 40
1.0
176
     0
 90
        2
176
     1
  1
strokes_ogs.tif
176
     1
290
     0
176
     1
 40
1.0
176
     1
 40
1.0
176
     1
  0
VISUALSTYLE
  5
36
102
{ACAD_REACTORS
330
2A
102
}
330
2A
100
AcDbVisualStyle
  2
Brighten
 70
    12
177
     3
291
     1
 70
    58
 90
        2
176
     1
 90
        2
176
     1
 90
        0
176
     1
 90
        0
176
     1
 40
0.6
176
     1
 40
30.0
176
     1
 62
     7
420
 16777215
176
     1
 90
        1
176
     1
 90
        4
176
     1
 62
     7
176
     1
 62
   257
176
     1
 90
        1
176
     1
 90
        1
176
     1
 40
1.0
176
     1
 90
        8
176
     1
 62
     7
176
     1
 40
1.0
176
     1
 90
        1
176
     1
 90
        6
176
     1
 90
        2
176
     1
 62
     7
176
     1
 90
        5
176
     1
 90
        0
176
     1
 90
        0
176
     1
290
     0
176
     1
 90
        1
176
     1
 40
50.0
176
     1
 90
        0
176
     1
290
     0
176
     1
290
     1
176
     1
290
     1
176
     1
290
     0
176
     1
290
     0
176
     1
290
     0
176
     1
290
     0
176
     1
290
     0
176
     1
290
     0
176
     1
 90
       50
176
     1
 40
0.0
176
     1
 40
1.0
176
     1
 90
        0
176
     1
 62
    18
420
        0
176
     1
 90
       50
176
     1
 90
        3
176
     1
 62
     5
420
      255
176
     1
290
     0
176
     1
 90
       50
176
     1
 90
       50
176
     1
 90
       50
176
     1
290
     0
176
     1
 90
       50
176
     1
 62
   256
176
     0
 40
1.0
176
     0
 90
        2
176
     1
  1
strokes_ogs.tif
176
     1
290
     0
176
     1
 40
1.0
176
     1
 40
1.0
176
     1
  0
VISUALSTYLE
  5
3A
102
{ACAD_REACTORS
330
2A
102
}
330
2A
100
AcDbVisualStyle
  2
ColorChange
 70
    16
177
     3
291
     1
 70
    58
 90
        2
176
     1
 90
        2
176
     1
 90
        3
176
     1
 90
        0
176
     1
 40
0.6
176
     1
 40
30.0
176
     1
 62
     8
420
  8421504
176
     1
 90
        1
176
     1
 90
        4
176
     1
 62
     7
176
     1
 62
   257
176
     1
 90
        1
176
     1
 90
        1
176
     1
 40
1.0
176
     1
 90
        8
176
     1
 62
     8
420
  8421504
176
     1
 40
1.0
176
     1
 90
        1
176
     1
 90
        6
176
     1
 90
        2
176
     1
 62
     7
176
     1
 90
        5
176
     1
 90
        0
176
     1
 90
        0
176
     1
290
     0
176
     1
 90
        1
176
     1
 40
0.0
176
     1
 90
        0
176
     1
290
     0
176
     1
290
     1
176
     1
290
     1
176
     1
290
     0
176
     1
290
     0
176
     1
290
     0
176
     1
290
     0
176
     1
290
     0
176
     1
290
     0
176
     1
 90
       50
176
     1
 40
0.0
176
     1
 40
1.0
176
     1
 90
        0
176
     1
 62
    18
420
        0
176
     1
 90
       50
176
     1
 90
        3
176
     1
 62
     5
420
      255
176
     1
290
     0
176
     1
 90
       50
176
     1
 90
       50
176
     1
 90
       50
176
     1
290
     0
176
     1
 90
       50
176
     1
 62
   256
176
     0
 40
1.0
176
     0
 90
        2
176
     1
  1
strokes_ogs.tif
176
     1
290
     0
176
     1
 40
1.0
176
     1
 40
1.0
176
     1
  0
VISUALSTYLE
  5
34
102
{ACAD_REACTORS
330
2A
102
}
330
2A
100
AcDbVisualStyle
  2
Conceptual
 70
     9
177
     3
291
     0
 70
    58
 90
        3
176
     1
 90
        2
176
     1
 90
        0
176
     1
 90
        0
176
     1
 40
0.6
176
     1
 40
30.0
176
     1
 62
     7
420
 16777215
176
     1
 90
        2
176
     1
 90
        2
176
     1
 62
     7
176
     1
 62
   257
176
     1
 90
        1
176
     1
 90
        1
176
     1
 40
179.0
176
     1
 90
        8
176
     1
 62
     7
176
     1
 40
1.0
176
     1
 90
        1
176
     1
 90
        6
176
     1
 90
        2
176
     1
 62
     7
176
     1
 90
        3
176
     1
 90
        0
176
     1
 90
        0
176
     1
290
     0
176
     1
 90
        1
176
     1
 40
0.0
176
     1
 90
        0
176
     1
290
     0
176
     1
290
     1
176
     1
290
     1
176
     1
290
     0
176
     1
290
     0
176
     1
290
     0
176
     1
290
     0
176
     1
290
     0
176
     1
290
     0
176
     1
 90
       50
176
     1
 40
0.0
176
     1
 40
1.0
176
     1
 90
        0
176
     1
 62
    18
420
        0
176
     1
 90
       50
176
     1
 90
        3
176
     1
 62
     5
420
      255
176
     1
290
     0
176
     1
 90
       50
176
     1
 90
       50
176
     1
 90
       50
176
     1
290
     0
176
     1
 90
       50
176
     1
 62
   256
176
     0
 40
1.0
176
     0
 90
        2
176
     1
  1
strokes_ogs.tif
176
     1
290
     0
176
     1
 40
1.0
176
     1
 40
1.0
176
     1
  0
VISUALSTYLE
  5
35
102
{ACAD_REACTORS
330
2A
102
}
330
2A
100
AcDbVisualStyle
  2
Dim
 70
    11
177
     3
291
     1
 70
    58
 90
        2
176
     1
 90
        2
176
     1
 90
        0
176
     1
 90
        0
176
     1
 40
0.6
176
     1
 40
30.0
176
     1
 62
     7
420
 16777215
176
     1
 90
        1
176
     1
 90
        4
176
     1
 62
     7
176
     1
 62
   257
176
     1
 90
        1
176
     1
 90
        1
176
     1
 40
1.0
176
     1
 90
        8
176
     1
 62
     7
176
     1
 40
1.0
176
     1
 90
        1
176
     1
 90
        6
176
     1
 90
        2
176
     1
 62
     7
176
     1
 90
        5
176
     1
 90
        0
176
     1
 90
        0
176
     1
290
     0
176
     1
 90
        1
176
     1
 40
-50.0
176
     1
 90
        0
176
     1
290
     0
176
     1
290
     1
176
     1
290
     1
176
     1
290
     0
176
     1
290
     0
176
     1
290
     0
176
     1
290
     0
176
     1
290
     0
176
     1
290
     0
176
     1
 90
       50
176
     1
 40
0.0
176
     1
 40
1.0
176
     1
 90
        0
176
     1
 62
    18
420
        0
176
     1
 90
       50
176
     1
 90
        3
176
     1
 62
     5
420
      255
176
     1
290
     0
176
     1
 90
       50
176
     1
 90
       50
176
     1
 90
       50
176
     1
290
     0
176
     1
 90
       50
176
     1
 62
   256
176
     0
 40
1.0
176
     0
 90
        2
176
     1
  1
strokes_ogs.tif
176
     1
290
     0
176
     1
 40
1.0
176
     1
 40
1.0
176
     1
  0
VISUALSTYLE
  5
3D
102
{ACAD_REACTORS
330
2A
102
}
330
2A
100
AcDbVisualStyle
  2
EdgeColorOff
 70
    22
177
     3
291
     1
 70
    58
 90
        2
176
     0
 90
        2
176
     0
 90
        0
176
     0
 90
        0
176
     0
 40
0.6
176
     0
 40
30.0
176
     0
 62
     7
420
 16777215
176
     0
 90
        1
176
     0
 90
        4
176
     0
 62
     7
176
     0
 62
   257
176
     0
 90
        1
176
     0
 90
        1
176
     0
 40
1.0
176
     0
 90
        8
176
     2
 62
     7
176
     0
 40
1.0
176
     0
 90
        1
176
     0
 90
        6
176
     0
 90
        2
176
     0
 62
     7
176
     0
 90
        5
176
     0
 90
        0
176
     0
 90
        0
176
     0
290
     0
176
     0
 90
        1
176
     0
 40
0.0
176
     0
 90
        0
176
     0
290
     0
176
     0
290
     1
176
     0
290
     1
176
     0
290
     0
176
     0
290
     0
176
     0
290
     0
176
     0
290
     0
176
     0
290
     0
176
     0
290
     0
176
     0
 90
       50
176
     0
 40
0.0
176
     0
 40
1.0
176
     0
 90
        0
176
     0
 62
    18
420
        0
176
     0
 90
       50
176
     0
 90
        3
176
     0
 62
     5
420
      255
176
     0
290
     0
176
     0
 90
       50
176
     0
 90
       50
176
     0
 90
       50
176
     0
290
     0
176
     0
 90
       50
176
     0
 62
   256
176
     0
 40
1.0
176
     0
 90
        2
176
     0
  1
strokes_ogs.tif
176
     0
290
     0
176
     0
 40
1.0
176
     0
 40
1.0
176
     0
  0
VISUALSTYLE
  5
39
102
{ACAD_REACTORS
330
2A
102
}
330
2A
100
AcDbVisualStyle
  2
Facepattern
 70
    15
177
     3
291
     1
 70
    58
 90
        2
176
     1
 90
        2
176
     1
 90
        0
176
     1
 90
        0
176
     1
 40
0.6
176
     1
 40
30.0
176
     1
 62
     7
420
 16777215
176
     1
 90
        1
176
     1
 90
        4
176
     1
 62
     7
176
     1
 62
   257
176
     1
 90
        1
176
     1
 90
        1
176
     1
 40
1.0
176
     1
 90
        8
176
     1
 62
     7
176
     1
 40
1.0
176
     1
 90
        1
176
     1
 90
        6
176
     1
 90
        2
176
     1
 62
     7
176
     1
 90
        5
176
     1
 90
        0
176
     1
 90
        0
176
     1
290
     0
176
     1
 90
        1
176
     1
 40
0.0
176
     1
 90
        0
176
     1
290
     0
176
     1
290
     1
176
     1
290
     1
176
     1
290
     0
176
     1
290
     0
176
     1
290
     0
176
     1
290
     0
176
     1
290
     0
176
     1
290
     0
176
     1
 90
       50
176
     1
 40
0.0
176
     1
 40
1.0
176
     1
 90
        0
176
     1
 62
    18
420
        0
176
     1
 90
       50
176
     1
 90
        3
176
     1
 62
     5
420
      255
176
     1
290
     0
176
     1
 90
       50
176
     1
 90
       50
176
     1
 90
       50
176
     1
290
     0
176
     1
 90
       50
176
     1
 62
   256
176
     0
 40
1.0
176
     0
 90
        2
176
     1
  1
strokes_ogs.tif
176
     1
290
     0
176
     1
 40
1.0
176
     1
 40
1.0
176
     1
  0
VISUALSTYLE
  5
2B
102
{ACAD_REACTORS
330
2A
102
}
330
2A
100
AcDbVisualStyle
  2
Flat
 70
     0
177
     3
291
     1
 70
    58
 90
        2
176
     1
 90
        1
176
     1
 90
        1
176
     1
 90
        2
176
     1
 40
0.6
176
     1
 40
30.0
176
     1
 62
     7
420
 16777215
176
     1
 90
        0
176
     1
 90
        0
176
     1
 62
     7
176
     1
 62
   257
176
     1
 90
        1
176
     1
 90
        1
176
     1
 40
1.0
176
     1
 90
        8
176
     1
 62
     7
176
     1
 40
1.0
176
     1
 90
        1
176
     1
 90
        6
176
     1
 90
        2
176
     1
 62
     7
176
     1
 90
        5
176
     1
 90
        0
176
     1
 90
        0
176
     1
290
     0
176
     1
 90
       13
176
     1
 40
0.0
176
     1
 90
        0
176
     1
290
     0
176
     1
290
     1
176
     1
290
     1
176
     1
290
     0
176
     1
290
     0
176
     1
290
     0
176
     1
290
     0
176
     1
290
     0
176
     1
290
     0
176
     1
 90
       50
176
     1
 40
0.0
176
     1
 40
1.0
176
     1
 90
        0
176
     1
 62
    18
420
        0
176
     1
 90
       50
176
     1
 90
        3
176
     1
 62
     5
420
      255
176
     1
290
     0
176
     1
 90
       50
176
     1
 90
       50
176
     1
 90
       50
176
     1
290
     0
176
     1
 90
       50
176
     1
 62
   256
176
     0
 40
1.0
176
     0
 90
        2
176
     1
  1
strokes_ogs.tif
176
     1
290
     0
176
     1
 40
1.0
176
     1
 40
1.0
176
     1
  0
VISUALSTYLE
  5
2C
102
{ACAD_REACTORS
330
2A
102
}
330
2A
100
AcDbVisualStyle
  2
FlatWithEdges
 70
     1
177
     3
291
     1
 70
    58
 90
        2
176
     1
 90
        1
176
     1
 90
        1
176
     1
 90
        2
176
     1
 40
0.6
176
     1
 40
30.0
176
     1
 62
     7
420
 16777215
176
     1
 90
        1
176
     1
 90
        0
176
     1
 62
     7
176
     1
 62
   257
176
     1
 90
        1
176
     1
 90
        1
176
     1
 40
1.0
176
     1
 90
        0
176
     1
 62
   257
176
     1
 40
1.0
176
     1
 90
        1
176
     1
 90
        6
176
     1
 90
        2
176
     1
 62
     7
176
     1
 90
        5
176
     1
 90
        0
176
     1
 90
        0
176
     1
290
     0
176
     1
 90
       13
176
     1
 40
0.0
176
     1
 90
        0
176
     1
290
     0
176
     1
290
     1
176
     1
290
     1
176
     1
290
     0
176
     1
290
     0
176
     1
290
     0
176
     1
290
     0
176
     1
290
     0
176
     1
290
     0
176
     1
 90
       50
176
     1
 40
0.0
176
     1
 40
1.0
176
     1
 90
        0
176
     1
 62
    18
420
        0
176
     1
 90
       50
176
     1
 90
        3
176
     1
 62
     5
420
      255
176
     1
290
     0
176
     1
 90
       50
176
     1
 90
       50
176
     1
 90
       50
176
     1
290
     0
176
     1
 90
       50
176
     1
 62
   256
176
     0
 40
1.0
176
     0
 90
        2
176
     1
  1
strokes_ogs.tif
176
     1
290
     0
176
     1
 40
1.0
176
     1
 40
1.0
176
     1
  0
VISUALSTYLE
  5
2D
102
{ACAD_REACTORS
330
2A
102
}
330
2A
100
AcDbVisualStyle
  2
Gouraud
 70
     2
177
     3
291
     1
 70
    58
 90
        2
176
     1
 90
        2
176
     1
 90
        1
176
     1
 90
        2
176
     1
 40
0.6
176
     1
 40
30.0
176
     1
 62
     7
420
 16777215
176
     1
 90
        0
176
     1
 90
        0
176
     1
 62
     7
176
     1
 62
   257
176
     1
 90
        1
176
     1
 90
        1
176
     1
 40
1.0
176
     1
 90
        0
176
     1
 62
     7
176
     1
 40
1.0
176
     1
 90
        1
176
     1
 90
        6
176
     1
 90
        2
176
     1
 62
     7
176
     1
 90
        5
176
     1
 90
        0
176
     1
 90
        0
176
     1
290
     0
176
     1
 90
       13
176
     1
 40
0.0
176
     1
 90
        0
176
     1
290
     0
176
     1
290
     1
176
     1
290
     1
176
     1
290
     0
176
     1
290
     0
176
     1
290
     0
176
     1
290
     0
176
     1
290
     0
176
     1
290
     0
176
     1
 90
       50
176
     1
 40
0.0
176
     1
 40
1.0
176
     1
 90
        0
176
     1
 62
    18
420
        0
176
     1
 90
       50
176
     1
 90
        3
176
     1
 62
     5
420
      255
176
     1
290
     0
176
     1
 90
       50
176
     1
 90
       50
176
     1
 90
       50
176
     1
290
     0
176
     1
 90
       50
176
     1
 62
   256
176
     0
 40
1.0
176
     0
 90
        2
176
     1
  1
strokes_ogs.tif
176
     1
290
     0
176
     1
 40
1.0
176
     1
 40
1.0
176
     1
  0
VISUALSTYLE
  5
2E
102
{ACAD_REACTORS
330
2A
102
}
330
2A
100
AcDbVisualStyle
  2
GouraudWithEdges
 70
     3
177
     3
291
     1
 70
    58
 90
        2
176
     1
 90
        2
176
     1
 90
        1
176
     1
 90
        2
176
     1
 40
0.6
176
     1
 40
30.0
176
     1
 62
     7
420
 16777215
176
     1
 90
        1
176
     1
 90
        0
176
     1
 62
     7
176
     1
 62
   257
176
     1
 90
        1
176
     1
 90
        1
176
     1
 40
1.0
176
     1
 90
        0
176
     1
 62
   257
176
     1
 40
1.0
176
     1
 90
        1
176
     1
 90
        6
176
     1
 90
        2
176
     1
 62
     7
176
     1
 90
        5
176
     1
 90
        0
176
     1
 90
        0
176
     1
290
     0
176
     1
 90
       13
176
     1
 40
0.0
176
     1
 90
        0
176
     1
290
     0
176
     1
290
     1
176
     1
290
     1
176
     1
290
     0
176
     1
290
     0
176
     1
290
     0
176
     1
290
     0
176
     1
290
     0
176
     1
290
     0
176
     1
 90
       50
176
     1
 40
0.0
176
     1
 40
1.0
176
     1
 90
        0
176
     1
 62
    18
420
        0
176
     1
 90
       50
176
     1
 90
        3
176
     1
 62
     5
420
      255
176
     1
290
     0
176
     1
 90
       50
176
     1
 90
       50
176
     1
 90
       50
176
     1
290
     0
176
     1
 90
       50
176
     1
 62
   256
176
     0
 40
1.0
176
     0
 90
        2
176
     1
  1
strokes_ogs.tif
176
     1
290
     0
176
     1
 40
1.0
176
     1
 40
1.0
176
     1
  0
VISUALSTYLE
  5
31
102
{ACAD_REACTORS
330
2A
102
}
330
2A
100
AcDbVisualStyle
  2
Hidden
 70
     6
177
     3
291
     0
 70
    58
 90
        1
176
     1
 90
        2
176
     1
 90
        2
176
     1
 90
        0
176
     1
 40
0.6
176
     1
 40
30.0
176
     1
 62
     7
420
 16777215
176
     1
 90
        2
176
     1
 90
        2
176
     1
 62
     7
176
     1
 62
   257
176
     1
 90
        2
176
     1
 90
        1
176
     1
 40
40.0
176
     1
 90
        0
176
     1
 62
   257
176
     1
 40
1.0
176
     1
 90
        1
176
     1
 90
        6
176
     1
 90
        2
176
     1
 62
     7
176
     1
 90
        3
176
     1
 90
        0
176
     1
 90
        0
176
     1
290
     0
176
     1
 90
        1
176
     1
 40
0.0
176
     1
 90
        0
176
     1
290
     0
176
     1
290
     1
176
     1
290
     1
176
     1
290
     0
176
     1
290
     0
176
     1
290
     0
176
     1
290
     0
176
     1
290
     0
176
     1
290
     0
176
     1
 90
       50
176
     1
 40
0.0
176
     1
 40
1.0
176
     1
 90
        0
176
     1
 62
    18
420
        0
176
     1
 90
       50
176
     1
 90
        3
176
     1
 62
     5
420
      255
176
     1
290
     0
176
     1
 90
       50
176
     1
 90
       50
176
     1
 90
       50
176
     1
290
     0
176
     1
 90
       50
176
     1
 62
   256
176
     0
 40
1.0
176
     0
 90
        2
176
     1
  1
strokes_ogs.tif
176
     1
290
     0
176
     1
 40
1.0
176
     1
 40
1.0
176
     1
  0
VISUALSTYLE
  5
3B
102
{ACAD_REACTORS
330
2A
102
}
330
2A
100
AcDbVisualStyle
  2
JitterOff
 70
    20
177
     3
291
     1
 70
    58
 90
        2
176
     0
 90
        2
176
     0
 90
        0
176
     0
 90
        0
176
     0
 40
0.6
176
     0
 40
30.0
176
     0
 62
     7
420
 16777215
176
     0
 90
        1
176
     0
 90
        4
176
     0
 62
     7
176
     0
 62
   257
176
     0
 90
        1
176
     0
 90
        1
176
     0
 40
1.0
176
     0
 90
       10
176
     2
 62
     7
176
     0
 40
1.0
176
     0
 90
        1
176
     0
 90
        6
176
     0
 90
        2
176
     0
 62
     7
176
     0
 90
        5
176
     0
 90
        0
176
     0
 90
        0
176
     0
290
     0
176
     0
 90
        1
176
     0
 40
0.0
176
     0
 90
        0
176
     0
290
     0
176
     0
290
     1
176
     0
290
     1
176
     0
290
     0
176
     0
290
     0
176
     0
290
     0
176
     0
290
     0
176
     0
290
     0
176
     0
290
     0
176
     0
 90
       50
176
     0
 40
0.0
176
     0
 40
1.0
176
     0
 90
        0
176
     0
 62
    18
420
        0
176
     0
 90
       50
176
     0
 90
        3
176
     0
 62
     5
420
      255
176
     0
290
     0
176
     0
 90
       50
176
     0
 90
       50
176
     0
 90
       50
176
     0
290
     0
176
     0
 90
       50
176
     0
 62
   256
176
     0
 40
1.0
176
     0
 90
        2
176
     0
  1
strokes_ogs.tif
176
     0
290
     0
176
     0
 40
1.0
176
     0
 40
1.0
176
     0
  0
VISUALSTYLE
  5
38
102
{ACAD_REACTORS
330
2A
102
}
330
2A
100
AcDbVisualStyle
  2
Linepattern
 70
    14
177
     3
291
     1
 70
    58
 90
        2
176
     1
 90
        2
176
     1
 90
        0
176
     1
 90
        0
176
     1
 40
0.6
176
     1
 40
30.0
176
     1
 62
     7
420
 16777215
176
     1
 90
        1
176
     1
 90
        4
176
     1
 62
     7
176
     1
 62
   257
176
     1
 90
        7
176
     1
 90
        7
176
     1
 40
1.0
176
     1
 90
        8
176
     1
 62
     7
176
     1
 40
1.0
176
     1
 90
        1
176
     1
 90
        6
176
     1
 90
        2
176
     1
 62
     7
176
     1
 90
        5
176
     1
 90
        0
176
     1
 90
        0
176
     1
290
     0
176
     1
 90
        1
176
     1
 40
0.0
176
     1
 90
        0
176
     1
290
     0
176
     1
290
     1
176
     1
290
     1
176
     1
290
     0
176
     1
290
     0
176
     1
290
     0
176
     1
290
     0
176
     1
290
     0
176
     1
290
     0
176
     1
 90
       50
176
     1
 40
0.0
176
     1
 40
1.0
176
     1
 90
        0
176
     1
 62
    18
420
        0
176
     1
 90
       50
176
     1
 90
        3
176
     1
 62
     5
420
      255
176
     1
290
     0
176
     1
 90
       50
176
     1
 90
       50
176
     1
 90
       50
176
     1
290
     0
176
     1
 90
       50
176
     1
 62
   256
176
     0
 40
1.0
176
     0
 90
        2
176
     1
  1
strokes_ogs.tif
176
     1
290
     0
176
     1
 40
1.0
176
     1
 40
1.0
176
     1
  0
VISUALSTYLE
  5
3C
102
{ACAD_REACTORS
330
2A
102
}
330
2A
100
AcDbVisualStyle
  2
OverhangOff
 70
    21
177
     3
291
     1
 70
    58
 90
        2
176
     0
 90
        2
176
     0
 90
        0
176
     0
 90
        0
176
     0
 40
0.6
176
     0
 40
30.0
176
     0
 62
     7
420
 16777215
176
     0
 90
        1
176
     0
 90
        4
176
     0
 62
     7
176
     0
 62
   257
176
     0
 90
        1
176
     0
 90
        1
176
     0
 40
1.0
176
     0
 90
        9
176
     2
 62
     7
176
     0
 40
1.0
176
     0
 90
        1
176
     0
 90
        6
176
     0
 90
        2
176
     0
 62
     7
176
     0
 90
        5
176
     0
 90
        0
176
     0
 90
        0
176
     0
290
     0
176
     0
 90
        1
176
     0
 40
0.0
176
     0
 90
        0
176
     0
290
     0
176
     0
290
     1
176
     0
290
     1
176
     0
290
     0
176
     0
290
     0
176
     0
290
     0
176
     0
290
     0
176
     0
290
     0
176
     0
290
     0
176
     0
 90
       50
176
     0
 40
0.0
176
     0
 40
1.0
176
     0
 90
        0
176
     0
 62
    18
420
        0
176
     0
 90
       50
176
     0
 90
        3
176
     0
 62
     5
420
      255
176
     0
290
     0
176
     0
 90
       50
176
     0
 90
       50
176
     0
 90
       50
176
     0
290
     0
176
     0
 90
       50
176
     0
 62
   256
176
     0
 40
1.0
176
     0
 90
        2
176
     0
  1
strokes_ogs.tif
176
     0
290
     0
176
     0
 40
1.0
176
     0
 40
1.0
176
     0
  0
VISUALSTYLE
  5
33
102
{ACAD_REACTORS
330
2A
102
}
330
2A
100
AcDbVisualStyle
  2
Realistic
 70
     8
177
     3
291
     0
 70
    58
 90
        2
176
     1
 90
        3
176
     1
 90
        0
176
     1
 90
        2
176
     1
 40
0.6
176
     1
 40
30.0
176
     1
 62
     7
420
 16777215
176
     1
 90
        0
176
     1
 90
        0
176
     1
 62
     7
176
     1
 62
   257
176
     1
 90
        1
176
     1
 90
        1
176
     1
 40
1.0
176
     1
 90
        8
176
     1
 62
   257
176
     1
 40
1.0
176
     1
 90
        1
176
     1
 90
        6
176
     1
 90
        2
176
     1
 62
     7
176
     1
 90
        3
176
     1
 90
        0
176
     1
 90
        0
176
     1
290
     0
176
     1
 90
       13
176
     1
 40
0.0
176
     1
 90
        0
176
     1
290
     0
176
     1
290
     1
176
     1
290
     1
176
     1
290
     0
176
     1
290
     0
176
     1
290
     0
176
     1
290
     0
176
     1
290
     0
176
     1
290
     0
176
     1
 90
       50
176
     1
 40
0.0
176
     1
 40
1.0
176
     1
 90
        0
176
     1
 62
    18
420
        0
176
     1
 90
       50
176
     1
 90
        3
176
     1
 62
     5
420
      255
176
     1
290
     0
176
     1
 90
       50
176
     1
 90
       50
176
     1
 90
       50
176
     1
290
     0
176
     1
 90
       50
176
     1
 62
   256
176
     0
 40
1.0
176
     0
 90
        2
176
     1
  1
strokes_ogs.tif
176
     1
290
     0
176
     1
 40
1.0
176
     1
 40
1.0
176
     1
  0
VISUALSTYLE
  5
42
102
{ACAD_REACTORS
330
2A
102
}
330
2A
100
AcDbVisualStyle
  2
Shaded
 70
    27
177
     3
291
     0
 70
    58
 90
        2
176
     1
 90
        2
176
     1
 90
        1
176
     1
 90
        2
176
     1
 40
0.6
176
     1
 40
30.0
176
     1
 62
     7
420
 16777215
176
     1
 90
        0
176
     1
 90
        4
176
     1
 62
     7
176
     1
 62
   257
176
     1
 90
        1
176
     1
 90
        1
176
     1
 40
1.0
176
     1
 90
        8
176
     1
 62
   257
176
     1
 40
1.0
176
     1
 90
        1
176
     1
 90
        6
176
     1
 90
        2
176
     1
 62
     8
420
  7895160
176
     1
 90
        3
176
     1
 90
        0
176
     1
 90
        0
176
     1
290
     0
176
     1
 90
        5
176
     1
 40
0.0
176
     1
 90
        0
176
     1
290
     0
176
     1
290
     1
176
     1
290
     1
176
     1
290
     0
176
     1
290
     0
176
     1
290
     0
176
     1
290
     0
176
     1
290
     0
176
     1
290
     0
176
     1
 90
       50
176
     1
 40
0.0
176
     1
 40
1.0
176
     1
 90
        0
176
     1
 62
    18
420
        0
176
     1
 90
       50
176
     1
 90
        3
176
     1
 62
     5
420
      255
176
     1
290
     0
176
     1
 90
       50
176
     1
 90
       50
176
     1
 90
       50
176
     1
290
     0
176
     1
 90
       50
176
     1
 62
   256
176
     0
 40
1.0
176
     0
 90
        2
176
     1
  1
strokes_ogs.tif
176
     1
290
     0
176
     1
 40
1.0
176
     1
 40
1.0
176
     1
  0
VISUALSTYLE
  5
41
102
{ACAD_REACTORS
330
2A
102
}
330
2A
100
AcDbVisualStyle
  2
Shaded with edges
 70
    26
177
     3
291
     0
 70
    58
 90
        2
176
     1
 90
        2
176
     1
 90
        1
176
     1
 90
        2
176
     1
 40
0.6
176
     1
 40
30.0
176
     1
 62
     7
420
 16777215
176
     1
 90
        1
176
     1
 90
       10
176
     1
 62
     7
176
     1
 62
   257
176
     1
 90
        2
176
     1
 90
        1
176
     1
 40
1.0
176
     1
 90
        8
176
     1
 62
   257
176
     1
 40
1.0
176
     1
 90
        1
176
     1
 90
        6
176
     1
 90
        2
176
     1
 62
     7
176
     1
 90
        3
176
     1
 90
        0
176
     1
 90
        0
176
     1
290
     0
176
     1
 90
        5
176
     1
 40
0.0
176
     1
 90
        0
176
     1
290
     0
176
     1
290
     1
176
     1
290
     1
176
     1
290
     0
176
     1
290
     0
176
     1
290
     0
176
     1
290
     0
176
     1
290
     0
176
     1
290
     0
176
     1
 90
       50
176
     1
 40
0.0
176
     1
 40
1.0
176
     1
 90
        0
176
     1
 62
    18
420
        0
176
     1
 90
       50
176
     1
 90
        3
176
     1
 62
     5
420
      255
176
     1
290
     0
176
     1
 90
       50
176
     1
 90
       50
176
     1
 90
       50
176
     1
290
     0
176
     1
 90
       50
176
     1
 62
   256
176
     0
 40
1.0
176
     0
 90
        2
176
     1
  1
strokes_ogs.tif
176
     1
290
     0
176
     1
 40
1.0
176
     1
 40
1.0
176
     1
  0
VISUALSTYLE
  5
3E
102
{ACAD_REACTORS
330
2A
102
}
330
2A
100
AcDbVisualStyle
  2
Shades of Gray
 70
    23
177
     3
291
     0
 70
    58
 90
        2
176
     1
 90
        2
176
     1
 90
        3
176
     1
 90
        0
176
     1
 40
0.6
176
     1
 40
30.0
176
     1
 62
     7
420
 16777215
176
     1
 90
        2
176
     1
 90
        2
176
     1
 62
     7
176
     1
 62
     7
176
     1
 90
        1
176
     1
 90
        1
176
     1
 40
40.0
176
     1
 90
        8
176
     1
 62
     7
176
     1
 40
1.0
176
     1
 90
        1
176
     1
 90
        6
176
     1
 90
        2
176
     1
 62
     7
176
     1
 90
        3
176
     1
 90
        0
176
     1
 90
        0
176
     1
290
     0
176
     1
 90
        1
176
     1
 40
0.0
176
     1
 90
        0
176
     1
290
     0
176
     1
290
     1
176
     1
290
     1
176
     1
290
     0
176
     1
290
     0
176
     1
290
     0
176
     1
290
     0
176
     1
290
     0
176
     1
290
     0
176
     1
 90
       50
176
     1
 40
0.0
176
     1
 40
1.0
176
     1
 90
        0
176
     1
 62
    18
420
        0
176
     1
 90
       50
176
     1
 90
        3
176
     1
 62
     5
420
      255
176
     1
290
     0
176
     1
 90
       50
176
     1
 90
       50
176
     1
 90
       50
176
     1
290
     0
176
     1
 90
       50
176
     1
 62
   256
176
     0
 40
1.0
176
     0
 90
        2
176
     1
  1
strokes_ogs.tif
176
     1
290
     0
176
     1
 40
1.0
176
     1
 40
1.0
176
     1
  0
VISUALSTYLE
  5
3F
102
{ACAD_REACTORS
330
2A
102
}
330
2A
100
AcDbVisualStyle
  2
Sketchy
 70
    24
177
     3
291
     0
 70
    58
 90
        1
176
     1
 90
        2
176
     1
 90
        2
176
     1
 90
        0
176
     1
 40
0.6
176
     1
 40
30.0
176
     1
 62
     7
420
 16777215
176
     1
 90
        2
176
     1
 90
        2
176
     1
 62
     7
176
     1
 62
     7
176
     1
 90
        1
176
     1
 90
        1
176
     1
 40
40.0
176
     1
 90
       11
176
     1
 62
     7
176
     1
 40
1.0
176
     1
 90
        1
176
     1
 90
        6
176
     1
 90
        2
176
     1
 62
     7
176
     1
 90
        6
176
     1
 90
        0
176
     1
 90
        0
176
     1
290
     0
176
     1
 90
        1
176
     1
 40
0.0
176
     1
 90
        0
176
     1
290
     0
176
     1
290
     1
176
     1
290
     1
176
     1
290
     0
176
     1
290
     0
176
     1
290
     0
176
     1
290
     0
176
     1
290
     0
176
     1
290
     0
176
     1
 90
       50
176
     1
 40
0.0
176
     1
 40
1.0
176
     1
 90
        0
176
     1
 62
    18
420
        0
176
     1
 90
       50
176
     1
 90
        3
176
     1
 62
     5
420
      255
176
     1
290
     0
176
     1
 90
       50
176
     1
 90
       50
176
     1
 90
       50
176
     1
290
     0
176
     1
 90
       50
176
     1
 62
   256
176
     0
 40
1.0
176
     0
 90
        2
176
     1
  1
strokes_ogs.tif
176
     1
290
     0
176
     1
 40
1.0
176
     1
 40
1.0
176
     1
  0
VISUALSTYLE
  5
37
102
{ACAD_REACTORS
330
2A
102
}
330
2A
100
AcDbVisualStyle
  2
Thicken
 70
    13
177
     3
291
     1
 70
    58
 90
        2
176
     1
 90
        2
176
     1
 90
        0
176
     1
 90
        0
176
     1
 40
0.6
176
     1
 40
30.0
176
     1
 62
     7
420
 16777215
176
     1
 90
        1
176
     1
 90
        4
176
     1
 62
     7
176
     1
 62
   257
176
     1
 90
        1
176
     1
 90
        1
176
     1
 40
1.0
176
     1
 90
       12
176
     1
 62
     7
176
     1
 40
1.0
176
     1
 90
        1
176
     1
 90
        6
176
     1
 90
        2
176
     1
 62
     7
176
     1
 90
        5
176
     1
 90
        0
176
     1
 90
        0
176
     1
290
     0
176
     1
 90
        1
176
     1
 40
0.0
176
     1
 90
        0
176
     1
290
     0
176
     1
290
     1
176
     1
290
     1
176
     1
290
     0
176
     1
290
     0
176
     1
290
     0
176
     1
290
     0
176
     1
290
     0
176
     1
290
     0
176
     1
 90
       50
176
     1
 40
0.0
176
     1
 40
1.0
176
     1
 90
        0
176
     1
 62
    18
420
        0
176
     1
 90
       50
176
     1
 90
        3
176
     1
 62
     5
420
      255
176
     1
290
     0
176
     1
 90
       50
176
     1
 90
       50
176
     1
 90
       50
176
     1
290
     0
176
     1
 90
       50
176
     1
 62
   256
176
     0
 40
1.0
176
     0
 90
        2
176
     1
  1
strokes_ogs.tif
176
     1
290
     0
176
     1
 40
1.0
176
     1
 40
1.0
176
     1
  0
VISUALSTYLE
  5
30
102
{ACAD_REACTORS
330
2A
102
}
330
2A
100
AcDbVisualStyle
  2
Wireframe
 70
     5
177
     3
291
     0
 70
    58
 90
        0
176
     1
 90
        2
176
     1
 90
        0
176
     1
 90
        0
176
     1
 40
0.6
176
     1
 40
30.0
176
     1
 62
     7
420
 16777215
176
     1
 90
        1
176
     1
 90
        4
176
     1
 62
     7
176
     1
 62
   257
176
     1
 90
        1
176
     1
 90
        1
176
     1
 40
1.0
176
     1
 90
        0
176
     1
 62
   257
176
     1
 40
1.0
176
     1
 90
        1
176
     1
 90
        6
176
     1
 90
        2
176
     1
 62
     7
176
     1
 90
        3
176
     1
 90
        0
176
     1
 90
        0
176
     1
290
     0
176
     1
 90
        1
176
     1
 40
0.0
176
     1
 90
        0
176
     1
290
     0
176
     1
290
     1
176
     1
290
     1
176
     1
290
     0
176
     1
290
     0
176
     1
290
     0
176
     1
290
     0
176
     1
290
     0
176
     1
290
     0
176
     1
 90
       50
176
     1
 40
0.0
176
     1
 40
1.0
176
     1
 90
        0
176
     1
 62
    18
420
        0
176
     1
 90
       50
176
     1
 90
        3
176
     1
 62
     5
420
      255
176
     1
290
     0
176
     1
 90
       50
176
     1
 90
       50
176
     1
 90
       50
176
     1
290
     0
176
     1
 90
       50
176
     1
 62
   256
176
     0
 40
1.0
176
     0
 90
        2
176
     1
  1
strokes_ogs.tif
176
     1
290
     0
176
     1
 40
1.0
176
     1
 40
1.0
176
     1
  0
VISUALSTYLE
  5
40
102
{ACAD_REACTORS
330
2A
102
}
330
2A
100
AcDbVisualStyle
  2
X-Ray
 70
    25
177
     3
291
     0
 70
    58
 90
        2
176
     1
 90
        2
176
     1
 90
        1
176
     1
 90
        1
176
     1
 40
0.5
176
     1
 40
30.0
176
     1
 62
     7
420
 16777215
176
     1
 90
        1
176
     1
 90
        0
176
     1
 62
     7
176
     1
 62
   257
176
     1
 90
        1
176
     1
 90
        1
176
     1
 40
1.0
176
     1
 90
        8
176
     1
 62
     7
176
     1
 40
1.0
176
     1
 90
        1
176
     1
 90
        6
176
     1
 90
        2
176
     1
 62
     7
176
     1
 90
        3
176
     1
 90
        0
176
     1
 90
        0
176
     1
290
     0
176
     1
 90
       13
176
     1
 40
0.0
176
     1
 90
        0
176
     1
290
     0
176
     1
290
     1
176
     1
290
     1
176
     1
290
     0
176
     1
290
     0
176
     1
290
     0
176
     1
290
     0
176
     1
290
     0
176
     1
290
     0
176
     1
 90
       50
176
     1
 40
0.0
176
     1
 40
1.0
176
     1
 90
        0
176
     1
 62
    18
420
        0
176
     1
 90
       50
176
     1
 90
        3
176
     1
 62
     5
420
      255
176
     1
290
     0
176
     1
 90
       50
176
     1
 90
       50
176
     1
 90
       50
176
     1
290
     0
176
     1
 90
       50
176
     1
 62
   256
176
     0
 40
1.0
176
     0
 90
        2
176
     1
  1
strokes_ogs.tif
176
     1
290
     0
176
     1
 40
1.0
176
     1
 40
1.0
176
     1
  0
DICTIONARYVAR
  5
298
102
{ACAD_REACTORS
330
297
102
}
330
297
100
DictionaryVariables
280
     0
  1
1:1
  0
DICTIONARYVAR
  5
29D
102
{ACAD_REACTORS
330
297
102
}
330
297
100
DictionaryVariables
280
     0
  1
Standard
  0
DICTIONARYVAR
  5
29C
102
{ACAD_REACTORS
330
297
102
}
330
297
100
DictionaryVariables
280
     0
  1
Standard
  0
DICTIONARY
  5
299
330
6A
100
AcDbDictionary
280
     1
281
     1
  3
ACAD_ROUNDTRIP_2008_TABLESTYLE_CELLSTYLEMAP
360
29A
  0
CELLSTYLEMAP
  5
29A
102
{ACAD_REACTORS
330
299
102
}
330
299
100
AcDbCellStyleMap
 90
        3
300
CELLSTYLE
  1
TABLEFORMAT_BEGIN
 90
        5
170
     1
 91
        0
 92
    32768
 62
   257
 93
        1
300
CONTENTFORMAT
  1
CONTENTFORMAT_BEGIN
 90
        0
 91
        0
 92
        4
 93
        0
300

 40
0.0
140
1.0
 94
        5
 62
     0
340
11
144
6.0
309
CONTENTFORMAT_END
171
     1
301
MARGIN
  1
CELLMARGIN_BEGIN
 40
1.5
 40
1.5
 40
1.5
 40
1.5
 40
1.5
 40
1.5
309
CELLMARGIN_END
 94
        6
 95
        1
302
GRIDFORMAT
  1
GRIDFORMAT_BEGIN
 90
        0
 91
        1
 62
     0
 92
       -2
340
14
 93
        0
 40
0.045
309
GRIDFORMAT_END
 95
        2
302
GRIDFORMAT
  1
GRIDFORMAT_BEGIN
 90
        0
 91
        1
 62
     0
 92
       -2
340
14
 93
        0
 40
0.045
309
GRIDFORMAT_END
 95
        4
302
GRIDFORMAT
  1
GRIDFORMAT_BEGIN
 90
        0
 91
        1
 62
     0
 92
       -2
340
14
 93
        0
 40
0.045
309
GRIDFORMAT_END
 95
        8
302
GRIDFORMAT
  1
GRIDFORMAT_BEGIN
 90
        0
 91
        1
 62
     0
 92
       -2
340
14
 93
        0
 40
0.045
309
GRIDFORMAT_END
 95
       16
302
GRIDFORMAT
  1
GRIDFORMAT_BEGIN
 90
        0
 91
        1
 62
     0
 92
       -2
340
14
 93
        0
 40
0.045
309
GRIDFORMAT_END
 95
       32
302
GRIDFORMAT
  1
GRIDFORMAT_BEGIN
 90
        0
 91
        1
 62
     0
 92
       -2
340
14
 93
        0
 40
0.045
309
GRIDFORMAT_END
309
TABLEFORMAT_END
  1
CELLSTYLE_BEGIN
 90
        1
 91
        1
300
_TITLE
309
CELLSTYLE_END
300
CELLSTYLE
  1
TABLEFORMAT_BEGIN
 90
        5
170
     1
 91
        0
 92
        0
 62
   257
 93
        1
300
CONTENTFORMAT
  1
CONTENTFORMAT_BEGIN
 90
        0
 91
        0
 92
        4
 93
        0
300

 40
0.0
140
1.0
 94
        5
 62
     0
340
11
144
4.5
309
CONTENTFORMAT_END
171
     1
301
MARGIN
  1
CELLMARGIN_BEGIN
 40
1.5
 40
1.5
 40
1.5
 40
1.5
 40
1.5
 40
1.5
309
CELLMARGIN_END
 94
        6
 95
        1
302
GRIDFORMAT
  1
GRIDFORMAT_BEGIN
 90
        0
 91
        1
 62
     0
 92
       -2
340
14
 93
        0
 40
0.045
309
GRIDFORMAT_END
 95
        2
302
GRIDFORMAT
  1
GRIDFORMAT_BEGIN
 90
        0
 91
        1
 62
     0
 92
       -2
340
14
 93
        0
 40
0.045
309
GRIDFORMAT_END
 95
        4
302
GRIDFORMAT
  1
GRIDFORMAT_BEGIN
 90
        0
 91
        1
 62
     0
 92
       -2
340
14
 93
        0
 40
0.045
309
GRIDFORMAT_END
 95
        8
302
GRIDFORMAT
  1
GRIDFORMAT_BEGIN
 90
        0
 91
        1
 62
     0
 92
       -2
340
14
 93
        0
 40
0.045
309
GRIDFORMAT_END
 95
       16
302
GRIDFORMAT
  1
GRIDFORMAT_BEGIN
 90
        0
 91
        1
 62
     0
 92
       -2
340
14
 93
        0
 40
0.045
309
GRIDFORMAT_END
 95
       32
302
GRIDFORMAT
  1
GRIDFORMAT_BEGIN
 90
        0
 91
        1
 62
     0
 92
       -2
340
14
 93
        0
 40
0.045
309
GRIDFORMAT_END
309
TABLEFORMAT_END
  1
CELLSTYLE_BEGIN
 90
        2
 91
        1
300
_HEADER
309
CELLSTYLE_END
300
CELLSTYLE
  1
TABLEFORMAT_BEGIN
 90
        5
170
     1
 91
        0
 92
        0
 62
   257
 93
        1
300
CONTENTFORMAT
  1
CONTENTFORMAT_BEGIN
 90
        0
 91
        0
 92
        4
 93
        0
300

 40
0.0
140
1.0
 94
        2
 62
     0
340
11
144
4.5
309
CONTENTFORMAT_END
171
     1
301
MARGIN
  1
CELLMARGIN_BEGIN
 40
1.5
 40
1.5
 40
1.5
 40
1.5
 40
1.5
 40
1.5
309
CELLMARGIN_END
 94
        6
 95
        1
302
GRIDFORMAT
  1
GRIDFORMAT_BEGIN
 90
        0
 91
        1
 62
     0
 92
       -2
340
14
 93
        0
 40
0.045
309
GRIDFORMAT_END
 95
        2
302
GRIDFORMAT
  1
GRIDFORMAT_BEGIN
 90
        0
 91
        1
 62
     0
 92
       -2
340
14
 93
        0
 40
0.045
309
GRIDFORMAT_END
 95
        4
302
GRIDFORMAT
  1
GRIDFORMAT_BEGIN
 90
        0
 91
        1
 62
     0
 92
       -2
340
14
 93
        0
 40
0.045
309
GRIDFORMAT_END
 95
        8
302
GRIDFORMAT
  1
GRIDFORMAT_BEGIN
 90
        0
 91
        1
 62
     0
 92
       -2
340
14
 93
        0
 40
0.045
309
GRIDFORMAT_END
 95
       16
302
GRIDFORMAT
  1
GRIDFORMAT_BEGIN
 90
        0
 91
        1
 62
     0
 92
       -2
340
14
 93
        0
 40
0.045
309
GRIDFORMAT_END
 95
       32
302
GRIDFORMAT
  1
GRIDFORMAT_BEGIN
 90
        0
 91
        1
 62
     0
 92
       -2
340
14
 93
        0
 40
0.045
309
GRIDFORMAT_END
309
TABLEFORMAT_END
  1
CELLSTYLE_BEGIN
 90
        3
 91
        2
300
_DATA
309
CELLSTYLE_END
  0
ENDSEC
  0
EOF