0
SECTION
  2
HEADER
  9
$ACADVER
  1
AC1027
  9
$ACADMAINTVER
 70
     8
  9
$DWGCODEPAGE
  3
ANSI_1252
  9
$REQUIREDVERSIONS
160
                 0
  9
$COMMENTS
  1
File was created by Cadenas
  9
$CUSTOMPROPERTYTAG
  1
NN
  9
$CUSTOMPROPERTY
  1
Grip Tight Low Backing Height Two-Bolt Pillow Block Inch Bore
  9
$CUSTOMPROPERTYTAG
  1
NT
  9
$CUSTOMPROPERTY
  1
GTB Normal Duty Pillow Blocks
  9
$CUSTOMPROPERTYTAG
  1
NB
  9
$CUSTOMPROPERTY
  1
129202
  9
$CUSTOMPROPERTYTAG
  1
NBSYN
  9
$CUSTOMPROPERTY
  1
$PN.$LUBE.
  9
$CUSTOMPROPERTYTAG
  1
LINA
  9
$CUSTOMPROPERTY
  1
129202
  9
$CUSTOMPROPERTYTAG
  1
SERIES
  9
$CUSTOMPROPERTY
  1
212
  9
$CUSTOMPROPERTYTAG
  1
SS
  9
$CUSTOMPROPERTY
  1
2-7/16
  9
$CUSTOMPROPERTYTAG
  1
PN
  9
$CUSTOMPROPERTY
  1
129202
  9
$CUSTOMPROPERTYTAG
  1
DESCRIPTION
  9
$CUSTOMPROPERTY
  1
P2B-GTB-207
  9
$CUSTOMPROPERTYTAG
  1
A
  9
$CUSTOMPROPERTY
  1
2-7/64
  9
$CUSTOMPROPERTYTAG
  1
B
  9
$CUSTOMPROPERTY
  1
9-1/2
  9
$CUSTOMPROPERTYTAG
  1
C
  9
$CUSTOMPROPERTY
  1
2-3/8
  9
$CUSTOMPROPERTYTAG
  1
DMIN
  9
$CUSTOMPROPERTY
  1
6-7/8
  9
$CUSTOMPROPERTYTAG
  1
DMAX
  9
$CUSTOMPROPERTY
  1
7-15/16
  9
$CUSTOMPROPERTYTAG
  1
F
  9
$CUSTOMPROPERTY
  1
5/8
  9
$CUSTOMPROPERTYTAG
  1
G
  9
$CUSTOMPROPERTY
  1
1-7/32
  9
$CUSTOMPROPERTYTAG
  1
H
  9
$CUSTOMPROPERTY
  1
51/64
  9
$CUSTOMPROPERTYTAG
  1
J
  9
$CUSTOMPROPERTY
  1
5-5/16
  9
$CUSTOMPROPERTYTAG
  1
L
  9
$CUSTOMPROPERTY
  1
3-1/2
  9
$CUSTOMPROPERTYTAG
  1
M
  9
$CUSTOMPROPERTY
  1
2-11/16
  9
$CUSTOMPROPERTYTAG
  1
R
  9
$CUSTOMPROPERTY
  1
49/64
  9
$CUSTOMPROPERTYTAG
  1
S
  9
$CUSTOMPROPERTY
  1
1-11/32
  9
$CUSTOMPROPERTYTAG
  1
U
  9
$CUSTOMPROPERTY
  1
4-1/4
  9
$CUSTOMPROPERTYTAG
  1
V
  9
$CUSTOMPROPERTY
  1
8-1/2
  9
$CUSTOMPROPERTYTAG
  1
W
  9
$CUSTOMPROPERTY
  1
7/8
  9
$CUSTOMPROPERTYTAG
  1
X
  9
$CUSTOMPROPERTY
  1
3/16
  9
$CUSTOMPROPERTYTAG
  1
Z
  9
$CUSTOMPROPERTY
  1
1-5/16
  9
$CUSTOMPROPERTYTAG
  1
COMPANY
  9
$CUSTOMPROPERTY
  1
baldor
  9
$INSBASE
 10
0.0
 20
0.0
 30
0.0
  9
$EXTMIN
 10
1.000000000000000E+20
 20
1.000000000000000E+20
 30
1.000000000000000E+20
  9
$EXTMAX
 10
-1.000000000000000E+20
 20
-1.000000000000000E+20
 30
-1.000000000000000E+20
  9
$LIMMIN
 10
0.0
 20
0.0
  9
$LIMMAX
 10
12.0
 20
9.0
  9
$ORTHOMODE
 70
     0
  9
$REGENMODE
 70
     1
  9
$FILLMODE
 70
     1
  9
$QTEXTMODE
 70
     0
  9
$MIRRTEXT
 70
     1
  9
$LTSCALE
 40
1.0
  9
$ATTMODE
 70
     1
  9
$TEXTSIZE
 40
0.2
  9
$TRACEWID
 40
0.05
  9
$TEXTSTYLE
  7
Standard
  9
$CLAYER
  8
0
  9
$CELTYPE
  6
ByLayer
  9
$CECOLOR
 62
   256
  9
$CELTSCALE
 40
1.0
  9
$DISPSILH
 70
     0
  9
$DIMSCALE
 40
1.0
  9
$DIMASZ
 40
0.18
  9
$DIMEXO
 40
0.0625
  9
$DIMDLI
 40
0.38
  9
$DIMRND
 40
0.0
  9
$DIMDLE
 40
0.0
  9
$DIMEXE
 40
0.18
  9
$DIMTP
 40
0.0
  9
$DIMTM
 40
0.0
  9
$DIMTXT
 40
0.18
  9
$DIMCEN
 40
0.09
  9
$DIMTSZ
 40
0.0
  9
$DIMTOL
 70
     0
  9
$DIMLIM
 70
     0
  9
$DIMTIH
 70
     1
  9
$DIMTOH
 70
     1
  9
$DIMSE1
 70
     0
  9
$DIMSE2
 70
     0
  9
$DIMTAD
 70
     0
  9
$DIMZIN
 70
     0
  9
$DIMBLK
  1

  9
$DIMASO
 70
     1
  9
$DIMSHO
 70
     1
  9
$DIMPOST
  1

  9
$DIMAPOST
  1

  9
$DIMALT
 70
     0
  9
$DIMALTD
 70
     2
  9
$DIMALTF
 40
25.4
  9
$DIMLFAC
 40
1.0
  9
$DIMTOFL
 70
     0
  9
$DIMTVP
 40
0.0
  9
$DIMTIX
 70
     0
  9
$DIMSOXD
 70
     0
  9
$DIMSAH
 70
     0
  9
$DIMBLK1
  1

  9
$DIMBLK2
  1

  9
$DIMSTYLE
  2
Standard
  9
$DIMCLRD
 70
     0
  9
$DIMCLRE
 70
     0
  9
$DIMCLRT
 70
     0
  9
$DIMTFAC
 40
1.0
  9
$DIMGAP
 40
0.09
  9
$DIMJUST
 70
     0
  9
$DIMSD1
 70
     0
  9
$DIMSD2
 70
     0
  9
$DIMTOLJ
 70
     1
  9
$DIMTZIN
 70
     0
  9
$DIMALTZ
 70
     0
  9
$DIMALTTZ
 70
     0
  9
$DIMUPT
 70
     0
  9
$DIMDEC
 70
     4
  9
$DIMTDEC
 70
     4
  9
$DIMALTU
 70
     2
  9
$DIMALTTD
 70
     2
  9
$DIMTXSTY
  7
Standard
  9
$DIMAUNIT
 70
     0
  9
$DIMADEC
 70
     0
  9
$DIMALTRND
 40
0.0
  9
$DIMAZIN
 70
     0
  9
$DIMDSEP
 70
    46
  9
$DIMATFIT
 70
     3
  9
$DIMFRAC
 70
     0
  9
$DIMLDRBLK
  1

  9
$DIMLUNIT
 70
     2
  9
$DIMLWD
 70
    -2
  9
$DIMLWE
 70
    -2
  9
$DIMTMOVE
 70
     0
  9
$DIMFXL
 40
1.0
  9
$DIMFXLON
 70
     0
  9
$DIMJOGANG
 40
0.7853981633974483
  9
$DIMTFILL
 70
     0
  9
$DIMTFILLCLR
 70
     0
  9
$DIMARCSYM
 70
     0
  9
$DIMLTYPE
  6

  9
$DIMLTEX1
  6

  9
$DIMLTEX2
  6

  9
$DIMTXTDIRECTION
 70
     0
  9
$LUNITS
 70
     2
  9
$LUPREC
 70
     4
  9
$SKETCHINC
 40
0.1
  9
$FILLETRAD
 40
0.5
  9
$AUNITS
 70
     0
  9
$AUPREC
 70
     0
  9
$MENU
  1
.
  9
$ELEVATION
 40
0.0
  9
$PELEVATION
 40
0.0
  9
$THICKNESS
 40
0.0
  9
$LIMCHECK
 70
     0
  9
$CHAMFERA
 40
0.0
  9
$CHAMFERB
 40
0.0
  9
$CHAMFERC
 40
0.0
  9
$CHAMFERD
 40
0.0
  9
$SKPOLY
 70
     0
  9
$TDCREATE
 40
2458168.994485428
  9
$TDUCREATE
 40
2458168.952818762
  9
$TDUPDATE
 40
2458168.994485613
  9
$TDUUPDATE
 40
2458168.952818947
  9
$TDINDWG
 40
0.0000000116
  9
$TDUSRTIMER
 40
0.0000000116
  9
$USRTIMER
 70
     1
  9
$ANGBASE
 50
0.0
  9
$ANGDIR
 70
     0
  9
$PDMODE
 70
     0
  9
$PDSIZE
 40
0.0
  9
$PLINEWID
 40
0.0
  9
$SPLFRAME
 70
     0
  9
$SPLINETYPE
 70
     6
  9
$SPLINESEGS
 70
     8
  9
$HANDSEED
  5
27D
  9
$SURFTAB1
 70
     6
  9
$SURFTAB2
 70
     6
  9
$SURFTYPE
 70
     6
  9
$SURFU
 70
     6
  9
$SURFV
 70
     6
  9
$UCSBASE
  2

  9
$UCSNAME
  2

  9
$UCSORG
 10
0.0
 20
0.0
 30
0.0
  9
$UCSXDIR
 10
1.0
 20
0.0
 30
0.0
  9
$UCSYDIR
 10
0.0
 20
1.0
 30
0.0
  9
$UCSORTHOREF
  2

  9
$UCSORTHOVIEW
 70
     0
  9
$UCSORGTOP
 10
0.0
 20
0.0
 30
0.0
  9
$UCSORGBOTTOM
 10
0.0
 20
0.0
 30
0.0
  9
$UCSORGLEFT
 10
0.0
 20
0.0
 30
0.0
  9
$UCSORGRIGHT
 10
0.0
 20
0.0
 30
0.0
  9
$UCSORGFRONT
 10
0.0
 20
0.0
 30
0.0
  9
$UCSORGBACK
 10
0.0
 20
0.0
 30
0.0
  9
$PUCSBASE
  2

  9
$PUCSNAME
  2

  9
$PUCSORG
 10
0.0
 20
0.0
 30
0.0
  9
$PUCSXDIR
 10
1.0
 20
0.0
 30
0.0
  9
$PUCSYDIR
 10
0.0
 20
1.0
 30
0.0
  9
$PUCSORTHOREF
  2

  9
$PUCSORTHOVIEW
 70
     0
  9
$PUCSORGTOP
 10
0.0
 20
0.0
 30
0.0
  9
$PUCSORGBOTTOM
 10
0.0
 20
0.0
 30
0.0
  9
$PUCSORGLEFT
 10
0.0
 20
0.0
 30
0.0
  9
$PUCSORGRIGHT
 10
0.0
 20
0.0
 30
0.0
  9
$PUCSORGFRONT
 10
0.0
 20
0.0
 30
0.0
  9
$PUCSORGBACK
 10
0.0
 20
0.0
 30
0.0
  9
$USERI1
 70
     0
  9
$USERI2
 70
     0
  9
$USERI3
 70
     0
  9
$USERI4
 70
     0
  9
$USERI5
 70
     0
  9
$USERR1
 40
0.0
  9
$USERR2
 40
0.0
  9
$USERR3
 40
0.0
  9
$USERR4
 40
0.0
  9
$USERR5
 40
0.0
  9
$WORLDVIEW
 70
     1
  9
$SHADEDGE
 70
     3
  9
$SHADEDIF
 70
    70
  9
$TILEMODE
 70
     1
  9
$MAXACTVP
 70
    64
  9
$PINSBASE
 10
0.0
 20
0.0
 30
0.0
  9
$PLIMCHECK
 70
     0
  9
$PEXTMIN
 10
1.000000000000000E+20
 20
1.000000000000000E+20
 30
1.000000000000000E+20
  9
$PEXTMAX
 10
-1.000000000000000E+20
 20
-1.000000000000000E+20
 30
-1.000000000000000E+20
  9
$PLIMMIN
 10
0.0
 20
0.0
  9
$PLIMMAX
 10
12.0
 20
9.0
  9
$UNITMODE
 70
     0
  9
$VISRETAIN
 70
     1
  9
$PLINEGEN
 70
     0
  9
$PSLTSCALE
 70
     1
  9
$TREEDEPTH
 70
  3020
  9
$CMLSTYLE
  2
Standard
  9
$CMLJUST
 70
     0
  9
$CMLSCALE
 40
1.0
  9
$PROXYGRAPHICS
 70
     1
  9
$MEASUREMENT
 70
     0
  9
$CELWEIGHT
370
    -1
  9
$ENDCAPS
280
     0
  9
$JOINSTYLE
280
     0
  9
$LWDISPLAY
290
     0
  9
$INSUNITS
 70
     1
  9
$HYPERLINKBASE
  1

  9
$STYLESHEET
  1

  9
$XEDIT
290
     1
  9
$CEPSNTYPE
380
     0
  9
$PSTYLEMODE
290
     1
  9
$FINGERPRINTGUID
  2
{90146D4E-BFB6-4B46-9199-E0FDF4DDB70E}
  9
$VERSIONGUID
  2
{FAEB1C32-E019-11D5-929B-00C0DF256EC4}
  9
$EXTNAMES
290
     1
  9
$PSVPSCALE
 40
0.0
  9
$OLESTARTUP
290
     0
  9
$SORTENTS
280
   127
  9
$INDEXCTL
280
     0
  9
$HIDETEXT
280
     1
  9
$XCLIPFRAME
280
     2
  9
$HALOGAP
280
     0
  9
$OBSCOLOR
 70
   257
  9
$OBSLTYPE
280
     0
  9
$INTERSECTIONDISPLAY
280
     0
  9
$INTERSECTIONCOLOR
 70
   257
  9
$DIMASSOC
280
     2
  9
$PROJECTNAME
  1

  9
$CAMERADISPLAY
290
     0
  9
$LENSLENGTH
 40
50.0
  9
$CAMERAHEIGHT
 40
0.0
  9
$STEPSPERSEC
 40
2.0
  9
$STEPSIZE
 40
6.0
  9
$3DDWFPREC
 40
2.0
  9
$PSOLWIDTH
 40
0.25
  9
$PSOLHEIGHT
 40
4.0
  9
$LOFTANG1
 40
1.570796326794897
  9
$LOFTANG2
 40
1.570796326794897
  9
$LOFTMAG1
 40
0.0
  9
$LOFTMAG2
 40
0.0
  9
$LOFTPARAM
 70
     7
  9
$LOFTNORMALS
280
     1
  9
$LATITUDE
 40
37.795
  9
$LONGITUDE
 40
-122.394
  9
$NORTHDIRECTION
 40
0.0
  9
$TIMEZONE
 70
 -8000
  9
$LIGHTGLYPHDISPLAY
280
     1
  9
$TILEMODELIGHTSYNCH
280
     1
  9
$CMATERIAL
347
44
  9
$SOLIDHIST
280
     0
  9
$SHOWHIST
280
     1
  9
$DWFFRAME
280
     2
  9
$DGNFRAME
280
     2
  9
$REALWORLDSCALE
290
     1
  9
$INTERFERECOLOR
 62
   256
  9
$CSHADOW
280
     0
  9
$SHADOWPLANELOCATION
 40
0.0
  0
ENDSEC
  0
SECTION
  2
CLASSES
  0
CLASS
  1
ACDBDICTIONARYWDFLT
  2
AcDbDictionaryWithDefault
  3
ObjectDBX Classes
 90
        0
 91
        4
280
     0
281
     0
  0
CLASS
  1
VISUALSTYLE
  2
AcDbVisualStyle
  3
ObjectDBX Classes
 90
     4095
 91
        4
280
     0
281
     0
  0
CLASS
  1
MATERIAL
  2
AcDbMaterial
  3
ObjectDBX Classes
 90
     1153
 91
        4
280
     0
281
     0
  0
CLASS
  1
SCALE
  2
AcDbScale
  3
ObjectDBX Classes
 90
     1153
 91
        4
280
     0
281
     0
  0
CLASS
  1
TABLESTYLE
  2
AcDbTableStyle
  3
ObjectDBX Classes
 90
     4095
 91
        4
280
     0
281
     0
  0
CLASS
  1
MLEADERSTYLE
  2
AcDbMLeaderStyle
  3
ACDB_MLEADERSTYLE_CLASS
 90
     4095
 91
        4
280
     0
281
     0
  0
CLASS
  1
SUN
  2
AcDbSun
  3
SCENEOE
 90
     1153
 91
        4
280
     0
281
     0
  0
CLASS
  1
DICTIONARYVAR
  2
AcDbDictionaryVar
  3
ObjectDBX Classes
 90
        0
 91
        4
280
     0
281
     0
  0
CLASS
  1
CELLSTYLEMAP
  2
AcDbCellStyleMap
  3
ObjectDBX Classes
 90
     1152
 91
        4
280
     0
281
     0
  0
ENDSEC
  0
SECTION
  2
TABLES
  0
TABLE
  2
VPORT
  5
8
330
0
100
AcDbSymbolTable
 70
     1
  0
VPORT
  5
29
330
8
100
AcDbSymbolTableRecord
100
AcDbViewportTableRecord
  2
*Active
 70
     0
 10
0.0
 20
0.0
 11
1.0
 21
1.0
 12
0.0
 22
-0.0714843749999998
 13
0.0
 23
0.0
 14
0.5
 24
0.5
 15
0.5
 25
0.5
 16
0.0
 26
0.0
 36
1.0
 17
0.0
 27
0.0
 37
0.0
 40
2.810578125000001
 41
3.447689254323787
 42
50.0
 43
0.0
 44
0.0
 50
0.0
 51
0.0
 71
     0
 72
   100
 73
     1
 74
     3
 75
     0
 76
     0
 77
     0
 78
     0
281
     0
 65
     1
110
0.0
120
0.0
130
0.0
111
1.0
121
0.0
131
0.0
112
0.0
122
1.0
132
0.0
 79
     0
146
0.0
348
2F
 60
     3
 61
     5
292
     1
282
     1
141
0.0
142
0.0
 63
   250
361
6D
  0
ENDTAB
  0
TABLE
  2
LTYPE
  5
5
330
0
100
AcDbSymbolTable
 70
     3
  0
LTYPE
  5
14
330
5
100
AcDbSymbolTableRecord
100
AcDbLinetypeTableRecord
  2
ByBlock
 70
     0
  3

 72
    65
 73
     0
 40
0.0
  0
LTYPE
  5
15
330
5
100
AcDbSymbolTableRecord
100
AcDbLinetypeTableRecord
  2
ByLayer
 70
     0
  3

 72
    65
 73
     0
 40
0.0
  0
LTYPE
  5
16
330
5
100
AcDbSymbolTableRecord
100
AcDbLinetypeTableRecord
  2
Continuous
 70
     0
  3
Solid line
 72
    65
 73
     0
 40
0.0
  0
LTYPE
  5
A5
330
5
100
AcDbSymbolTableRecord
100
AcDbLinetypeTableRecord
  2
Dashed
 70
     0
  3

 72
    65
 73
     2
 40
2.0
 49
1.0
 74
     0
 49
-1.0
 74
     0
  0
LTYPE
  5
11B
330
5
100
AcDbSymbolTableRecord
100
AcDbLinetypeTableRecord
  2
Center
 70
     0
  3

 72
    65
 73
     4
 40
1.5
 49
0.45
 74
     0
 49
-0.5
 74
     0
 49
0.05
 74
     0
 49
-0.5
 74
     0
  0
ENDTAB
  0
TABLE
  2
LAYER
  5
2
330
0
100
AcDbSymbolTable
 70
     7
  0
LAYER
  5
10
330
2
100
AcDbSymbolTableRecord
100
AcDbLayerTableRecord
  2
0
 70
     0
 62
     7
  6
Continuous
370
    -3
390
F
347
46
348
0
  0
LAYER
  5
72
330
2
100
AcDbSymbolTableRecord
100
AcDbLayerTableRecord
  2
AM_6
 70
     0
 62
    -2
  6
Continuous
370
    35
390
F
347
46
348
0
  0
LAYER
  5
A6
330
2
100
AcDbSymbolTableRecord
100
AcDbLayerTableRecord
  2
AM_9
 70
     0
 62
     6
  6
Dashed
370
    25
390
F
347
46
348
0
  0
LAYER
  5
D6
330
2
100
AcDbSymbolTableRecord
100
AcDbLayerTableRecord
  2
AM_4
 70
     0
 62
     7
  6
Continuous
370
    50
390
F
347
46
348
0
  0
LAYER
  5
118
330
2
100
AcDbSymbolTableRecord
100
AcDbLayerTableRecord
  2
AM_5
 70
     0
 62
     3
  6
Continuous
370
    25
390
F
347
46
348
0
  0
LAYER
  5
11C
330
2
100
AcDbSymbolTableRecord
100
AcDbLayerTableRecord
  2
AM_7
 70
     0
 62
     7
  6
Center
370
    25
390
F
347
46
348
0
  0
LAYER
  5
26F
330
2
100
AcDbSymbolTableRecord
100
AcDbLayerTableRecord
  2
ConnectionPoints
 70
     0
 62
     7
  6
Continuous
370
    50
390
F
347
46
348
0
  0
ENDTAB
  0
TABLE
  2
STYLE
  5
3
330
0
100
AcDbSymbolTable
 70
     1
  0
STYLE
  5
11
330
3
100
AcDbSymbolTableRecord
100
AcDbTextStyleTableRecord
  2
Standard
 70
     0
 40
0.0
 41
1.0
 50
0.0
 71
     0
 42
0.2
  3
txt
  4

  0
ENDTAB
  0
TABLE
  2
VIEW
  5
6
330
0
100
AcDbSymbolTable
 70
     0
  0
ENDTAB
  0
TABLE
  2
UCS
  5
7
330
0
100
AcDbSymbolTable
 70
     0
  0
ENDTAB
  0
TABLE
  2
APPID
  5
9
330
0
100
AcDbSymbolTable
 70
     1
  0
APPID
  5
12
330
9
100
AcDbSymbolTableRecord
100
AcDbRegAppTableRecord
  2
ACAD
 70
     0
  0
ENDTAB
  0
TABLE
  2
DIMSTYLE
  5
A
330
0
100
AcDbSymbolTable
 70
     1
100
AcDbDimStyleTable
  0
DIMSTYLE
105
27
330
A
100
AcDbSymbolTableRecord
100
AcDbDimStyleTableRecord
  2
Standard
 70
     0
178
     0
340
11
  0
ENDTAB
  0
TABLE
  2
BLOCK_RECORD
  5
1
330
0
100
AcDbSymbolTable
 70
     5
  0
BLOCK_RECORD
  5
1F
330
1
100
AcDbSymbolTableRecord
100
AcDbBlockTableRecord
  2
*Model_Space
340
22
 70
     0
280
     1
281
     0
  0
BLOCK_RECORD
  5
1B
330
1
100
AcDbSymbolTableRecord
100
AcDbBlockTableRecord
  2
*Paper_Space
340
1E
 70
     0
280
     1
281
     0
  0
BLOCK_RECORD
  5
23
330
1
100
AcDbSymbolTableRecord
100
AcDbBlockTableRecord
  2
*Paper_Space0
340
26
 70
     0
280
     1
281
     0
  0
BLOCK_RECORD
  5
6E
330
1
100
AcDbSymbolTableRecord
100
AcDbBlockTableRecord
  2
1_129202_4
340
0
102
{BLKREFS
331
6F
102
}
 70
     0
280
     1
281
     0
  0
BLOCK_RECORD
  5
8F
330
1
100
AcDbSymbolTableRecord
100
AcDbBlockTableRecord
  2
2_129525I_0_in_129202_4
340
0
102
{BLKREFS
331
90
102
}
 70
     0
280
     1
281
     0
  0
BLOCK_RECORD
  5
D9
330
1
100
AcDbSymbolTableRecord
100
AcDbBlockTableRecord
  2
3_129921_0_in_129202_4
340
0
102
{BLKREFS
331
DA
102
}
 70
     0
280
     1
281
     0
  0
BLOCK_RECORD
  5
132
330
1
100
AcDbSymbolTableRecord
100
AcDbBlockTableRecord
  2
4_129441I_0_in_129202_4
340
0
102
{BLKREFS
331
133
102
}
 70
     0
280
     1
281
     0
  0
ENDTAB
  0
ENDSEC
  0
SECTION
  2
BLOCKS
  0
BLOCK
  5
20
330
1F
100
AcDbEntity
  8
0
100
AcDbBlockBegin
  2
*Model_Space
 70
     0
 10
0.0
 20
0.0
 30
0.0
  3
*Model_Space
  1

  0
ENDBLK
  5
21
330
1F
100
AcDbEntity
  8
0
100
AcDbBlockEnd
  0
BLOCK
  5
1C
330
1B
100
AcDbEntity
 67
     1
  8
0
100
AcDbBlockBegin
  2
*Paper_Space
 70
     0
 10
0.0
 20
0.0
 30
0.0
  3
*Paper_Space
  1

  0
ENDBLK
  5
1D
330
1B
100
AcDbEntity
 67
     1
  8
0
100
AcDbBlockEnd
  0
BLOCK
  5
24
330
23
100
AcDbEntity
  8
0
100
AcDbBlockBegin
  2
*Paper_Space0
 70
     0
 10
0.0
 20
0.0
 30
0.0
  3
*Paper_Space0
  1

  0
ENDBLK
  5
25
330
23
100
AcDbEntity
  8
0
100
AcDbBlockEnd
  0
BLOCK
  5
70
330
6E
100
AcDbEntity
  8
0
100
AcDbBlockBegin
  2
1_129202_4
 70
     2
 10
0.0
 20
0.0
 30
0.0
  3
1_129202_4
  1

  0
ATTDEF
  5
73
330
6E
100
AcDbEntity
  8
AM_6
100
AcDbText
 10
9.75
 20
1.30625
 30
0.0
 40
0.5
  1
Grip Tight Low Backing Height Two-Bolt Pillow Block Inch Bore
100
AcDbAttributeDefinition
  3

  2
NN
 70
     8
280
     0
  0
ATTDEF
  5
74
330
6E
100
AcDbEntity
  8
AM_6
100
AcDbText
 10
9.75
 20
0.8062499999999999
 30
0.0
 40
0.5
  1
GTB Normal Duty Pillow Blocks
100
AcDbAttributeDefinition
  3

  2
NT
 70
     8
280
     0
  0
ATTDEF
  5
75
330
6E
100
AcDbEntity
  8
AM_6
100
AcDbText
 10
9.75
 20
0.3062499999999999
 30
0.0
 40
0.5
  1
129202
100
AcDbAttributeDefinition
  3

  2
NB
 70
     8
280
     0
  0
ATTDEF
  5
76
330
6E
100
AcDbEntity
  8
AM_6
100
AcDbText
 10
9.75
 20
-0.1937500000000001
 30
0.0
 40
0.5
  1
$PN.$LUBE.
100
AcDbAttributeDefinition
  3

  2
NBSYN
 70
     8
280
     0
  0
ATTDEF
  5
77
330
6E
100
AcDbEntity
  8
AM_6
100
AcDbText
 10
9.75
 20
-0.6937500000000001
 30
0.0
 40
0.5
  1
129202
100
AcDbAttributeDefinition
  3

  2
LINA
 70
     8
280
     0
  0
ATTDEF
  5
78
330
6E
100
AcDbEntity
  8
AM_6
100
AcDbText
 10
9.75
 20
-1.19375
 30
0.0
 40
0.5
  1
212
100
AcDbAttributeDefinition
  3

  2
SERIES
 70
     8
280
     0
  0
ATTDEF
  5
79
330
6E
100
AcDbEntity
  8
AM_6
100
AcDbText
 10
9.75
 20
-1.69375
 30
0.0
 40
0.5
  1
2-7/16
100
AcDbAttributeDefinition
  3

  2
SS
 70
     8
280
     0
  0
ATTDEF
  5
7A
330
6E
100
AcDbEntity
  8
AM_6
100
AcDbText
 10
9.75
 20
-2.19375
 30
0.0
 40
0.5
  1
129202
100
AcDbAttributeDefinition
  3

  2
PN
 70
     8
280
     0
  0
ATTDEF
  5
7B
330
6E
100
AcDbEntity
  8
AM_6
100
AcDbText
 10
9.75
 20
-2.69375
 30
0.0
 40
0.5
  1
P2B-GTB-207
100
AcDbAttributeDefinition
  3

  2
DESCRIPTION
 70
     8
280
     0
  0
ATTDEF
  5
7C
330
6E
100
AcDbEntity
  8
AM_6
100
AcDbText
 10
9.75
 20
-3.19375
 30
0.0
 40
0.5
  1
2-7/64
100
AcDbAttributeDefinition
  3

  2
A
 70
     8
280
     0
  0
ATTDEF
  5
7D
330
6E
100
AcDbEntity
  8
AM_6
100
AcDbText
 10
9.75
 20
-3.69375
 30
0.0
 40
0.5
  1
9-1/2
100
AcDbAttributeDefinition
  3

  2
B
 70
     8
280
     0
  0
ATTDEF
  5
7E
330
6E
100
AcDbEntity
  8
AM_6
100
AcDbText
 10
9.75
 20
-4.19375
 30
0.0
 40
0.5
  1
2-3/8
100
AcDbAttributeDefinition
  3

  2
C
 70
     8
280
     0
  0
ATTDEF
  5
7F
330
6E
100
AcDbEntity
  8
AM_6
100
AcDbText
 10
9.75
 20
-4.69375
 30
0.0
 40
0.5
  1
6-7/8
100
AcDbAttributeDefinition
  3

  2
DMIN
 70
     8
280
     0
  0
ATTDEF
  5
80
330
6E
100
AcDbEntity
  8
AM_6
100
AcDbText
 10
9.75
 20
-5.19375
 30
0.0
 40
0.5
  1
7-15/16
100
AcDbAttributeDefinition
  3

  2
DMAX
 70
     8
280
     0
  0
ATTDEF
  5
81
330
6E
100
AcDbEntity
  8
AM_6
100
AcDbText
 10
9.75
 20
-5.69375
 30
0.0
 40
0.5
  1
5/8
100
AcDbAttributeDefinition
  3

  2
F
 70
     8
280
     0
  0
ATTDEF
  5
82
330
6E
100
AcDbEntity
  8
AM_6
100
AcDbText
 10
9.75
 20
-6.19375
 30
0.0
 40
0.5
  1
1-7/32
100
AcDbAttributeDefinition
  3

  2
G
 70
     8
280
     0
  0
ATTDEF
  5
83
330
6E
100
AcDbEntity
  8
AM_6
100
AcDbText
 10
9.75
 20
-6.69375
 30
0.0
 40
0.5
  1
51/64
100
AcDbAttributeDefinition
  3

  2
H
 70
     8
280
     0
  0
ATTDEF
  5
84
330
6E
100
AcDbEntity
  8
AM_6
100
AcDbText
 10
9.75
 20
-7.19375
 30
0.0
 40
0.5
  1
5-5/16
100
AcDbAttributeDefinition
  3

  2
J
 70
     8
280
     0
  0
ATTDEF
  5
85
330
6E
100
AcDbEntity
  8
AM_6
100
AcDbText
 10
9.75
 20
-7.69375
 30
0.0
 40
0.5
  1
3-1/2
100
AcDbAttributeDefinition
  3

  2
L
 70
     8
280
     0
  0
ATTDEF
  5
86
330
6E
100
AcDbEntity
  8
AM_6
100
AcDbText
 10
9.75
 20
-8.19375
 30
0.0
 40
0.5
  1
2-11/16
100
AcDbAttributeDefinition
  3

  2
M
 70
     8
280
     0
  0
ATTDEF
  5
87
330
6E
100
AcDbEntity
  8
AM_6
100
AcDbText
 10
9.75
 20
-8.69375
 30
0.0
 40
0.5
  1
49/64
100
AcDbAttributeDefinition
  3

  2
R
 70
     8
280
     0
  0
ATTDEF
  5
88
330
6E
100
AcDbEntity
  8
AM_6
100
AcDbText
 10
9.75
 20
-9.19375
 30
0.0
 40
0.5
  1
1-11/32
100
AcDbAttributeDefinition
  3

  2
S
 70
     8
280
     0
  0
ATTDEF
  5
89
330
6E
100
AcDbEntity
  8
AM_6
100
AcDbText
 10
9.75
 20
-9.69375
 30
0.0
 40
0.5
  1
4-1/4
100
AcDbAttributeDefinition
  3

  2
U
 70
     8
280
     0
  0
ATTDEF
  5
8A
330
6E
100
AcDbEntity
  8
AM_6
100
AcDbText
 10
9.75
 20
-10.19375
 30
0.0
 40
0.5
  1
8-1/2
100
AcDbAttributeDefinition
  3

  2
V
 70
     8
280
     0
  0
ATTDEF
  5
8B
330
6E
100
AcDbEntity
  8
AM_6
100
AcDbText
 10
9.75
 20
-10.69375
 30
0.0
 40
0.5
  1
7/8
100
AcDbAttributeDefinition
  3

  2
W
 70
     8
280
     0
  0
ATTDEF
  5
8C
330
6E
100
AcDbEntity
  8
AM_6
100
AcDbText
 10
9.75
 20
-11.19375
 30
0.0
 40
0.5
  1
3/16
100
AcDbAttributeDefinition
  3

  2
X
 70
     8
280
     0
  0
ATTDEF
  5
8D
330
6E
100
AcDbEntity
  8
AM_6
100
AcDbText
 10
9.75
 20
-11.69375
 30
0.0
 40
0.5
  1
1-5/16
100
AcDbAttributeDefinition
  3

  2
Z
 70
     8
280
     0
  0
ATTDEF
  5
8E
330
6E
100
AcDbEntity
  8
AM_6
100
AcDbText
 10
9.75
 20
-12.19375
 30
0.0
 40
0.5
  1
baldor
100
AcDbAttributeDefinition
  3

  2
COMPANY
 70
     8
280
     0
  0
INSERT
  5
90
330
6E
100
AcDbEntity
  8
0
100
AcDbBlockReference
  2
2_129525I_0_in_129202_4
 10
0.0
 20
0.0
 30
0.0
  0
INSERT
  5
DA
330
6E
100
AcDbEntity
  8
0
100
AcDbBlockReference
  2
3_129921_0_in_129202_4
 10
0.0
 20
0.0
 30
0.0
  0
INSERT
  5
133
330
6E
100
AcDbEntity
  8
0
100
AcDbBlockReference
  2
4_129441I_0_in_129202_4
 10
0.0
 20
0.0
 30
0.0
  0
ENDBLK
  5
71
330
6E
100
AcDbEntity
  8
0
100
AcDbBlockEnd
  0
BLOCK
  5
91
330
8F
100
AcDbEntity
  8
0
100
AcDbBlockBegin
  2
2_129525I_0_in_129202_4
 70
     2
 10
0.0
 20
0.0
 30
0.0
  3
2_129525I_0_in_129202_4
  1

  0
ATTDEF
  5
93
330
8F
100
AcDbEntity
  8
AM_6
100
AcDbText
 10
7.164827584946083
 20
0.6569999999999998
 30
0.0
 40
0.5
  1
INS-GT B
100
AcDbAttributeDefinition
  3

  2
NN
 70
     8
280
     0
  0
ATTDEF
  5
94
330
8F
100
AcDbEntity
  8
AM_6
100
AcDbText
 10
7.164827584946083
 20
0.1569999999999998
 30
0.0
 40
0.5
  1
GT Normal Duty Bearing Inserts
100
AcDbAttributeDefinition
  3

  2
NT
 70
     8
280
     0
  0
ATTDEF
  5
95
330
8F
100
AcDbEntity
  8
AM_6
100
AcDbText
 10
7.164827584946083
 20
-0.3430000000000002
 30
0.0
 40
0.5
  1
129525I
100
AcDbAttributeDefinition
  3

  2
NB
 70
     8
280
     0
  0
ATTDEF
  5
96
330
8F
100
AcDbEntity
  8
AM_6
100
AcDbText
 10
7.164827584946083
 20
-0.8430000000000002
 30
0.0
 40
0.5
  1
$PN.I
100
AcDbAttributeDefinition
  3

  2
NBSYN
 70
     8
280
     0
  0
ATTDEF
  5
97
330
8F
100
AcDbEntity
  8
AM_6
100
AcDbText
 10
7.164827584946083
 20
-1.343
 30
0.0
 40
0.5
  1
129525
100
AcDbAttributeDefinition
  3

  2
LINA
 70
     8
280
     0
  0
ATTDEF
  5
98
330
8F
100
AcDbEntity
  8
AM_6
100
AcDbText
 10
7.164827584946083
 20
-1.843
 30
0.0
 40
0.5
  1
212
100
AcDbAttributeDefinition
  3

  2
SERIES
 70
     8
280
     0
  0
ATTDEF
  5
99
330
8F
100
AcDbEntity
  8
AM_6
100
AcDbText
 10
7.164827584946083
 20
-2.343
 30
0.0
 40
0.5
  1
129525
100
AcDbAttributeDefinition
  3

  2
PN
 70
     8
280
     0
  0
ATTDEF
  5
9A
330
8F
100
AcDbEntity
  8
AM_6
100
AcDbText
 10
7.164827584946083
 20
-2.843
 30
0.0
 40
0.5
  1
INS-GT-12
100
AcDbAttributeDefinition
  3

  2
DESCRIPTION
 70
     8
280
     0
  0
ATTDEF
  5
9B
330
8F
100
AcDbEntity
  8
AM_6
100
AcDbText
 10
7.164827584946083
 20
-3.343
 30
0.0
 40
0.5
  1
2.12
100
AcDbAttributeDefinition
  3

  2
A
 70
     8
280
     0
  0
ATTDEF
  5
9C
330
8F
100
AcDbEntity
  8
AM_6
100
AcDbText
 10
7.164827584946083
 20
-3.843
 30
0.0
 40
0.5
  1
1.02
100
AcDbAttributeDefinition
  3

  2
C
 70
     8
280
     0
  0
ATTDEF
  5
9D
330
8F
100
AcDbEntity
  8
AM_6
100
AcDbText
 10
7.164827584946083
 20
-4.343
 30
0.0
 40
0.5
  1
4.3307
100
AcDbAttributeDefinition
  3

  2
D
 70
     8
280
     0
  0
ATTDEF
  5
9E
330
8F
100
AcDbEntity
  8
AM_6
100
AcDbText
 10
7.164827584946083
 20
-4.843
 30
0.0
 40
0.5
  1
0.25
100
AcDbAttributeDefinition
  3

  2
J
 70
     8
280
     0
  0
ATTDEF
  5
9F
330
8F
100
AcDbEntity
  8
AM_6
100
AcDbText
 10
7.164827584946083
 20
-5.343
 30
0.0
 40
0.5
  1
3.69
100
AcDbAttributeDefinition
  3

  2
L
 70
     8
280
     0
  0
ATTDEF
  5
A0
330
8F
100
AcDbEntity
  8
AM_6
100
AcDbText
 10
7.164827584946083
 20
-5.843
 30
0.0
 40
0.5
  1
#10 - 32 x 1/4
100
AcDbAttributeDefinition
  3

  2
N
 70
     8
280
     0
  0
ATTDEF
  5
A1
330
8F
100
AcDbEntity
  8
AM_6
100
AcDbText
 10
7.164827584946083
 20
-6.343
 30
0.0
 40
0.5
  1
0.73000
100
AcDbAttributeDefinition
  3

  2
W
 70
     8
280
     0
  0
ATTDEF
  5
A2
330
8F
100
AcDbEntity
  8
AM_6
100
AcDbText
 10
7.164827584946083
 20
-6.843
 30
0.0
 40
0.5
  1
1.46
100
AcDbAttributeDefinition
  3

  2
X
 70
     8
280
     0
  0
ATTDEF
  5
A3
330
8F
100
AcDbEntity
  8
AM_6
100
AcDbText
 10
7.164827584946083
 20
-7.343
 30
0.0
 40
0.5
  1
1.39
100
AcDbAttributeDefinition
  3

  2
Y
 70
     8
280
     0
  0
ATTDEF
  5
A4
330
8F
100
AcDbEntity
  8
AM_6
100
AcDbText
 10
7.164827584946083
 20
-7.843
 30
0.0
 40
0.5
  1
baldor
100
AcDbAttributeDefinition
  3

  2
COMPANY
 70
     8
280
     0
  0
LINE
  5
A7
330
8F
100
AcDbEntity
  8
AM_9
100
AcDbLine
 10
1.376428466
 20
-1.094999072898146
 30
0.0
 11
1.376428466
 21
-0.5474990728981456
 31
0.0
  0
LINE
  5
A8
330
8F
100
AcDbEntity
  8
AM_9
100
AcDbLine
 10
-1.376428466
 20
-0.5474990728981456
 30
0.0
 11
-1.376428466
 21
-1.094999072898146
 31
0.0
  0
LINE
  5
A9
330
8F
100
AcDbEntity
  8
AM_9
100
AcDbLine
 10
-1.376428466
 20
-0.5474990728981456
 30
0.0
 11
1.376428466
 21
-0.5474990728981456
 31
0.0
  0
LINE
  5
AA
330
8F
100
AcDbEntity
  8
AM_9
100
AcDbLine
 10
1.376428466
 20
-0.5474990728981456
 30
0.0
 11
1.4184905004777
 21
0.6569999999999997
 31
0.0
  0
LINE
  5
AB
330
8F
100
AcDbEntity
  8
AM_9
100
AcDbLine
 10
-1.4184905004777
 20
0.6569999999999997
 30
0.0
 11
-1.376428466
 21
-0.5474990728981456
 31
0.0
  0
LINE
  5
AC
330
8F
100
AcDbEntity
  8
AM_9
100
AcDbLine
 10
1.508214233
 20
-0.9124990728981458
 30
0.0
 11
1.508214233
 21
-0.7299990728981457
 31
0.0
  0
LINE
  5
AD
330
8F
100
AcDbEntity
  8
AM_9
100
AcDbLine
 10
-1.508214233
 20
-0.7299990728981457
 30
0.0
 11
-1.508214233
 21
-0.9124990728981458
 31
0.0
  0
LINE
  5
AE
330
8F
100
AcDbEntity
  8
AM_9
100
AcDbLine
 10
1.64
 20
0.51
 30
0.0
 11
1.64
 21
0.6161999999999999
 31
0.0
  0
LINE
  5
AF
330
8F
100
AcDbEntity
  8
AM_9
100
AcDbLine
 10
-1.64
 20
0.6161999999999999
 30
0.0
 11
-1.64
 21
0.51
 31
0.0
  0
LINE
  5
B0
330
8F
100
AcDbEntity
  8
AM_9
100
AcDbLine
 10
-0.7645118272625038
 20
-0.9124990728981457
 30
0.0
 11
1.64
 21
-0.9124990728981458
 31
0.0
  0
LINE
  5
B1
330
8F
100
AcDbEntity
  8
AM_9
100
AcDbLine
 10
1.64
 20
-1.054199072898146
 30
0.0
 11
1.64
 21
-0.9124990728981458
 31
0.0
  0
LINE
  5
B2
330
8F
100
AcDbEntity
  8
AM_9
100
AcDbLine
 10
-1.64
 20
-0.9124990728981458
 30
0.0
 11
-1.64
 21
-1.054199072898146
 31
0.0
  0
LINE
  5
B3
330
8F
100
AcDbEntity
  8
AM_9
100
AcDbLine
 10
-1.64
 20
-0.9124990728981458
 30
0.0
 11
-0.9258678463296882
 21
-0.9124990728981457
 31
0.0
  0
LINE
  5
B4
330
8F
100
AcDbEntity
  8
AM_9
100
AcDbLine
 10
-0.7645118272625048
 20
-1.054199072898146
 30
0.0
 11
1.64
 21
-1.054199072898146
 31
0.0
  0
LINE
  5
B5
330
8F
100
AcDbEntity
  8
AM_9
100
AcDbLine
 10
1.5992
 20
-1.094999072898146
 30
0.0
 11
1.64
 21
-1.054199072898146
 31
0.0
  0
LINE
  5
B6
330
8F
100
AcDbEntity
  8
AM_9
100
AcDbLine
 10
-1.64
 20
-1.054199072898146
 30
0.0
 11
-1.5992
 21
-1.094999072898146
 31
0.0
  0
LINE
  5
B7
330
8F
100
AcDbEntity
  8
AM_9
100
AcDbLine
 10
-1.5992
 20
-1.094999072898146
 30
0.0
 11
1.5992
 21
-1.094999072898146
 31
0.0
  0
LINE
  5
B8
330
8F
100
AcDbEntity
  8
AM_9
100
AcDbLine
 10
-1.64
 20
-1.054199072898146
 30
0.0
 11
-0.9258678463296882
 21
-1.054199072898146
 31
0.0
  0
LINE
  5
B9
330
8F
100
AcDbEntity
  8
AM_9
100
AcDbLine
 10
-1.64
 20
0.6161999999999999
 30
0.0
 11
1.64
 21
0.6161999999999999
 31
0.0
  0
LINE
  5
BA
330
8F
100
AcDbEntity
  8
AM_9
100
AcDbLine
 10
-1.5992
 20
0.6569999999999998
 30
0.0
 11
1.5992
 21
0.6569999999999998
 31
0.0
  0
LINE
  5
BB
330
8F
100
AcDbEntity
  8
AM_9
100
AcDbLine
 10
-1.5992
 20
0.6569999999999998
 30
0.0
 11
-1.64
 21
0.6161999999999999
 31
0.0
  0
LINE
  5
BC
330
8F
100
AcDbEntity
  8
AM_9
100
AcDbLine
 10
1.64
 20
0.6161999999999999
 30
0.0
 11
1.5992
 21
0.6569999999999998
 31
0.0
  0
LINE
  5
BD
330
8F
100
AcDbEntity
  8
AM_9
100
AcDbLine
 10
1.64
 20
-0.7299990728981457
 30
0.0
 11
1.64
 21
-0.51
 31
0.0
  0
LINE
  5
BE
330
8F
100
AcDbEntity
  8
AM_9
100
AcDbLine
 10
-1.64
 20
-0.51
 30
0.0
 11
-1.64
 21
-0.7299990728981457
 31
0.0
  0
LINE
  5
BF
330
8F
100
AcDbEntity
  8
AM_9
100
AcDbLine
 10
-1.64
 20
-0.7299990728981457
 30
0.0
 11
1.64
 21
-0.7299990728981457
 31
0.0
  0
LINE
  5
C0
330
8F
100
AcDbEntity
  8
AM_9
100
AcDbLine
 10
2.06335
 20
-0.3000000000000001
 30
0.0
 11
2.06335
 21
-0.2
 31
0.0
  0
LINE
  5
C1
330
8F
100
AcDbEntity
  8
AM_9
100
AcDbLine
 10
-2.06335
 20
-0.2
 30
0.0
 11
-2.06335
 21
-0.3000000000000001
 31
0.0
  0
LINE
  5
C2
330
8F
100
AcDbEntity
  8
AM_9
100
AcDbLine
 10
-2.035840869774971
 20
-0.51
 30
0.0
 11
2.035840869774971
 21
-0.51
 31
0.0
  0
ARC
  5
C3
330
8F
100
AcDbEntity
  8
AM_9
100
AcDbCircle
 10
2.035840869167004
 20
-0.4692000000000007
 30
0.0
 40
0.0407999999999993
100
AcDbArc
 50
270.0
 51
338.5875033595294
  0
ARC
  5
C4
330
8F
100
AcDbEntity
  8
AM_9
100
AcDbCircle
 10
-2.035840869167004
 20
-0.4692000000000006
 30
0.0
 40
0.0407999999999991
100
AcDbArc
 50
201.4124966404707
 51
270.0
  0
LINE
  5
C5
330
8F
100
AcDbEntity
  8
AM_9
100
AcDbLine
 10
-2.035840869166999
 20
0.51
 30
0.0
 11
2.035840869166999
 21
0.51
 31
0.0
  0
ARC
  5
C6
330
8F
100
AcDbEntity
  8
AM_9
100
AcDbCircle
 10
2.035840869167
 20
0.4692000000000013
 30
0.0
 40
0.0407999999999986
100
AcDbArc
 50
21.41245777579651
 51
90.0
  0
ARC
  5
C7
330
8F
100
AcDbEntity
  8
AM_9
100
AcDbCircle
 10
-2.035840869167
 20
0.4692000000000013
 30
0.0
 40
0.0407999999999987
100
AcDbArc
 50
90.0
 51
158.5875422242035
  0
LINE
  5
C8
330
8F
100
AcDbEntity
  8
AM_9
100
AcDbLine
 10
-2.073824698589939
 20
-0.4840952577140981
 30
0.0
 11
2.073824698589939
 21
-0.4840952577140981
 31
0.0
  0
ARC
  5
C9
330
8F
100
AcDbEntity
  8
AM_9
100
AcDbCircle
 10
0.8393499999999738
 20
0.0000000000000074
 30
0.0
 40
1.326000000000027
100
AcDbArc
 50
338.5875320425442
 51
346.3641564590656
  0
ARC
  5
CA
330
8F
100
AcDbEntity
  8
AM_9
100
AcDbCircle
 10
-0.8393499999999183
 20
0.000000000000025
 30
0.0
 40
1.326000000000085
100
AcDbArc
 50
193.6358435409345
 51
201.4124679574556
  0
LINE
  5
CB
330
8F
100
AcDbEntity
  8
AM_9
100
AcDbLine
 10
-2.127974977280586
 20
-0.312604651162791
 30
0.0
 11
2.127974977280586
 21
-0.312604651162791
 31
0.0
  0
LINE
  5
CC
330
8F
100
AcDbEntity
  8
AM_9
100
AcDbLine
 10
-2.11806247745535
 20
-0.3000000000000001
 30
0.0
 11
2.11806247745535
 21
-0.3000000000000001
 31
0.0
  0
ARC
  5
CD
330
8F
100
AcDbEntity
  8
AM_9
100
AcDbCircle
 10
2.118062477455351
 20
-0.3102
 30
0.0
 40
0.0101999999999997
100
AcDbArc
 50
346.3641564590636
 51
90.0
  0
ARC
  5
CE
330
8F
100
AcDbEntity
  8
AM_9
100
AcDbCircle
 10
-2.118062477455351
 20
-0.3102
 30
0.0
 40
0.0101999999999999
100
AcDbArc
 50
90.0
 51
193.6358435409363
  0
LINE
  5
CF
330
8F
100
AcDbEntity
  8
AM_9
100
AcDbLine
 10
-2.141389016312513
 20
-0.2
 30
0.0
 11
2.141389016312513
 21
-0.2
 31
0.0
  0
ARC
  5
D0
330
8F
100
AcDbEntity
  8
AM_9
100
AcDbCircle
 10
2.141389016312514
 20
-0.1898000000000006
 30
0.0
 40
0.0101999999999994
100
AcDbArc
 50
270.0
 51
351.7064502235345
  0
ARC
  5
D1
330
8F
100
AcDbEntity
  8
AM_9
100
AcDbCircle
 10
-2.141389016312514
 20
-0.1898000000000006
 30
0.0
 40
0.0101999999999992
100
AcDbArc
 50
188.2935497764655
 51
270.0
  0
LINE
  5
D2
330
8F
100
AcDbEntity
  8
AM_9
100
AcDbLine
 10
-2.151482345060115
 20
-0.1912712969764246
 30
0.0
 11
2.151482345060115
 21
-0.1912712969764246
 31
0.0
  0
LINE
  5
D3
330
8F
100
AcDbEntity
  8
AM_9
100
AcDbLine
 10
-2.073824708693624
 20
0.484095231949036
 30
0.0
 11
2.073824708693624
 21
0.484095231949036
 31
0.0
  0
ARC
  5
D4
330
8F
100
AcDbEntity
  8
AM_9
100
AcDbCircle
 10
0.8393500000000194
 20
0.0000000000000021
 30
0.0
 40
1.325999999999981
100
AcDbArc
 50
351.7063327597812
 51
21.41246676162006
  0
ARC
  5
D5
330
8F
100
AcDbEntity
  8
AM_9
100
AcDbCircle
 10
-0.8393500000000196
 20
0.000000000000002
 30
0.0
 40
1.325999999999981
100
AcDbArc
 50
158.5875332383799
 51
188.2936672402187
  0
LINE
  5
D7
330
8F
100
AcDbEntity
  8
AM_4
100
AcDbLine
 10
-0.9258678463296882
 20
-0.9124990728981457
 30
0.0
 11
-0.7645118272625038
 21
-0.9124990728981457
 31
0.0
  0
LINE
  5
D8
330
8F
100
AcDbEntity
  8
AM_4
100
AcDbLine
 10
-0.9258678463296882
 20
-1.054199072898146
 30
0.0
 11
-0.7645118272625048
 21
-1.054199072898146
 31
0.0
  0
ENDBLK
  5
92
330
8F
100
AcDbEntity
  8
0
100
AcDbBlockEnd
  0
BLOCK
  5
DB
330
D9
100
AcDbEntity
  8
0
100
AcDbBlockBegin
  2
3_129921_0_in_129202_4
 70
     2
 10
0.0
 20
0.0
 30
0.0
  3
3_129921_0_in_129202_4
  1

  0
ATTDEF
  5
DD
330
D9
100
AcDbEntity
  8
AM_6
100
AcDbText
 10
6.745530005471117
 20
0.7656250000000001
 30
0.0
 40
0.5
  1
Grip Tight Normal Duty Adapter and Nut Inch Bore
100
AcDbAttributeDefinition
  3

  2
NN
 70
     8
280
     0
  0
ATTDEF
  5
DE
330
D9
100
AcDbEntity
  8
AM_6
100
AcDbText
 10
6.745530005471117
 20
0.2656250000000001
 30
0.0
 40
0.5
  1
GT and GTM Adapter & Lock Nut Assemblies
100
AcDbAttributeDefinition
  3

  2
NT
 70
     8
280
     0
  0
ATTDEF
  5
DF
330
D9
100
AcDbEntity
  8
AM_6
100
AcDbText
 10
6.745530005471117
 20
-0.2343749999999999
 30
0.0
 40
0.5
  1
129921
100
AcDbAttributeDefinition
  3

  2
NB
 70
     8
280
     0
  0
ATTDEF
  5
E0
330
D9
100
AcDbEntity
  8
AM_6
100
AcDbText
 10
6.745530005471117
 20
-0.7343749999999999
 30
0.0
 40
0.5
  1
$PN.
100
AcDbAttributeDefinition
  3

  2
NBSYN
 70
     8
280
     0
  0
ATTDEF
  5
E1
330
D9
100
AcDbEntity
  8
AM_6
100
AcDbText
 10
6.745530005471117
 20
-1.234375
 30
0.0
 40
0.5
  1
129921
100
AcDbAttributeDefinition
  3

  2
LINA
 70
     8
280
     0
  0
ATTDEF
  5
E2
330
D9
100
AcDbEntity
  8
AM_6
100
AcDbText
 10
6.745530005471117
 20
-1.734375
 30
0.0
 40
0.5
  1
212
100
AcDbAttributeDefinition
  3

  2
SERIES
 70
     8
280
     0
  0
ATTDEF
  5
E3
330
D9
100
AcDbEntity
  8
AM_6
100
AcDbText
 10
6.745530005471117
 20
-2.234375
 30
0.0
 40
0.5
  1
2-7/16
100
AcDbAttributeDefinition
  3

  2
SS
 70
     8
280
     0
  0
ATTDEF
  5
E4
330
D9
100
AcDbEntity
  8
AM_6
100
AcDbText
 10
6.745530005471117
 20
-2.734375
 30
0.0
 40
0.5
  1
129921
100
AcDbAttributeDefinition
  3

  2
PN
 70
     8
280
     0
  0
ATTDEF
  5
E5
330
D9
100
AcDbEntity
  8
AM_6
100
AcDbText
 10
6.745530005471117
 20
-3.234375
 30
0.0
 40
0.5
  1
AN-GT-12-207
100
AcDbAttributeDefinition
  3

  2
DESCRIPTION
 70
     8
280
     0
  0
ATTDEF
  5
E6
330
D9
100
AcDbEntity
  8
AM_6
100
AcDbText
 10
6.745530005471117
 20
-3.734375
 30
0.0
 40
0.5
  1
2-7/64
100
AcDbAttributeDefinition
  3

  2
A
 70
     8
280
     0
  0
ATTDEF
  5
E7
330
D9
100
AcDbEntity
  8
AM_6
100
AcDbText
 10
6.745530005471117
 20
-4.234375
 30
0.0
 40
0.5
  1
1.0240
100
AcDbAttributeDefinition
  3

  2
C
 70
     8
280
     0
  0
ATTDEF
  5
E8
330
D9
100
AcDbEntity
  8
AM_6
100
AcDbText
 10
6.745530005471117
 20
-4.734375
 30
0.0
 40
0.5
  1
4.3307
100
AcDbAttributeDefinition
  3

  2
D
 70
     8
280
     0
  0
ATTDEF
  5
E9
330
D9
100
AcDbEntity
  8
AM_6
100
AcDbText
 10
6.745530005471117
 20
-5.234375
 30
0.0
 40
0.5
  1
0.250
100
AcDbAttributeDefinition
  3

  2
J
 70
     8
280
     0
  0
ATTDEF
  5
EA
330
D9
100
AcDbEntity
  8
AM_6
100
AcDbText
 10
6.745530005471117
 20
-5.734375
 30
0.0
 40
0.5
  1
3-1/2
100
AcDbAttributeDefinition
  3

  2
L
 70
     8
280
     0
  0
ATTDEF
  5
EB
330
D9
100
AcDbEntity
  8
AM_6
100
AcDbText
 10
6.745530005471117
 20
-6.234375
 30
0.0
 40
0.5
  1
10 - 32 x 1/4
100
AcDbAttributeDefinition
  3

  2
N
 70
     8
280
     0
  0
ATTDEF
  5
EC
330
D9
100
AcDbEntity
  8
AM_6
100
AcDbText
 10
6.745530005471117
 20
-6.734375
 30
0.0
 40
0.5
  1
49/64
100
AcDbAttributeDefinition
  3

  2
W
 70
     8
280
     0
  0
ATTDEF
  5
ED
330
D9
100
AcDbEntity
  8
AM_6
100
AcDbText
 10
6.745530005471117
 20
-7.234375
 30
0.0
 40
0.5
  1
1-5/16
100
AcDbAttributeDefinition
  3

  2
X
 70
     8
280
     0
  0
ATTDEF
  5
EE
330
D9
100
AcDbEntity
  8
AM_6
100
AcDbText
 10
6.745530005471117
 20
-7.734375
 30
0.0
 40
0.5
  1
1-11/32
100
AcDbAttributeDefinition
  3

  2
Y
 70
     8
280
     0
  0
ATTDEF
  5
EF
330
D9
100
AcDbEntity
  8
AM_6
100
AcDbText
 10
6.745530005471117
 20
-8.234375
 30
0.0
 40
0.5
  1
baldor
100
AcDbAttributeDefinition
  3

  2
COMPANY
 70
     8
280
     0
  0
LINE
  5
F0
330
D9
100
AcDbEntity
  8
AM_9
100
AcDbLine
 10
-1.72745
 20
-1.262346050080433
 30
0.0
 11
-1.33505
 21
-1.262346050080433
 31
0.0
  0
LINE
  5
F1
330
D9
100
AcDbEntity
  8
AM_9
100
AcDbLine
 10
-1.33505
 20
-1.117446050080433
 30
0.0
 11
-1.72745
 21
-1.117446050080433
 31
0.0
  0
LINE
  5
F2
330
D9
100
AcDbEntity
  8
AM_9
100
AcDbLine
 10
-1.33505
 20
-1.262346050080433
 30
0.0
 11
-1.3125
 21
-1.284896050080433
 31
0.0
  0
LINE
  5
F3
330
D9
100
AcDbEntity
  8
AM_9
100
AcDbLine
 10
-1.3125
 20
-1.094896050080433
 30
0.0
 11
-1.33505
 21
-1.117446050080433
 31
0.0
  0
LINE
  5
F4
330
D9
100
AcDbEntity
  8
AM_9
100
AcDbLine
 10
-1.3125
 20
-1.094896050080433
 30
0.0
 11
-1.3125
 21
-1.284896050080433
 31
0.0
  0
LINE
  5
F5
330
D9
100
AcDbEntity
  8
AM_9
100
AcDbLine
 10
-1.33505
 20
-1.117446050080433
 30
0.0
 11
-1.33505
 21
-1.262346050080433
 31
0.0
  0
LINE
  5
F6
330
D9
100
AcDbEntity
  8
AM_9
100
AcDbLine
 10
-1.72745
 20
-1.117446050080433
 30
0.0
 11
-1.749967305602003
 21
-1.09492874447843
 31
0.0
  0
LINE
  5
F7
330
D9
100
AcDbEntity
  8
AM_9
100
AcDbLine
 10
-1.743316590222914
 20
-1.278212640303347
 30
0.0
 11
-1.72745
 21
-1.262346050080433
 31
0.0
  0
LINE
  5
F8
330
D9
100
AcDbEntity
  8
AM_9
100
AcDbLine
 10
-1.72745
 20
-1.117446050080433
 30
0.0
 11
-1.72745
 21
-1.262346050080433
 31
0.0
  0
LINE
  5
F9
330
D9
100
AcDbEntity
  8
AM_9
100
AcDbLine
 10
1.633333036999407
 20
-0.65625
 30
0.0
 11
1.633333036999407
 21
-1.3125
 31
0.0
  0
LINE
  5
FA
330
D9
100
AcDbEntity
  8
AM_9
100
AcDbLine
 10
1.21875
 20
-1.34375
 30
0.0
 11
1.21875
 21
0.7656249999999999
 31
0.0
  0
LINE
  5
FB
330
D9
100
AcDbEntity
  8
AM_9
100
AcDbLine
 10
-1.21875
 20
0.7656249999999999
 30
0.0
 11
-1.21875
 21
-1.34375
 31
0.0
  0
LINE
  5
FC
330
D9
100
AcDbEntity
  8
AM_9
100
AcDbLine
 10
1.305555555555556
 20
-0.9843749999999997
 30
0.0
 11
1.305555555555556
 21
-0.4921874999999999
 31
0.0
  0
LINE
  5
FD
330
D9
100
AcDbEntity
  8
AM_9
100
AcDbLine
 10
-1.305555555555556
 20
-0.4921874999999999
 30
0.0
 11
-1.305555555555556
 21
-0.9843749999999997
 31
0.0
  0
LINE
  5
FE
330
D9
100
AcDbEntity
  8
AM_9
100
AcDbLine
 10
-0.05
 20
0.7656250000000001
 30
0.0
 11
-0.05
 21
-1.3125
 31
0.0
  0
LINE
  5
FF
330
D9
100
AcDbEntity
  8
AM_9
100
AcDbLine
 10
0.05
 20
0.7656250000000001
 30
0.0
 11
0.05
 21
-1.3125
 31
0.0
  0
LINE
  5
100
330
D9
100
AcDbEntity
  8
AM_9
100
AcDbLine
 10
-1.305555555555556
 20
-0.4921874999999999
 30
0.0
 11
1.305555555555556
 21
-0.4921874999999999
 31
0.0
  0
LINE
  5
101
330
D9
100
AcDbEntity
  8
AM_9
100
AcDbLine
 10
1.305555555555556
 20
-0.4921874999999999
 30
0.0
 11
1.349479335931895
 21
0.765625
 31
0.0
  0
LINE
  5
102
330
D9
100
AcDbEntity
  8
AM_9
100
AcDbLine
 10
-1.349479335931895
 20
0.765625
 30
0.0
 11
-1.305555555555556
 21
-0.4921874999999999
 31
0.0
  0
LINE
  5
103
330
D9
100
AcDbEntity
  8
AM_9
100
AcDbLine
 10
-1.349479335931895
 20
0.765625
 30
0.0
 11
1.349479335931895
 21
0.765625
 31
0.0
  0
LINE
  5
104
330
D9
100
AcDbEntity
  8
AM_9
100
AcDbLine
 10
1.430555555555555
 20
-0.8203125000000001
 30
0.0
 11
1.430555555555555
 21
-0.65625
 31
0.0
  0
LINE
  5
105
330
D9
100
AcDbEntity
  8
AM_9
100
AcDbLine
 10
-1.430555555555555
 20
-0.65625
 30
0.0
 11
-1.430555555555555
 21
-0.8203125000000001
 31
0.0
  0
LINE
  5
106
330
D9
100
AcDbEntity
  8
AM_9
100
AcDbLine
 10
-1.70904
 20
-0.65625
 30
0.0
 11
-1.75
 21
-0.6972099999999999
 31
0.0
  0
LINE
  5
107
330
D9
100
AcDbEntity
  8
AM_9
100
AcDbLine
 10
-1.75
 20
-0.6972099999999999
 30
0.0
 11
-1.75
 21
-0.9099840513960342
 31
0.0
  0
LINE
  5
108
330
D9
100
AcDbEntity
  8
AM_9
100
AcDbLine
 10
-1.75
 20
-0.6972099999999999
 30
0.0
 11
-0.9810181782086138
 21
-0.6972099999999998
 31
0.0
  0
LINE
  5
109
330
D9
100
AcDbEntity
  8
AM_9
100
AcDbLine
 10
-0.9604844706036669
 20
-0.6562500000000001
 30
0.0
 11
-0.9810181782086138
 21
-0.6972099999999998
 31
0.0
  0
LINE
  5
10A
330
D9
100
AcDbEntity
  8
AM_9
100
AcDbLine
 10
-0.9810181782086138
 20
-0.6972099999999998
 30
0.0
 11
-0.9810181782086138
 21
-0.8525559304853177
 31
0.0
  0
LINE
  5
10B
330
D9
100
AcDbEntity
  8
AM_9
100
AcDbLine
 10
-0.7084133430266496
 20
-0.6562499999999999
 30
0.0
 11
-0.7084133430266496
 21
-1.3125
 31
0.0
  0
LINE
  5
10C
330
D9
100
AcDbEntity
  8
AM_9
100
AcDbLine
 10
-0.9249196939727586
 20
-0.9124990728981457
 30
0.0
 11
-0.9249196939727586
 21
-1.056089855002798
 31
0.0
  0
LINE
  5
10D
330
D9
100
AcDbEntity
  8
AM_9
100
AcDbLine
 10
-0.9249196939727586
 20
-0.6562499999999999
 30
0.0
 11
-0.9249196939727586
 21
-0.8501454620390619
 31
0.0
  0
LINE
  5
10E
330
D9
100
AcDbEntity
  8
AM_9
100
AcDbLine
 10
-1.555555555555555
 20
-0.9843749999999999
 30
0.0
 11
1.555555555555555
 21
-0.9843749999999999
 31
0.0
  0
LINE
  5
10F
330
D9
100
AcDbEntity
  8
AM_9
100
AcDbLine
 10
-1.555555555555555
 20
-0.8203125000000001
 30
0.0
 11
1.555555555555555
 21
-0.8203125000000001
 31
0.0
  0
LINE
  5
110
330
D9
100
AcDbEntity
  8
AM_9
100
AcDbLine
 10
1.555555555555555
 20
-0.9843749999999999
 30
0.0
 11
1.555555555555555
 21
-0.8203125000000001
 31
0.0
  0
LINE
  5
111
330
D9
100
AcDbEntity
  8
AM_9
100
AcDbLine
 10
-1.555555555555555
 20
-0.8203125000000001
 30
0.0
 11
-1.555555555555555
 21
-0.9843749999999999
 31
0.0
  0
LINE
  5
112
330
D9
100
AcDbEntity
  8
AM_9
100
AcDbLine
 10
1.704462590261224
 20
-0.65625
 30
0.0
 11
1.745530005471118
 21
-0.6972099999999999
 31
0.0
  0
LINE
  5
113
330
D9
100
AcDbEntity
  8
AM_9
100
AcDbLine
 10
-1.70904
 20
-0.65625
 30
0.0
 11
1.704462590261224
 21
-0.65625
 31
0.0
  0
LINE
  5
114
330
D9
100
AcDbEntity
  8
AM_9
100
AcDbLine
 10
-0.7645118272625049
 20
-0.6972099999999998
 30
0.0
 11
-0.7439781196575579
 21
-0.6562499999999999
 31
0.0
  0
LINE
  5
115
330
D9
100
AcDbEntity
  8
AM_9
100
AcDbLine
 10
1.745530005471118
 20
-0.6972099999999999
 30
0.0
 11
1.745530005471118
 21
-0.9094483120427691
 31
0.0
  0
LINE
  5
116
330
D9
100
AcDbEntity
  8
AM_9
100
AcDbLine
 10
-0.7645118272625049
 20
-0.6972099999999998
 30
0.0
 11
1.745530005471118
 21
-0.6972099999999999
 31
0.0
  0
LINE
  5
117
330
D9
100
AcDbEntity
  8
AM_9
100
AcDbLine
 10
-0.7645118272625049
 20
-0.8441824273675292
 30
0.0
 11
-0.7645118272625049
 21
-0.6972099999999998
 31
0.0
  0
LINE
  5
119
330
D9
100
AcDbEntity
  8
AM_5
100
AcDbLine
 10
-1.736643949919566
 20
-1.284896050080433
 30
0.0
 11
-1.3125
 21
-1.284896050080433
 31
0.0
  0
LINE
  5
11A
330
D9
100
AcDbEntity
  8
AM_5
100
AcDbLine
 10
-1.599303022817713
 20
-1.094896050080433
 30
0.0
 11
-1.376428466
 21
-1.094896050080433
 31
0.0
  0
LINE
  5
11D
330
D9
100
AcDbEntity
  8
AM_7
100
AcDbLine
 10
-1.290625
 20
-1.189896050080433
 30
0.0
 11
-1.771875
 21
-1.189896050080433
 31
0.0
  0
LINE
  5
11E
330
D9
100
AcDbEntity
  8
AM_4
100
AcDbLine
 10
-0.05
 20
-1.34375
 30
0.0
 11
-0.05
 21
-1.3125
 31
0.0
  0
LINE
  5
11F
330
D9
100
AcDbEntity
  8
AM_4
100
AcDbLine
 10
0.05
 20
-1.34375
 30
0.0
 11
0.05
 21
-1.3125
 31
0.0
  0
LINE
  5
120
330
D9
100
AcDbEntity
  8
AM_4
100
AcDbLine
 10
1.305555555555556
 20
-1.34375
 30
0.0
 11
1.305555555555556
 21
-1.3125
 31
0.0
  0
LINE
  5
121
330
D9
100
AcDbEntity
  8
AM_4
100
AcDbLine
 10
-1.305555555555556
 20
-1.3125
 30
0.0
 11
-1.305555555555556
 21
-1.34375
 31
0.0
  0
LINE
  5
122
330
D9
100
AcDbEntity
  8
AM_4
100
AcDbLine
 10
-1.305555555555556
 20
-1.34375
 30
0.0
 11
1.305555555555556
 21
-1.34375
 31
0.0
  0
LINE
  5
123
330
D9
100
AcDbEntity
  8
AM_4
100
AcDbLine
 10
-1.75
 20
-0.9099840513960342
 30
0.0
 11
-1.75
 21
-1.09495842537616
 31
0.0
  0
LWPOLYLINE
  5
124
330
D9
100
AcDbEntity
  8
AM_4
100
AcDbPolyline
 90
       16
 70
     0
 43
0.0
 10
-1.75
 20
-1.094896050080434
 10
-1.749937805847102
 20
-1.096111662722886
 10
-1.749755439148161
 20
-1.099770082253533
 10
-1.749463319075742
 20
-1.105960220768285
 10
-1.74910525910054
 20
-1.114232272725973
 10
-1.748703558048746
 20
-1.12474629395396
 10
-1.748313096757902
 20
-1.136924186588998
 10
-1.747964829622755
 20
-1.150863946051889
 10
-1.747708495538552
 20
-1.165815964477329
 10
-1.747568534313452
 20
-1.181851445216941
 10
-1.747568519268185
 20
-1.19793721272667
 10
-1.747712132731033
 20
-1.214252536912306
 10
-1.748179298026804
 20
-1.2379921903044
 10
-1.748510788069281
 20
-1.249345553694825
 10
-1.748873427020577
 20
-1.25968490334001
 10
-1.749360410951264
 20
-1.27154
  0
LINE
  5
125
330
D9
100
AcDbEntity
  8
AM_4
100
AcDbLine
 10
-0.9810181782086138
 20
-0.8525559304853177
 30
0.0
 11
-0.981018178208614
 21
-1.271539999999999
 31
0.0
  0
LINE
  5
126
330
D9
100
AcDbEntity
  8
AM_4
100
AcDbLine
 10
-1.749360410951264
 20
-1.271539999999999
 30
0.0
 11
-0.981018178208614
 21
-1.271539999999999
 31
0.0
  0
LINE
  5
127
330
D9
100
AcDbEntity
  8
AM_4
100
AcDbLine
 10
-1.749360410951264
 20
-1.271539999999999
 30
0.0
 11
-1.743321974959785
 21
-1.278218025040214
 31
0.0
  0
LINE
  5
128
330
D9
100
AcDbEntity
  8
AM_4
100
AcDbLine
 10
-0.981018178208614
 20
-1.271539999999999
 30
0.0
 11
-0.9604844706036669
 21
-1.3125
 31
0.0
  0
LINE
  5
129
330
D9
100
AcDbEntity
  8
AM_4
100
AcDbLine
 10
-1.743428961594498
 20
-1.278111038405502
 30
0.0
 11
-1.70904
 21
-1.3125
 31
0.0
  0
LINE
  5
12A
330
D9
100
AcDbEntity
  8
AM_4
100
AcDbLine
 10
-0.9249196939727586
 20
-1.056089855002798
 30
0.0
 11
-0.9249196939727586
 21
-1.3125
 31
0.0
  0
LINE
  5
12B
330
D9
100
AcDbEntity
  8
AM_4
100
AcDbLine
 10
-0.9249196939727586
 20
-0.8501454620390619
 30
0.0
 11
-0.9249196939727586
 21
-0.9124990728981457
 31
0.0
  0
LINE
  5
12C
330
D9
100
AcDbEntity
  8
AM_4
100
AcDbLine
 10
1.745530005471118
 20
-1.271539999999999
 30
0.0
 11
1.704462590261224
 21
-1.3125
 31
0.0
  0
LINE
  5
12D
330
D9
100
AcDbEntity
  8
AM_4
100
AcDbLine
 10
-0.7439781196575584
 20
-1.3125
 30
0.0
 11
-0.7645118272625049
 21
-1.271539999999999
 31
0.0
  0
LINE
  5
12E
330
D9
100
AcDbEntity
  8
AM_4
100
AcDbLine
 10
-1.70904
 20
-1.3125
 30
0.0
 11
1.704462590261224
 21
-1.3125
 31
0.0
  0
LINE
  5
12F
330
D9
100
AcDbEntity
  8
AM_4
100
AcDbLine
 10
1.745530005471118
 20
-0.9094483120427691
 30
0.0
 11
1.745530005471118
 21
-1.271539999999999
 31
0.0
  0
LINE
  5
130
330
D9
100
AcDbEntity
  8
AM_4
100
AcDbLine
 10
-0.7645118272625049
 20
-1.271539999999999
 30
0.0
 11
-0.7645118272625049
 21
-0.8441824273675292
 31
0.0
  0
LINE
  5
131
330
D9
100
AcDbEntity
  8
AM_4
100
AcDbLine
 10
-0.7645118272625049
 20
-1.271539999999999
 30
0.0
 11
1.745530005471118
 21
-1.271539999999999
 31
0.0
  0
ENDBLK
  5
DC
330
D9
100
AcDbEntity
  8
0
100
AcDbBlockEnd
  0
BLOCK
  5
134
330
132
100
AcDbEntity
  8
0
100
AcDbBlockBegin
  2
4_129441I_0_in_129202_4
 70
     2
 10
0.0
 20
0.0
 30
0.0
  3
4_129441I_0_in_129202_4
  1

  0
ATTDEF
  5
136
330
132
100
AcDbEntity
  8
AM_6
100
AcDbText
 10
9.75
 20
1.30625
 30
0.0
 40
0.5
  1
GTB-I
100
AcDbAttributeDefinition
  3

  2
NN
 70
     8
280
     0
  0
ATTDEF
  5
137
330
132
100
AcDbEntity
  8
AM_6
100
AcDbText
 10
9.75
 20
0.8062499999999999
 30
0.0
 40
0.5
  1
GTB Normal Duty Pillow Blocks
100
AcDbAttributeDefinition
  3

  2
NT
 70
     8
280
     0
  0
ATTDEF
  5
138
330
132
100
AcDbEntity
  8
AM_6
100
AcDbText
 10
9.75
 20
0.3062499999999999
 30
0.0
 40
0.5
  1
129441I
100
AcDbAttributeDefinition
  3

  2
NB
 70
     8
280
     0
  0
ATTDEF
  5
139
330
132
100
AcDbEntity
  8
AM_6
100
AcDbText
 10
9.75
 20
-0.1937500000000001
 30
0.0
 40
0.5
  1
$PN.$LUBE.I
100
AcDbAttributeDefinition
  3

  2
NBSYN
 70
     8
280
     0
  0
ATTDEF
  5
13A
330
132
100
AcDbEntity
  8
AM_6
100
AcDbText
 10
9.75
 20
-0.6937500000000001
 30
0.0
 40
0.5
  1
129441
100
AcDbAttributeDefinition
  3

  2
LINA
 70
     8
280
     0
  0
ATTDEF
  5
13B
330
132
100
AcDbEntity
  8
AM_6
100
AcDbText
 10
9.75
 20
-1.19375
 30
0.0
 40
0.5
  1
212
100
AcDbAttributeDefinition
  3

  2
SERIES
 70
     8
280
     0
  0
ATTDEF
  5
13C
330
132
100
AcDbEntity
  8
AM_6
100
AcDbText
 10
9.75
 20
-1.69375
 30
0.0
 40
0.5
  1
129441
100
AcDbAttributeDefinition
  3

  2
PN
 70
     8
280
     0
  0
ATTDEF
  5
13D
330
132
100
AcDbEntity
  8
AM_6
100
AcDbText
 10
9.75
 20
-2.19375
 30
0.0
 40
0.5
  1
P2B-GTB-12
100
AcDbAttributeDefinition
  3

  2
DESCRIPTION
 70
     8
280
     0
  0
ATTDEF
  5
13E
330
132
100
AcDbEntity
  8
AM_6
100
AcDbText
 10
9.75
 20
-2.69375
 30
0.0
 40
0.5
  1
2-7/64
100
AcDbAttributeDefinition
  3

  2
A
 70
     8
280
     0
  0
ATTDEF
  5
13F
330
132
100
AcDbEntity
  8
AM_6
100
AcDbText
 10
9.75
 20
-3.19375
 30
0.0
 40
0.5
  1
9-1/2
100
AcDbAttributeDefinition
  3

  2
B
 70
     8
280
     0
  0
ATTDEF
  5
140
330
132
100
AcDbEntity
  8
AM_6
100
AcDbText
 10
9.75
 20
-3.69375
 30
0.0
 40
0.5
  1
2-3/8
100
AcDbAttributeDefinition
  3

  2
C
 70
     8
280
     0
  0
ATTDEF
  5
141
330
132
100
AcDbEntity
  8
AM_6
100
AcDbText
 10
9.75
 20
-4.19375
 30
0.0
 40
0.5
  1
6-7/8
100
AcDbAttributeDefinition
  3

  2
DMIN
 70
     8
280
     0
  0
ATTDEF
  5
142
330
132
100
AcDbEntity
  8
AM_6
100
AcDbText
 10
9.75
 20
-4.69375
 30
0.0
 40
0.5
  1
7-15/16
100
AcDbAttributeDefinition
  3

  2
DMAX
 70
     8
280
     0
  0
ATTDEF
  5
143
330
132
100
AcDbEntity
  8
AM_6
100
AcDbText
 10
9.75
 20
-5.19375
 30
0.0
 40
0.5
  1
5/8
100
AcDbAttributeDefinition
  3

  2
F
 70
     8
280
     0
  0
ATTDEF
  5
144
330
132
100
AcDbEntity
  8
AM_6
100
AcDbText
 10
9.75
 20
-5.69375
 30
0.0
 40
0.5
  1
1-7/32
100
AcDbAttributeDefinition
  3

  2
G
 70
     8
280
     0
  0
ATTDEF
  5
145
330
132
100
AcDbEntity
  8
AM_6
100
AcDbText
 10
9.75
 20
-6.19375
 30
0.0
 40
0.5
  1
51/64
100
AcDbAttributeDefinition
  3

  2
H
 70
     8
280
     0
  0
ATTDEF
  5
146
330
132
100
AcDbEntity
  8
AM_6
100
AcDbText
 10
9.75
 20
-6.69375
 30
0.0
 40
0.5
  1
5-5/16
100
AcDbAttributeDefinition
  3

  2
J
 70
     8
280
     0
  0
ATTDEF
  5
147
330
132
100
AcDbEntity
  8
AM_6
100
AcDbText
 10
9.75
 20
-7.19375
 30
0.0
 40
0.5
  1
3-1/2
100
AcDbAttributeDefinition
  3

  2
L
 70
     8
280
     0
  0
ATTDEF
  5
148
330
132
100
AcDbEntity
  8
AM_6
100
AcDbText
 10
9.75
 20
-7.69375
 30
0.0
 40
0.5
  1
2-11/16
100
AcDbAttributeDefinition
  3

  2
M
 70
     8
280
     0
  0
ATTDEF
  5
149
330
132
100
AcDbEntity
  8
AM_6
100
AcDbText
 10
9.75
 20
-8.19375
 30
0.0
 40
0.5
  1
49/64
100
AcDbAttributeDefinition
  3

  2
R
 70
     8
280
     0
  0
ATTDEF
  5
14A
330
132
100
AcDbEntity
  8
AM_6
100
AcDbText
 10
9.75
 20
-8.69375
 30
0.0
 40
0.5
  1
1-11/32
100
AcDbAttributeDefinition
  3

  2
S
 70
     8
280
     0
  0
ATTDEF
  5
14B
330
132
100
AcDbEntity
  8
AM_6
100
AcDbText
 10
9.75
 20
-9.19375
 30
0.0
 40
0.5
  1
4-1/4
100
AcDbAttributeDefinition
  3

  2
U
 70
     8
280
     0
  0
ATTDEF
  5
14C
330
132
100
AcDbEntity
  8
AM_6
100
AcDbText
 10
9.75
 20
-9.69375
 30
0.0
 40
0.5
  1
8-1/2
100
AcDbAttributeDefinition
  3

  2
V
 70
     8
280
     0
  0
ATTDEF
  5
14D
330
132
100
AcDbEntity
  8
AM_6
100
AcDbText
 10
9.75
 20
-10.19375
 30
0.0
 40
0.5
  1
7/8
100
AcDbAttributeDefinition
  3

  2
W
 70
     8
280
     0
  0
ATTDEF
  5
14E
330
132
100
AcDbEntity
  8
AM_6
100
AcDbText
 10
9.75
 20
-10.69375
 30
0.0
 40
0.5
  1
3/16
100
AcDbAttributeDefinition
  3

  2
X
 70
     8
280
     0
  0
ATTDEF
  5
14F
330
132
100
AcDbEntity
  8
AM_6
100
AcDbText
 10
9.75
 20
-11.19375
 30
0.0
 40
0.5
  1
1-5/16
100
AcDbAttributeDefinition
  3

  2
Z
 70
     8
280
     0
  0
ATTDEF
  5
150
330
132
100
AcDbEntity
  8
AM_6
100
AcDbText
 10
9.75
 20
-11.69375
 30
0.0
 40
0.5
  1
baldor
100
AcDbAttributeDefinition
  3

  2
COMPANY
 70
     8
280
     0
  0
LINE
  5
151
330
132
100
AcDbEntity
  8
AM_9
100
AcDbLine
 10
-1.8504449
 20
-1.0133334125
 30
0.0
 11
-1.8504449
 21
1.0133334125
 31
0.0
  0
LINE
  5
152
330
132
100
AcDbEntity
  8
AM_9
100
AcDbLine
 10
-1.9095
 20
-1.1875
 30
0.0
 11
-1.9095
 21
1.1875
 31
0.0
  0
LINE
  5
153
330
132
100
AcDbEntity
  8
AM_9
100
AcDbLine
 10
1.9095
 20
-1.1875
 30
0.0
 11
1.9095
 21
1.1875
 31
0.0
  0
LINE
  5
154
330
132
100
AcDbEntity
  8
AM_9
100
AcDbLine
 10
1.8504449
 20
-1.0133334125
 30
0.0
 11
1.8504449
 21
1.0133334125
 31
0.0
  0
LWPOLYLINE
  5
155
330
132
100
AcDbEntity
  8
AM_9
100
AcDbPolyline
 90
        5
 70
     0
 43
0.0
 10
1.986046253672845
 20
-0.0909214090671168
 10
1.982682425016466
 20
-0.0460980447457687
 10
1.981430817167824
 20
-0.0008744807129145
 10
1.982625720352965
 20
0.0450211226067941
 10
1.986046253672845
 20
0.090921409067117
  0
LINE
  5
156
330
132
100
AcDbEntity
  8
AM_9
100
AcDbLine
 10
1.986046253672845
 20
0.090921409067117
 30
0.0
 11
2.0742507571722
 21
0.090921409067117
 31
0.0
  0
LINE
  5
157
330
132
100
AcDbEntity
  8
AM_9
100
AcDbLine
 10
1.986046253672845
 20
-0.0909214090671168
 30
0.0
 11
2.0742507571722
 21
-0.0909214090671168
 31
0.0
  0
LINE
  5
158
330
132
100
AcDbEntity
  8
AM_9
100
AcDbLine
 10
1.870074732957684
 20
0.1102359999999998
 30
0.0
 11
1.856144855943464
 21
0.1102359999999998
 31
0.0
  0
LINE
  5
159
330
132
100
AcDbEntity
  8
AM_9
100
AcDbLine
 10
1.856152843132838
 20
-0.1102359999999996
 30
0.0
 11
1.870074732957684
 21
-0.1102359999999996
 31
0.0
  0
LWPOLYLINE
  5
15A
330
132
100
AcDbEntity
  8
AM_9
100
AcDbPolyline
 90
       20
 70
     0
 43
0.0
 10
1.856162819101723
 20
0.1102359994872102
 10
1.847141045487991
 20
0.1094999844011878
 10
1.834175278286474
 20
0.1058046080410024
 10
1.821748584146159
 20
0.0991323946926947
 10
1.810234288425222
 20
0.0896289743361394
 10
1.799968165135835
 20
0.077602943886099
 10
1.791277015332738
 20
0.063349958217061
 10
1.784414623398482
 20
0.0473102761327146
 10
1.779623963634842
 20
0.0299162421723169
 10
1.777026209301007
 20
0.0116774825051437
 10
1.77673618543794
 20
-0.0068815668201473
 10
1.778726949550128
 20
-0.0252465219151224
 10
1.782966003959609
 20
-0.0428833637522049
 10
1.789288166569205
 20
-0.0593125239828943
 10
1.797529139704327
 20
-0.0740571711949859
 10
1.807404687723979
 20
-0.086715845869655
 10
1.818640291007048
 20
-0.0969037421375022
 10
1.830874435410907
 20
-0.1043592402300135
 10
1.843749201980764
 20
-0.1088290830276092
 10
1.856159730701297
 20
-0.1102359998219669
  0
LWPOLYLINE
  5
15B
330
132
100
AcDbEntity
  8
AM_9
100
AcDbPolyline
 90
       11
 70
     0
 43
0.0
 10
1.856159730701297
 20
-0.1102359998219669
 10
1.856886647445918
 20
-0.1102311459521695
 10
1.869899725064033
 20
-0.108484337787683
 10
1.882438785495233
 20
-0.1036842027191934
 10
1.894149554576436
 20
-0.0959254171549692
 10
1.904732539734854
 20
-0.0854678187371401
 10
1.913898074901486
 20
-0.0725611164108631
 10
1.921422481829583
 20
-0.0576093550627734
 10
1.927092016746068
 20
-0.0410042632935161
 10
1.930787166269529
 20
-0.023241495145071
 10
1.932466488278585
 20
0.0000000000000001
  0
LWPOLYLINE
  5
15C
330
132
100
AcDbEntity
  8
AM_9
100
AcDbPolyline
 90
        5
 70
     0
 43
0.0
 10
1.874690724218198
 20
-0.1818428181342336
 10
1.898775488347362
 20
-0.1594311359735595
 10
1.925217544556364
 20
-0.1368193539571325
 10
1.954517650134122
 20
-0.1138715522972782
 10
1.986046253672845
 20
-0.0909214090671168
  0
LWPOLYLINE
  5
15D
330
132
100
AcDbEntity
  8
AM_9
100
AcDbPolyline
 90
        5
 70
     0
 43
0.0
 10
1.986046253672845
 20
0.090921409067117
 10
1.955233832230922
 20
0.1133330912277909
 10
1.926288560324637
 20
0.1359448732442181
 10
1.899378261117159
 20
0.1588926749040724
 10
1.874690724218198
 20
0.1818428181342338
  0
ELLIPSE
  5
15E
330
132
100
AcDbEntity
  8
AM_9
100
AcDbEllipse
 10
1.870074732957684
 20
0.0000000000000001
 30
0.0
 11
-2.892860668945897E-17
 21
-0.157480000000001
 31
0.0
210
0.0
220
0.0
230
1.0
 40
0.7071067811865466
 41
0.0
 42
6.283185307179586
  0
ELLIPSE
  5
15F
330
132
100
AcDbEntity
  8
AM_9
100
AcDbEllipse
 10
1.967511218978066
 20
0.000000000000001
 30
0.0
 11
6.750008227540332E-18
 21
0.1102359999999992
 31
0.0
210
0.0
220
0.0
230
1.0
 40
0.7071067811865496
 41
3.141592653589793
 42
6.283185307179586
  0
ELLIPSE
  5
160
330
132
100
AcDbEntity
  8
AM_9
100
AcDbEllipse
 10
1.981430615965723
 20
0.0000000000000021
 30
0.0
 11
6.750008227540190E-18
 21
0.1102359999999969
 31
0.0
210
0.0
220
0.0
230
1.0
 40
0.7071067811865624
 41
5.25080479843425
 42
5.689631485080303
  0
LINE
  5
161
330
132
100
AcDbEntity
  8
AM_9
100
AcDbLine
 10
2.0742507571722
 20
-0.0909214090671168
 30
0.0
 11
2.058696791171871
 21
-0.1055938810421534
 31
0.0
  0
LWPOLYLINE
  5
162
330
132
100
AcDbEntity
  8
AM_9
100
AcDbPolyline
 90
        5
 70
     0
 43
0.0
 10
2.0742507571722
 20
0.090921409067117
 10
2.07761458582858
 20
0.0460980447457689
 10
2.078866193677221
 20
0.0008744807129147
 10
2.077671290492081
 20
-0.0450211226067939
 10
2.0742507571722
 20
-0.0909214090671168
  0
LINE
  5
163
330
132
100
AcDbEntity
  8
AM_9
100
AcDbLine
 10
2.058719266894836
 20
0.1055731986900557
 30
0.0
 11
2.0742507571722
 21
0.090921409067117
 31
0.0
  0
ELLIPSE
  5
164
330
132
100
AcDbEntity
  8
AM_9
100
AcDbEllipse
 10
1.967511218978065
 20
-0.0000000000000006
 30
0.0
 11
9.642868896486377E-18
 21
0.1574800000000019
 31
0.0
210
0.0
220
0.0
230
1.0
 40
0.7071067811865427
 41
3.988465300378039
 42
5.437756027884749
  0
ELLIPSE
  5
165
330
132
100
AcDbEntity
  8
AM_9
100
AcDbEllipse
 10
1.981430615965553
 20
0.0000000000000047
 30
0.0
 11
6.750008227555167E-18
 21
0.1102360000002415
 31
0.0
210
0.0
220
0.0
230
1.0
 40
0.7071067811865485
 41
4.450007085727254
 42
5.012420328972978
  0
ELLIPSE
  5
166
330
132
100
AcDbEntity
  8
AM_9
100
AcDbEllipse
 10
1.981430615965728
 20
0.0000000000000043
 30
0.0
 11
6.750008227540762E-18
 21
0.1102360000000062
 31
0.0
210
0.0
220
0.0
230
1.0
 40
0.7071067811864944
 41
3.735249708902103
 42
4.205460966806582
  0
LWPOLYLINE
  5
167
330
132
100
AcDbEntity
  8
AM_9
100
AcDbPolyline
 90
        4
 70
     0
 43
0.0
 10
2.011533509610369
 20
-0.0772041804865365
 10
2.01140278013861
 20
-0.0770611099149432
 10
2.007059609282904
 20
-0.0716850199875437
 10
2.004073078381018
 20
-0.0672189420681942
  0
LINE
  5
168
330
132
100
AcDbEntity
  8
AM_9
100
AcDbLine
 10
2.014752844405097
 20
-0.0803988830166932
 30
0.0
 11
2.011533509610369
 21
-0.0772041804865365
 31
0.0
  0
LWPOLYLINE
  5
169
330
132
100
AcDbEntity
  8
AM_9
100
AcDbPolyline
 90
       20
 70
     0
 43
0.0
 10
2.05925843007006
 20
-0.0059827396933029
 10
2.059257721950096
 20
-0.0060010186359662
 10
2.058284908016999
 20
-0.0182903729927423
 10
2.056366234715179
 20
-0.0301518837859625
 10
2.053596712942327
 20
-0.0412905826708374
 10
2.050118098582038
 20
-0.0514482316584016
 10
2.04611562834302
 20
-0.0604071292375682
 10
2.041811717370972
 20
-0.0680036465710007
 10
2.037456224704255
 20
-0.0741413024207363
 10
2.033323648617649
 20
-0.0787911426071115
 10
2.029679136858652
 20
-0.0820242223688281
 10
2.026752579787874
 20
-0.0840092696937899
 10
2.024708174066961
 20
-0.0850037823643194
 10
2.023587529617884
 20
-0.0853410007540344
 10
2.023140979586492
 20
-0.0853843308619306
 10
2.022484730376745
 20
-0.0852713233970483
 10
2.021001357901048
 20
-0.0847221772157981
 10
2.018604486720627
 20
-0.0833840299863035
 10
2.015462113966224
 20
-0.0810183504011445
 10
2.014752844405097
 20
-0.0803988830166932
  0
LWPOLYLINE
  5
16A
330
132
100
AcDbEntity
  8
AM_9
100
AcDbPolyline
 90
       19
 70
     0
 43
0.0
 10
2.013333269972799
 20
0.0790675567050435
 10
2.014737484304094
 20
0.080385129641622
 10
2.018090403818754
 20
0.08304103600297
 10
2.020642361637452
 20
0.0845521822736168
 10
2.022273320548398
 20
0.0852117980020225
 10
2.023034205792198
 20
0.0853771639041445
 10
2.023491015936495
 20
0.0853579038148682
 10
2.024745592648214
 20
0.0849893181990023
 10
2.026836226028459
 20
0.0839609235576489
 10
2.029737987278038
 20
0.0819784948137148
 10
2.033660790432041
 20
0.0784513664275395
 10
2.037943035555234
 20
0.0735217423850643
 10
2.042339544752996
 20
0.0671621892672579
 10
2.046617358387627
 20
0.0593996445281249
 10
2.050550121516726
 20
0.0503335905240029
 10
2.053933965709154
 20
0.0401267498695379
 10
2.056601676851184
 20
0.0289766407434513
 10
2.058420556824247
 20
0.0171230962212171
 10
2.059071715513173
 20
0.0096676545658523
  0
LWPOLYLINE
  5
16B
330
132
100
AcDbEntity
  8
AM_9
100
AcDbPolyline
 90
        3
 70
     0
 43
0.0
 10
2.009570524129857
 20
0.0749433166944158
 10
2.010789254208144
 20
0.0763755050940565
 10
2.013333269972799
 20
0.0790675567050435
  0
LWPOLYLINE
  5
16C
330
132
100
AcDbEntity
  8
AM_9
100
AcDbPolyline
 90
        3
 70
     0
 43
0.0
 10
2.004066609336131
 20
0.0672085051773095
 10
2.006497494754583
 20
0.0708958011860267
 10
2.007753926311751
 20
0.0726289085461167
  0
ELLIPSE
  5
16D
330
132
100
AcDbEntity
  8
AM_9
100
AcDbEllipse
 10
2.058512811815914
 20
-0.0000000000000001
 30
0.0
 11
6.258279761112046E-18
 21
0.1022054647179792
 31
0.0
210
0.0
220
0.0
230
1.0
 40
0.7071067811865442
 41
2.479596084726993
 42
6.977522694089568
  0
ELLIPSE
  5
16E
330
132
100
AcDbEntity
  8
AM_9
100
AcDbEllipse
 10
2.073401977856866
 20
-0.0000000000000004
 30
0.0
 11
6.365617546288520E-18
 21
0.103958423779338
 31
0.0
210
0.0
220
0.0
230
1.0
 40
0.7071067811865562
 41
3.694304707716615
 42
5.715753132920473
  0
LINE
  5
16F
330
132
100
AcDbEntity
  8
AM_9
100
AcDbLine
 10
1.745530005471118
 20
-1.0133334125
 30
0.0
 11
-1.75
 21
-1.0133334125
 31
0.0
  0
LINE
  5
170
330
132
100
AcDbEntity
  8
AM_9
100
AcDbLine
 10
2.16535
 20
-1.021770141435986
 30
0.0
 11
2.16535
 21
1.021770141435987
 31
0.0
  0
LINE
  5
171
330
132
100
AcDbEntity
  8
AM_9
100
AcDbLine
 10
-2.16535
 20
1.021770141435987
 30
0.0
 11
-2.16535
 21
-1.021770141435986
 31
0.0
  0
ELLIPSE
  5
172
330
132
100
AcDbEntity
  8
AM_9
100
AcDbEllipse
 10
2.117644892446781
 20
0.0000000000000214
 30
0.0
 11
4.354225479629563E-18
 21
0.07110989850561231
 31
0.0
210
0.0
220
0.0
230
1.0
 40
0.7071067811827505
 41
4.631320948071007
 42
5.563631241686154
  0
LWPOLYLINE
  5
173
330
132
100
AcDbEntity
  8
AM_9
100
AcDbPolyline
 90
       11
 70
     0
 43
0.0
 10
1.932466488278585
 20
0.0000000000000001
 10
1.931400221104673
 20
0.0184960476935878
 10
1.928256246674913
 20
0.0364705042701183
 10
1.923085426361739
 20
0.0534019041441499
 10
1.916043756562817
 20
0.0688290105583962
 10
1.907279586133082
 20
0.0822978613231938
 10
1.897043712152561
 20
0.0934478000294029
 10
1.885580194917066
 20
0.1019303862336436
 10
1.873214574684193
 20
0.1075384877842215
 10
1.860281307885585
 20
0.1100699188725137
 10
1.856162819101723
 20
0.1102359994872102
  0
ELLIPSE
  5
174
330
132
100
AcDbEntity
  8
AM_9
100
AcDbEllipse
 10
1.870074732957684
 20
0.0
 30
0.0
 11
6.750008227540354E-18
 21
0.1102359999999996
 31
0.0
210
0.0
220
0.0
230
1.0
 40
0.7071067811865452
 41
0.0
 42
6.283185307179586
  0
LINE
  5
175
330
132
100
AcDbEntity
  8
AM_7
100
AcDbLine
 10
-4.3484375
 20
-0.8750000000000003
 30
0.0
 11
-4.1515625
 21
-0.8750000000000003
 31
0.0
  0
LINE
  5
176
330
132
100
AcDbEntity
  8
AM_7
100
AcDbLine
 10
-4.25
 20
-0.9734375000000003
 30
0.0
 11
-4.25
 21
-0.7765625000000004
 31
0.0
  0
LINE
  5
177
330
132
100
AcDbEntity
  8
AM_7
100
AcDbLine
 10
4.1515625
 20
-0.875
 30
0.0
 11
4.3484375
 21
-0.875
 31
0.0
  0
LINE
  5
178
330
132
100
AcDbEntity
  8
AM_7
100
AcDbLine
 10
4.25
 20
-0.9734375
 30
0.0
 11
4.25
 21
-0.7765625
 31
0.0
  0
LINE
  5
179
330
132
100
AcDbEntity
  8
AM_7
100
AcDbLine
 10
0.0
 20
1.30625
 30
0.0
 11
0.0
 21
-1.44921875
 31
0.0
  0
LINE
  5
17A
330
132
100
AcDbEntity
  8
AM_7
100
AcDbLine
 10
3.076562500000001
 20
0.0000000000000002
 30
0.0
 11
4.3296875
 21
0.0
 31
0.0
  0
LINE
  5
17B
330
132
100
AcDbEntity
  8
AM_7
100
AcDbLine
 10
3.96875
 20
-0.3609375
 30
0.0
 11
3.96875
 21
0.3609375
 31
0.0
  0
LINE
  5
17C
330
132
100
AcDbEntity
  8
AM_7
100
AcDbLine
 10
3.4375
 20
-0.3609374999999994
 30
0.0
 11
3.4375
 21
0.3609374999999997
 31
0.0
  0
LINE
  5
17D
330
132
100
AcDbEntity
  8
AM_7
100
AcDbLine
 10
-4.3296875
 20
0.0000000000000002
 30
0.0
 11
-3.076562500000001
 21
0.0000000000000001
 31
0.0
  0
LINE
  5
17E
330
132
100
AcDbEntity
  8
AM_7
100
AcDbLine
 10
-3.96875
 20
-0.3609374999999998
 30
0.0
 11
-3.96875
 21
0.3609375000000002
 31
0.0
  0
LINE
  5
17F
330
132
100
AcDbEntity
  8
AM_7
100
AcDbLine
 10
-3.4375
 20
-0.3609374999999995
 30
0.0
 11
-3.4375
 21
0.3609374999999996
 31
0.0
  0
LINE
  5
180
330
132
100
AcDbEntity
  8
AM_4
100
AcDbLine
 10
4.512499999999999
 20
1.1875
 30
0.0
 11
1.9
 21
1.1875
 31
0.0
  0
LINE
  5
181
330
132
100
AcDbEntity
  8
AM_4
100
AcDbLine
 10
4.75
 20
-0.9499999999999995
 30
0.0
 11
4.75
 21
0.9500000000000005
 31
0.0
  0
LINE
  5
182
330
132
100
AcDbEntity
  8
AM_4
100
AcDbLine
 10
4.75
 20
0.9500000000000005
 30
0.0
 11
4.512499999999999
 21
1.1875
 31
0.0
  0
LINE
  5
183
330
132
100
AcDbEntity
  8
AM_4
100
AcDbLine
 10
-1.899999999999995
 20
1.1875
 30
0.0
 11
-4.512499999999998
 21
1.1875
 31
0.0
  0
LINE
  5
184
330
132
100
AcDbEntity
  8
AM_4
100
AcDbLine
 10
-4.75
 20
0.9499999999999982
 30
0.0
 11
-4.75
 21
-0.9500000000000001
 31
0.0
  0
LINE
  5
185
330
132
100
AcDbEntity
  8
AM_4
100
AcDbLine
 10
-4.512499999999998
 20
1.1875
 30
0.0
 11
-4.75
 21
0.9499999999999982
 31
0.0
  0
LINE
  5
186
330
132
100
AcDbEntity
  8
AM_4
100
AcDbLine
 10
4.512499999999999
 20
-1.1875
 30
0.0
 11
4.75
 21
-0.9499999999999995
 31
0.0
  0
LWPOLYLINE
  5
187
330
132
100
AcDbEntity
  8
AM_4
100
AcDbPolyline
 90
        9
 70
     0
 43
0.0
 10
4.75
 20
0.0000000000000002
 10
4.749999267934926
 20
0.0010695097679049
 10
4.748588541425245
 20
0.0469397141982028
 10
4.744473449720533
 20
0.0927614793633428
 10
4.737506799349533
 20
0.1391534599299319
 10
4.727691467352364
 20
0.1853629187109451
 10
4.71166414774317
 20
0.2417232541214025
 10
4.701860473594027
 20
0.2699982113303551
 10
4.6909449
 20
0.2979699463267894
  0
LWPOLYLINE
  5
188
330
132
100
AcDbEntity
  8
AM_4
100
AcDbPolyline
 90
        9
 70
     0
 43
0.0
 10
-4.690944900000002
 20
0.2979699463267862
 10
-4.701690747242829
 20
0.270461501014698
 10
-4.711402364952511
 20
0.2425263435803267
 10
-4.727691467352365
 20
0.1853629187109404
 10
-4.737363198081105
 20
0.1399475410128324
 10
-4.744305663764006
 20
0.0941539956856408
 10
-4.748541400807074
 20
0.0477172267356586
 10
-4.749999267934925
 20
0.0010695097678899
 10
-4.75
 20
0.0000000000000037
  0
LINE
  5
189
330
132
100
AcDbEntity
  8
AM_4
100
AcDbLine
 10
-4.75
 20
-0.9500000000000001
 30
0.0
 11
-4.512499999999999
 21
-1.1875
 31
0.0
  0
CIRCLE
  5
18A
330
132
100
AcDbEntity
  8
AM_4
100
AcDbCircle
 10
-4.25
 20
-0.8750000000000003
 30
0.0
 40
0.09375
  0
LINE
  5
18B
330
132
100
AcDbEntity
  8
AM_4
100
AcDbLine
 10
-3.4375
 20
0.3437500000000001
 30
0.0
 11
-3.96875
 21
0.3437500000000002
 31
0.0
  0
ARC
  5
18C
330
132
100
AcDbEntity
  8
AM_4
100
AcDbCircle
 10
-3.4375
 20
0.0
 30
0.0
 40
0.3437499999999999
100
AcDbArc
 50
270.0
 51
90.0
  0
LINE
  5
18D
330
132
100
AcDbEntity
  8
AM_4
100
AcDbLine
 10
-3.96875
 20
-0.3437499999999998
 30
0.0
 11
-3.4375
 21
-0.3437499999999999
 31
0.0
  0
ARC
  5
18E
330
132
100
AcDbEntity
  8
AM_4
100
AcDbCircle
 10
-3.96875
 20
0.0000000000000002
 30
0.0
 40
0.3437499999999999
100
AcDbArc
 50
90.0
 51
270.0
  0
LINE
  5
18F
330
132
100
AcDbEntity
  8
AM_4
100
AcDbLine
 10
-3.96875
 20
0.7812499999999998
 30
0.0
 11
-3.2412402
 21
0.78125
 31
0.0
  0
ARC
  5
190
330
132
100
AcDbEntity
  8
AM_4
100
AcDbCircle
 10
-3.96875
 20
0.0000000000000006
 30
0.0
 40
0.7812499999999992
100
AcDbArc
 50
90.0
 51
157.5794762171123
  0
LINE
  5
191
330
132
100
AcDbEntity
  8
AM_4
100
AcDbLine
 10
-4.690944900000002
 20
-1.009055099999999
 30
0.0
 11
-4.690944900000001
 21
0.2979699463267866
 31
0.0
  0
LINE
  5
192
330
132
100
AcDbEntity
  8
AM_4
100
AcDbLine
 10
-1.9
 20
-1.187500000000003
 30
0.0
 11
-4.512499999999999
 21
-1.1875
 31
0.0
  0
ARC
  5
193
330
132
100
AcDbEntity
  8
AM_4
100
AcDbCircle
 10
-3.2412402
 20
0.8599902000000015
 30
0.0
 40
0.0787402000000015
100
AcDbArc
 50
270.0
 51
0.0
  0
CIRCLE
  5
194
330
132
100
AcDbEntity
  8
AM_4
100
AcDbCircle
 10
4.25
 20
-0.875
 30
0.0
 40
0.09375
  0
LINE
  5
195
330
132
100
AcDbEntity
  8
AM_4
100
AcDbLine
 10
3.96875
 20
0.3437500000000001
 30
0.0
 11
3.4375
 21
0.3437500000000002
 31
0.0
  0
ARC
  5
196
330
132
100
AcDbEntity
  8
AM_4
100
AcDbCircle
 10
3.96875
 20
0.0
 30
0.0
 40
0.3437499999999999
100
AcDbArc
 50
270.0
 51
90.0
  0
LINE
  5
197
330
132
100
AcDbEntity
  8
AM_4
100
AcDbLine
 10
3.4375
 20
-0.3437499999999998
 30
0.0
 11
3.96875
 21
-0.3437499999999999
 31
0.0
  0
ARC
  5
198
330
132
100
AcDbEntity
  8
AM_4
100
AcDbCircle
 10
3.4375
 20
0.0000000000000002
 30
0.0
 40
0.34375
100
AcDbArc
 50
90.0
 51
270.0
  0
ARC
  5
199
330
132
100
AcDbEntity
  8
AM_4
100
AcDbCircle
 10
3.2412402
 20
0.8599901999999994
 30
0.0
 40
0.0787401999999995
100
AcDbArc
 50
180.0
 51
270.0
  0
LINE
  5
19A
330
132
100
AcDbEntity
  8
AM_4
100
AcDbLine
 10
4.512499999999999
 20
-1.1875
 30
0.0
 11
1.900000000000002
 21
-1.1875
 31
0.0
  0
LINE
  5
19B
330
132
100
AcDbEntity
  8
AM_4
100
AcDbLine
 10
4.6909449
 20
-1.009055099999999
 30
0.0
 11
4.6909449
 21
0.2979699463267897
 31
0.0
  0
ARC
  5
19C
330
132
100
AcDbEntity
  8
AM_4
100
AcDbCircle
 10
3.968749999999998
 20
-0.0000000000000022
 30
0.0
 40
0.7812500000000022
100
AcDbArc
 50
22.42052378288808
 51
90.0
  0
LINE
  5
19D
330
132
100
AcDbEntity
  8
AM_4
100
AcDbLine
 10
3.2412402
 20
0.78125
 30
0.0
 11
3.96875
 21
0.78125
 31
0.0
  0
LWPOLYLINE
  5
19E
330
132
100
AcDbEntity
  8
AM_4
100
AcDbPolyline
 90
       29
 70
     0
 43
0.0
 10
3.1625
 20
0.7312500000000003
 10
3.099813821140545
 20
0.704499543723983
 10
3.0396976380027
 20
0.6723874205317716
 10
2.982608971039288
 20
0.6351580230706881
 10
2.92898229947698
 20
0.5930946895351368
 10
2.879225754667035
 20
0.5465175472918582
 10
2.83371801395928
 20
0.4957810765173712
 10
2.792805418738825
 20
0.441271412389788
 10
2.756799338559
 20
0.3834034063669549
 10
2.725973801431036
 20
0.3226174689163628
 10
2.700563408305449
 20
0.2593762177255636
 10
2.680761547617137
 20
0.1941609569022305
 10
2.66671892348263
 20
0.1274680139592802
 10
2.658542408750758
 20
0.0598049624628086
 10
2.656294231635746
 20
-0.0083132409092286
 10
2.659991502122926
 20
-0.0763681754982745
 10
2.669606081751417
 20
-0.1438419021594134
 10
2.685064797764805
 20
-0.2102209050910039
 10
2.706249999999999
 20
-0.2749999999999989
 10
2.733000456276017
 20
-0.3376861788594539
 10
2.765112579468228
 20
-0.3978023619972989
 10
2.802341976929311
 20
-0.454891028960711
 10
2.844405310464862
 20
-0.5085177005230189
 10
2.890982452708141
 20
-0.5582742453329642
 10
2.941718923482628
 20
-0.6037819860407196
 10
2.996228587610211
 20
-0.6446945812611743
 10
3.054096593633044
 20
-0.680700661441
 10
3.114882531083636
 20
-0.7115261985689628
 10
3.162499999999999
 20
-0.7312499999999997
  0
LINE
  5
19F
330
132
100
AcDbEntity
  8
AM_4
100
AcDbLine
 10
3.1625
 20
0.7312500000000001
 30
0.0
 11
3.1625
 21
1.1875
 31
0.0
  0
LINE
  5
1A0
330
132
100
AcDbEntity
  8
AM_4
100
AcDbLine
 10
3.162500000000001
 20
-1.1875
 30
0.0
 11
3.1625
 21
-0.7312499999999996
 31
0.0
  0
LWPOLYLINE
  5
1A1
330
132
100
AcDbEntity
  8
AM_4
100
AcDbPolyline
 90
       29
 70
     0
 43
0.0
 10
-3.162499999999999
 20
-0.7312500000000001
 10
-3.099813821140544
 20
-0.7044995437239828
 10
-3.039697638002699
 20
-0.6723874205317711
 10
-2.982608971039287
 20
-0.6351580230706877
 10
-2.92898229947698
 20
-0.5930946895351364
 10
-2.879225754667035
 20
-0.5465175472918576
 10
-2.833718013959279
 20
-0.4957810765173706
 10
-2.792805418738824
 20
-0.4412714123897873
 10
-2.756799338558999
 20
-0.3834034063669542
 10
-2.725973801431036
 20
-0.3226174689163622
 10
-2.700563408305449
 20
-0.2593762177255629
 10
-2.680761547617137
 20
-0.1941609569022297
 10
-2.666718923482629
 20
-0.1274680139592795
 10
-2.658542408750758
 20
-0.0598049624628079
 10
-2.656294231635746
 20
0.0083132409092293
 10
-2.659991502122926
 20
0.0763681754982752
 10
-2.669606081751417
 20
0.143841902159414
 10
-2.685064797764805
 20
0.2102209050910046
 10
-2.706249999999999
 20
0.2749999999999995
 10
-2.733000456276017
 20
0.3376861788594545
 10
-2.765112579468229
 20
0.3978023619972995
 10
-2.802341976929312
 20
0.4548910289607114
 10
-2.844405310464863
 20
0.5085177005230193
 10
-2.890982452708141
 20
0.5582742453329644
 10
-2.941718923482629
 20
0.6037819860407199
 10
-2.996228587610212
 20
0.6446945812611744
 10
-3.054096593633045
 20
0.6807006614410002
 10
-3.114882531083637
 20
0.7115261985689628
 10
-3.162499999999999
 20
0.7312499999999993
  0
LINE
  5
1A2
330
132
100
AcDbEntity
  8
AM_4
100
AcDbLine
 10
-3.162499999999994
 20
-1.1875
 30
0.0
 11
-3.162499999999999
 21
-0.7312500000000002
 31
0.0
  0
LINE
  5
1A3
330
132
100
AcDbEntity
  8
AM_4
100
AcDbLine
 10
-3.162499999999999
 20
0.7312499999999992
 30
0.0
 11
-3.162499999999999
 21
1.1875
 31
0.0
  0
LINE
  5
1A4
330
132
100
AcDbEntity
  8
AM_4
100
AcDbLine
 10
1.981430615965723
 20
0.1102360000000002
 30
0.0
 11
1.967511218978065
 21
0.1102360000000002
 31
0.0
  0
LINE
  5
1A5
330
132
100
AcDbEntity
  8
AM_4
100
AcDbLine
 10
1.967511218978065
 20
-0.110236
 30
0.0
 11
1.981430615965723
 21
-0.110236
 31
0.0
  0
ELLIPSE
  5
1A6
330
132
100
AcDbEntity
  8
AM_4
100
AcDbEllipse
 10
1.967511218978065
 20
0.0000000000000001
 30
0.0
 11
6.750008227540382E-18
 21
0.110236
 31
0.0
210
0.0
220
0.0
230
1.0
 40
0.7071067811865465
 41
0.0
 42
3.141592653589793
  0
ELLIPSE
  5
1A7
330
132
100
AcDbEntity
  8
AM_4
100
AcDbEllipse
 10
1.981430615965724
 20
0.0000000000000001
 30
0.0
 11
6.750008227540392E-18
 21
0.1102360000000002
 31
0.0
210
0.0
220
0.0
230
1.0
 40
0.7071067811865434
 41
5.689631485080309
 42
10.01843501608172
  0
LWPOLYLINE
  5
1A8
330
132
100
AcDbEntity
  8
AM_4
100
AcDbPolyline
 90
        5
 70
     0
 43
0.0
 10
1.76333519476355
 20
-0.0909214090671168
 10
1.787419958892714
 20
-0.1133330912277908
 10
1.813862015101716
 20
-0.1359448732442181
 10
1.843162120679475
 20
-0.1588926749040725
 10
1.874690724218198
 20
-0.1818428181342336
  0
LINE
  5
1A9
330
132
100
AcDbEntity
  8
AM_4
100
AcDbLine
 10
1.874690724218198
 20
-0.1818428181342336
 30
0.0
 11
1.962895227717552
 21
-0.1818428181342336
 31
0.0
  0
LINE
  5
1AA
330
132
100
AcDbEntity
  8
AM_4
100
AcDbLine
 10
1.874690724218198
 20
0.1818428181342338
 30
0.0
 11
1.962895227717552
 21
0.1818428181342338
 31
0.0
  0
LWPOLYLINE
  5
1AB
330
132
100
AcDbEntity
  8
AM_4
100
AcDbPolyline
 90
        5
 70
     0
 43
0.0
 10
1.874690724218198
 20
0.1818428181342338
 10
1.843878302776274
 20
0.1594311359735598
 10
1.814933030869989
 20
0.1368193539571328
 10
1.788022731662512
 20
0.1138715522972785
 10
1.76333519476355
 20
0.090921409067117
  0
LINE
  5
1AC
330
132
100
AcDbEntity
  8
AM_4
100
AcDbLine
 10
1.76333519476355
 20
0.090921409067117
 30
0.0
 11
1.851539698262904
 21
0.090921409067117
 31
0.0
  0
LWPOLYLINE
  5
1AD
330
132
100
AcDbEntity
  8
AM_4
100
AcDbPolyline
 90
        5
 70
     0
 43
0.0
 10
1.76333519476355
 20
0.090921409067117
 10
1.75997136610717
 20
0.0460980447457688
 10
1.758719758258528
 20
0.0008744807129147
 10
1.759914661443669
 20
-0.0450211226067939
 10
1.76333519476355
 20
-0.0909214090671168
  0
LINE
  5
1AE
330
132
100
AcDbEntity
  8
AM_4
100
AcDbLine
 10
1.76333519476355
 20
-0.0909214090671168
 30
0.0
 11
1.851539698262904
 21
-0.0909214090671167
 31
0.0
  0
LWPOLYLINE
  5
1AF
330
132
100
AcDbEntity
  8
AM_4
100
AcDbPolyline
 90
        5
 70
     0
 43
0.0
 10
2.058696791171871
 20
-0.1055938810421534
 10
2.050165993043036
 20
-0.113333091227791
 10
2.023723936834033
 20
-0.135944873244218
 10
1.994423831256275
 20
-0.1588926749040724
 10
1.962895227717552
 20
-0.1818428181342336
  0
LWPOLYLINE
  5
1B0
330
132
100
AcDbEntity
  8
AM_4
100
AcDbPolyline
 90
        5
 70
     0
 43
0.0
 10
1.962895227717552
 20
0.1818428181342338
 10
1.993707649159476
 20
0.1594311359735597
 10
2.022652921065761
 20
0.1368193539571326
 10
2.049563220273238
 20
0.1138715522972784
 10
2.058719266894836
 20
0.1055731986900557
  0
LWPOLYLINE
  5
1B1
330
132
100
AcDbEntity
  8
AM_4
100
AcDbPolyline
 90
        5
 70
     0
 43
0.0
 10
1.851539698262904
 20
0.090921409067117
 10
1.882352119704828
 20
0.1133330912277908
 10
1.911297391611112
 20
0.1359448732442179
 10
1.93820769081859
 20
0.1588926749040723
 10
1.962895227717552
 20
0.1818428181342338
  0
LWPOLYLINE
  5
1B2
330
132
100
AcDbEntity
  8
AM_4
100
AcDbPolyline
 90
        5
 70
     0
 43
0.0
 10
1.851539698262904
 20
-0.0909214090671167
 10
1.854903526919284
 20
-0.0460980447457686
 10
1.856155134767925
 20
-0.0008744807129144
 10
1.854960231582785
 20
0.0450211226067942
 10
1.851539698262904
 20
0.090921409067117
  0
LWPOLYLINE
  5
1B3
330
132
100
AcDbEntity
  8
AM_4
100
AcDbPolyline
 90
        5
 70
     0
 43
0.0
 10
1.962895227717552
 20
-0.1818428181342336
 10
1.938810463588388
 20
-0.1594311359735595
 10
1.912368407379386
 20
-0.1368193539571323
 10
1.883068301801627
 20
-0.1138715522972781
 10
1.851539698262904
 20
-0.0909214090671167
  0
ELLIPSE
  5
1B4
330
132
100
AcDbEntity
  8
AM_4
100
AcDbEllipse
 10
1.967511218978066
 20
0.0000000000000001
 30
0.0
 11
9.642868896486292E-18
 21
0.1574800000000005
 31
0.0
210
0.0
220
0.0
230
1.0
 40
0.707106781186546
 41
5.437756027884751
 42
10.27165060755762
  0
ELLIPSE
  5
1B5
330
132
100
AcDbEntity
  8
AM_4
100
AcDbEllipse
 10
2.058512811815914
 20
0.0000000000000001
 30
0.0
 11
6.258279761112094E-18
 21
0.1022054647179799
 31
0.0
210
0.0
220
0.0
230
1.0
 40
0.7071067811865476
 41
0.6943373869099787
 42
2.479596084727
  0
LWPOLYLINE
  5
1B6
330
132
100
AcDbEntity
  8
AM_4
100
AcDbPolyline
 90
       12
 70
     0
 43
0.0
 10
2.113026506592725
 20
0.0875637023474012
 10
2.11016002078076
 20
0.0900325483804821
 10
2.100404042142012
 20
0.0968647446114803
 10
2.090043073098766
 20
0.1018741566116419
 10
2.07933245340393
 20
0.1049850590805876
 10
2.068511865411132
 20
0.1061945150418216
 10
2.057783582172156
 20
0.105547293844086
 10
2.047321164372093
 20
0.1031096571363555
 10
2.037274584747682
 20
0.0989560317462454
 10
2.027758703148325
 20
0.0931499109067179
 10
2.018894648064026
 20
0.0857544612554382
 10
2.012806353236398
 20
0.0792736603364478
  0
LWPOLYLINE
  5
1B7
330
132
100
AcDbEntity
  8
AM_4
100
AcDbPolyline
 90
        3
 70
     0
 43
0.0
 10
2.106365499123722
 20
-0.0929620077673648
 10
2.109063047110368
 20
-0.0909176319908141
 10
2.113642827399624
 20
-0.0870020110796031
  0
LWPOLYLINE
  5
1B8
330
132
100
AcDbEntity
  8
AM_4
100
AcDbPolyline
 90
       11
 70
     0
 43
0.0
 10
2.014798482080943
 20
-0.0815400256683941
 10
2.017580256425852
 20
-0.0844634426384552
 10
2.026792029262342
 20
-0.0924445695432267
 10
2.036772125465459
 20
-0.0986976739806719
 10
2.047274610900213
 20
-0.1030946531832692
 10
2.058045681279906
 20
-0.1055850931005915
 10
2.068856431705146
 20
-0.1061849207599764
 10
2.07951796796554
 20
-0.1049477564066747
 10
2.089858284973662
 20
-0.1019448768841002
 10
2.09974496292816
 20
-0.0972477106267871
 10
2.104864637907487
 20
-0.0940217429255143
  0
LINE
  5
1B9
330
132
100
AcDbEntity
  8
AM_4
100
AcDbLine
 10
-1.899999999999995
 20
1.1875
 30
0.0
 11
-1.9
 21
1.0133334125
 31
0.0
  0
LINE
  5
1BA
330
132
100
AcDbEntity
  8
AM_4
100
AcDbLine
 10
1.9
 20
1.0133334125
 30
0.0
 11
1.9
 21
1.1875
 31
0.0
  0
LINE
  5
1BB
330
132
100
AcDbEntity
  8
AM_4
100
AcDbLine
 10
-1.9
 20
1.0133334125
 30
0.0
 11
1.9
 21
1.0133334125
 31
0.0
  0
LINE
  5
1BC
330
132
100
AcDbEntity
  8
AM_4
100
AcDbLine
 10
1.900000000000002
 20
-1.1875
 30
0.0
 11
1.9
 21
-1.0133334125
 31
0.0
  0
LINE
  5
1BD
330
132
100
AcDbEntity
  8
AM_4
100
AcDbLine
 10
-1.9
 20
-1.0133334125
 30
0.0
 11
-1.9
 21
-1.187500000000003
 31
0.0
  0
LINE
  5
1BE
330
132
100
AcDbEntity
  8
AM_4
100
AcDbLine
 10
-1.75
 20
-1.0133334125
 30
0.0
 11
-1.9
 21
-1.0133334125
 31
0.0
  0
LINE
  5
1BF
330
132
100
AcDbEntity
  8
AM_4
100
AcDbLine
 10
1.9
 20
-1.0133334125
 30
0.0
 11
1.745530005471118
 21
-1.0133334125
 31
0.0
  0
LWPOLYLINE
  5
1C0
330
132
100
AcDbEntity
  8
AM_4
100
AcDbPolyline
 90
       37
 70
     0
 43
0.0
 10
-2.16535
 20
1.021770141435987
 10
-2.157110189512961
 20
1.005226943119602
 10
-2.132453467984985
 20
0.9888096485314617
 10
-2.091567487955035
 20
0.9726432031964145
 10
-2.034763416418767
 20
0.9568506435250268
 10
-1.962473566659811
 20
0.941552160432206
 10
-1.875248108084635
 20
0.9268641846117653
 10
-1.77375087910117
 20
0.9128985004285404
 10
-1.65875433490768
 20
0.8997613951718765
 10
-1.531133668642292
 20
0.8875528501451775
 10
-1.39186015063475
 20
0.8763657797478178
 10
-1.24199373645274
 20
0.8662853243404594
 10
-1.082675000000002
 20
0.8573882022754972
 10
-0.9151164530602264
 20
0.8497421260240748
 10
-0.7405933173502399
 20
0.8434052868432931
 10
-0.5604338193127467
 20
0.8384259119056053
 10
-0.3760090815110912
 20
0.8348418972609166
 10
-0.1887226875586455
 20
0.8326805194247597
 10
-0.0000000000000041
 20
0.831958227787544
 10
0.1887226875586373
 20
0.8326805194247597
 10
0.3760090815110831
 20
0.8348418972609165
 10
0.5604338193127387
 20
0.8384259119056052
 10
0.740593317350232
 20
0.8434052868432927
 10
0.9151164530602189
 20
0.8497421260240746
 10
1.082674999999995
 20
0.8573882022754967
 10
1.241993736452733
 20
0.8662853243404589
 10
1.391860150634744
 20
0.8763657797478174
 10
1.531133668642287
 20
0.8875528501451769
 10
1.658754334907675
 20
0.8997613951718759
 10
1.773750879101164
 20
0.9128985004285398
 10
1.875248108084631
 20
0.9268641846117648
 10
1.962473566659807
 20
0.9415521604322055
 10
2.034763416418764
 20
0.9568506435250261
 10
2.091567487955032
 20
0.9726432031964138
 10
2.132453467984984
 20
0.988809648531461
 10
2.157110189512961
 20
1.005226943119601
 10
2.16535
 20
1.021770141435986
  0
LWPOLYLINE
  5
1C1
330
132
100
AcDbEntity
  8
AM_4
100
AcDbPolyline
 90
        7
 70
     0
 43
0.0
 10
2.16535
 20
1.021770141435987
 10
2.157110189512961
 20
1.038313339752371
 10
2.132453467984985
 20
1.054730634340511
 10
2.091567487955035
 20
1.070897079675558
 10
2.034763416418767
 20
1.086689639346946
 10
1.962473566659811
 20
1.101988122439767
 10
1.900000000000001
 20
1.112814676008322
  0
LWPOLYLINE
  5
1C2
330
132
100
AcDbEntity
  8
AM_4
100
AcDbPolyline
 90
       37
 70
     0
 43
0.0
 10
2.16535
 20
-1.021770141435986
 10
2.157110189512961
 20
-1.005226943119602
 10
2.132453467984985
 20
-0.9888096485314615
 10
2.091567487955035
 20
-0.9726432031964141
 10
2.034763416418767
 20
-0.9568506435250264
 10
1.962473566659811
 20
-0.9415521604322056
 10
1.875248108084635
 20
-0.9268641846117649
 10
1.77375087910117
 20
-0.9128985004285399
 10
1.658754334907681
 20
-0.8997613951718759
 10
1.531133668642293
 20
-0.8875528501451769
 10
1.39186015063475
 20
-0.8763657797478173
 10
1.24199373645274
 20
-0.8662853243404586
 10
1.082675000000003
 20
-0.8573882022754965
 10
0.9151164530602266
 20
-0.8497421260240743
 10
0.7405933173502401
 20
-0.8434052868432923
 10
0.5604338193127469
 20
-0.8384259119056047
 10
0.3760090815110915
 20
-0.8348418972609157
 10
0.1887226875586458
 20
-0.8326805194247591
 10
0.0000000000000044
 20
-0.8319582277875431
 10
-0.1887226875586371
 20
-0.832680519424759
 10
-0.3760090815110829
 20
-0.8348418972609156
 10
-0.5604338193127385
 20
-0.8384259119056044
 10
-0.7405933173502318
 20
-0.8434052868432921
 10
-0.9151164530602187
 20
-0.8497421260240738
 10
-1.082674999999995
 20
-0.8573882022754961
 10
-1.241993736452733
 20
-0.8662853243404582
 10
-1.391860150634743
 20
-0.8763657797478167
 10
-1.531133668642286
 20
-0.8875528501451764
 10
-1.658754334907675
 20
-0.8997613951718753
 10
-1.773750879101164
 20
-0.9128985004285393
 10
-1.875248108084631
 20
-0.9268641846117642
 10
-1.962473566659807
 20
-0.9415521604322049
 10
-2.034763416418764
 20
-0.9568506435250257
 10
-2.091567487955032
 20
-0.9726432031964134
 10
-2.132453467984984
 20
-0.9888096485314606
 10
-2.157110189512961
 20
-1.005226943119601
 10
-2.16535
 20
-1.021770141435985
  0
LWPOLYLINE
  5
1C3
330
132
100
AcDbEntity
  8
AM_4
100
AcDbPolyline
 90
        7
 70
     0
 43
0.0
 10
-2.16535
 20
-1.021770141435986
 10
-2.157110189512961
 20
-1.038313339752371
 10
-2.132453467984985
 20
-1.054730634340511
 10
-2.091567487955035
 20
-1.070897079675558
 10
-2.034763416418767
 20
-1.086689639346946
 10
-1.962473566659811
 20
-1.101988122439767
 10
-1.900000000000001
 20
-1.112814676008322
  0
LINE
  5
1C4
330
132
100
AcDbEntity
  8
AM_4
100
AcDbLine
 10
2.144042964544275
 20
0.0605219071451589
 30
0.0
 11
2.111994382342762
 21
0.0884794128974561
 31
0.0
  0
LINE
  5
1C5
330
132
100
AcDbEntity
  8
AM_4
100
AcDbLine
 10
2.111994382342762
 20
-0.0884794128974559
 30
0.0
 11
2.144042964544275
 21
-0.0605219071451587
 31
0.0
  0
ELLIPSE
  5
1C6
330
132
100
AcDbEntity
  8
AM_4
100
AcDbEllipse
 10
2.073401977856868
 20
0.0000000000000001
 30
0.0
 11
6.365617546288455E-18
 21
0.103958423779337
 31
0.0
210
0.0
220
0.0
230
1.0
 40
0.7071067811865464
 41
5.730473253052779
 42
9.977490014896187
  0
ELLIPSE
  5
1C7
330
132
100
AcDbEntity
  8
AM_4
100
AcDbEllipse
 10
2.117644892446877
 20
0.0000000000000097
 30
0.0
 11
4.354225479599613E-18
 21
0.07110989850512317
 31
0.0
210
0.0
220
0.0
230
1.0
 40
0.7071067811864653
 41
3.360770257973108
 42
4.631320948070591
  0
ELLIPSE
  5
1C8
330
132
100
AcDbEntity
  8
AM_4
100
AcDbEllipse
 10
2.117644892446838
 20
-0.0000000000000487
 30
0.0
 11
4.354225479602713E-18
 21
0.0711098985051738
 31
0.0
210
0.0
220
0.0
230
1.0
 40
0.7071067811865489
 41
5.563631241690318
 42
5.730473253052707
  0
ELLIPSE
  5
1C9
330
132
100
AcDbEntity
  8
AM_4
100
AcDbEllipse
 10
2.120624585842295
 20
0.0000000000000001
 30
0.0
 11
-1.178200542891334E-17
 21
-0.06413825024007701
 31
0.0
210
0.0
220
0.0
230
1.0
 40
0.7071067811865492
 41
0.0
 42
6.283185307179586
  0
ELLIPSE
  5
1CA
330
132
100
AcDbEntity
  8
AM_4
100
AcDbEllipse
 10
2.117644892446864
 20
0.0000000000000002
 30
0.0
 11
4.354225479599010E-18
 21
0.07110989850511333
 31
0.0
210
0.0
220
0.0
230
1.0
 40
0.7071067811865507
 41
5.730473253052783
 42
9.643955565152957
  0
LWPOLYLINE
  5
1CB
330
132
100
AcDbEntity
  8
AM_4
100
AcDbPolyline
 90
        7
 70
     0
 43
0.0
 10
2.168283424583295
 20
0.0000000000000001
 10
2.168090516508915
 20
0.0061613309704418
 10
2.166702391589818
 20
0.0175190538997438
 10
2.16399644188916
 20
0.0284602597239946
 10
2.160022431997936
 20
0.0387056479246778
 10
2.154853657530281
 20
0.0479939717419949
 10
2.151042336569058
 20
0.0532225440582789
  0
LINE
  5
1CC
330
132
100
AcDbEntity
  8
AM_4
100
AcDbLine
 10
2.168127571259304
 20
-0.0055390572783285
 30
0.0
 11
2.168283424583295
 21
0.0000000000000001
 31
0.0
  0
LINE
  5
1CD
330
132
100
AcDbEntity
  8
AM_4
100
AcDbLine
 10
-0.2464009204580001
 20
0.0335047000000004
 30
0.0
 11
-0.2433398951830003
 21
0.0218509000000012
 31
0.0
  0
LINE
  5
1CE
330
132
100
AcDbEntity
  8
AM_4
100
AcDbLine
 10
-0.2433398951829999
 20
-0.0218508779411995
 30
0.0
 11
-0.2464009204580003
 21
-0.0335047031319008
 31
0.0
  0
LINE
  5
1CF
330
132
100
AcDbEntity
  8
AM_4
100
AcDbLine
 10
-0.243339895183
 20
0.0218509000000002
 30
0.0
 11
-0.243339895183
 21
-0.0218508779411998
 31
0.0
  0
LINE
  5
1D0
330
132
100
AcDbEntity
  8
AM_4
100
AcDbLine
 10
-0.3290446658729999
 20
-0.0509854606029999
 30
0.0
 11
-0.3290446658729999
 21
0.0509854000000001
 31
0.0
  0
LINE
  5
1D1
330
132
100
AcDbEntity
  8
AM_4
100
AcDbLine
 10
-0.273948573129
 20
-0.0509854606029999
 30
0.0
 11
-0.3290446658729999
 21
-0.0509854606029999
 31
0.0
  0
LINE
  5
1D2
330
132
100
AcDbEntity
  8
AM_4
100
AcDbLine
 10
-0.261705259431
 20
-0.048072073203
 30
0.0
 11
-0.273948573129
 21
-0.050985460603
 31
0.0
  0
LINE
  5
1D3
330
132
100
AcDbEntity
  8
AM_4
100
AcDbLine
 10
-0.252522577307
 20
-0.042244904702
 30
0.0
 11
-0.2617052594309999
 21
-0.0480720732029999
 31
0.0
  0
LINE
  5
1D4
330
132
100
AcDbEntity
  8
AM_4
100
AcDbLine
 10
-0.2464009204580003
 20
-0.0335047031319002
 30
0.0
 11
-0.252522577307
 21
-0.0422449047019999
 31
0.0
  0
LINE
  5
1D5
330
132
100
AcDbEntity
  8
AM_4
100
AcDbLine
 10
-0.2525225773069998
 20
0.0422449000000001
 30
0.0
 11
-0.246400920458
 21
0.0335047000000004
 31
0.0
  0
LINE
  5
1D6
330
132
100
AcDbEntity
  8
AM_4
100
AcDbLine
 10
-0.2617052594310003
 20
0.0480720000000003
 30
0.0
 11
-0.2525225773069997
 21
0.0422449
 31
0.0
  0
LINE
  5
1D7
330
132
100
AcDbEntity
  8
AM_4
100
AcDbLine
 10
-0.2739485731290001
 20
0.0509854000000001
 30
0.0
 11
-0.2617052594310001
 21
0.0480720000000001
 31
0.0
  0
LINE
  5
1D8
330
132
100
AcDbEntity
  8
AM_4
100
AcDbLine
 10
-0.3290446658729999
 20
0.0509854000000001
 30
0.0
 11
-0.273948573129
 21
0.0509854000000002
 31
0.0
  0
LINE
  5
1D9
330
132
100
AcDbEntity
  8
AM_4
100
AcDbLine
 10
-0.1821221455900003
 20
0.021850899999999
 30
0.0
 11
-0.1790615140159996
 21
0.0335047000000017
 31
0.0
  0
LINE
  5
1DA
330
132
100
AcDbEntity
  8
AM_4
100
AcDbLine
 10
-0.18212214559
 20
-0.0218508779411998
 30
0.0
 11
-0.18212214559
 21
0.0218509000000002
 31
0.0
  0
LINE
  5
1DB
330
132
100
AcDbEntity
  8
AM_4
100
AcDbLine
 10
-0.1790615140159986
 20
-0.0335047031319052
 30
0.0
 11
-0.1821221455899993
 21
-0.0218508779412024
 31
0.0
  0
LINE
  5
1DC
330
132
100
AcDbEntity
  8
AM_4
100
AcDbLine
 10
-0.1729394634659988
 20
-0.0422449047020016
 30
0.0
 11
-0.1790615140159986
 21
-0.0335047031319019
 31
0.0
  0
LINE
  5
1DD
330
132
100
AcDbEntity
  8
AM_4
100
AcDbLine
 10
-0.1637571750430004
 20
-0.0480720732029996
 30
0.0
 11
-0.1729394634659988
 21
-0.0422449047020006
 31
0.0
  0
LINE
  5
1DE
330
132
100
AcDbEntity
  8
AM_4
100
AcDbLine
 10
-0.1515134676439987
 20
-0.0509854606030002
 30
0.0
 11
-0.1637571750430004
 21
-0.0480720732029998
 31
0.0
  0
LINE
  5
1DF
330
132
100
AcDbEntity
  8
AM_4
100
AcDbLine
 10
-0.127026446547
 20
-0.0509854606029999
 30
0.0
 11
-0.151513467644
 21
-0.0509854606029998
 31
0.0
  0
LINE
  5
1E0
330
132
100
AcDbEntity
  8
AM_4
100
AcDbLine
 10
-0.1147831328490002
 20
-0.0480720732030001
 30
0.0
 11
-0.1270264465469998
 21
-0.050985460603
 31
0.0
  0
LINE
  5
1E1
330
132
100
AcDbEntity
  8
AM_4
100
AcDbLine
 10
-0.105600450725
 20
-0.0422449047019999
 30
0.0
 11
-0.1147831328490002
 21
-0.048072073203
 31
0.0
  0
LINE
  5
1E2
330
132
100
AcDbEntity
  8
AM_4
100
AcDbLine
 10
-0.0994784001750003
 20
-0.0335047031319002
 30
0.0
 11
-0.1056004507250001
 21
-0.0422449047019998
 31
0.0
  0
LINE
  5
1E3
330
132
100
AcDbEntity
  8
AM_4
100
AcDbLine
 10
-0.0964177686009998
 20
-0.0218508779411989
 30
0.0
 11
-0.0994784001749998
 21
-0.0335047031318988
 31
0.0
  0
LINE
  5
1E4
330
132
100
AcDbEntity
  8
AM_4
100
AcDbLine
 10
-0.096417768601
 20
0.0218509000000002
 30
0.0
 11
-0.096417768601
 21
-0.0218508779411998
 31
0.0
  0
LINE
  5
1E5
330
132
100
AcDbEntity
  8
AM_4
100
AcDbLine
 10
-0.0994784001750001
 20
0.0335047000000006
 30
0.0
 11
-0.0964177686010001
 21
0.0218509000000008
 31
0.0
  0
LINE
  5
1E6
330
132
100
AcDbEntity
  8
AM_4
100
AcDbLine
 10
-0.1056004507249998
 20
0.0422448999999999
 30
0.0
 11
-0.0994784001750001
 21
0.0335047000000004
 31
0.0
  0
LINE
  5
1E7
330
132
100
AcDbEntity
  8
AM_4
100
AcDbLine
 10
-0.114783132849
 20
0.0480720000000002
 30
0.0
 11
-0.1056004507249998
 21
0.0422449000000001
 31
0.0
  0
LINE
  5
1E8
330
132
100
AcDbEntity
  8
AM_4
100
AcDbLine
 10
-0.1270264465470001
 20
0.0509854000000002
 30
0.0
 11
-0.114783132849
 21
0.0480720000000002
 31
0.0
  0
LINE
  5
1E9
330
132
100
AcDbEntity
  8
AM_4
100
AcDbLine
 10
-0.151513467644
 20
0.0509854000000001
 30
0.0
 11
-0.127026446547
 21
0.0509854000000002
 31
0.0
  0
LINE
  5
1EA
330
132
100
AcDbEntity
  8
AM_4
100
AcDbLine
 10
-0.1637571750430014
 20
0.0480719999999997
 30
0.0
 11
-0.1515134676440019
 21
0.0509853999999996
 31
0.0
  0
LINE
  5
1EB
330
132
100
AcDbEntity
  8
AM_4
100
AcDbLine
 10
-0.1729394634659998
 20
0.0422449000000004
 30
0.0
 11
-0.1637571750430014
 21
0.0480719999999993
 31
0.0
  0
LINE
  5
1EC
330
132
100
AcDbEntity
  8
AM_4
100
AcDbLine
 10
-0.1790615140159995
 20
0.0335047000000009
 30
0.0
 11
-0.1729394634659997
 21
0.0422449000000006
 31
0.0
  0
LINE
  5
1ED
330
132
100
AcDbEntity
  8
AM_4
100
AcDbLine
 10
3.162500000000001
 20
-1.1875
 30
0.0
 11
2.55037606333138
 21
-0.967294118040044
 31
0.0
  0
LINE
  5
1EE
330
132
100
AcDbEntity
  8
AM_4
100
AcDbLine
 10
-2.55037606333138
 20
-0.9672941180400438
 30
0.0
 11
-3.162499999999994
 21
-1.1875
 31
0.0
  0
LWPOLYLINE
  5
1EF
330
132
100
AcDbEntity
  8
AM_4
100
AcDbPolyline
 90
        7
 70
     0
 43
0.0
 10
1.899999999999999
 20
-1.112814676008322
 10
1.983292006478521
 20
-1.097952290476243
 10
2.051489963243287
 20
-1.082510112789929
 10
2.104074842664263
 20
-1.066605667245814
 10
2.140646442057438
 20
-1.050359996277854
 10
2.160926429468894
 20
-1.033896739251523
 10
2.16535
 20
-1.021770141435986
  0
LINE
  5
1F0
330
132
100
AcDbEntity
  8
AM_4
100
AcDbLine
 10
0.0198957
 20
-0.0684661787039998
 30
0.0
 11
-0.053565383256
 21
-0.0684661787039997
 31
0.0
  0
LINE
  5
1F1
330
132
100
AcDbEntity
  8
AM_4
100
AcDbLine
 10
0.347409
 20
-0.0684661787039998
 30
0.0
 11
0.237218
 21
-0.0684661787039998
 31
0.0
  0
LINE
  5
1F2
330
132
100
AcDbEntity
  8
AM_4
100
AcDbLine
 10
0.237218
 20
-0.0684661787039998
 30
0.0
 11
0.237218
 21
0.0684661000000003
 31
0.0
  0
LINE
  5
1F3
330
132
100
AcDbEntity
  8
AM_4
100
AcDbLine
 10
0.237218
 20
0.0684661000000003
 30
0.0
 11
0.347409
 21
0.0684661000000003
 31
0.0
  0
LINE
  5
1F4
330
132
100
AcDbEntity
  8
AM_4
100
AcDbLine
 10
0.347409
 20
0.0684661000000003
 30
0.0
 11
0.347409
 21
0.0509854000000002
 31
0.0
  0
LINE
  5
1F5
330
132
100
AcDbEntity
  8
AM_4
100
AcDbLine
 10
0.347409
 20
0.0509854000000002
 30
0.0
 11
0.255583
 21
0.0509854000000001
 31
0.0
  0
LINE
  5
1F6
330
132
100
AcDbEntity
  8
AM_4
100
AcDbLine
 10
0.255583
 20
0.0509854000000001
 30
0.0
 11
0.255583
 21
0.0131105000000002
 31
0.0
  0
LINE
  5
1F7
330
132
100
AcDbEntity
  8
AM_4
100
AcDbLine
 10
0.255583
 20
0.0131105000000002
 30
0.0
 11
0.335166
 21
0.0131105000000001
 31
0.0
  0
LINE
  5
1F8
330
132
100
AcDbEntity
  8
AM_4
100
AcDbLine
 10
0.335166
 20
0.0131105000000001
 30
0.0
 11
0.335166
 21
-0.0043701598401998
 31
0.0
  0
LINE
  5
1F9
330
132
100
AcDbEntity
  8
AM_4
100
AcDbLine
 10
0.335166
 20
-0.0043701598401998
 30
0.0
 11
0.255583
 21
-0.0043701598401998
 31
0.0
  0
LINE
  5
1FA
330
132
100
AcDbEntity
  8
AM_4
100
AcDbLine
 10
0.255583
 20
-0.0043701598401998
 30
0.0
 11
0.255583
 21
-0.0509854606029998
 31
0.0
  0
LINE
  5
1FB
330
132
100
AcDbEntity
  8
AM_4
100
AcDbLine
 10
0.255583
 20
-0.0509854606029998
 30
0.0
 11
0.347409
 21
-0.0509854606029999
 31
0.0
  0
LINE
  5
1FC
330
132
100
AcDbEntity
  8
AM_4
100
AcDbLine
 10
0.347409
 20
-0.0509854606029999
 30
0.0
 11
0.347409
 21
-0.0684661787039998
 31
0.0
  0
LINE
  5
1FD
330
132
100
AcDbEntity
  8
AM_4
100
AcDbLine
 10
0.0933567
 20
-0.0218508779411998
 30
0.0
 11
0.0933567
 21
0.0218509000000002
 31
0.0
  0
LINE
  5
1FE
330
132
100
AcDbEntity
  8
AM_4
100
AcDbLine
 10
0.0933566999999995
 20
0.0218508999999981
 30
0.0
 11
0.0964176999999995
 21
0.0364180999999977
 31
0.0
  0
LINE
  5
1FF
330
132
100
AcDbEntity
  8
AM_4
100
AcDbLine
 10
0.0964176999999995
 20
0.0364180999999991
 30
0.0
 11
0.1025389999999994
 21
0.0480719999999989
 31
0.0
  0
LINE
  5
200
330
132
100
AcDbEntity
  8
AM_4
100
AcDbLine
 10
0.1025389999999994
 20
0.0480719999999997
 30
0.0
 11
0.1147829999999988
 21
0.0597255999999991
 31
0.0
  0
LINE
  5
201
330
132
100
AcDbEntity
  8
AM_4
100
AcDbLine
 10
0.1147829999999988
 20
0.0597255999999995
 30
0.0
 11
0.1270259999999996
 21
0.0655527999999999
 31
0.0
  0
LINE
  5
202
330
132
100
AcDbEntity
  8
AM_4
100
AcDbLine
 10
0.1270259999999996
 20
0.0655528000000003
 30
0.0
 11
0.1423309999999997
 21
0.0684661000000004
 31
0.0
  0
LINE
  5
203
330
132
100
AcDbEntity
  8
AM_4
100
AcDbLine
 10
0.142331
 20
0.0684661000000002
 30
0.0
 11
0.169879
 21
0.0684661000000003
 31
0.0
  0
LINE
  5
204
330
132
100
AcDbEntity
  8
AM_4
100
AcDbLine
 10
0.1698789999999998
 20
0.0684660999999998
 30
0.0
 11
0.1851830000000001
 21
0.0655527999999997
 31
0.0
  0
LINE
  5
205
330
132
100
AcDbEntity
  8
AM_4
100
AcDbLine
 10
0.1851830000000001
 20
0.0655527999999999
 30
0.0
 11
0.1974270000000002
 21
0.0597255999999999
 31
0.0
  0
LINE
  5
206
330
132
100
AcDbEntity
  8
AM_4
100
AcDbLine
 10
0.1974269999999996
 20
0.0597256000000004
 30
0.0
 11
0.2096699999999999
 21
0.0480720000000001
 31
0.0
  0
LINE
  5
207
330
132
100
AcDbEntity
  8
AM_4
100
AcDbLine
 10
0.20967
 20
0.0480720000000005
 30
0.0
 11
0.2127310000000001
 21
0.0335046999999998
 31
0.0
  0
LINE
  5
208
330
132
100
AcDbEntity
  8
AM_4
100
AcDbLine
 10
0.212731
 20
0.0335047000000002
 30
0.0
 11
0.194366
 21
0.0335047000000002
 31
0.0
  0
LINE
  5
209
330
132
100
AcDbEntity
  8
AM_4
100
AcDbLine
 10
0.1943660000000009
 20
0.0335046999999976
 30
0.0
 11
0.1913050000000002
 21
0.0422448999999996
 31
0.0
  0
LINE
  5
20A
330
132
100
AcDbEntity
  8
AM_4
100
AcDbLine
 10
0.1913050000000002
 20
0.0422448999999999
 30
0.0
 11
0.1821220000000011
 21
0.0480719999999993
 31
0.0
  0
LINE
  5
20B
330
132
100
AcDbEntity
  8
AM_4
100
AcDbLine
 10
0.1821220000000011
 20
0.0480719999999998
 30
0.0
 11
0.1698789999999993
 21
0.0509854000000002
 31
0.0
  0
LINE
  5
20C
330
132
100
AcDbEntity
  8
AM_4
100
AcDbLine
 10
0.169879
 20
0.0509854000000002
 30
0.0
 11
0.142331
 21
0.0509854000000001
 31
0.0
  0
LINE
  5
20D
330
132
100
AcDbEntity
  8
AM_4
100
AcDbLine
 10
0.1423310000000003
 20
0.0509854000000001
 30
0.0
 11
0.1300869999999998
 21
0.048072
 31
0.0
  0
LINE
  5
20E
330
132
100
AcDbEntity
  8
AM_4
100
AcDbLine
 10
0.1300869999999998
 20
0.048072
 30
0.0
 11
0.1209049999999999
 21
0.0422449000000001
 31
0.0
  0
LINE
  5
20F
330
132
100
AcDbEntity
  8
AM_4
100
AcDbLine
 10
0.1209049999999999
 20
0.0422449000000003
 30
0.0
 11
0.1147830000000001
 21
0.0335047000000005
 31
0.0
  0
LINE
  5
210
330
132
100
AcDbEntity
  8
AM_4
100
AcDbLine
 10
0.1147830000000001
 20
0.0335047000000004
 30
0.0
 11
0.111722
 21
0.0218509
 31
0.0
  0
LINE
  5
211
330
132
100
AcDbEntity
  8
AM_4
100
AcDbLine
 10
0.111722
 20
0.0218509000000002
 30
0.0
 11
0.111722
 21
-0.0218508779411998
 31
0.0
  0
LINE
  5
212
330
132
100
AcDbEntity
  8
AM_4
100
AcDbLine
 10
0.1117220000000003
 20
-0.0218508779412008
 30
0.0
 11
0.1147829999999997
 21
-0.033504703131899
 31
0.0
  0
LINE
  5
213
330
132
100
AcDbEntity
  8
AM_4
100
AcDbLine
 10
0.1147830000000003
 20
-0.0335047031319002
 30
0.0
 11
0.1209050000000002
 21
-0.042244904702
 31
0.0
  0
LINE
  5
214
330
132
100
AcDbEntity
  8
AM_4
100
AcDbLine
 10
0.1209050000000002
 20
-0.0422449047019998
 30
0.0
 11
0.130087
 21
-0.0480720732029998
 31
0.0
  0
LINE
  5
215
330
132
100
AcDbEntity
  8
AM_4
100
AcDbLine
 10
0.130087
 20
-0.0480720732029999
 30
0.0
 11
0.1423309999999999
 21
-0.0509854606029999
 31
0.0
  0
LINE
  5
216
330
132
100
AcDbEntity
  8
AM_4
100
AcDbLine
 10
0.142331
 20
-0.0509854606029998
 30
0.0
 11
0.169879
 21
-0.0509854606029999
 31
0.0
  0
LINE
  5
217
330
132
100
AcDbEntity
  8
AM_4
100
AcDbLine
 10
0.1698789999999984
 20
-0.0509854606030003
 30
0.0
 11
0.1821220000000002
 21
-0.0480720732029999
 31
0.0
  0
LINE
  5
218
330
132
100
AcDbEntity
  8
AM_4
100
AcDbLine
 10
0.1821220000000002
 20
-0.0480720732029996
 30
0.0
 11
0.1913049999999993
 21
-0.0422449047020002
 31
0.0
  0
LINE
  5
219
330
132
100
AcDbEntity
  8
AM_4
100
AcDbLine
 10
0.1913049999999993
 20
-0.0422449047020021
 30
0.0
 11
0.1943659999999999
 21
-0.0335047031319001
 31
0.0
  0
LINE
  5
21A
330
132
100
AcDbEntity
  8
AM_4
100
AcDbLine
 10
0.194366
 20
-0.0335047031318998
 30
0.0
 11
0.194366
 21
-0.0101970921205998
 31
0.0
  0
LINE
  5
21B
330
132
100
AcDbEntity
  8
AM_4
100
AcDbLine
 10
0.194366
 20
-0.0101970921205998
 30
0.0
 11
0.166818
 21
-0.0101970921205999
 31
0.0
  0
LINE
  5
21C
330
132
100
AcDbEntity
  8
AM_4
100
AcDbLine
 10
0.166818
 20
-0.0101970921205999
 30
0.0
 11
0.166818
 21
0.0072836200000002
 31
0.0
  0
LINE
  5
21D
330
132
100
AcDbEntity
  8
AM_4
100
AcDbLine
 10
0.166818
 20
0.0072836200000002
 30
0.0
 11
0.212731
 21
0.0072836200000002
 31
0.0
  0
LINE
  5
21E
330
132
100
AcDbEntity
  8
AM_4
100
AcDbLine
 10
0.212731
 20
0.0072836200000002
 30
0.0
 11
0.212731
 21
-0.0364181299019998
 31
0.0
  0
LINE
  5
21F
330
132
100
AcDbEntity
  8
AM_4
100
AcDbLine
 10
0.2127309999999998
 20
-0.0364181299020006
 30
0.0
 11
0.2096700000000002
 21
-0.0480720732029989
 31
0.0
  0
LINE
  5
220
330
132
100
AcDbEntity
  8
AM_4
100
AcDbLine
 10
0.2096699999999997
 20
-0.048072073203
 30
0.0
 11
0.1974269999999999
 21
-0.0597256228029997
 31
0.0
  0
LINE
  5
221
330
132
100
AcDbEntity
  8
AM_4
100
AcDbLine
 10
0.197427
 20
-0.0597256228029998
 30
0.0
 11
0.1851829999999999
 21
-0.0655527913039999
 31
0.0
  0
LINE
  5
222
330
132
100
AcDbEntity
  8
AM_4
100
AcDbLine
 10
0.1851829999999999
 20
-0.065552791304
 30
0.0
 11
0.1698790000000002
 21
-0.0684661787039999
 31
0.0
  0
LINE
  5
223
330
132
100
AcDbEntity
  8
AM_4
100
AcDbLine
 10
0.169879
 20
-0.0684661787039998
 30
0.0
 11
0.142331
 21
-0.0684661787039999
 31
0.0
  0
LINE
  5
224
330
132
100
AcDbEntity
  8
AM_4
100
AcDbLine
 10
0.1423310000000006
 20
-0.068466178704
 30
0.0
 11
0.1270260000000005
 21
-0.0655527913039999
 31
0.0
  0
LINE
  5
225
330
132
100
AcDbEntity
  8
AM_4
100
AcDbLine
 10
0.1270260000000005
 20
-0.065552791304
 30
0.0
 11
0.1147829999999998
 21
-0.0597256228029997
 31
0.0
  0
LINE
  5
226
330
132
100
AcDbEntity
  8
AM_4
100
AcDbLine
 10
0.1147829999999998
 20
-0.0597256228029997
 30
0.0
 11
0.1025390000000004
 21
-0.0480720732030002
 31
0.0
  0
LINE
  5
227
330
132
100
AcDbEntity
  8
AM_4
100
AcDbLine
 10
0.1025390000000004
 20
-0.0480720732030007
 30
0.0
 11
0.0964177000000005
 21
-0.0364181299020009
 31
0.0
  0
LINE
  5
228
330
132
100
AcDbEntity
  8
AM_4
100
AcDbLine
 10
0.0964177000000005
 20
-0.0364181299020023
 30
0.0
 11
0.0933567000000005
 21
-0.0218508779412027
 31
0.0
  0
LINE
  5
229
330
132
100
AcDbEntity
  8
AM_4
100
AcDbLine
 10
-0.053565383256
 20
-0.0684661787039997
 30
0.0
 11
-0.053565383256
 21
0.0684661000000003
 31
0.0
  0
LINE
  5
22A
330
132
100
AcDbEntity
  8
AM_4
100
AcDbLine
 10
-0.053565383256
 20
0.0684661000000003
 30
0.0
 11
0.0198957
 21
0.0684661000000003
 31
0.0
  0
LINE
  5
22B
330
132
100
AcDbEntity
  8
AM_4
100
AcDbLine
 10
0.0198956999999998
 20
0.0684660999999999
 30
0.0
 11
0.0352000999999997
 21
0.0655527999999999
 31
0.0
  0
LINE
  5
22C
330
132
100
AcDbEntity
  8
AM_4
100
AcDbLine
 10
0.0352001000000003
 20
0.0655528
 30
0.0
 11
0.0474437
 21
0.0597256000000001
 31
0.0
  0
LINE
  5
22D
330
132
100
AcDbEntity
  8
AM_4
100
AcDbLine
 10
0.0474437
 20
0.0597255999999999
 30
0.0
 11
0.0596869999999996
 21
0.0480720000000003
 31
0.0
  0
LINE
  5
22E
330
132
100
AcDbEntity
  8
AM_4
100
AcDbLine
 10
0.0596870000000002
 20
0.0480719999999998
 30
0.0
 11
0.0658090999999999
 21
0.0364181000000003
 31
0.0
  0
LINE
  5
22F
330
132
100
AcDbEntity
  8
AM_4
100
AcDbLine
 10
0.0658090999999999
 20
0.0364181000000006
 30
0.0
 11
0.0688696999999998
 21
0.0218509000000012
 31
0.0
  0
LINE
  5
230
330
132
100
AcDbEntity
  8
AM_4
100
AcDbLine
 10
0.0688697
 20
0.0218509000000002
 30
0.0
 11
0.0688697
 21
-0.0218508779411998
 31
0.0
  0
LINE
  5
231
330
132
100
AcDbEntity
  8
AM_4
100
AcDbLine
 10
0.0688697000000001
 20
-0.0218508779411994
 30
0.0
 11
0.0658091000000002
 21
-0.0364181299019988
 31
0.0
  0
LINE
  5
232
330
132
100
AcDbEntity
  8
AM_4
100
AcDbLine
 10
0.0658091000000002
 20
-0.0364181299019995
 30
0.0
 11
0.0596869999999999
 21
-0.0480720732030001
 31
0.0
  0
LINE
  5
233
330
132
100
AcDbEntity
  8
AM_4
100
AcDbLine
 10
0.0596869999999999
 20
-0.0480720732029998
 30
0.0
 11
0.0474436999999997
 21
-0.059725622803
 31
0.0
  0
LINE
  5
234
330
132
100
AcDbEntity
  8
AM_4
100
AcDbLine
 10
0.0474436999999997
 20
-0.0597256228029999
 30
0.0
 11
0.0352001
 21
-0.0655527913039998
 31
0.0
  0
LINE
  5
235
330
132
100
AcDbEntity
  8
AM_4
100
AcDbLine
 10
0.0352001
 20
-0.0655527913039999
 30
0.0
 11
0.0198957000000001
 21
-0.0684661787039999
 31
0.0
  0
LINE
  5
236
330
132
100
AcDbEntity
  8
AM_4
100
AcDbLine
 10
-0.200487509838
 20
-0.0218508779411998
 30
0.0
 11
-0.200487509838
 21
0.0218509000000002
 31
0.0
  0
LINE
  5
237
330
132
100
AcDbEntity
  8
AM_4
100
AcDbLine
 10
-0.2004875098380016
 20
0.0218508999999929
 30
0.0
 11
-0.1974268782640013
 21
0.0364180999999942
 31
0.0
  0
LINE
  5
238
330
132
100
AcDbEntity
  8
AM_4
100
AcDbLine
 10
-0.1974268782640013
 20
0.0364180999999975
 30
0.0
 11
-0.1913048277140005
 21
0.048071999999999
 31
0.0
  0
LINE
  5
239
330
132
100
AcDbEntity
  8
AM_4
100
AcDbLine
 10
-0.1913048277140005
 20
0.0480719999999996
 30
0.0
 11
-0.1790615140159995
 21
0.0597256000000005
 31
0.0
  0
LINE
  5
23A
330
132
100
AcDbEntity
  8
AM_4
100
AcDbLine
 10
-0.1790615140159996
 20
0.0597256000000003
 30
0.0
 11
-0.1668178066170012
 21
0.0655527999999996
 31
0.0
  0
LINE
  5
23B
330
132
100
AcDbEntity
  8
AM_4
100
AcDbLine
 10
-0.1668178066170011
 20
0.0655528
 30
0.0
 11
-0.1515134676440019
 21
0.0684660999999999
 31
0.0
  0
LINE
  5
23C
330
132
100
AcDbEntity
  8
AM_4
100
AcDbLine
 10
-0.151513467644
 20
0.0684661000000002
 30
0.0
 11
-0.127026446547
 21
0.0684661000000003
 31
0.0
  0
LINE
  5
23D
330
132
100
AcDbEntity
  8
AM_4
100
AcDbLine
 10
-0.1270264465470001
 20
0.0684661000000002
 30
0.0
 11
-0.1117221075740002
 21
0.0655528000000002
 31
0.0
  0
LINE
  5
23E
330
132
100
AcDbEntity
  8
AM_4
100
AcDbLine
 10
-0.1117221075740002
 20
0.0655528000000002
 30
0.0
 11
-0.0994784001750001
 21
0.0597256000000002
 31
0.0
  0
LINE
  5
23F
330
132
100
AcDbEntity
  8
AM_4
100
AcDbLine
 10
-0.0994784001750001
 20
0.0597256000000002
 30
0.0
 11
-0.0872350864769999
 21
0.048072
 31
0.0
  0
LINE
  5
240
330
132
100
AcDbEntity
  8
AM_4
100
AcDbLine
 10
-0.0872350864769999
 20
0.0480719999999998
 30
0.0
 11
-0.0811134296279999
 21
0.0364181
 31
0.0
  0
LINE
  5
241
330
132
100
AcDbEntity
  8
AM_4
100
AcDbLine
 10
-0.081113429628
 20
0.0364181
 30
0.0
 11
-0.0780524043530001
 21
0.0218509000000009
 31
0.0
  0
LINE
  5
242
330
132
100
AcDbEntity
  8
AM_4
100
AcDbLine
 10
-0.078052404353
 20
0.0218509000000002
 30
0.0
 11
-0.078052404353
 21
-0.0218508779411998
 31
0.0
  0
LINE
  5
243
330
132
100
AcDbEntity
  8
AM_4
100
AcDbLine
 10
-0.0780524043529998
 20
-0.021850877941199
 30
0.0
 11
-0.0811134296280002
 21
-0.0364181299020009
 31
0.0
  0
LINE
  5
244
330
132
100
AcDbEntity
  8
AM_4
100
AcDbLine
 10
-0.0811134296280002
 20
-0.0364181299020003
 30
0.0
 11
-0.0872350864770001
 21
-0.0480720732030001
 31
0.0
  0
LINE
  5
245
330
132
100
AcDbEntity
  8
AM_4
100
AcDbLine
 10
-0.0872350864770001
 20
-0.0480720732029998
 30
0.0
 11
-0.0994784001750003
 21
-0.059725622803
 31
0.0
  0
LINE
  5
246
330
132
100
AcDbEntity
  8
AM_4
100
AcDbLine
 10
-0.0994784001749997
 20
-0.0597256228029998
 30
0.0
 11
-0.1117221075739999
 21
-0.0655527913039999
 31
0.0
  0
LINE
  5
247
330
132
100
AcDbEntity
  8
AM_4
100
AcDbLine
 10
-0.1117221075739999
 20
-0.0655527913039998
 30
0.0
 11
-0.1270264465469998
 21
-0.0684661787039997
 31
0.0
  0
LINE
  5
248
330
132
100
AcDbEntity
  8
AM_4
100
AcDbLine
 10
-0.127026446547
 20
-0.0684661787039998
 30
0.0
 11
-0.151513467644
 21
-0.0684661787039999
 31
0.0
  0
LINE
  5
249
330
132
100
AcDbEntity
  8
AM_4
100
AcDbLine
 10
-0.1515134676439987
 20
-0.0684661787040002
 30
0.0
 11
-0.1668178066170002
 21
-0.0655527913039999
 31
0.0
  0
LINE
  5
24A
330
132
100
AcDbEntity
  8
AM_4
100
AcDbLine
 10
-0.1668178066170002
 20
-0.0655527913039998
 30
0.0
 11
-0.1790615140159985
 21
-0.0597256228030006
 31
0.0
  0
LINE
  5
24B
330
132
100
AcDbEntity
  8
AM_4
100
AcDbLine
 10
-0.1790615140159986
 20
-0.059725622803001
 30
0.0
 11
-0.1913048277139996
 21
-0.048072073203
 31
0.0
  0
LINE
  5
24C
330
132
100
AcDbEntity
  8
AM_4
100
AcDbLine
 10
-0.1913048277139996
 20
-0.0480720732030006
 30
0.0
 11
-0.197426878263998
 21
-0.0364181299020036
 31
0.0
  0
LINE
  5
24D
330
132
100
AcDbEntity
  8
AM_4
100
AcDbLine
 10
-0.1974268782639981
 20
-0.0364181299020088
 30
0.0
 11
-0.2004875098380007
 21
-0.0218508779411965
 31
0.0
  0
LINE
  5
24E
330
132
100
AcDbEntity
  8
AM_4
100
AcDbLine
 10
-0.3474096364199999
 20
-0.0684661787039997
 30
0.0
 11
-0.3474096364199999
 21
0.0684661000000002
 31
0.0
  0
LINE
  5
24F
330
132
100
AcDbEntity
  8
AM_4
100
AcDbLine
 10
-0.3474096364199999
 20
0.0684661000000002
 30
0.0
 11
-0.273948573129
 21
0.0684661000000002
 31
0.0
  0
LINE
  5
250
330
132
100
AcDbEntity
  8
AM_4
100
AcDbLine
 10
-0.2739485731290001
 20
0.0684661000000002
 30
0.0
 11
-0.2586442341560002
 21
0.0655528000000002
 31
0.0
  0
LINE
  5
251
330
132
100
AcDbEntity
  8
AM_4
100
AcDbLine
 10
-0.2586442341560002
 20
0.0655528000000002
 30
0.0
 11
-0.246400920458
 21
0.0597256
 31
0.0
  0
LINE
  5
252
330
132
100
AcDbEntity
  8
AM_4
100
AcDbLine
 10
-0.246400920458
 20
0.0597256000000002
 30
0.0
 11
-0.2341572130590001
 21
0.0480720000000003
 31
0.0
  0
LINE
  5
253
330
132
100
AcDbEntity
  8
AM_4
100
AcDbLine
 10
-0.2341572130590001
 20
0.0480720000000005
 30
0.0
 11
-0.2280355562099998
 21
0.0364181
 31
0.0
  0
LINE
  5
254
330
132
100
AcDbEntity
  8
AM_4
100
AcDbLine
 10
-0.2280355562099998
 20
0.0364180999999994
 30
0.0
 11
-0.2249745309350001
 21
0.0218509000000009
 31
0.0
  0
LINE
  5
255
330
132
100
AcDbEntity
  8
AM_4
100
AcDbLine
 10
-0.224974530935
 20
0.0218509000000002
 30
0.0
 11
-0.224974530935
 21
-0.0218508779411998
 31
0.0
  0
LINE
  5
256
330
132
100
AcDbEntity
  8
AM_4
100
AcDbLine
 10
-0.2249745309349999
 20
-0.0218508779411994
 30
0.0
 11
-0.2280355562100001
 21
-0.0364181299020005
 31
0.0
  0
LINE
  5
257
330
132
100
AcDbEntity
  8
AM_4
100
AcDbLine
 10
-0.2280355562100002
 20
-0.0364181299020002
 30
0.0
 11
-0.2341572130589998
 21
-0.0480720732029996
 31
0.0
  0
LINE
  5
258
330
132
100
AcDbEntity
  8
AM_4
100
AcDbLine
 10
-0.2341572130589998
 20
-0.0480720732029995
 30
0.0
 11
-0.2464009204580002
 21
-0.0597256228029999
 31
0.0
  0
LINE
  5
259
330
132
100
AcDbEntity
  8
AM_4
100
AcDbLine
 10
-0.2464009204580003
 20
-0.0597256228030001
 30
0.0
 11
-0.258644234156
 21
-0.0655527913039999
 31
0.0
  0
LINE
  5
25A
330
132
100
AcDbEntity
  8
AM_4
100
AcDbLine
 10
-0.258644234156
 20
-0.0655527913039997
 30
0.0
 11
-0.2739485731289999
 21
-0.0684661787039997
 31
0.0
  0
LINE
  5
25B
330
132
100
AcDbEntity
  8
AM_4
100
AcDbLine
 10
-0.273948573129
 20
-0.0684661787039998
 30
0.0
 11
-0.3474096364199999
 21
-0.0684661787039997
 31
0.0
  0
LWPOLYLINE
  5
25C
330
132
100
AcDbEntity
  8
AM_4
100
AcDbPolyline
 90
       32
 70
     0
 43
0.0
 10
2.550376063331381
 20
-0.9672941180400441
 10
2.48650769694663
 20
-0.9480166317730753
 10
2.403715505593719
 20
-0.929300454248228
 10
2.302629587840134
 20
-0.9112880268776035
 10
2.184019268557327
 20
-0.8941164351096927
 10
2.048787243893909
 20
-0.8779163651263403
 10
1.897962711212896
 20
-0.8628111092419896
 10
1.732693536278335
 20
-0.8489156275747229
 10
1.554237517303734
 20
-0.8363356731303495
 10
1.36395281234818
 20
-0.8251669869581754
 10
1.163287602913431
 20
-0.8154945695038076
 10
0.9537690724082512
 20
-0.8073920337044396
 10
0.736991783360533
 20
-0.8009210447499493
 10
0.5146055418336354
 20
-0.7961308507735702
 10
0.288302841406062
 20
-0.7930579080438608
 10
0.0598059822733735
 20
-0.7917256035104878
 10
-0.1691460364962549
 20
-0.7921440768154178
 10
-0.3968107517949776
 20
-0.794310143124119
 10
-0.6214554976716576
 20
-0.7982073173640755
 10
-0.8413705919659673
 20
-0.8038059396861432
 10
-1.054882348021962
 20
-0.8110634011939105
 10
-1.260365812454134
 20
-0.8199244682231285
 10
-1.456257132023844
 20
-0.8303217027032458
 10
-1.641065455506756
 20
-0.8421759754018474
 10
-1.813384279970846
 20
-0.8553970681458912
 10
-1.971902155112994
 20
-0.8698843604364808
 10
-2.115412664187656
 20
-0.8855275952316186
 10
-2.242823605566761
 20
-0.9022077180688703
 10
-2.353165305053583
 20
-0.919797783141711
 10
-2.445597995688887
 20
-0.9381639194337643
 10
-2.519418208884555
 20
-0.9571663495580718
 10
-2.550376063331381
 20
-0.967294118040044
  0
LINE
  5
25D
330
132
100
AcDbEntity
  8
AM_4
100
AcDbLine
 10
2.55037606333138
 20
-0.967294118040044
 30
0.0
 11
2.55037606333138
 21
0.9672941180400442
 31
0.0
  0
LINE
  5
25E
330
132
100
AcDbEntity
  8
AM_4
100
AcDbLine
 10
-2.55037606333138
 20
-0.9672941180400438
 30
0.0
 11
-2.55037606333138
 21
0.9672941180400444
 31
0.0
  0
LINE
  5
25F
330
132
100
AcDbEntity
  8
AM_4
100
AcDbLine
 10
0.0198957
 20
-0.0509854606029999
 30
0.0
 11
-0.0352000977482
 21
-0.0509854606029999
 31
0.0
  0
LINE
  5
260
330
132
100
AcDbEntity
  8
AM_4
100
AcDbLine
 10
0.0321392000000001
 20
-0.0480720732029999
 30
0.0
 11
0.0198957000000001
 21
-0.0509854606029999
 31
0.0
  0
LINE
  5
261
330
132
100
AcDbEntity
  8
AM_4
100
AcDbLine
 10
0.0413217000000003
 20
-0.0422449047019996
 30
0.0
 11
0.0321392000000001
 21
-0.0480720732029997
 31
0.0
  0
LINE
  5
262
330
132
100
AcDbEntity
  8
AM_4
100
AcDbLine
 10
0.0474436999999998
 20
-0.0335047031319001
 30
0.0
 11
0.0413217000000003
 21
-0.0422449047019994
 31
0.0
  0
LINE
  5
263
330
132
100
AcDbEntity
  8
AM_4
100
AcDbLine
 10
0.0505042999999999
 20
-0.0218508779412002
 30
0.0
 11
0.0474436999999998
 21
-0.0335047031319007
 31
0.0
  0
LINE
  5
264
330
132
100
AcDbEntity
  8
AM_4
100
AcDbLine
 10
0.0505043
 20
0.0218509000000002
 30
0.0
 11
0.0505043
 21
-0.0218508779411998
 31
0.0
  0
LINE
  5
265
330
132
100
AcDbEntity
  8
AM_4
100
AcDbLine
 10
0.0474437
 20
0.0335047000000001
 30
0.0
 11
0.0505043000000001
 21
0.0218508999999995
 31
0.0
  0
LINE
  5
266
330
132
100
AcDbEntity
  8
AM_4
100
AcDbLine
 10
0.0413216999999999
 20
0.0422449000000003
 30
0.0
 11
0.0474437
 21
0.0335047000000002
 31
0.0
  0
LINE
  5
267
330
132
100
AcDbEntity
  8
AM_4
100
AcDbLine
 10
0.0321391999999998
 20
0.0480720000000001
 30
0.0
 11
0.0413216999999999
 21
0.0422449000000001
 31
0.0
  0
LINE
  5
268
330
132
100
AcDbEntity
  8
AM_4
100
AcDbLine
 10
0.0198956999999998
 20
0.0509853999999998
 30
0.0
 11
0.0321391999999998
 21
0.0480719999999999
 31
0.0
  0
LINE
  5
269
330
132
100
AcDbEntity
  8
AM_4
100
AcDbLine
 10
-0.0352000977482
 20
0.0509854000000001
 30
0.0
 11
0.0198957
 21
0.0509854000000002
 31
0.0
  0
LINE
  5
26A
330
132
100
AcDbEntity
  8
AM_4
100
AcDbLine
 10
-0.0352000977482
 20
-0.0509854606029999
 30
0.0
 11
-0.0352000977482
 21
0.0509854000000001
 31
0.0
  0
LINE
  5
26B
330
132
100
AcDbEntity
  8
AM_4
100
AcDbLine
 10
2.55037606333138
 20
0.9672941180400442
 30
0.0
 11
3.1625
 21
1.1875
 31
0.0
  0
LWPOLYLINE
  5
26C
330
132
100
AcDbEntity
  8
AM_4
100
AcDbPolyline
 90
        7
 70
     0
 43
0.0
 10
-1.9
 20
1.112814676008322
 10
-1.983292006478522
 20
1.097952290476243
 10
-2.051489963243287
 20
1.082510112789929
 10
-2.104074842664263
 20
1.066605667245814
 10
-2.140646442057438
 20
1.050359996277855
 10
-2.160926429468894
 20
1.033896739251523
 10
-2.16535
 20
1.021770141435987
  0
LINE
  5
26D
330
132
100
AcDbEntity
  8
AM_4
100
AcDbLine
 10
-3.162499999999999
 20
1.1875
 30
0.0
 11
-2.55037606333138
 21
0.9672941180400444
 31
0.0
  0
LWPOLYLINE
  5
26E
330
132
100
AcDbEntity
  8
AM_4
100
AcDbPolyline
 90
       32
 70
     0
 43
0.0
 10
-2.55037606333138
 20
0.9672941180400444
 10
-2.48650769694663
 20
0.9480166317730757
 10
-2.403715505593718
 20
0.9293004542482286
 10
-2.302629587840133
 20
0.9112880268776039
 10
-2.184019268557325
 20
0.8941164351096933
 10
-2.048787243893907
 20
0.8779163651263411
 10
-1.897962711212895
 20
0.8628111092419902
 10
-1.732693536278333
 20
0.8489156275747235
 10
-1.554237517303732
 20
0.8363356731303503
 10
-1.363952812348178
 20
0.8251669869581761
 10
-1.163287602913428
 20
0.8154945695038085
 10
-0.9537690724082487
 20
0.8073920337044406
 10
-0.7369917833605304
 20
0.8009210447499502
 10
-0.5146055418336327
 20
0.7961308507735712
 10
-0.2883028414060595
 20
0.7930579080438618
 10
-0.0598059822733708
 20
0.7917256035104889
 10
0.1691460364962576
 20
0.7921440768154188
 10
0.3968107517949802
 20
0.79431014312412
 10
0.6214554976716602
 20
0.7982073173640765
 10
0.8413705919659697
 20
0.8038059396861441
 10
1.054882348021965
 20
0.8110634011939115
 10
1.260365812454136
 20
0.8199244682231294
 10
1.456257132023846
 20
0.8303217027032469
 10
1.641065455506758
 20
0.8421759754018485
 10
1.813384279970848
 20
0.8553970681458921
 10
1.971902155112996
 20
0.8698843604364817
 10
2.115412664187658
 20
0.8855275952316196
 10
2.242823605566762
 20
0.9022077180688713
 10
2.353165305053583
 20
0.9197977831417118
 10
2.445597995688888
 20
0.9381639194337653
 10
2.519418208884556
 20
0.9571663495580726
 10
2.55037606333138
 20
0.9672941180400442
  0
ENDBLK
  5
135
330
132
100
AcDbEntity
  8
0
100
AcDbBlockEnd
  0
ENDSEC
  0
SECTION
  2
ENTITIES
  0
INSERT
  5
6F
330
1F
100
AcDbEntity
  8
0
100
AcDbBlockReference
  2
1_129202_4
 10
0.0
 20
0.0
 30
0.0
  0
POINT
  5
270
330
1F
100
AcDbEntity
  8
ConnectionPoints
100
AcDbPoint
 10
0.0
 20
0.0
 30
0.0
  0
POINT
  5
271
330
1F
100
AcDbEntity
  8
ConnectionPoints
100
AcDbPoint
 10
0.0
 20
0.765625
 30
0.0
  0
POINT
  5
272
330
1F
100
AcDbEntity
  8
ConnectionPoints
100
AcDbPoint
 10
0.0
 20
0.0
 30
0.0
  0
POINT
  5
273
330
1F
100
AcDbEntity
  8
ConnectionPoints
100
AcDbPoint
 10
0.0
 20
0.0
 30
0.0
  0
ENDSEC
  0
SECTION
  2
OBJECTS
  0
DICTIONARY
  5
C
330
0
100
AcDbDictionary
281
     1
  3
ACAD_DETAILVIEWSTYLE
350
27B
  3
ACAD_GROUP
350
D
  3
ACAD_LAYOUT
350
1A
  3
ACAD_MATERIAL
350
43
  3
ACAD_MLEADERSTYLE
350
6B
  3
ACAD_MLINESTYLE
350
17
  3
ACAD_PLOTSETTINGS
350
19
  3
ACAD_PLOTSTYLENAME
350
E
  3
ACAD_SCALELIST
350
47
  3
ACAD_SECTIONVIEWSTYLE
350
27C
  3
ACAD_TABLESTYLE
350
69
  3
ACAD_VISUALSTYLE
350
2A
  3
ACDB_RECOMPOSE_DATA
350
278
  3
AcDbVariableDictionary
350
274
  0
SUN
  5
6D
330
29
100
AcDbSun
 90
        1
290
     0
 63
     7
421
 16777215
 40
1.0
291
     1
 91
  2455826
 92
 54000000
292
     0
 70
     2
 71
   256
280
     1
  0
DICTIONARY
  5
27B
102
{ACAD_REACTORS
330
C
102
}
330
C
100
AcDbDictionary
281
     1
  0
DICTIONARY
  5
D
102
{ACAD_REACTORS
330
C
102
}
330
C
100
AcDbDictionary
281
     1
  0
DICTIONARY
  5
1A
102
{ACAD_REACTORS
330
C
102
}
330
C
100
AcDbDictionary
281
     1
  3
Layout1
350
1E
  3
Layout2
350
26
  3
Model
350
22
  0
DICTIONARY
  5
43
102
{ACAD_REACTORS
330
C
102
}
330
C
100
AcDbDictionary
281
     1
  3
ByBlock
350
45
  3
ByLayer
350
44
  3
Global
350
46
  0
DICTIONARY
  5
6B
102
{ACAD_REACTORS
330
C
102
}
330
C
100
AcDbDictionary
281
     1
  3
Standard
350
6C
  0
DICTIONARY
  5
17
102
{ACAD_REACTORS
330
C
102
}
330
C
100
AcDbDictionary
281
     1
  3
Standard
350
18
  0
DICTIONARY
  5
19
102
{ACAD_REACTORS
330
C
102
}
330
C
100
AcDbDictionary
281
     1
  0
ACDBDICTIONARYWDFLT
  5
E
102
{ACAD_REACTORS
330
C
102
}
330
C
100
AcDbDictionary
281
     1
  3
Normal
350
F
100
AcDbDictionaryWithDefault
340
F
  0
DICTIONARY
  5
47
102
{ACAD_REACTORS
330
C
102
}
330
C
100
AcDbDictionary
281
     1
  3
A0
350
48
  3
A1
350
49
  3
A2
350
4A
  3
A3
350
4B
  3
A4
350
4C
  3
A5
350
4D
  3
A6
350
4E
  3
A7
350
4F
  3
A8
350
50
  3
A9
350
51
  3
B0
350
52
  3
B1
350
53
  3
B2
350
54
  3
B3
350
55
  3
B4
350
56
  3
B5
350
57
  3
B6
350
58
  3
B7
350
59
  3
B8
350
5A
  3
B9
350
5B
  3
C0
350
5C
  3
C1
350
5D
  3
C2
350
5E
  3
C3
350
5F
  3
C4
350
60
  3
C5
350
61
  3
C6
350
62
  3
C7
350
63
  3
C8
350
64
  3
C9
350
65
  3
D0
350
66
  3
D1
350
67
  3
D2
350
68
  0
DICTIONARY
  5
27C
102
{ACAD_REACTORS
330
C
102
}
330
C
100
AcDbDictionary
281
     1
  0
DICTIONARY
  5
69
102
{ACAD_REACTORS
330
C
102
}
330
C
100
AcDbDictionary
281
     1
  3
Standard
350
6A
  0
DICTIONARY
  5
2A
102
{ACAD_REACTORS
330
C
102
}
330
C
100
AcDbDictionary
281
     1
  3
2dWireframe
350
2F
  3
Basic
350
32
  3
Brighten
350
36
  3
ColorChange
350
3A
  3
Conceptual
350
34
  3
Dim
350
35
  3
EdgeColorOff
350
3D
  3
Facepattern
350
39
  3
Flat
350
2B
  3
FlatWithEdges
350
2C
  3
Gouraud
350
2D
  3
GouraudWithEdges
350
2E
  3
Hidden
350
31
  3
JitterOff
350
3B
  3
Linepattern
350
38
  3
OverhangOff
350
3C
  3
Realistic
350
33
  3
Shaded
350
42
  3
Shaded with edges
350
41
  3
Shades of Gray
350
3E
  3
Sketchy
350
3F
  3
Thicken
350
37
  3
Wireframe
350
30
  3
X-Ray
350
40
  0
XRECORD
  5
278
102
{ACAD_REACTORS
330
C
102
}
330
C
100
AcDbXrecord
280
     1
 90
        1
330
6A
  0
DICTIONARY
  5
274
102
{ACAD_REACTORS
330
C
102
}
330
C
100
AcDbDictionary
281
     1
  3
CANNOSCALE
350
275
  3
CMLEADERSTYLE
350
27A
  3
CTABLESTYLE
350
279
  0
LAYOUT
  5
1E
102
{ACAD_REACTORS
330
1A
102
}
330
1A
100
AcDbPlotSettings
  1

  2
none_device
  4

  6

 40
0.0
 41
0.0
 42
0.0
 43
0.0
 44
0.0
 45
0.0
 46
0.0
 47
0.0
 48
0.0
 49
0.0
140
0.0
141
0.0
142
1.0
143
1.0
 70
   688
 72
     0
 73
     0
 74
     5
  7

 75
    16
 76
     0
 77
     2
 78
   300
147
1.0
148
0.0
149
0.0
100
AcDbLayout
  1
Layout1
 70
     1
 71
     1
 10
0.0
 20
0.0
 11
12.0
 21
9.0
 12
0.0
 22
0.0
 32
0.0
 14
1.000000000000000E+20
 24
1.000000000000000E+20
 34
1.000000000000000E+20
 15
-1.000000000000000E+20
 25
-1.000000000000000E+20
 35
-1.000000000000000E+20
146
0.0
 13
0.0
 23
0.0
 33
0.0
 16
1.0
 26
0.0
 36
0.0
 17
0.0
 27
1.0
 37
0.0
 76
     0
330
1B
  0
LAYOUT
  5
26
102
{ACAD_REACTORS
330
1A
102
}
330
1A
100
AcDbPlotSettings
  1

  2
none_device
  4

  6

 40
0.0
 41
0.0
 42
0.0
 43
0.0
 44
0.0
 45
0.0
 46
0.0
 47
0.0
 48
0.0
 49
0.0
140
0.0
141
0.0
142
1.0
143
1.0
 70
   688
 72
     0
 73
     0
 74
     5
  7

 75
    16
 76
     0
 77
     2
 78
   300
147
1.0
148
0.0
149
0.0
100
AcDbLayout
  1
Layout2
 70
     1
 71
     2
 10
0.0
 20
0.0
 11
0.0
 21
0.0
 12
0.0
 22
0.0
 32
0.0
 14
0.0
 24
0.0
 34
0.0
 15
0.0
 25
0.0
 35
0.0
146
0.0
 13
0.0
 23
0.0
 33
0.0
 16
1.0
 26
0.0
 36
0.0
 17
0.0
 27
1.0
 37
0.0
 76
     0
330
23
  0
LAYOUT
  5
22
102
{ACAD_REACTORS
330
1A
102
}
330
1A
100
AcDbPlotSettings
  1

  2
none_device
  4
Letter_(8.50_x_11.00_Inches)
  6

 40
6.35
 41
6.35
 42
6.35000508
 43
6.35000508
 44
215.9
 45
279.4
 46
0.0
 47
0.0
 48
0.0
 49
0.0
140
0.0
141
0.0
142
1.0
143
1.0
 70
  1712
 72
     0
 73
     0
 74
     0
  7

 75
     0
 76
     0
 77
     2
 78
   300
147
1.0
148
0.0
149
0.0
100
AcDbLayout
  1
Model
 70
     1
 71
     0
 10
0.0
 20
0.0
 11
12.0
 21
9.0
 12
0.0
 22
0.0
 32
0.0
 14
1.000000000000000E+20
 24
1.000000000000000E+20
 34
1.000000000000000E+20
 15
-1.000000000000000E+20
 25
-1.000000000000000E+20
 35
-1.000000000000000E+20
146
0.0
 13
0.0
 23
0.0
 33
0.0
 16
1.0
 26
0.0
 36
0.0
 17
0.0
 27
1.0
 37
0.0
 76
     0
330
1F
331
29
  0
MATERIAL
  5
45
102
{ACAD_REACTORS
330
43
102
}
330
43
100
AcDbMaterial
  1
ByBlock
 72
     1
 94
      127
  0
MATERIAL
  5
44
102
{ACAD_REACTORS
330
43
102
}
330
43
100
AcDbMaterial
  1
ByLayer
 72
     1
 94
      127
  0
MATERIAL
  5
46
102
{ACAD_REACTORS
330
43
102
}
330
43
100
AcDbMaterial
  1
Global
 72
     1
 94
      127
  0
MLEADERSTYLE
  5
6C
102
{ACAD_REACTORS
330
6B
102
}
330
6B
100
AcDbMLeaderStyle
179
     2
170
     2
171
     1
172
     0
 90
        2
 40
0.0
 41
0.0
173
     1
 91
-1056964608
340
14
 92
       -2
290
     1
 42
0.09
291
     1
 43
0.36
  3
Standard
341
0
 44
0.18
300

342
11
174
     1
178
     6
175
     1
176
     0
 93
-1056964608
 45
0.18
292
     0
297
     0
 46
0.18
343
0
 94
-1056964608
 47
1.0
 49
1.0
140
1.0
293
     1
141
0.0
294
     1
177
     0
142
1.0
295
     0
296
     0
143
0.125
271
     0
272
     9
273
     9
298
     0
  0
MLINESTYLE
  5
18
102
{ACAD_REACTORS
330
17
102
}
330
17
100
AcDbMlineStyle
  2
Standard
 70
     0
  3

 62
   256
 51
90.0
 52
90.0
 71
     2
 49
0.5
 62
   256
  6
BYLAYER
 49
-0.5
 62
   256
  6
BYLAYER
  0
ACDBPLACEHOLDER
  5
F
102
{ACAD_REACTORS
330
E
102
}
330
E
  0
SCALE
  5
48
102
{ACAD_REACTORS
330
47
102
}
330
47
100
AcDbScale
 70
     0
300
1:1
140
1.0
141
1.0
290
     1
  0
SCALE
  5
49
102
{ACAD_REACTORS
330
47
102
}
330
47
100
AcDbScale
 70
     0
300
1:2
140
1.0
141
2.0
290
     0
  0
SCALE
  5
4A
102
{ACAD_REACTORS
330
47
102
}
330
47
100
AcDbScale
 70
     0
300
1:4
140
1.0
141
4.0
290
     0
  0
SCALE
  5
4B
102
{ACAD_REACTORS
330
47
102
}
330
47
100
AcDbScale
 70
     0
300
1:5
140
1.0
141
5.0
290
     0
  0
SCALE
  5
4C
102
{ACAD_REACTORS
330
47
102
}
330
47
100
AcDbScale
 70
     0
300
1:8
140
1.0
141
8.0
290
     0
  0
SCALE
  5
4D
102
{ACAD_REACTORS
330
47
102
}
330
47
100
AcDbScale
 70
     0
300
1:10
140
1.0
141
10.0
290
     0
  0
SCALE
  5
4E
102
{ACAD_REACTORS
330
47
102
}
330
47
100
AcDbScale
 70
     0
300
1:16
140
1.0
141
16.0
290
     0
  0
SCALE
  5
4F
102
{ACAD_REACTORS
330
47
102
}
330
47
100
AcDbScale
 70
     0
300
1:20
140
1.0
141
20.0
290
     0
  0
SCALE
  5
50
102
{ACAD_REACTORS
330
47
102
}
330
47
100
AcDbScale
 70
     0
300
1:30
140
1.0
141
30.0
290
     0
  0
SCALE
  5
51
102
{ACAD_REACTORS
330
47
102
}
330
47
100
AcDbScale
 70
     0
300
1:40
140
1.0
141
40.0
290
     0
  0
SCALE
  5
52
102
{ACAD_REACTORS
330
47
102
}
330
47
100
AcDbScale
 70
     0
300
1:50
140
1.0
141
50.0
290
     0
  0
SCALE
  5
53
102
{ACAD_REACTORS
330
47
102
}
330
47
100
AcDbScale
 70
     0
300
1:100
140
1.0
141
100.0
290
     0
  0
SCALE
  5
54
102
{ACAD_REACTORS
330
47
102
}
330
47
100
AcDbScale
 70
     0
300
2:1
140
2.0
141
1.0
290
     0
  0
SCALE
  5
55
102
{ACAD_REACTORS
330
47
102
}
330
47
100
AcDbScale
 70
     0
300
4:1
140
4.0
141
1.0
290
     0
  0
SCALE
  5
56
102
{ACAD_REACTORS
330
47
102
}
330
47
100
AcDbScale
 70
     0
300
8:1
140
8.0
141
1.0
290
     0
  0
SCALE
  5
57
102
{ACAD_REACTORS
330
47
102
}
330
47
100
AcDbScale
 70
     0
300
10:1
140
10.0
141
1.0
290
     0
  0
SCALE
  5
58
102
{ACAD_REACTORS
330
47
102
}
330
47
100
AcDbScale
 70
     0
300
100:1
140
100.0
141
1.0
290
     0
  0
SCALE
  5
59
102
{ACAD_REACTORS
330
47
102
}
330
47
100
AcDbScale
 70
     0
300
1/128" = 1'-0"
140
0.0078125
141
12.0
290
     0
  0
SCALE
  5
5A
102
{ACAD_REACTORS
330
47
102
}
330
47
100
AcDbScale
 70
     0
300
1/64" = 1'-0"
140
0.015625
141
12.0
290
     0
  0
SCALE
  5
5B
102
{ACAD_REACTORS
330
47
102
}
330
47
100
AcDbScale
 70
     0
300
1/32" = 1'-0"
140
0.03125
141
12.0
290
     0
  0
SCALE
  5
5C
102
{ACAD_REACTORS
330
47
102
}
330
47
100
AcDbScale
 70
     0
300
1/16" = 1'-0"
140
0.0625
141
12.0
290
     0
  0
SCALE
  5
5D
102
{ACAD_REACTORS
330
47
102
}
330
47
100
AcDbScale
 70
     0
300
3/32" = 1'-0"
140
0.09375
141
12.0
290
     0
  0
SCALE
  5
5E
102
{ACAD_REACTORS
330
47
102
}
330
47
100
AcDbScale
 70
     0
300
1/8" = 1'-0"
140
0.125
141
12.0
290
     0
  0
SCALE
  5
5F
102
{ACAD_REACTORS
330
47
102
}
330
47
100
AcDbScale
 70
     0
300
3/16" = 1'-0"
140
0.1875
141
12.0
290
     0
  0
SCALE
  5
60
102
{ACAD_REACTORS
330
47
102
}
330
47
100
AcDbScale
 70
     0
300
1/4" = 1'-0"
140
0.25
141
12.0
290
     0
  0
SCALE
  5
61
102
{ACAD_REACTORS
330
47
102
}
330
47
100
AcDbScale
 70
     0
300
3/8" = 1'-0"
140
0.375
141
12.0
290
     0
  0
SCALE
  5
62
102
{ACAD_REACTORS
330
47
102
}
330
47
100
AcDbScale
 70
     0
300
1/2" = 1'-0"
140
0.5
141
12.0
290
     0
  0
SCALE
  5
63
102
{ACAD_REACTORS
330
47
102
}
330
47
100
AcDbScale
 70
     0
300
3/4" = 1'-0"
140
0.75
141
12.0
290
     0
  0
SCALE
  5
64
102
{ACAD_REACTORS
330
47
102
}
330
47
100
AcDbScale
 70
     0
300
1" = 1'-0"
140
1.0
141
12.0
290
     0
  0
SCALE
  5
65
102
{ACAD_REACTORS
330
47
102
}
330
47
100
AcDbScale
 70
     0
300
1-1/2" = 1'-0"
140
1.5
141
12.0
290
     0
  0
SCALE
  5
66
102
{ACAD_REACTORS
330
47
102
}
330
47
100
AcDbScale
 70
     0
300
3" = 1'-0"
140
3.0
141
12.0
290
     0
  0
SCALE
  5
67
102
{ACAD_REACTORS
330
47
102
}
330
47
100
AcDbScale
 70
     0
300
6" = 1'-0"
140
6.0
141
12.0
290
     0
  0
SCALE
  5
68
102
{ACAD_REACTORS
330
47
102
}
330
47
100
AcDbScale
 70
     0
300
1'-0" = 1'-0"
140
12.0
141
12.0
290
     0
  0
TABLESTYLE
  5
6A
102
{ACAD_REACTORS
330
69
102
}
102
{ACAD_XDICTIONARY
360
276
102
}
330
69
100
AcDbTableStyle
  3
Standard
 70
     0
 71
     0
 40
0.06
 41
0.06
280
     0
281
     0
  7
Standard
140
0.18
170
     2
 62
     0
 63
   257
283
     0
 90
        4
 91
        0
  1

274
    -2
284
     1
 64
     0
275
    -2
285
     1
 65
     0
276
    -2
286
     1
 66
     0
277
    -2
287
     1
 67
     0
278
    -2
288
     1
 68
     0
279
    -2
289
     1
 69
     0
  7
Standard
140
0.25
170
     5
 62
     0
 63
   257
283
     0
 90
        4
 91
        0
  1

274
    -2
284
     1
 64
     0
275
    -2
285
     1
 65
     0
276
    -2
286
     1
 66
     0
277
    -2
287
     1
 67
     0
278
    -2
288
     1
 68
     0
279
    -2
289
     1
 69
     0
  7
Standard
140
0.18
170
     5
 62
     0
 63
   257
283
     0
 90
        4
 91
        0
  1

274
    -2
284
     1
 64
     0
275
    -2
285
     1
 65
     0
276
    -2
286
     1
 66
     0
277
    -2
287
     1
 67
     0
278
    -2
288
     1
 68
     0
279
    -2
289
     1
 69
     0
  0
VISUALSTYLE
  5
2F
102
{ACAD_REACTORS
330
2A
102
}
330
2A
100
AcDbVisualStyle
  2
2dWireframe
 70
     4
177
     3
291
     0
 70
    58
 90
        0
176
     1
 90
        2
176
     1
 90
        0
176
     1
 90
        0
176
     1
 40
0.6
176
     1
 40
30.0
176
     1
 62
     7
420
 16777215
176
     1
 90
        1
176
     1
 90
        4
176
     1
 62
     7
176
     1
 62
   257
176
     1
 90
        1
176
     1
 90
        1
176
     1
 40
1.0
176
     1
 90
        0
176
     1
 62
   257
176
     1
 40
1.0
176
     1
 90
        1
176
     1
 90
        6
176
     1
 90
        2
176
     1
 62
     7
176
     1
 90
        5
176
     1
 90
        0
176
     1
 90
        0
176
     1
290
     0
176
     1
 90
        1
176
     1
 40
0.0
176
     1
 90
        0
176
     1
290
     1
176
     1
290
     1
176
     1
290
     0
176
     1
290
     0
176
     1
290
     0
176
     1
290
     0
176
     1
290
     0
176
     1
290
     0
176
     1
290
     0
176
     1
 90
       50
176
     1
 40
0.0
176
     1
 40
1.0
176
     1
 90
        0
176
     1
 62
    18
420
        0
176
     1
 90
       50
176
     1
 90
        3
176
     1
 62
     5
420
      255
176
     1
290
     0
176
     1
 90
       50
176
     1
 90
       50
176
     1
 90
       50
176
     1
290
     0
176
     1
 90
       50
176
     1
 62
   256
176
     0
 40
1.0
176
     0
 90
        2
176
     1
  1
strokes_ogs.tif
176
     1
290
     0
176
     1
 40
1.0
176
     1
 40
1.0
176
     1
  0
VISUALSTYLE
  5
32
102
{ACAD_REACTORS
330
2A
102
}
330
2A
100
AcDbVisualStyle
  2
Basic
 70
     7
177
     3
291
     1
 70
    58
 90
        1
176
     1
 90
        0
176
     1
 90
        1
176
     1
 90
        0
176
     1
 40
0.6
176
     1
 40
30.0
176
     1
 62
     7
420
 16777215
176
     1
 90
        0
176
     1
 90
        4
176
     1
 62
     7
176
     1
 62
   257
176
     1
 90
        1
176
     1
 90
        1
176
     1
 40
1.0
176
     1
 90
        8
176
     1
 62
     7
176
     1
 40
1.0
176
     1
 90
        1
176
     1
 90
        6
176
     1
 90
        2
176
     1
 62
     7
176
     1
 90
        5
176
     1
 90
        0
176
     1
 90
        0
176
     1
290
     0
176
     1
 90
        1
176
     1
 40
0.0
176
     1
 90
        0
176
     1
290
     0
176
     1
290
     1
176
     1
290
     1
176
     1
290
     0
176
     1
290
     0
176
     1
290
     0
176
     1
290
     0
176
     1
290
     0
176
     1
290
     0
176
     1
 90
       50
176
     1
 40
0.0
176
     1
 40
1.0
176
     1
 90
        0
176
     1
 62
    18
420
        0
176
     1
 90
       50
176
     1
 90
        3
176
     1
 62
     5
420
      255
176
     1
290
     0
176
     1
 90
       50
176
     1
 90
       50
176
     1
 90
       50
176
     1
290
     0
176
     1
 90
       50
176
     1
 62
   256
176
     0
 40
1.0
176
     0
 90
        2
176
     1
  1
strokes_ogs.tif
176
     1
290
     0
176
     1
 40
1.0
176
     1
 40
1.0
176
     1
  0
VISUALSTYLE
  5
36
102
{ACAD_REACTORS
330
2A
102
}
330
2A
100
AcDbVisualStyle
  2
Brighten
 70
    12
177
     3
291
     1
 70
    58
 90
        2
176
     1
 90
        2
176
     1
 90
        0
176
     1
 90
        0
176
     1
 40
0.6
176
     1
 40
30.0
176
     1
 62
     7
420
 16777215
176
     1
 90
        1
176
     1
 90
        4
176
     1
 62
     7
176
     1
 62
   257
176
     1
 90
        1
176
     1
 90
        1
176
     1
 40
1.0
176
     1
 90
        8
176
     1
 62
     7
176
     1
 40
1.0
176
     1
 90
        1
176
     1
 90
        6
176
     1
 90
        2
176
     1
 62
     7
176
     1
 90
        5
176
     1
 90
        0
176
     1
 90
        0
176
     1
290
     0
176
     1
 90
        1
176
     1
 40
50.0
176
     1
 90
        0
176
     1
290
     0
176
     1
290
     1
176
     1
290
     1
176
     1
290
     0
176
     1
290
     0
176
     1
290
     0
176
     1
290
     0
176
     1
290
     0
176
     1
290
     0
176
     1
 90
       50
176
     1
 40
0.0
176
     1
 40
1.0
176
     1
 90
        0
176
     1
 62
    18
420
        0
176
     1
 90
       50
176
     1
 90
        3
176
     1
 62
     5
420
      255
176
     1
290
     0
176
     1
 90
       50
176
     1
 90
       50
176
     1
 90
       50
176
     1
290
     0
176
     1
 90
       50
176
     1
 62
   256
176
     0
 40
1.0
176
     0
 90
        2
176
     1
  1
strokes_ogs.tif
176
     1
290
     0
176
     1
 40
1.0
176
     1
 40
1.0
176
     1
  0
VISUALSTYLE
  5
3A
102
{ACAD_REACTORS
330
2A
102
}
330
2A
100
AcDbVisualStyle
  2
ColorChange
 70
    16
177
     3
291
     1
 70
    58
 90
        2
176
     1
 90
        2
176
     1
 90
        3
176
     1
 90
        0
176
     1
 40
0.6
176
     1
 40
30.0
176
     1
 62
     8
420
  8421504
176
     1
 90
        1
176
     1
 90
        4
176
     1
 62
     7
176
     1
 62
   257
176
     1
 90
        1
176
     1
 90
        1
176
     1
 40
1.0
176
     1
 90
        8
176
     1
 62
     8
420
  8421504
176
     1
 40
1.0
176
     1
 90
        1
176
     1
 90
        6
176
     1
 90
        2
176
     1
 62
     7
176
     1
 90
        5
176
     1
 90
        0
176
     1
 90
        0
176
     1
290
     0
176
     1
 90
        1
176
     1
 40
0.0
176
     1
 90
        0
176
     1
290
     0
176
     1
290
     1
176
     1
290
     1
176
     1
290
     0
176
     1
290
     0
176
     1
290
     0
176
     1
290
     0
176
     1
290
     0
176
     1
290
     0
176
     1
 90
       50
176
     1
 40
0.0
176
     1
 40
1.0
176
     1
 90
        0
176
     1
 62
    18
420
        0
176
     1
 90
       50
176
     1
 90
        3
176
     1
 62
     5
420
      255
176
     1
290
     0
176
     1
 90
       50
176
     1
 90
       50
176
     1
 90
       50
176
     1
290
     0
176
     1
 90
       50
176
     1
 62
   256
176
     0
 40
1.0
176
     0
 90
        2
176
     1
  1
strokes_ogs.tif
176
     1
290
     0
176
     1
 40
1.0
176
     1
 40
1.0
176
     1
  0
VISUALSTYLE
  5
34
102
{ACAD_REACTORS
330
2A
102
}
330
2A
100
AcDbVisualStyle
  2
Conceptual
 70
     9
177
     3
291
     0
 70
    58
 90
        3
176
     1
 90
        2
176
     1
 90
        0
176
     1
 90
        0
176
     1
 40
0.6
176
     1
 40
30.0
176
     1
 62
     7
420
 16777215
176
     1
 90
        2
176
     1
 90
        2
176
     1
 62
     7
176
     1
 62
   257
176
     1
 90
        1
176
     1
 90
        1
176
     1
 40
179.0
176
     1
 90
        8
176
     1
 62
     7
176
     1
 40
1.0
176
     1
 90
        1
176
     1
 90
        6
176
     1
 90
        2
176
     1
 62
     7
176
     1
 90
        3
176
     1
 90
        0
176
     1
 90
        0
176
     1
290
     0
176
     1
 90
        1
176
     1
 40
0.0
176
     1
 90
        0
176
     1
290
     0
176
     1
290
     1
176
     1
290
     1
176
     1
290
     0
176
     1
290
     0
176
     1
290
     0
176
     1
290
     0
176
     1
290
     0
176
     1
290
     0
176
     1
 90
       50
176
     1
 40
0.0
176
     1
 40
1.0
176
     1
 90
        0
176
     1
 62
    18
420
        0
176
     1
 90
       50
176
     1
 90
        3
176
     1
 62
     5
420
      255
176
     1
290
     0
176
     1
 90
       50
176
     1
 90
       50
176
     1
 90
       50
176
     1
290
     0
176
     1
 90
       50
176
     1
 62
   256
176
     0
 40
1.0
176
     0
 90
        2
176
     1
  1
strokes_ogs.tif
176
     1
290
     0
176
     1
 40
1.0
176
     1
 40
1.0
176
     1
  0
VISUALSTYLE
  5
35
102
{ACAD_REACTORS
330
2A
102
}
330
2A
100
AcDbVisualStyle
  2
Dim
 70
    11
177
     3
291
     1
 70
    58
 90
        2
176
     1
 90
        2
176
     1
 90
        0
176
     1
 90
        0
176
     1
 40
0.6
176
     1
 40
30.0
176
     1
 62
     7
420
 16777215
176
     1
 90
        1
176
     1
 90
        4
176
     1
 62
     7
176
     1
 62
   257
176
     1
 90
        1
176
     1
 90
        1
176
     1
 40
1.0
176
     1
 90
        8
176
     1
 62
     7
176
     1
 40
1.0
176
     1
 90
        1
176
     1
 90
        6
176
     1
 90
        2
176
     1
 62
     7
176
     1
 90
        5
176
     1
 90
        0
176
     1
 90
        0
176
     1
290
     0
176
     1
 90
        1
176
     1
 40
-50.0
176
     1
 90
        0
176
     1
290
     0
176
     1
290
     1
176
     1
290
     1
176
     1
290
     0
176
     1
290
     0
176
     1
290
     0
176
     1
290
     0
176
     1
290
     0
176
     1
290
     0
176
     1
 90
       50
176
     1
 40
0.0
176
     1
 40
1.0
176
     1
 90
        0
176
     1
 62
    18
420
        0
176
     1
 90
       50
176
     1
 90
        3
176
     1
 62
     5
420
      255
176
     1
290
     0
176
     1
 90
       50
176
     1
 90
       50
176
     1
 90
       50
176
     1
290
     0
176
     1
 90
       50
176
     1
 62
   256
176
     0
 40
1.0
176
     0
 90
        2
176
     1
  1
strokes_ogs.tif
176
     1
290
     0
176
     1
 40
1.0
176
     1
 40
1.0
176
     1
  0
VISUALSTYLE
  5
3D
102
{ACAD_REACTORS
330
2A
102
}
330
2A
100
AcDbVisualStyle
  2
EdgeColorOff
 70
    22
177
     3
291
     1
 70
    58
 90
        2
176
     0
 90
        2
176
     0
 90
        0
176
     0
 90
        0
176
     0
 40
0.6
176
     0
 40
30.0
176
     0
 62
     7
420
 16777215
176
     0
 90
        1
176
     0
 90
        4
176
     0
 62
     7
176
     0
 62
   257
176
     0
 90
        1
176
     0
 90
        1
176
     0
 40
1.0
176
     0
 90
        8
176
     2
 62
     7
176
     0
 40
1.0
176
     0
 90
        1
176
     0
 90
        6
176
     0
 90
        2
176
     0
 62
     7
176
     0
 90
        5
176
     0
 90
        0
176
     0
 90
        0
176
     0
290
     0
176
     0
 90
        1
176
     0
 40
0.0
176
     0
 90
        0
176
     0
290
     0
176
     0
290
     1
176
     0
290
     1
176
     0
290
     0
176
     0
290
     0
176
     0
290
     0
176
     0
290
     0
176
     0
290
     0
176
     0
290
     0
176
     0
 90
       50
176
     0
 40
0.0
176
     0
 40
1.0
176
     0
 90
        0
176
     0
 62
    18
420
        0
176
     0
 90
       50
176
     0
 90
        3
176
     0
 62
     5
420
      255
176
     0
290
     0
176
     0
 90
       50
176
     0
 90
       50
176
     0
 90
       50
176
     0
290
     0
176
     0
 90
       50
176
     0
 62
   256
176
     0
 40
1.0
176
     0
 90
        2
176
     0
  1
strokes_ogs.tif
176
     0
290
     0
176
     0
 40
1.0
176
     0
 40
1.0
176
     0
  0
VISUALSTYLE
  5
39
102
{ACAD_REACTORS
330
2A
102
}
330
2A
100
AcDbVisualStyle
  2
Facepattern
 70
    15
177
     3
291
     1
 70
    58
 90
        2
176
     1
 90
        2
176
     1
 90
        0
176
     1
 90
        0
176
     1
 40
0.6
176
     1
 40
30.0
176
     1
 62
     7
420
 16777215
176
     1
 90
        1
176
     1
 90
        4
176
     1
 62
     7
176
     1
 62
   257
176
     1
 90
        1
176
     1
 90
        1
176
     1
 40
1.0
176
     1
 90
        8
176
     1
 62
     7
176
     1
 40
1.0
176
     1
 90
        1
176
     1
 90
        6
176
     1
 90
        2
176
     1
 62
     7
176
     1
 90
        5
176
     1
 90
        0
176
     1
 90
        0
176
     1
290
     0
176
     1
 90
        1
176
     1
 40
0.0
176
     1
 90
        0
176
     1
290
     0
176
     1
290
     1
176
     1
290
     1
176
     1
290
     0
176
     1
290
     0
176
     1
290
     0
176
     1
290
     0
176
     1
290
     0
176
     1
290
     0
176
     1
 90
       50
176
     1
 40
0.0
176
     1
 40
1.0
176
     1
 90
        0
176
     1
 62
    18
420
        0
176
     1
 90
       50
176
     1
 90
        3
176
     1
 62
     5
420
      255
176
     1
290
     0
176
     1
 90
       50
176
     1
 90
       50
176
     1
 90
       50
176
     1
290
     0
176
     1
 90
       50
176
     1
 62
   256
176
     0
 40
1.0
176
     0
 90
        2
176
     1
  1
strokes_ogs.tif
176
     1
290
     0
176
     1
 40
1.0
176
     1
 40
1.0
176
     1
  0
VISUALSTYLE
  5
2B
102
{ACAD_REACTORS
330
2A
102
}
330
2A
100
AcDbVisualStyle
  2
Flat
 70
     0
177
     3
291
     1
 70
    58
 90
        2
176
     1
 90
        1
176
     1
 90
        1
176
     1
 90
        2
176
     1
 40
0.6
176
     1
 40
30.0
176
     1
 62
     7
420
 16777215
176
     1
 90
        0
176
     1
 90
        0
176
     1
 62
     7
176
     1
 62
   257
176
     1
 90
        1
176
     1
 90
        1
176
     1
 40
1.0
176
     1
 90
        8
176
     1
 62
     7
176
     1
 40
1.0
176
     1
 90
        1
176
     1
 90
        6
176
     1
 90
        2
176
     1
 62
     7
176
     1
 90
        5
176
     1
 90
        0
176
     1
 90
        0
176
     1
290
     0
176
     1
 90
       13
176
     1
 40
0.0
176
     1
 90
        0
176
     1
290
     0
176
     1
290
     1
176
     1
290
     1
176
     1
290
     0
176
     1
290
     0
176
     1
290
     0
176
     1
290
     0
176
     1
290
     0
176
     1
290
     0
176
     1
 90
       50
176
     1
 40
0.0
176
     1
 40
1.0
176
     1
 90
        0
176
     1
 62
    18
420
        0
176
     1
 90
       50
176
     1
 90
        3
176
     1
 62
     5
420
      255
176
     1
290
     0
176
     1
 90
       50
176
     1
 90
       50
176
     1
 90
       50
176
     1
290
     0
176
     1
 90
       50
176
     1
 62
   256
176
     0
 40
1.0
176
     0
 90
        2
176
     1
  1
strokes_ogs.tif
176
     1
290
     0
176
     1
 40
1.0
176
     1
 40
1.0
176
     1
  0
VISUALSTYLE
  5
2C
102
{ACAD_REACTORS
330
2A
102
}
330
2A
100
AcDbVisualStyle
  2
FlatWithEdges
 70
     1
177
     3
291
     1
 70
    58
 90
        2
176
     1
 90
        1
176
     1
 90
        1
176
     1
 90
        2
176
     1
 40
0.6
176
     1
 40
30.0
176
     1
 62
     7
420
 16777215
176
     1
 90
        1
176
     1
 90
        0
176
     1
 62
     7
176
     1
 62
   257
176
     1
 90
        1
176
     1
 90
        1
176
     1
 40
1.0
176
     1
 90
        0
176
     1
 62
   257
176
     1
 40
1.0
176
     1
 90
        1
176
     1
 90
        6
176
     1
 90
        2
176
     1
 62
     7
176
     1
 90
        5
176
     1
 90
        0
176
     1
 90
        0
176
     1
290
     0
176
     1
 90
       13
176
     1
 40
0.0
176
     1
 90
        0
176
     1
290
     0
176
     1
290
     1
176
     1
290
     1
176
     1
290
     0
176
     1
290
     0
176
     1
290
     0
176
     1
290
     0
176
     1
290
     0
176
     1
290
     0
176
     1
 90
       50
176
     1
 40
0.0
176
     1
 40
1.0
176
     1
 90
        0
176
     1
 62
    18
420
        0
176
     1
 90
       50
176
     1
 90
        3
176
     1
 62
     5
420
      255
176
     1
290
     0
176
     1
 90
       50
176
     1
 90
       50
176
     1
 90
       50
176
     1
290
     0
176
     1
 90
       50
176
     1
 62
   256
176
     0
 40
1.0
176
     0
 90
        2
176
     1
  1
strokes_ogs.tif
176
     1
290
     0
176
     1
 40
1.0
176
     1
 40
1.0
176
     1
  0
VISUALSTYLE
  5
2D
102
{ACAD_REACTORS
330
2A
102
}
330
2A
100
AcDbVisualStyle
  2
Gouraud
 70
     2
177
     3
291
     1
 70
    58
 90
        2
176
     1
 90
        2
176
     1
 90
        1
176
     1
 90
        2
176
     1
 40
0.6
176
     1
 40
30.0
176
     1
 62
     7
420
 16777215
176
     1
 90
        0
176
     1
 90
        0
176
     1
 62
     7
176
     1
 62
   257
176
     1
 90
        1
176
     1
 90
        1
176
     1
 40
1.0
176
     1
 90
        0
176
     1
 62
     7
176
     1
 40
1.0
176
     1
 90
        1
176
     1
 90
        6
176
     1
 90
        2
176
     1
 62
     7
176
     1
 90
        5
176
     1
 90
        0
176
     1
 90
        0
176
     1
290
     0
176
     1
 90
       13
176
     1
 40
0.0
176
     1
 90
        0
176
     1
290
     0
176
     1
290
     1
176
     1
290
     1
176
     1
290
     0
176
     1
290
     0
176
     1
290
     0
176
     1
290
     0
176
     1
290
     0
176
     1
290
     0
176
     1
 90
       50
176
     1
 40
0.0
176
     1
 40
1.0
176
     1
 90
        0
176
     1
 62
    18
420
        0
176
     1
 90
       50
176
     1
 90
        3
176
     1
 62
     5
420
      255
176
     1
290
     0
176
     1
 90
       50
176
     1
 90
       50
176
     1
 90
       50
176
     1
290
     0
176
     1
 90
       50
176
     1
 62
   256
176
     0
 40
1.0
176
     0
 90
        2
176
     1
  1
strokes_ogs.tif
176
     1
290
     0
176
     1
 40
1.0
176
     1
 40
1.0
176
     1
  0
VISUALSTYLE
  5
2E
102
{ACAD_REACTORS
330
2A
102
}
330
2A
100
AcDbVisualStyle
  2
GouraudWithEdges
 70
     3
177
     3
291
     1
 70
    58
 90
        2
176
     1
 90
        2
176
     1
 90
        1
176
     1
 90
        2
176
     1
 40
0.6
176
     1
 40
30.0
176
     1
 62
     7
420
 16777215
176
     1
 90
        1
176
     1
 90
        0
176
     1
 62
     7
176
     1
 62
   257
176
     1
 90
        1
176
     1
 90
        1
176
     1
 40
1.0
176
     1
 90
        0
176
     1
 62
   257
176
     1
 40
1.0
176
     1
 90
        1
176
     1
 90
        6
176
     1
 90
        2
176
     1
 62
     7
176
     1
 90
        5
176
     1
 90
        0
176
     1
 90
        0
176
     1
290
     0
176
     1
 90
       13
176
     1
 40
0.0
176
     1
 90
        0
176
     1
290
     0
176
     1
290
     1
176
     1
290
     1
176
     1
290
     0
176
     1
290
     0
176
     1
290
     0
176
     1
290
     0
176
     1
290
     0
176
     1
290
     0
176
     1
 90
       50
176
     1
 40
0.0
176
     1
 40
1.0
176
     1
 90
        0
176
     1
 62
    18
420
        0
176
     1
 90
       50
176
     1
 90
        3
176
     1
 62
     5
420
      255
176
     1
290
     0
176
     1
 90
       50
176
     1
 90
       50
176
     1
 90
       50
176
     1
290
     0
176
     1
 90
       50
176
     1
 62
   256
176
     0
 40
1.0
176
     0
 90
        2
176
     1
  1
strokes_ogs.tif
176
     1
290
     0
176
     1
 40
1.0
176
     1
 40
1.0
176
     1
  0
VISUALSTYLE
  5
31
102
{ACAD_REACTORS
330
2A
102
}
330
2A
100
AcDbVisualStyle
  2
Hidden
 70
     6
177
     3
291
     0
 70
    58
 90
        1
176
     1
 90
        2
176
     1
 90
        2
176
     1
 90
        0
176
     1
 40
0.6
176
     1
 40
30.0
176
     1
 62
     7
420
 16777215
176
     1
 90
        2
176
     1
 90
        2
176
     1
 62
     7
176
     1
 62
   257
176
     1
 90
        2
176
     1
 90
        1
176
     1
 40
40.0
176
     1
 90
        0
176
     1
 62
   257
176
     1
 40
1.0
176
     1
 90
        1
176
     1
 90
        6
176
     1
 90
        2
176
     1
 62
     7
176
     1
 90
        3
176
     1
 90
        0
176
     1
 90
        0
176
     1
290
     0
176
     1
 90
        1
176
     1
 40
0.0
176
     1
 90
        0
176
     1
290
     0
176
     1
290
     1
176
     1
290
     1
176
     1
290
     0
176
     1
290
     0
176
     1
290
     0
176
     1
290
     0
176
     1
290
     0
176
     1
290
     0
176
     1
 90
       50
176
     1
 40
0.0
176
     1
 40
1.0
176
     1
 90
        0
176
     1
 62
    18
420
        0
176
     1
 90
       50
176
     1
 90
        3
176
     1
 62
     5
420
      255
176
     1
290
     0
176
     1
 90
       50
176
     1
 90
       50
176
     1
 90
       50
176
     1
290
     0
176
     1
 90
       50
176
     1
 62
   256
176
     0
 40
1.0
176
     0
 90
        2
176
     1
  1
strokes_ogs.tif
176
     1
290
     0
176
     1
 40
1.0
176
     1
 40
1.0
176
     1
  0
VISUALSTYLE
  5
3B
102
{ACAD_REACTORS
330
2A
102
}
330
2A
100
AcDbVisualStyle
  2
JitterOff
 70
    20
177
     3
291
     1
 70
    58
 90
        2
176
     0
 90
        2
176
     0
 90
        0
176
     0
 90
        0
176
     0
 40
0.6
176
     0
 40
30.0
176
     0
 62
     7
420
 16777215
176
     0
 90
        1
176
     0
 90
        4
176
     0
 62
     7
176
     0
 62
   257
176
     0
 90
        1
176
     0
 90
        1
176
     0
 40
1.0
176
     0
 90
       10
176
     2
 62
     7
176
     0
 40
1.0
176
     0
 90
        1
176
     0
 90
        6
176
     0
 90
        2
176
     0
 62
     7
176
     0
 90
        5
176
     0
 90
        0
176
     0
 90
        0
176
     0
290
     0
176
     0
 90
        1
176
     0
 40
0.0
176
     0
 90
        0
176
     0
290
     0
176
     0
290
     1
176
     0
290
     1
176
     0
290
     0
176
     0
290
     0
176
     0
290
     0
176
     0
290
     0
176
     0
290
     0
176
     0
290
     0
176
     0
 90
       50
176
     0
 40
0.0
176
     0
 40
1.0
176
     0
 90
        0
176
     0
 62
    18
420
        0
176
     0
 90
       50
176
     0
 90
        3
176
     0
 62
     5
420
      255
176
     0
290
     0
176
     0
 90
       50
176
     0
 90
       50
176
     0
 90
       50
176
     0
290
     0
176
     0
 90
       50
176
     0
 62
   256
176
     0
 40
1.0
176
     0
 90
        2
176
     0
  1
strokes_ogs.tif
176
     0
290
     0
176
     0
 40
1.0
176
     0
 40
1.0
176
     0
  0
VISUALSTYLE
  5
38
102
{ACAD_REACTORS
330
2A
102
}
330
2A
100
AcDbVisualStyle
  2
Linepattern
 70
    14
177
     3
291
     1
 70
    58
 90
        2
176
     1
 90
        2
176
     1
 90
        0
176
     1
 90
        0
176
     1
 40
0.6
176
     1
 40
30.0
176
     1
 62
     7
420
 16777215
176
     1
 90
        1
176
     1
 90
        4
176
     1
 62
     7
176
     1
 62
   257
176
     1
 90
        7
176
     1
 90
        7
176
     1
 40
1.0
176
     1
 90
        8
176
     1
 62
     7
176
     1
 40
1.0
176
     1
 90
        1
176
     1
 90
        6
176
     1
 90
        2
176
     1
 62
     7
176
     1
 90
        5
176
     1
 90
        0
176
     1
 90
        0
176
     1
290
     0
176
     1
 90
        1
176
     1
 40
0.0
176
     1
 90
        0
176
     1
290
     0
176
     1
290
     1
176
     1
290
     1
176
     1
290
     0
176
     1
290
     0
176
     1
290
     0
176
     1
290
     0
176
     1
290
     0
176
     1
290
     0
176
     1
 90
       50
176
     1
 40
0.0
176
     1
 40
1.0
176
     1
 90
        0
176
     1
 62
    18
420
        0
176
     1
 90
       50
176
     1
 90
        3
176
     1
 62
     5
420
      255
176
     1
290
     0
176
     1
 90
       50
176
     1
 90
       50
176
     1
 90
       50
176
     1
290
     0
176
     1
 90
       50
176
     1
 62
   256
176
     0
 40
1.0
176
     0
 90
        2
176
     1
  1
strokes_ogs.tif
176
     1
290
     0
176
     1
 40
1.0
176
     1
 40
1.0
176
     1
  0
VISUALSTYLE
  5
3C
102
{ACAD_REACTORS
330
2A
102
}
330
2A
100
AcDbVisualStyle
  2
OverhangOff
 70
    21
177
     3
291
     1
 70
    58
 90
        2
176
     0
 90
        2
176
     0
 90
        0
176
     0
 90
        0
176
     0
 40
0.6
176
     0
 40
30.0
176
     0
 62
     7
420
 16777215
176
     0
 90
        1
176
     0
 90
        4
176
     0
 62
     7
176
     0
 62
   257
176
     0
 90
        1
176
     0
 90
        1
176
     0
 40
1.0
176
     0
 90
        9
176
     2
 62
     7
176
     0
 40
1.0
176
     0
 90
        1
176
     0
 90
        6
176
     0
 90
        2
176
     0
 62
     7
176
     0
 90
        5
176
     0
 90
        0
176
     0
 90
        0
176
     0
290
     0
176
     0
 90
        1
176
     0
 40
0.0
176
     0
 90
        0
176
     0
290
     0
176
     0
290
     1
176
     0
290
     1
176
     0
290
     0
176
     0
290
     0
176
     0
290
     0
176
     0
290
     0
176
     0
290
     0
176
     0
290
     0
176
     0
 90
       50
176
     0
 40
0.0
176
     0
 40
1.0
176
     0
 90
        0
176
     0
 62
    18
420
        0
176
     0
 90
       50
176
     0
 90
        3
176
     0
 62
     5
420
      255
176
     0
290
     0
176
     0
 90
       50
176
     0
 90
       50
176
     0
 90
       50
176
     0
290
     0
176
     0
 90
       50
176
     0
 62
   256
176
     0
 40
1.0
176
     0
 90
        2
176
     0
  1
strokes_ogs.tif
176
     0
290
     0
176
     0
 40
1.0
176
     0
 40
1.0
176
     0
  0
VISUALSTYLE
  5
33
102
{ACAD_REACTORS
330
2A
102
}
330
2A
100
AcDbVisualStyle
  2
Realistic
 70
     8
177
     3
291
     0
 70
    58
 90
        2
176
     1
 90
        3
176
     1
 90
        0
176
     1
 90
        2
176
     1
 40
0.6
176
     1
 40
30.0
176
     1
 62
     7
420
 16777215
176
     1
 90
        0
176
     1
 90
        0
176
     1
 62
     7
176
     1
 62
   257
176
     1
 90
        1
176
     1
 90
        1
176
     1
 40
1.0
176
     1
 90
        8
176
     1
 62
   257
176
     1
 40
1.0
176
     1
 90
        1
176
     1
 90
        6
176
     1
 90
        2
176
     1
 62
     7
176
     1
 90
        3
176
     1
 90
        0
176
     1
 90
        0
176
     1
290
     0
176
     1
 90
       13
176
     1
 40
0.0
176
     1
 90
        0
176
     1
290
     0
176
     1
290
     1
176
     1
290
     1
176
     1
290
     0
176
     1
290
     0
176
     1
290
     0
176
     1
290
     0
176
     1
290
     0
176
     1
290
     0
176
     1
 90
       50
176
     1
 40
0.0
176
     1
 40
1.0
176
     1
 90
        0
176
     1
 62
    18
420
        0
176
     1
 90
       50
176
     1
 90
        3
176
     1
 62
     5
420
      255
176
     1
290
     0
176
     1
 90
       50
176
     1
 90
       50
176
     1
 90
       50
176
     1
290
     0
176
     1
 90
       50
176
     1
 62
   256
176
     0
 40
1.0
176
     0
 90
        2
176
     1
  1
strokes_ogs.tif
176
     1
290
     0
176
     1
 40
1.0
176
     1
 40
1.0
176
     1
  0
VISUALSTYLE
  5
42
102
{ACAD_REACTORS
330
2A
102
}
330
2A
100
AcDbVisualStyle
  2
Shaded
 70
    27
177
     3
291
     0
 70
    58
 90
        2
176
     1
 90
        2
176
     1
 90
        1
176
     1
 90
        2
176
     1
 40
0.6
176
     1
 40
30.0
176
     1
 62
     7
420
 16777215
176
     1
 90
        0
176
     1
 90
        4
176
     1
 62
     7
176
     1
 62
   257
176
     1
 90
        1
176
     1
 90
        1
176
     1
 40
1.0
176
     1
 90
        8
176
     1
 62
   257
176
     1
 40
1.0
176
     1
 90
        1
176
     1
 90
        6
176
     1
 90
        2
176
     1
 62
     8
420
  7895160
176
     1
 90
        3
176
     1
 90
        0
176
     1
 90
        0
176
     1
290
     0
176
     1
 90
        5
176
     1
 40
0.0
176
     1
 90
        0
176
     1
290
     0
176
     1
290
     1
176
     1
290
     1
176
     1
290
     0
176
     1
290
     0
176
     1
290
     0
176
     1
290
     0
176
     1
290
     0
176
     1
290
     0
176
     1
 90
       50
176
     1
 40
0.0
176
     1
 40
1.0
176
     1
 90
        0
176
     1
 62
    18
420
        0
176
     1
 90
       50
176
     1
 90
        3
176
     1
 62
     5
420
      255
176
     1
290
     0
176
     1
 90
       50
176
     1
 90
       50
176
     1
 90
       50
176
     1
290
     0
176
     1
 90
       50
176
     1
 62
   256
176
     0
 40
1.0
176
     0
 90
        2
176
     1
  1
strokes_ogs.tif
176
     1
290
     0
176
     1
 40
1.0
176
     1
 40
1.0
176
     1
  0
VISUALSTYLE
  5
41
102
{ACAD_REACTORS
330
2A
102
}
330
2A
100
AcDbVisualStyle
  2
Shaded with edges
 70
    26
177
     3
291
     0
 70
    58
 90
        2
176
     1
 90
        2
176
     1
 90
        1
176
     1
 90
        2
176
     1
 40
0.6
176
     1
 40
30.0
176
     1
 62
     7
420
 16777215
176
     1
 90
        1
176
     1
 90
       10
176
     1
 62
     7
176
     1
 62
   257
176
     1
 90
        2
176
     1
 90
        1
176
     1
 40
1.0
176
     1
 90
        8
176
     1
 62
   257
176
     1
 40
1.0
176
     1
 90
        1
176
     1
 90
        6
176
     1
 90
        2
176
     1
 62
     7
176
     1
 90
        3
176
     1
 90
        0
176
     1
 90
        0
176
     1
290
     0
176
     1
 90
        5
176
     1
 40
0.0
176
     1
 90
        0
176
     1
290
     0
176
     1
290
     1
176
     1
290
     1
176
     1
290
     0
176
     1
290
     0
176
     1
290
     0
176
     1
290
     0
176
     1
290
     0
176
     1
290
     0
176
     1
 90
       50
176
     1
 40
0.0
176
     1
 40
1.0
176
     1
 90
        0
176
     1
 62
    18
420
        0
176
     1
 90
       50
176
     1
 90
        3
176
     1
 62
     5
420
      255
176
     1
290
     0
176
     1
 90
       50
176
     1
 90
       50
176
     1
 90
       50
176
     1
290
     0
176
     1
 90
       50
176
     1
 62
   256
176
     0
 40
1.0
176
     0
 90
        2
176
     1
  1
strokes_ogs.tif
176
     1
290
     0
176
     1
 40
1.0
176
     1
 40
1.0
176
     1
  0
VISUALSTYLE
  5
3E
102
{ACAD_REACTORS
330
2A
102
}
330
2A
100
AcDbVisualStyle
  2
Shades of Gray
 70
    23
177
     3
291
     0
 70
    58
 90
        2
176
     1
 90
        2
176
     1
 90
        3
176
     1
 90
        0
176
     1
 40
0.6
176
     1
 40
30.0
176
     1
 62
     7
420
 16777215
176
     1
 90
        2
176
     1
 90
        2
176
     1
 62
     7
176
     1
 62
     7
176
     1
 90
        1
176
     1
 90
        1
176
     1
 40
40.0
176
     1
 90
        8
176
     1
 62
     7
176
     1
 40
1.0
176
     1
 90
        1
176
     1
 90
        6
176
     1
 90
        2
176
     1
 62
     7
176
     1
 90
        3
176
     1
 90
        0
176
     1
 90
        0
176
     1
290
     0
176
     1
 90
        1
176
     1
 40
0.0
176
     1
 90
        0
176
     1
290
     0
176
     1
290
     1
176
     1
290
     1
176
     1
290
     0
176
     1
290
     0
176
     1
290
     0
176
     1
290
     0
176
     1
290
     0
176
     1
290
     0
176
     1
 90
       50
176
     1
 40
0.0
176
     1
 40
1.0
176
     1
 90
        0
176
     1
 62
    18
420
        0
176
     1
 90
       50
176
     1
 90
        3
176
     1
 62
     5
420
      255
176
     1
290
     0
176
     1
 90
       50
176
     1
 90
       50
176
     1
 90
       50
176
     1
290
     0
176
     1
 90
       50
176
     1
 62
   256
176
     0
 40
1.0
176
     0
 90
        2
176
     1
  1
strokes_ogs.tif
176
     1
290
     0
176
     1
 40
1.0
176
     1
 40
1.0
176
     1
  0
VISUALSTYLE
  5
3F
102
{ACAD_REACTORS
330
2A
102
}
330
2A
100
AcDbVisualStyle
  2
Sketchy
 70
    24
177
     3
291
     0
 70
    58
 90
        1
176
     1
 90
        2
176
     1
 90
        2
176
     1
 90
        0
176
     1
 40
0.6
176
     1
 40
30.0
176
     1
 62
     7
420
 16777215
176
     1
 90
        2
176
     1
 90
        2
176
     1
 62
     7
176
     1
 62
     7
176
     1
 90
        1
176
     1
 90
        1
176
     1
 40
40.0
176
     1
 90
       11
176
     1
 62
     7
176
     1
 40
1.0
176
     1
 90
        1
176
     1
 90
        6
176
     1
 90
        2
176
     1
 62
     7
176
     1
 90
        6
176
     1
 90
        0
176
     1
 90
        0
176
     1
290
     0
176
     1
 90
        1
176
     1
 40
0.0
176
     1
 90
        0
176
     1
290
     0
176
     1
290
     1
176
     1
290
     1
176
     1
290
     0
176
     1
290
     0
176
     1
290
     0
176
     1
290
     0
176
     1
290
     0
176
     1
290
     0
176
     1
 90
       50
176
     1
 40
0.0
176
     1
 40
1.0
176
     1
 90
        0
176
     1
 62
    18
420
        0
176
     1
 90
       50
176
     1
 90
        3
176
     1
 62
     5
420
      255
176
     1
290
     0
176
     1
 90
       50
176
     1
 90
       50
176
     1
 90
       50
176
     1
290
     0
176
     1
 90
       50
176
     1
 62
   256
176
     0
 40
1.0
176
     0
 90
        2
176
     1
  1
strokes_ogs.tif
176
     1
290
     0
176
     1
 40
1.0
176
     1
 40
1.0
176
     1
  0
VISUALSTYLE
  5
37
102
{ACAD_REACTORS
330
2A
102
}
330
2A
100
AcDbVisualStyle
  2
Thicken
 70
    13
177
     3
291
     1
 70
    58
 90
        2
176
     1
 90
        2
176
     1
 90
        0
176
     1
 90
        0
176
     1
 40
0.6
176
     1
 40
30.0
176
     1
 62
     7
420
 16777215
176
     1
 90
        1
176
     1
 90
        4
176
     1
 62
     7
176
     1
 62
   257
176
     1
 90
        1
176
     1
 90
        1
176
     1
 40
1.0
176
     1
 90
       12
176
     1
 62
     7
176
     1
 40
1.0
176
     1
 90
        1
176
     1
 90
        6
176
     1
 90
        2
176
     1
 62
     7
176
     1
 90
        5
176
     1
 90
        0
176
     1
 90
        0
176
     1
290
     0
176
     1
 90
        1
176
     1
 40
0.0
176
     1
 90
        0
176
     1
290
     0
176
     1
290
     1
176
     1
290
     1
176
     1
290
     0
176
     1
290
     0
176
     1
290
     0
176
     1
290
     0
176
     1
290
     0
176
     1
290
     0
176
     1
 90
       50
176
     1
 40
0.0
176
     1
 40
1.0
176
     1
 90
        0
176
     1
 62
    18
420
        0
176
     1
 90
       50
176
     1
 90
        3
176
     1
 62
     5
420
      255
176
     1
290
     0
176
     1
 90
       50
176
     1
 90
       50
176
     1
 90
       50
176
     1
290
     0
176
     1
 90
       50
176
     1
 62
   256
176
     0
 40
1.0
176
     0
 90
        2
176
     1
  1
strokes_ogs.tif
176
     1
290
     0
176
     1
 40
1.0
176
     1
 40
1.0
176
     1
  0
VISUALSTYLE
  5
30
102
{ACAD_REACTORS
330
2A
102
}
330
2A
100
AcDbVisualStyle
  2
Wireframe
 70
     5
177
     3
291
     0
 70
    58
 90
        0
176
     1
 90
        2
176
     1
 90
        0
176
     1
 90
        0
176
     1
 40
0.6
176
     1
 40
30.0
176
     1
 62
     7
420
 16777215
176
     1
 90
        1
176
     1
 90
        4
176
     1
 62
     7
176
     1
 62
   257
176
     1
 90
        1
176
     1
 90
        1
176
     1
 40
1.0
176
     1
 90
        0
176
     1
 62
   257
176
     1
 40
1.0
176
     1
 90
        1
176
     1
 90
        6
176
     1
 90
        2
176
     1
 62
     7
176
     1
 90
        3
176
     1
 90
        0
176
     1
 90
        0
176
     1
290
     0
176
     1
 90
        1
176
     1
 40
0.0
176
     1
 90
        0
176
     1
290
     0
176
     1
290
     1
176
     1
290
     1
176
     1
290
     0
176
     1
290
     0
176
     1
290
     0
176
     1
290
     0
176
     1
290
     0
176
     1
290
     0
176
     1
 90
       50
176
     1
 40
0.0
176
     1
 40
1.0
176
     1
 90
        0
176
     1
 62
    18
420
        0
176
     1
 90
       50
176
     1
 90
        3
176
     1
 62
     5
420
      255
176
     1
290
     0
176
     1
 90
       50
176
     1
 90
       50
176
     1
 90
       50
176
     1
290
     0
176
     1
 90
       50
176
     1
 62
   256
176
     0
 40
1.0
176
     0
 90
        2
176
     1
  1
strokes_ogs.tif
176
     1
290
     0
176
     1
 40
1.0
176
     1
 40
1.0
176
     1
  0
VISUALSTYLE
  5
40
102
{ACAD_REACTORS
330
2A
102
}
330
2A
100
AcDbVisualStyle
  2
X-Ray
 70
    25
177
     3
291
     0
 70
    58
 90
        2
176
     1
 90
        2
176
     1
 90
        1
176
     1
 90
        1
176
     1
 40
0.5
176
     1
 40
30.0
176
     1
 62
     7
420
 16777215
176
     1
 90
        1
176
     1
 90
        0
176
     1
 62
     7
176
     1
 62
   257
176
     1
 90
        1
176
     1
 90
        1
176
     1
 40
1.0
176
     1
 90
        8
176
     1
 62
     7
176
     1
 40
1.0
176
     1
 90
        1
176
     1
 90
        6
176
     1
 90
        2
176
     1
 62
     7
176
     1
 90
        3
176
     1
 90
        0
176
     1
 90
        0
176
     1
290
     0
176
     1
 90
       13
176
     1
 40
0.0
176
     1
 90
        0
176
     1
290
     0
176
     1
290
     1
176
     1
290
     1
176
     1
290
     0
176
     1
290
     0
176
     1
290
     0
176
     1
290
     0
176
     1
290
     0
176
     1
290
     0
176
     1
 90
       50
176
     1
 40
0.0
176
     1
 40
1.0
176
     1
 90
        0
176
     1
 62
    18
420
        0
176
     1
 90
       50
176
     1
 90
        3
176
     1
 62
     5
420
      255
176
     1
290
     0
176
     1
 90
       50
176
     1
 90
       50
176
     1
 90
       50
176
     1
290
     0
176
     1
 90
       50
176
     1
 62
   256
176
     0
 40
1.0
176
     0
 90
        2
176
     1
  1
strokes_ogs.tif
176
     1
290
     0
176
     1
 40
1.0
176
     1
 40
1.0
176
     1
  0
DICTIONARYVAR
  5
275
102
{ACAD_REACTORS
330
274
102
}
330
274
100
DictionaryVariables
280
     0
  1
1:1
  0
DICTIONARYVAR
  5
27A
102
{ACAD_REACTORS
330
274
102
}
330
274
100
DictionaryVariables
280
     0
  1
Standard
  0
DICTIONARYVAR
  5
279
102
{ACAD_REACTORS
330
274
102
}
330
274
100
DictionaryVariables
280
     0
  1
Standard
  0
DICTIONARY
  5
276
330
6A
100
AcDbDictionary
280
     1
281
     1
  3
ACAD_ROUNDTRIP_2008_TABLESTYLE_CELLSTYLEMAP
360
277
  0
CELLSTYLEMAP
  5
277
102
{ACAD_REACTORS
330
276
102
}
330
276
100
AcDbCellStyleMap
 90
        3
300
CELLSTYLE
  1
TABLEFORMAT_BEGIN
 90
        5
170
     1
 91
        0
 92
    32768
 62
   257
 93
        1
300
CONTENTFORMAT
  1
CONTENTFORMAT_BEGIN
 90
        0
 91
        0
 92
        4
 93
        0
300

 40
0.0
140
1.0
 94
        5
 62
     0
340
11
144
0.25
309
CONTENTFORMAT_END
171
     1
301
MARGIN
  1
CELLMARGIN_BEGIN
 40
0.06
 40
0.06
 40
0.06
 40
0.06
 40
0.06
 40
0.06
309
CELLMARGIN_END
 94
        6
 95
        1
302
GRIDFORMAT
  1
GRIDFORMAT_BEGIN
 90
        0
 91
        1
 62
     0
 92
       -2
340
14
 93
        0
 40
0.045
309
GRIDFORMAT_END
 95
        2
302
GRIDFORMAT
  1
GRIDFORMAT_BEGIN
 90
        0
 91
        1
 62
     0
 92
       -2
340
14
 93
        0
 40
0.045
309
GRIDFORMAT_END
 95
        4
302
GRIDFORMAT
  1
GRIDFORMAT_BEGIN
 90
        0
 91
        1
 62
     0
 92
       -2
340
14
 93
        0
 40
0.045
309
GRIDFORMAT_END
 95
        8
302
GRIDFORMAT
  1
GRIDFORMAT_BEGIN
 90
        0
 91
        1
 62
     0
 92
       -2
340
14
 93
        0
 40
0.045
309
GRIDFORMAT_END
 95
       16
302
GRIDFORMAT
  1
GRIDFORMAT_BEGIN
 90
        0
 91
        1
 62
     0
 92
       -2
340
14
 93
        0
 40
0.045
309
GRIDFORMAT_END
 95
       32
302
GRIDFORMAT
  1
GRIDFORMAT_BEGIN
 90
        0
 91
        1
 62
     0
 92
       -2
340
14
 93
        0
 40
0.045
309
GRIDFORMAT_END
309
TABLEFORMAT_END
  1
CELLSTYLE_BEGIN
 90
        1
 91
        1
300
_TITLE
309
CELLSTYLE_END
300
CELLSTYLE
  1
TABLEFORMAT_BEGIN
 90
        5
170
     1
 91
        0
 92
        0
 62
   257
 93
        1
300
CONTENTFORMAT
  1
CONTENTFORMAT_BEGIN
 90
        0
 91
        0
 92
        4
 93
        0
300

 40
0.0
140
1.0
 94
        5
 62
     0
340
11
144
0.18
309
CONTENTFORMAT_END
171
     1
301
MARGIN
  1
CELLMARGIN_BEGIN
 40
0.06
 40
0.06
 40
0.06
 40
0.06
 40
0.06
 40
0.06
309
CELLMARGIN_END
 94
        6
 95
        1
302
GRIDFORMAT
  1
GRIDFORMAT_BEGIN
 90
        0
 91
        1
 62
     0
 92
       -2
340
14
 93
        0
 40
0.045
309
GRIDFORMAT_END
 95
        2
302
GRIDFORMAT
  1
GRIDFORMAT_BEGIN
 90
        0
 91
        1
 62
     0
 92
       -2
340
14
 93
        0
 40
0.045
309
GRIDFORMAT_END
 95
        4
302
GRIDFORMAT
  1
GRIDFORMAT_BEGIN
 90
        0
 91
        1
 62
     0
 92
       -2
340
14
 93
        0
 40
0.045
309
GRIDFORMAT_END
 95
        8
302
GRIDFORMAT
  1
GRIDFORMAT_BEGIN
 90
        0
 91
        1
 62
     0
 92
       -2
340
14
 93
        0
 40
0.045
309
GRIDFORMAT_END
 95
       16
302
GRIDFORMAT
  1
GRIDFORMAT_BEGIN
 90
        0
 91
        1
 62
     0
 92
       -2
340
14
 93
        0
 40
0.045
309
GRIDFORMAT_END
 95
       32
302
GRIDFORMAT
  1
GRIDFORMAT_BEGIN
 90
        0
 91
        1
 62
     0
 92
       -2
340
14
 93
        0
 40
0.045
309
GRIDFORMAT_END
309
TABLEFORMAT_END
  1
CELLSTYLE_BEGIN
 90
        2
 91
        1
300
_HEADER
309
CELLSTYLE_END
300
CELLSTYLE
  1
TABLEFORMAT_BEGIN
 90
        5
170
     1
 91
        0
 92
        0
 62
   257
 93
        1
300
CONTENTFORMAT
  1
CONTENTFORMAT_BEGIN
 90
        0
 91
        0
 92
        4
 93
        0
300

 40
0.0
140
1.0
 94
        2
 62
     0
340
11
144
0.18
309
CONTENTFORMAT_END
171
     1
301
MARGIN
  1
CELLMARGIN_BEGIN
 40
0.06
 40
0.06
 40
0.06
 40
0.06
 40
0.06
 40
0.06
309
CELLMARGIN_END
 94
        6
 95
        1
302
GRIDFORMAT
  1
GRIDFORMAT_BEGIN
 90
        0
 91
        1
 62
     0
 92
       -2
340
14
 93
        0
 40
0.045
309
GRIDFORMAT_END
 95
        2
302
GRIDFORMAT
  1
GRIDFORMAT_BEGIN
 90
        0
 91
        1
 62
     0
 92
       -2
340
14
 93
        0
 40
0.045
309
GRIDFORMAT_END
 95
        4
302
GRIDFORMAT
  1
GRIDFORMAT_BEGIN
 90
        0
 91
        1
 62
     0
 92
       -2
340
14
 93
        0
 40
0.045
309
GRIDFORMAT_END
 95
        8
302
GRIDFORMAT
  1
GRIDFORMAT_BEGIN
 90
        0
 91
        1
 62
     0
 92
       -2
340
14
 93
        0
 40
0.045
309
GRIDFORMAT_END
 95
       16
302
GRIDFORMAT
  1
GRIDFORMAT_BEGIN
 90
        0
 91
        1
 62
     0
 92
       -2
340
14
 93
        0
 40
0.045
309
GRIDFORMAT_END
 95
       32
302
GRIDFORMAT
  1
GRIDFORMAT_BEGIN
 90
        0
 91
        1
 62
     0
 92
       -2
340
14
 93
        0
 40
0.045
309
GRIDFORMAT_END
309
TABLEFORMAT_END
  1
CELLSTYLE_BEGIN
 90
        3
 91
        2
300
_DATA
309
CELLSTYLE_END
  0
ENDSEC
  0
EOF