0
SECTION
  2
HEADER
  9
$ACADVER
  1
AC1027
  9
$ACADMAINTVER
 70
     8
  9
$DWGCODEPAGE
  3
ANSI_1252
  9
$REQUIREDVERSIONS
160
                 0
  9
$COMMENTS
  1
File was created by Cadenas
  9
$CUSTOMPROPERTYTAG
  1
NN
  9
$CUSTOMPROPERTY
  1
Grip Tight Low Backing Height Two-Bolt Pillow Block Inch Bore
  9
$CUSTOMPROPERTYTAG
  1
NT
  9
$CUSTOMPROPERTY
  1
GTB Normal Duty Pillow Blocks
  9
$CUSTOMPROPERTYTAG
  1
NB
  9
$CUSTOMPROPERTY
  1
129199
  9
$CUSTOMPROPERTYTAG
  1
NBSYN
  9
$CUSTOMPROPERTY
  1
$PN.$LUBE.
  9
$CUSTOMPROPERTYTAG
  1
LINA
  9
$CUSTOMPROPERTY
  1
129199
  9
$CUSTOMPROPERTYTAG
  1
SERIES
  9
$CUSTOMPROPERTY
  1
211
  9
$CUSTOMPROPERTYTAG
  1
SS
  9
$CUSTOMPROPERTY
  1
2
  9
$CUSTOMPROPERTYTAG
  1
PN
  9
$CUSTOMPROPERTY
  1
129199
  9
$CUSTOMPROPERTYTAG
  1
DESCRIPTION
  9
$CUSTOMPROPERTY
  1
P2B-GTB-200L
  9
$CUSTOMPROPERTYTAG
  1
A
  9
$CUSTOMPROPERTY
  1
1-59/64
  9
$CUSTOMPROPERTYTAG
  1
B
  9
$CUSTOMPROPERTY
  1
8-7/8
  9
$CUSTOMPROPERTYTAG
  1
C
  9
$CUSTOMPROPERTY
  1
2-5/16
  9
$CUSTOMPROPERTYTAG
  1
DMIN
  9
$CUSTOMPROPERTY
  1
6-3/8
  9
$CUSTOMPROPERTYTAG
  1
DMAX
  9
$CUSTOMPROPERTY
  1
7-7/16
  9
$CUSTOMPROPERTYTAG
  1
F
  9
$CUSTOMPROPERTY
  1
5/8
  9
$CUSTOMPROPERTYTAG
  1
G
  9
$CUSTOMPROPERTY
  1
1-7/32
  9
$CUSTOMPROPERTYTAG
  1
H
  9
$CUSTOMPROPERTY
  1
51/64
  9
$CUSTOMPROPERTYTAG
  1
J
  9
$CUSTOMPROPERTY
  1
4-7/8
  9
$CUSTOMPROPERTYTAG
  1
L
  9
$CUSTOMPROPERTY
  1
3-1/4
  9
$CUSTOMPROPERTYTAG
  1
M
  9
$CUSTOMPROPERTY
  1
2-7/16
  9
$CUSTOMPROPERTYTAG
  1
R
  9
$CUSTOMPROPERTY
  1
45/64
  9
$CUSTOMPROPERTYTAG
  1
S
  9
$CUSTOMPROPERTY
  1
1-7/32
  9
$CUSTOMPROPERTYTAG
  1
U
  9
$CUSTOMPROPERTY
  1
3-15/16
  9
$CUSTOMPROPERTYTAG
  1
V
  9
$CUSTOMPROPERTY
  1
7-7/8
  9
$CUSTOMPROPERTYTAG
  1
W
  9
$CUSTOMPROPERTY
  1
13/16
  9
$CUSTOMPROPERTYTAG
  1
X
  9
$CUSTOMPROPERTY
  1
3/16
  9
$CUSTOMPROPERTYTAG
  1
Z
  9
$CUSTOMPROPERTY
  1
1-3/16
  9
$CUSTOMPROPERTYTAG
  1
COMPANY
  9
$CUSTOMPROPERTY
  1
baldor
  9
$INSBASE
 10
0.0
 20
0.0
 30
0.0
  9
$EXTMIN
 10
1.000000000000000E+20
 20
1.000000000000000E+20
 30
1.000000000000000E+20
  9
$EXTMAX
 10
-1.000000000000000E+20
 20
-1.000000000000000E+20
 30
-1.000000000000000E+20
  9
$LIMMIN
 10
0.0
 20
0.0
  9
$LIMMAX
 10
12.0
 20
9.0
  9
$ORTHOMODE
 70
     0
  9
$REGENMODE
 70
     1
  9
$FILLMODE
 70
     1
  9
$QTEXTMODE
 70
     0
  9
$MIRRTEXT
 70
     1
  9
$LTSCALE
 40
1.0
  9
$ATTMODE
 70
     1
  9
$TEXTSIZE
 40
0.2
  9
$TRACEWID
 40
0.05
  9
$TEXTSTYLE
  7
Standard
  9
$CLAYER
  8
0
  9
$CELTYPE
  6
ByLayer
  9
$CECOLOR
 62
   256
  9
$CELTSCALE
 40
1.0
  9
$DISPSILH
 70
     0
  9
$DIMSCALE
 40
1.0
  9
$DIMASZ
 40
0.18
  9
$DIMEXO
 40
0.0625
  9
$DIMDLI
 40
0.38
  9
$DIMRND
 40
0.0
  9
$DIMDLE
 40
0.0
  9
$DIMEXE
 40
0.18
  9
$DIMTP
 40
0.0
  9
$DIMTM
 40
0.0
  9
$DIMTXT
 40
0.18
  9
$DIMCEN
 40
0.09
  9
$DIMTSZ
 40
0.0
  9
$DIMTOL
 70
     0
  9
$DIMLIM
 70
     0
  9
$DIMTIH
 70
     1
  9
$DIMTOH
 70
     1
  9
$DIMSE1
 70
     0
  9
$DIMSE2
 70
     0
  9
$DIMTAD
 70
     0
  9
$DIMZIN
 70
     0
  9
$DIMBLK
  1

  9
$DIMASO
 70
     1
  9
$DIMSHO
 70
     1
  9
$DIMPOST
  1

  9
$DIMAPOST
  1

  9
$DIMALT
 70
     0
  9
$DIMALTD
 70
     2
  9
$DIMALTF
 40
25.4
  9
$DIMLFAC
 40
1.0
  9
$DIMTOFL
 70
     0
  9
$DIMTVP
 40
0.0
  9
$DIMTIX
 70
     0
  9
$DIMSOXD
 70
     0
  9
$DIMSAH
 70
     0
  9
$DIMBLK1
  1

  9
$DIMBLK2
  1

  9
$DIMSTYLE
  2
Standard
  9
$DIMCLRD
 70
     0
  9
$DIMCLRE
 70
     0
  9
$DIMCLRT
 70
     0
  9
$DIMTFAC
 40
1.0
  9
$DIMGAP
 40
0.09
  9
$DIMJUST
 70
     0
  9
$DIMSD1
 70
     0
  9
$DIMSD2
 70
     0
  9
$DIMTOLJ
 70
     1
  9
$DIMTZIN
 70
     0
  9
$DIMALTZ
 70
     0
  9
$DIMALTTZ
 70
     0
  9
$DIMUPT
 70
     0
  9
$DIMDEC
 70
     4
  9
$DIMTDEC
 70
     4
  9
$DIMALTU
 70
     2
  9
$DIMALTTD
 70
     2
  9
$DIMTXSTY
  7
Standard
  9
$DIMAUNIT
 70
     0
  9
$DIMADEC
 70
     0
  9
$DIMALTRND
 40
0.0
  9
$DIMAZIN
 70
     0
  9
$DIMDSEP
 70
    46
  9
$DIMATFIT
 70
     3
  9
$DIMFRAC
 70
     0
  9
$DIMLDRBLK
  1

  9
$DIMLUNIT
 70
     2
  9
$DIMLWD
 70
    -2
  9
$DIMLWE
 70
    -2
  9
$DIMTMOVE
 70
     0
  9
$DIMFXL
 40
1.0
  9
$DIMFXLON
 70
     0
  9
$DIMJOGANG
 40
0.7853981633974483
  9
$DIMTFILL
 70
     0
  9
$DIMTFILLCLR
 70
     0
  9
$DIMARCSYM
 70
     0
  9
$DIMLTYPE
  6

  9
$DIMLTEX1
  6

  9
$DIMLTEX2
  6

  9
$DIMTXTDIRECTION
 70
     0
  9
$LUNITS
 70
     2
  9
$LUPREC
 70
     4
  9
$SKETCHINC
 40
0.1
  9
$FILLETRAD
 40
0.5
  9
$AUNITS
 70
     0
  9
$AUPREC
 70
     0
  9
$MENU
  1
.
  9
$ELEVATION
 40
0.0
  9
$PELEVATION
 40
0.0
  9
$THICKNESS
 40
0.0
  9
$LIMCHECK
 70
     0
  9
$CHAMFERA
 40
0.0
  9
$CHAMFERB
 40
0.0
  9
$CHAMFERC
 40
0.0
  9
$CHAMFERD
 40
0.0
  9
$SKPOLY
 70
     0
  9
$TDCREATE
 40
2458168.977187905
  9
$TDUCREATE
 40
2458168.935521238
  9
$TDUPDATE
 40
2458168.977188079
  9
$TDUUPDATE
 40
2458168.935521412
  9
$TDINDWG
 40
0.0000000116
  9
$TDUSRTIMER
 40
0.0000000116
  9
$USRTIMER
 70
     1
  9
$ANGBASE
 50
0.0
  9
$ANGDIR
 70
     0
  9
$PDMODE
 70
     0
  9
$PDSIZE
 40
0.0
  9
$PLINEWID
 40
0.0
  9
$SPLFRAME
 70
     0
  9
$SPLINETYPE
 70
     6
  9
$SPLINESEGS
 70
     8
  9
$HANDSEED
  5
26E
  9
$SURFTAB1
 70
     6
  9
$SURFTAB2
 70
     6
  9
$SURFTYPE
 70
     6
  9
$SURFU
 70
     6
  9
$SURFV
 70
     6
  9
$UCSBASE
  2

  9
$UCSNAME
  2

  9
$UCSORG
 10
0.0
 20
0.0
 30
0.0
  9
$UCSXDIR
 10
1.0
 20
0.0
 30
0.0
  9
$UCSYDIR
 10
0.0
 20
1.0
 30
0.0
  9
$UCSORTHOREF
  2

  9
$UCSORTHOVIEW
 70
     0
  9
$UCSORGTOP
 10
0.0
 20
0.0
 30
0.0
  9
$UCSORGBOTTOM
 10
0.0
 20
0.0
 30
0.0
  9
$UCSORGLEFT
 10
0.0
 20
0.0
 30
0.0
  9
$UCSORGRIGHT
 10
0.0
 20
0.0
 30
0.0
  9
$UCSORGFRONT
 10
0.0
 20
0.0
 30
0.0
  9
$UCSORGBACK
 10
0.0
 20
0.0
 30
0.0
  9
$PUCSBASE
  2

  9
$PUCSNAME
  2

  9
$PUCSORG
 10
0.0
 20
0.0
 30
0.0
  9
$PUCSXDIR
 10
1.0
 20
0.0
 30
0.0
  9
$PUCSYDIR
 10
0.0
 20
1.0
 30
0.0
  9
$PUCSORTHOREF
  2

  9
$PUCSORTHOVIEW
 70
     0
  9
$PUCSORGTOP
 10
0.0
 20
0.0
 30
0.0
  9
$PUCSORGBOTTOM
 10
0.0
 20
0.0
 30
0.0
  9
$PUCSORGLEFT
 10
0.0
 20
0.0
 30
0.0
  9
$PUCSORGRIGHT
 10
0.0
 20
0.0
 30
0.0
  9
$PUCSORGFRONT
 10
0.0
 20
0.0
 30
0.0
  9
$PUCSORGBACK
 10
0.0
 20
0.0
 30
0.0
  9
$USERI1
 70
     0
  9
$USERI2
 70
     0
  9
$USERI3
 70
     0
  9
$USERI4
 70
     0
  9
$USERI5
 70
     0
  9
$USERR1
 40
0.0
  9
$USERR2
 40
0.0
  9
$USERR3
 40
0.0
  9
$USERR4
 40
0.0
  9
$USERR5
 40
0.0
  9
$WORLDVIEW
 70
     1
  9
$SHADEDGE
 70
     3
  9
$SHADEDIF
 70
    70
  9
$TILEMODE
 70
     1
  9
$MAXACTVP
 70
    64
  9
$PINSBASE
 10
0.0
 20
0.0
 30
0.0
  9
$PLIMCHECK
 70
     0
  9
$PEXTMIN
 10
1.000000000000000E+20
 20
1.000000000000000E+20
 30
1.000000000000000E+20
  9
$PEXTMAX
 10
-1.000000000000000E+20
 20
-1.000000000000000E+20
 30
-1.000000000000000E+20
  9
$PLIMMIN
 10
0.0
 20
0.0
  9
$PLIMMAX
 10
12.0
 20
9.0
  9
$UNITMODE
 70
     0
  9
$VISRETAIN
 70
     1
  9
$PLINEGEN
 70
     0
  9
$PSLTSCALE
 70
     1
  9
$TREEDEPTH
 70
  3020
  9
$CMLSTYLE
  2
Standard
  9
$CMLJUST
 70
     0
  9
$CMLSCALE
 40
1.0
  9
$PROXYGRAPHICS
 70
     1
  9
$MEASUREMENT
 70
     0
  9
$CELWEIGHT
370
    -1
  9
$ENDCAPS
280
     0
  9
$JOINSTYLE
280
     0
  9
$LWDISPLAY
290
     0
  9
$INSUNITS
 70
     1
  9
$HYPERLINKBASE
  1

  9
$STYLESHEET
  1

  9
$XEDIT
290
     1
  9
$CEPSNTYPE
380
     0
  9
$PSTYLEMODE
290
     1
  9
$FINGERPRINTGUID
  2
{8D68A4C3-096F-45C3-9932-766E0B4F80CE}
  9
$VERSIONGUID
  2
{FAEB1C32-E019-11D5-929B-00C0DF256EC4}
  9
$EXTNAMES
290
     1
  9
$PSVPSCALE
 40
0.0
  9
$OLESTARTUP
290
     0
  9
$SORTENTS
280
   127
  9
$INDEXCTL
280
     0
  9
$HIDETEXT
280
     1
  9
$XCLIPFRAME
280
     2
  9
$HALOGAP
280
     0
  9
$OBSCOLOR
 70
   257
  9
$OBSLTYPE
280
     0
  9
$INTERSECTIONDISPLAY
280
     0
  9
$INTERSECTIONCOLOR
 70
   257
  9
$DIMASSOC
280
     2
  9
$PROJECTNAME
  1

  9
$CAMERADISPLAY
290
     0
  9
$LENSLENGTH
 40
50.0
  9
$CAMERAHEIGHT
 40
0.0
  9
$STEPSPERSEC
 40
2.0
  9
$STEPSIZE
 40
6.0
  9
$3DDWFPREC
 40
2.0
  9
$PSOLWIDTH
 40
0.25
  9
$PSOLHEIGHT
 40
4.0
  9
$LOFTANG1
 40
1.570796326794897
  9
$LOFTANG2
 40
1.570796326794897
  9
$LOFTMAG1
 40
0.0
  9
$LOFTMAG2
 40
0.0
  9
$LOFTPARAM
 70
     7
  9
$LOFTNORMALS
280
     1
  9
$LATITUDE
 40
37.795
  9
$LONGITUDE
 40
-122.394
  9
$NORTHDIRECTION
 40
0.0
  9
$TIMEZONE
 70
 -8000
  9
$LIGHTGLYPHDISPLAY
280
     1
  9
$TILEMODELIGHTSYNCH
280
     1
  9
$CMATERIAL
347
44
  9
$SOLIDHIST
280
     0
  9
$SHOWHIST
280
     1
  9
$DWFFRAME
280
     2
  9
$DGNFRAME
280
     2
  9
$REALWORLDSCALE
290
     1
  9
$INTERFERECOLOR
 62
   256
  9
$CSHADOW
280
     0
  9
$SHADOWPLANELOCATION
 40
0.0
  0
ENDSEC
  0
SECTION
  2
CLASSES
  0
CLASS
  1
ACDBDICTIONARYWDFLT
  2
AcDbDictionaryWithDefault
  3
ObjectDBX Classes
 90
        0
 91
        4
280
     0
281
     0
  0
CLASS
  1
VISUALSTYLE
  2
AcDbVisualStyle
  3
ObjectDBX Classes
 90
     4095
 91
        4
280
     0
281
     0
  0
CLASS
  1
MATERIAL
  2
AcDbMaterial
  3
ObjectDBX Classes
 90
     1153
 91
        4
280
     0
281
     0
  0
CLASS
  1
SCALE
  2
AcDbScale
  3
ObjectDBX Classes
 90
     1153
 91
        4
280
     0
281
     0
  0
CLASS
  1
TABLESTYLE
  2
AcDbTableStyle
  3
ObjectDBX Classes
 90
     4095
 91
        4
280
     0
281
     0
  0
CLASS
  1
MLEADERSTYLE
  2
AcDbMLeaderStyle
  3
ACDB_MLEADERSTYLE_CLASS
 90
     4095
 91
        4
280
     0
281
     0
  0
CLASS
  1
SUN
  2
AcDbSun
  3
SCENEOE
 90
     1153
 91
        4
280
     0
281
     0
  0
CLASS
  1
DICTIONARYVAR
  2
AcDbDictionaryVar
  3
ObjectDBX Classes
 90
        0
 91
        4
280
     0
281
     0
  0
CLASS
  1
CELLSTYLEMAP
  2
AcDbCellStyleMap
  3
ObjectDBX Classes
 90
     1152
 91
        4
280
     0
281
     0
  0
ENDSEC
  0
SECTION
  2
TABLES
  0
TABLE
  2
VPORT
  5
8
330
0
100
AcDbSymbolTable
 70
     1
  0
VPORT
  5
29
330
8
100
AcDbSymbolTableRecord
100
AcDbViewportTableRecord
  2
*Active
 70
     0
 10
0.0
 20
0.0
 11
1.0
 21
1.0
 12
-0.0050781250000007
 22
0.4656249999999993
 13
0.0
 23
0.0
 14
0.5
 24
0.5
 15
0.5
 25
0.5
 16
0.0
 26
0.0
 36
1.0
 17
0.0
 27
0.0
 37
0.0
 40
5.922374999999999
 41
0.4398546824542515
 42
50.0
 43
0.0
 44
0.0
 50
0.0
 51
0.0
 71
     0
 72
   100
 73
     1
 74
     3
 75
     0
 76
     0
 77
     0
 78
     0
281
     0
 65
     1
110
0.0
120
0.0
130
0.0
111
1.0
121
0.0
131
0.0
112
0.0
122
1.0
132
0.0
 79
     0
146
0.0
348
2F
 60
     3
 61
     5
292
     1
282
     1
141
0.0
142
0.0
 63
   250
361
6D
  0
ENDTAB
  0
TABLE
  2
LTYPE
  5
5
330
0
100
AcDbSymbolTable
 70
     3
  0
LTYPE
  5
14
330
5
100
AcDbSymbolTableRecord
100
AcDbLinetypeTableRecord
  2
ByBlock
 70
     0
  3

 72
    65
 73
     0
 40
0.0
  0
LTYPE
  5
15
330
5
100
AcDbSymbolTableRecord
100
AcDbLinetypeTableRecord
  2
ByLayer
 70
     0
  3

 72
    65
 73
     0
 40
0.0
  0
LTYPE
  5
16
330
5
100
AcDbSymbolTableRecord
100
AcDbLinetypeTableRecord
  2
Continuous
 70
     0
  3
Solid line
 72
    65
 73
     0
 40
0.0
  0
LTYPE
  5
A5
330
5
100
AcDbSymbolTableRecord
100
AcDbLinetypeTableRecord
  2
Dashed
 70
     0
  3

 72
    65
 73
     2
 40
2.0
 49
1.0
 74
     0
 49
-1.0
 74
     0
  0
LTYPE
  5
11F
330
5
100
AcDbSymbolTableRecord
100
AcDbLinetypeTableRecord
  2
Center
 70
     0
  3

 72
    65
 73
     4
 40
1.5
 49
0.45
 74
     0
 49
-0.5
 74
     0
 49
0.05
 74
     0
 49
-0.5
 74
     0
  0
ENDTAB
  0
TABLE
  2
LAYER
  5
2
330
0
100
AcDbSymbolTable
 70
     7
  0
LAYER
  5
10
330
2
100
AcDbSymbolTableRecord
100
AcDbLayerTableRecord
  2
0
 70
     0
 62
     7
  6
Continuous
370
    -3
390
F
347
46
348
0
  0
LAYER
  5
72
330
2
100
AcDbSymbolTableRecord
100
AcDbLayerTableRecord
  2
AM_6
 70
     0
 62
    -2
  6
Continuous
370
    35
390
F
347
46
348
0
  0
LAYER
  5
A6
330
2
100
AcDbSymbolTableRecord
100
AcDbLayerTableRecord
  2
AM_9
 70
     0
 62
     6
  6
Dashed
370
    25
390
F
347
46
348
0
  0
LAYER
  5
120
330
2
100
AcDbSymbolTableRecord
100
AcDbLayerTableRecord
  2
AM_7
 70
     0
 62
     7
  6
Center
370
    25
390
F
347
46
348
0
  0
LAYER
  5
122
330
2
100
AcDbSymbolTableRecord
100
AcDbLayerTableRecord
  2
AM_4
 70
     0
 62
     7
  6
Continuous
370
    50
390
F
347
46
348
0
  0
LAYER
  5
12C
330
2
100
AcDbSymbolTableRecord
100
AcDbLayerTableRecord
  2
AM_5
 70
     0
 62
     3
  6
Continuous
370
    25
390
F
347
46
348
0
  0
LAYER
  5
260
330
2
100
AcDbSymbolTableRecord
100
AcDbLayerTableRecord
  2
ConnectionPoints
 70
     0
 62
     7
  6
Continuous
370
    50
390
F
347
46
348
0
  0
ENDTAB
  0
TABLE
  2
STYLE
  5
3
330
0
100
AcDbSymbolTable
 70
     1
  0
STYLE
  5
11
330
3
100
AcDbSymbolTableRecord
100
AcDbTextStyleTableRecord
  2
Standard
 70
     0
 40
0.0
 41
1.0
 50
0.0
 71
     0
 42
0.2
  3
txt
  4

  0
ENDTAB
  0
TABLE
  2
VIEW
  5
6
330
0
100
AcDbSymbolTable
 70
     0
  0
ENDTAB
  0
TABLE
  2
UCS
  5
7
330
0
100
AcDbSymbolTable
 70
     0
  0
ENDTAB
  0
TABLE
  2
APPID
  5
9
330
0
100
AcDbSymbolTable
 70
     1
  0
APPID
  5
12
330
9
100
AcDbSymbolTableRecord
100
AcDbRegAppTableRecord
  2
ACAD
 70
     0
  0
ENDTAB
  0
TABLE
  2
DIMSTYLE
  5
A
330
0
100
AcDbSymbolTable
 70
     1
100
AcDbDimStyleTable
  0
DIMSTYLE
105
27
330
A
100
AcDbSymbolTableRecord
100
AcDbDimStyleTableRecord
  2
Standard
 70
     0
178
     0
340
11
  0
ENDTAB
  0
TABLE
  2
BLOCK_RECORD
  5
1
330
0
100
AcDbSymbolTable
 70
     5
  0
BLOCK_RECORD
  5
1F
330
1
100
AcDbSymbolTableRecord
100
AcDbBlockTableRecord
  2
*Model_Space
340
22
 70
     0
280
     1
281
     0
  0
BLOCK_RECORD
  5
1B
330
1
100
AcDbSymbolTableRecord
100
AcDbBlockTableRecord
  2
*Paper_Space
340
1E
 70
     0
280
     1
281
     0
  0
BLOCK_RECORD
  5
23
330
1
100
AcDbSymbolTableRecord
100
AcDbBlockTableRecord
  2
*Paper_Space0
340
26
 70
     0
280
     1
281
     0
  0
BLOCK_RECORD
  5
6E
330
1
100
AcDbSymbolTableRecord
100
AcDbBlockTableRecord
  2
1_129199_2
340
0
102
{BLKREFS
331
6F
102
}
 70
     0
280
     1
281
     0
  0
BLOCK_RECORD
  5
8F
330
1
100
AcDbSymbolTableRecord
100
AcDbBlockTableRecord
  2
2_129524I_0_in_129199_2
340
0
102
{BLKREFS
331
90
102
}
 70
     0
280
     1
281
     0
  0
BLOCK_RECORD
  5
D4
330
1
100
AcDbSymbolTableRecord
100
AcDbBlockTableRecord
  2
3_129932_0_in_129199_2
340
0
102
{BLKREFS
331
D5
102
}
 70
     0
280
     1
281
     0
  0
BLOCK_RECORD
  5
12E
330
1
100
AcDbSymbolTableRecord
100
AcDbBlockTableRecord
  2
4_129440I_0_in_129199_2
340
0
102
{BLKREFS
331
12F
102
}
 70
     0
280
     1
281
     0
  0
ENDTAB
  0
ENDSEC
  0
SECTION
  2
BLOCKS
  0
BLOCK
  5
20
330
1F
100
AcDbEntity
  8
0
100
AcDbBlockBegin
  2
*Model_Space
 70
     0
 10
0.0
 20
0.0
 30
0.0
  3
*Model_Space
  1

  0
ENDBLK
  5
21
330
1F
100
AcDbEntity
  8
0
100
AcDbBlockEnd
  0
BLOCK
  5
1C
330
1B
100
AcDbEntity
 67
     1
  8
0
100
AcDbBlockBegin
  2
*Paper_Space
 70
     0
 10
0.0
 20
0.0
 30
0.0
  3
*Paper_Space
  1

  0
ENDBLK
  5
1D
330
1B
100
AcDbEntity
 67
     1
  8
0
100
AcDbBlockEnd
  0
BLOCK
  5
24
330
23
100
AcDbEntity
  8
0
100
AcDbBlockBegin
  2
*Paper_Space0
 70
     0
 10
0.0
 20
0.0
 30
0.0
  3
*Paper_Space0
  1

  0
ENDBLK
  5
25
330
23
100
AcDbEntity
  8
0
100
AcDbBlockEnd
  0
BLOCK
  5
70
330
6E
100
AcDbEntity
  8
0
100
AcDbBlockBegin
  2
1_129199_2
 70
     2
 10
0.0
 20
0.0
 30
0.0
  3
1_129199_2
  1

  0
ATTDEF
  5
73
330
6E
100
AcDbEntity
  8
AM_6
100
AcDbText
 10
6.271875
 20
3.368749999999999
 30
0.0
 40
0.5
  1
Grip Tight Low Backing Height Two-Bolt Pillow Block Inch Bore
100
AcDbAttributeDefinition
  3

  2
NN
 70
     8
280
     0
  0
ATTDEF
  5
74
330
6E
100
AcDbEntity
  8
AM_6
100
AcDbText
 10
6.271875
 20
2.868749999999999
 30
0.0
 40
0.5
  1
GTB Normal Duty Pillow Blocks
100
AcDbAttributeDefinition
  3

  2
NT
 70
     8
280
     0
  0
ATTDEF
  5
75
330
6E
100
AcDbEntity
  8
AM_6
100
AcDbText
 10
6.271875
 20
2.368749999999999
 30
0.0
 40
0.5
  1
129199
100
AcDbAttributeDefinition
  3

  2
NB
 70
     8
280
     0
  0
ATTDEF
  5
76
330
6E
100
AcDbEntity
  8
AM_6
100
AcDbText
 10
6.271875
 20
1.868749999999999
 30
0.0
 40
0.5
  1
$PN.$LUBE.
100
AcDbAttributeDefinition
  3

  2
NBSYN
 70
     8
280
     0
  0
ATTDEF
  5
77
330
6E
100
AcDbEntity
  8
AM_6
100
AcDbText
 10
6.271875
 20
1.368749999999999
 30
0.0
 40
0.5
  1
129199
100
AcDbAttributeDefinition
  3

  2
LINA
 70
     8
280
     0
  0
ATTDEF
  5
78
330
6E
100
AcDbEntity
  8
AM_6
100
AcDbText
 10
6.271875
 20
0.8687499999999995
 30
0.0
 40
0.5
  1
211
100
AcDbAttributeDefinition
  3

  2
SERIES
 70
     8
280
     0
  0
ATTDEF
  5
79
330
6E
100
AcDbEntity
  8
AM_6
100
AcDbText
 10
6.271875
 20
0.3687499999999995
 30
0.0
 40
0.5
  1
2
100
AcDbAttributeDefinition
  3

  2
SS
 70
     8
280
     0
  0
ATTDEF
  5
7A
330
6E
100
AcDbEntity
  8
AM_6
100
AcDbText
 10
6.271875
 20
-0.1312500000000005
 30
0.0
 40
0.5
  1
129199
100
AcDbAttributeDefinition
  3

  2
PN
 70
     8
280
     0
  0
ATTDEF
  5
7B
330
6E
100
AcDbEntity
  8
AM_6
100
AcDbText
 10
6.271875
 20
-0.6312500000000005
 30
0.0
 40
0.5
  1
P2B-GTB-200L
100
AcDbAttributeDefinition
  3

  2
DESCRIPTION
 70
     8
280
     0
  0
ATTDEF
  5
7C
330
6E
100
AcDbEntity
  8
AM_6
100
AcDbText
 10
6.271875
 20
-1.131250000000001
 30
0.0
 40
0.5
  1
1-59/64
100
AcDbAttributeDefinition
  3

  2
A
 70
     8
280
     0
  0
ATTDEF
  5
7D
330
6E
100
AcDbEntity
  8
AM_6
100
AcDbText
 10
6.271875
 20
-1.631250000000001
 30
0.0
 40
0.5
  1
8-7/8
100
AcDbAttributeDefinition
  3

  2
B
 70
     8
280
     0
  0
ATTDEF
  5
7E
330
6E
100
AcDbEntity
  8
AM_6
100
AcDbText
 10
6.271875
 20
-2.131250000000001
 30
0.0
 40
0.5
  1
2-5/16
100
AcDbAttributeDefinition
  3

  2
C
 70
     8
280
     0
  0
ATTDEF
  5
7F
330
6E
100
AcDbEntity
  8
AM_6
100
AcDbText
 10
6.271875
 20
-2.631250000000001
 30
0.0
 40
0.5
  1
6-3/8
100
AcDbAttributeDefinition
  3

  2
DMIN
 70
     8
280
     0
  0
ATTDEF
  5
80
330
6E
100
AcDbEntity
  8
AM_6
100
AcDbText
 10
6.271875
 20
-3.131250000000001
 30
0.0
 40
0.5
  1
7-7/16
100
AcDbAttributeDefinition
  3

  2
DMAX
 70
     8
280
     0
  0
ATTDEF
  5
81
330
6E
100
AcDbEntity
  8
AM_6
100
AcDbText
 10
6.271875
 20
-3.631250000000001
 30
0.0
 40
0.5
  1
5/8
100
AcDbAttributeDefinition
  3

  2
F
 70
     8
280
     0
  0
ATTDEF
  5
82
330
6E
100
AcDbEntity
  8
AM_6
100
AcDbText
 10
6.271875
 20
-4.131250000000001
 30
0.0
 40
0.5
  1
1-7/32
100
AcDbAttributeDefinition
  3

  2
G
 70
     8
280
     0
  0
ATTDEF
  5
83
330
6E
100
AcDbEntity
  8
AM_6
100
AcDbText
 10
6.271875
 20
-4.631250000000001
 30
0.0
 40
0.5
  1
51/64
100
AcDbAttributeDefinition
  3

  2
H
 70
     8
280
     0
  0
ATTDEF
  5
84
330
6E
100
AcDbEntity
  8
AM_6
100
AcDbText
 10
6.271875
 20
-5.131250000000001
 30
0.0
 40
0.5
  1
4-7/8
100
AcDbAttributeDefinition
  3

  2
J
 70
     8
280
     0
  0
ATTDEF
  5
85
330
6E
100
AcDbEntity
  8
AM_6
100
AcDbText
 10
6.271875
 20
-5.631250000000001
 30
0.0
 40
0.5
  1
3-1/4
100
AcDbAttributeDefinition
  3

  2
L
 70
     8
280
     0
  0
ATTDEF
  5
86
330
6E
100
AcDbEntity
  8
AM_6
100
AcDbText
 10
6.271875
 20
-6.131250000000001
 30
0.0
 40
0.5
  1
2-7/16
100
AcDbAttributeDefinition
  3

  2
M
 70
     8
280
     0
  0
ATTDEF
  5
87
330
6E
100
AcDbEntity
  8
AM_6
100
AcDbText
 10
6.271875
 20
-6.631250000000001
 30
0.0
 40
0.5
  1
45/64
100
AcDbAttributeDefinition
  3

  2
R
 70
     8
280
     0
  0
ATTDEF
  5
88
330
6E
100
AcDbEntity
  8
AM_6
100
AcDbText
 10
6.271875
 20
-7.131250000000001
 30
0.0
 40
0.5
  1
1-7/32
100
AcDbAttributeDefinition
  3

  2
S
 70
     8
280
     0
  0
ATTDEF
  5
89
330
6E
100
AcDbEntity
  8
AM_6
100
AcDbText
 10
6.271875
 20
-7.631250000000001
 30
0.0
 40
0.5
  1
3-15/16
100
AcDbAttributeDefinition
  3

  2
U
 70
     8
280
     0
  0
ATTDEF
  5
8A
330
6E
100
AcDbEntity
  8
AM_6
100
AcDbText
 10
6.271875
 20
-8.131250000000001
 30
0.0
 40
0.5
  1
7-7/8
100
AcDbAttributeDefinition
  3

  2
V
 70
     8
280
     0
  0
ATTDEF
  5
8B
330
6E
100
AcDbEntity
  8
AM_6
100
AcDbText
 10
6.271875
 20
-8.631250000000001
 30
0.0
 40
0.5
  1
13/16
100
AcDbAttributeDefinition
  3

  2
W
 70
     8
280
     0
  0
ATTDEF
  5
8C
330
6E
100
AcDbEntity
  8
AM_6
100
AcDbText
 10
6.271875
 20
-9.131250000000001
 30
0.0
 40
0.5
  1
3/16
100
AcDbAttributeDefinition
  3

  2
X
 70
     8
280
     0
  0
ATTDEF
  5
8D
330
6E
100
AcDbEntity
  8
AM_6
100
AcDbText
 10
6.271875
 20
-9.631250000000001
 30
0.0
 40
0.5
  1
1-3/16
100
AcDbAttributeDefinition
  3

  2
Z
 70
     8
280
     0
  0
ATTDEF
  5
8E
330
6E
100
AcDbEntity
  8
AM_6
100
AcDbText
 10
6.271875
 20
-10.13125
 30
0.0
 40
0.5
  1
baldor
100
AcDbAttributeDefinition
  3

  2
COMPANY
 70
     8
280
     0
  0
INSERT
  5
90
330
6E
100
AcDbEntity
  8
0
100
AcDbBlockReference
  2
2_129524I_0_in_129199_2
 10
0.0
 20
0.0
 30
0.0
  0
INSERT
  5
D5
330
6E
100
AcDbEntity
  8
0
100
AcDbBlockReference
  2
3_129932_0_in_129199_2
 10
0.0
 20
0.0
 30
0.0
  0
INSERT
  5
12F
330
6E
100
AcDbEntity
  8
0
100
AcDbBlockReference
  2
4_129440I_0_in_129199_2
 10
0.0
 20
0.0
 30
0.0
  0
ENDBLK
  5
71
330
6E
100
AcDbEntity
  8
0
100
AcDbBlockEnd
  0
BLOCK
  5
91
330
8F
100
AcDbEntity
  8
0
100
AcDbBlockBegin
  2
2_129524I_0_in_129199_2
 70
     2
 10
0.0
 20
0.0
 30
0.0
  3
2_129524I_0_in_129199_2
  1

  0
ATTDEF
  5
93
330
8F
100
AcDbEntity
  8
AM_6
100
AcDbText
 10
5.603
 20
1.968362852357559
 30
0.0
 40
0.5
  1
INS-GT B
100
AcDbAttributeDefinition
  3

  2
NN
 70
     8
280
     0
  0
ATTDEF
  5
94
330
8F
100
AcDbEntity
  8
AM_6
100
AcDbText
 10
5.603
 20
1.468362852357559
 30
0.0
 40
0.5
  1
GT Normal Duty Bearing Inserts
100
AcDbAttributeDefinition
  3

  2
NT
 70
     8
280
     0
  0
ATTDEF
  5
95
330
8F
100
AcDbEntity
  8
AM_6
100
AcDbText
 10
5.603
 20
0.9683628523575589
 30
0.0
 40
0.5
  1
129524I
100
AcDbAttributeDefinition
  3

  2
NB
 70
     8
280
     0
  0
ATTDEF
  5
96
330
8F
100
AcDbEntity
  8
AM_6
100
AcDbText
 10
5.603
 20
0.4683628523575589
 30
0.0
 40
0.5
  1
$PN.I
100
AcDbAttributeDefinition
  3

  2
NBSYN
 70
     8
280
     0
  0
ATTDEF
  5
97
330
8F
100
AcDbEntity
  8
AM_6
100
AcDbText
 10
5.603
 20
-0.0316371476424411
 30
0.0
 40
0.5
  1
129524
100
AcDbAttributeDefinition
  3

  2
LINA
 70
     8
280
     0
  0
ATTDEF
  5
98
330
8F
100
AcDbEntity
  8
AM_6
100
AcDbText
 10
5.603
 20
-0.5316371476424411
 30
0.0
 40
0.5
  1
211
100
AcDbAttributeDefinition
  3

  2
SERIES
 70
     8
280
     0
  0
ATTDEF
  5
99
330
8F
100
AcDbEntity
  8
AM_6
100
AcDbText
 10
5.603
 20
-1.031637147642441
 30
0.0
 40
0.5
  1
129524
100
AcDbAttributeDefinition
  3

  2
PN
 70
     8
280
     0
  0
ATTDEF
  5
9A
330
8F
100
AcDbEntity
  8
AM_6
100
AcDbText
 10
5.603
 20
-1.531637147642441
 30
0.0
 40
0.5
  1
INS-GT-11
100
AcDbAttributeDefinition
  3

  2
DESCRIPTION
 70
     8
280
     0
  0
ATTDEF
  5
9B
330
8F
100
AcDbEntity
  8
AM_6
100
AcDbText
 10
5.603
 20
-2.031637147642441
 30
0.0
 40
0.5
  1
1.93
100
AcDbAttributeDefinition
  3

  2
A
 70
     8
280
     0
  0
ATTDEF
  5
9C
330
8F
100
AcDbEntity
  8
AM_6
100
AcDbText
 10
5.603
 20
-2.531637147642441
 30
0.0
 40
0.5
  1
0.87
100
AcDbAttributeDefinition
  3

  2
C
 70
     8
280
     0
  0
ATTDEF
  5
9D
330
8F
100
AcDbEntity
  8
AM_6
100
AcDbText
 10
5.603
 20
-3.031637147642441
 30
0.0
 40
0.5
  1
3.9370
100
AcDbAttributeDefinition
  3

  2
D
 70
     8
280
     0
  0
ATTDEF
  5
9E
330
8F
100
AcDbEntity
  8
AM_6
100
AcDbText
 10
5.603
 20
-3.531637147642441
 30
0.0
 40
0.5
  1
0.25
100
AcDbAttributeDefinition
  3

  2
J
 70
     8
280
     0
  0
ATTDEF
  5
9F
330
8F
100
AcDbEntity
  8
AM_6
100
AcDbText
 10
5.603
 20
-4.031637147642441
 30
0.0
 40
0.5
  1
3.43
100
AcDbAttributeDefinition
  3

  2
L
 70
     8
280
     0
  0
ATTDEF
  5
A0
330
8F
100
AcDbEntity
  8
AM_6
100
AcDbText
 10
5.603
 20
-4.531637147642441
 30
0.0
 40
0.5
  1
#10 - 32 x 1/4
100
AcDbAttributeDefinition
  3

  2
N
 70
     8
280
     0
  0
ATTDEF
  5
A1
330
8F
100
AcDbEntity
  8
AM_6
100
AcDbText
 10
5.603
 20
-5.031637147642441
 30
0.0
 40
0.5
  1
0.67000
100
AcDbAttributeDefinition
  3

  2
W
 70
     8
280
     0
  0
ATTDEF
  5
A2
330
8F
100
AcDbEntity
  8
AM_6
100
AcDbText
 10
5.603
 20
-5.531637147642441
 30
0.0
 40
0.5
  1
1.32
100
AcDbAttributeDefinition
  3

  2
X
 70
     8
280
     0
  0
ATTDEF
  5
A3
330
8F
100
AcDbEntity
  8
AM_6
100
AcDbText
 10
5.603
 20
-6.031637147642441
 30
0.0
 40
0.5
  1
1.26
100
AcDbAttributeDefinition
  3

  2
Y
 70
     8
280
     0
  0
ATTDEF
  5
A4
330
8F
100
AcDbEntity
  8
AM_6
100
AcDbText
 10
5.603
 20
-6.531637147642441
 30
0.0
 40
0.5
  1
baldor
100
AcDbAttributeDefinition
  3

  2
COMPANY
 70
     8
280
     0
  0
LINE
  5
A7
330
8F
100
AcDbEntity
  8
AM_9
100
AcDbLine
 10
-0.9899991617983235
 20
-1.279444346444444
 30
0.0
 11
-0.4949991617983232
 21
-1.279444346444444
 31
0.0
  0
LINE
  5
A8
330
8F
100
AcDbEntity
  8
AM_9
100
AcDbLine
 10
-0.4949991617983232
 20
1.279444346444444
 30
0.0
 11
-0.9899991617983235
 21
1.279444346444444
 31
0.0
  0
LINE
  5
A9
330
8F
100
AcDbEntity
  8
AM_9
100
AcDbLine
 10
-0.4949991617983232
 20
1.279444346444444
 30
0.0
 11
-0.4949991617983232
 21
-1.279444346444444
 31
0.0
  0
LINE
  5
AA
330
8F
100
AcDbEntity
  8
AM_9
100
AcDbLine
 10
-0.4949991617983232
 20
-1.279444346444444
 30
0.0
 11
0.6030000000000002
 21
-1.317787322075736
 31
0.0
  0
LINE
  5
AB
330
8F
100
AcDbEntity
  8
AM_9
100
AcDbLine
 10
0.6030000000000002
 20
1.317787322075736
 30
0.0
 11
-0.4949991617983232
 21
1.279444346444444
 31
0.0
  0
LINE
  5
AC
330
8F
100
AcDbEntity
  8
AM_9
100
AcDbLine
 10
-0.8249991617983236
 20
-1.401944395444444
 30
0.0
 11
-0.6599991617983235
 21
-1.401944395444444
 31
0.0
  0
LINE
  5
AD
330
8F
100
AcDbEntity
  8
AM_9
100
AcDbLine
 10
-0.6599991617983235
 20
1.401944395444444
 30
0.0
 11
-0.8249991617983236
 21
1.401944395444444
 31
0.0
  0
LINE
  5
AE
330
8F
100
AcDbEntity
  8
AM_9
100
AcDbLine
 10
-0.8249991617983236
 20
1.524444444444444
 30
0.0
 11
-0.8249991617983236
 21
-1.524444444444444
 31
0.0
  0
LINE
  5
AF
330
8F
100
AcDbEntity
  8
AM_9
100
AcDbLine
 10
-0.9551991617983236
 20
-1.524444444444444
 30
0.0
 11
-0.8249991617983236
 21
-1.524444444444444
 31
0.0
  0
LINE
  5
B0
330
8F
100
AcDbEntity
  8
AM_9
100
AcDbLine
 10
-0.8249991617983236
 20
1.524444444444444
 30
0.0
 11
-0.9551991617983236
 21
1.524444444444444
 31
0.0
  0
LINE
  5
B1
330
8F
100
AcDbEntity
  8
AM_9
100
AcDbLine
 10
0.603
 20
1.489644444444445
 30
0.0
 11
0.603
 21
-1.489644444444445
 31
0.0
  0
LINE
  5
B2
330
8F
100
AcDbEntity
  8
AM_9
100
AcDbLine
 10
0.603
 20
1.489644444444445
 30
0.0
 11
0.5682
 21
1.524444444444444
 31
0.0
  0
LINE
  5
B3
330
8F
100
AcDbEntity
  8
AM_9
100
AcDbLine
 10
0.5682
 20
-1.524444444444444
 30
0.0
 11
0.603
 21
-1.489644444444445
 31
0.0
  0
LINE
  5
B4
330
8F
100
AcDbEntity
  8
AM_9
100
AcDbLine
 10
-0.9899991617983235
 20
1.489644444444445
 30
0.0
 11
-0.9899991617983235
 21
-1.489644444444445
 31
0.0
  0
LINE
  5
B5
330
8F
100
AcDbEntity
  8
AM_9
100
AcDbLine
 10
-0.9551991617983236
 20
1.524444444444444
 30
0.0
 11
-0.9551991617983236
 21
-1.524444444444444
 31
0.0
  0
LINE
  5
B6
330
8F
100
AcDbEntity
  8
AM_9
100
AcDbLine
 10
-0.9899991617983235
 20
-1.489644444444445
 30
0.0
 11
-0.9551991617983236
 21
-1.524444444444444
 31
0.0
  0
LINE
  5
B7
330
8F
100
AcDbEntity
  8
AM_9
100
AcDbLine
 10
-0.9551991617983236
 20
1.524444444444444
 30
0.0
 11
-0.9899991617983235
 21
1.489644444444445
 31
0.0
  0
LINE
  5
B8
330
8F
100
AcDbEntity
  8
AM_9
100
AcDbLine
 10
0.5682
 20
1.524444444444444
 30
0.0
 11
0.5682
 21
-1.524444444444444
 31
0.0
  0
LINE
  5
B9
330
8F
100
AcDbEntity
  8
AM_9
100
AcDbLine
 10
0.435
 20
-1.524444444444444
 30
0.0
 11
0.5682
 21
-1.524444444444444
 31
0.0
  0
LINE
  5
BA
330
8F
100
AcDbEntity
  8
AM_9
100
AcDbLine
 10
0.5682
 20
1.524444444444444
 30
0.0
 11
0.435
 21
1.524444444444444
 31
0.0
  0
LINE
  5
BB
330
8F
100
AcDbEntity
  8
AM_9
100
AcDbLine
 10
-0.6599991617983235
 20
1.524444444444444
 30
0.0
 11
-0.6599991617983235
 21
-1.524444444444444
 31
0.0
  0
LINE
  5
BC
330
8F
100
AcDbEntity
  8
AM_9
100
AcDbLine
 10
-0.6599991617983235
 20
-1.524444444444444
 30
0.0
 11
-0.435
 21
-1.524444444444444
 31
0.0
  0
LINE
  5
BD
330
8F
100
AcDbEntity
  8
AM_9
100
AcDbLine
 10
-0.435
 20
1.524444444444444
 30
0.0
 11
-0.6599991617983235
 21
1.524444444444444
 31
0.0
  0
LINE
  5
BE
330
8F
100
AcDbEntity
  8
AM_9
100
AcDbLine
 10
-0.3000000000000001
 20
-1.8815
 30
0.0
 11
-0.2
 21
-1.8815
 31
0.0
  0
LINE
  5
BF
330
8F
100
AcDbEntity
  8
AM_9
100
AcDbLine
 10
-0.2
 20
1.8815
 30
0.0
 11
-0.3000000000000001
 21
1.8815
 31
0.0
  0
LINE
  5
C0
330
8F
100
AcDbEntity
  8
AM_9
100
AcDbLine
 10
-0.4349999999999997
 20
1.858036329583617
 30
0.0
 11
-0.4349999999999997
 21
-1.858036329583311
 31
0.0
  0
ARC
  5
C1
330
8F
100
AcDbEntity
  8
AM_9
100
AcDbCircle
 10
-0.4002000000000005
 20
-1.858036329583617
 30
0.0
 40
0.0347999999999992
100
AcDbArc
 50
180.0
 51
248.5875329531165
  0
ARC
  5
C2
330
8F
100
AcDbEntity
  8
AM_9
100
AcDbCircle
 10
-0.4002000000000005
 20
1.858036329583617
 30
0.0
 40
0.0347999999999993
100
AcDbArc
 50
111.4124670468834
 51
180.0
  0
LINE
  5
C3
330
8F
100
AcDbEntity
  8
AM_9
100
AcDbLine
 10
0.435
 20
1.858036329583617
 30
0.0
 11
0.435
 21
-1.858036329583311
 31
0.0
  0
ARC
  5
C4
330
8F
100
AcDbEntity
  8
AM_9
100
AcDbCircle
 10
0.4001999999999993
 20
-1.858036329583617
 30
0.0
 40
0.0348000000000007
100
AcDbArc
 50
291.4124594571506
 51
0.0
  0
ARC
  5
C5
330
8F
100
AcDbEntity
  8
AM_9
100
AcDbCircle
 10
0.4001999999999993
 20
1.858036329583617
 30
0.0
 40
0.0348000000000007
100
AcDbArc
 50
0.0
 51
68.58754054284945
  0
LINE
  5
C6
330
8F
100
AcDbEntity
  8
AM_9
100
AcDbLine
 10
-0.4129047619047618
 20
1.890434308300557
 30
0.0
 11
-0.4129047619047618
 21
-1.890434308300557
 31
0.0
  0
ARC
  5
C7
330
8F
100
AcDbEntity
  8
AM_9
100
AcDbCircle
 10
-0.0000000000000198
 20
-0.8375000000000514
 30
0.0
 40
1.130999999999945
100
AcDbArc
 50
248.5875329531159
 51
254.0344016634143
  0
ARC
  5
C8
330
8F
100
AcDbEntity
  8
AM_9
100
AcDbCircle
 10
0.0000000000000009
 20
0.8374999999999901
 30
0.0
 40
1.13100000000001
100
AcDbArc
 50
105.9655983365859
 51
111.4124670468839
  0
LINE
  5
C9
330
8F
100
AcDbEntity
  8
AM_9
100
AcDbLine
 10
-0.3110930219747757
 20
1.924873961284066
 30
0.0
 11
-0.3110930219747757
 21
-1.924873961284066
 31
0.0
  0
LINE
  5
CA
330
8F
100
AcDbEntity
  8
AM_9
100
AcDbLine
 10
-0.3000000000000001
 20
1.916509545833585
 30
0.0
 11
-0.3000000000000001
 21
-1.916509545829897
 31
0.0
  0
ARC
  5
CB
330
8F
100
AcDbEntity
  8
AM_9
100
AcDbCircle
 10
-0.3087000000000003
 20
-1.916509545833585
 30
0.0
 40
0.0087000000000001
100
AcDbArc
 50
254.0344103709567
 51
0.0
  0
ARC
  5
CC
330
8F
100
AcDbEntity
  8
AM_9
100
AcDbCircle
 10
-0.3087000000000003
 20
1.916509545833585
 30
0.0
 40
0.0087000000000002
100
AcDbArc
 50
0.0
 51
105.9655896290433
  0
LINE
  5
CD
330
8F
100
AcDbEntity
  8
AM_9
100
AcDbLine
 10
-0.2
 20
1.943375942409455
 30
0.0
 11
-0.2
 21
-1.943375942409016
 31
0.0
  0
ARC
  5
CE
330
8F
100
AcDbEntity
  8
AM_9
100
AcDbCircle
 10
-0.1912999999999994
 20
-1.943375942409454
 30
0.0
 40
0.0087000000000006
100
AcDbArc
 50
180.0
 51
260.1858105424271
  0
ARC
  5
CF
330
8F
100
AcDbEntity
  8
AM_9
100
AcDbCircle
 10
-0.1912999999999994
 20
1.943375942409454
 30
0.0
 40
0.0087000000000007
100
AcDbArc
 50
99.81418945757288
 51
180.0
  0
LINE
  5
D0
330
8F
100
AcDbEntity
  8
AM_9
100
AcDbLine
 10
-0.192782945736434
 20
1.951948624133559
 30
0.0
 11
-0.192782945736434
 21
-1.951948624133559
 31
0.0
  0
LINE
  5
D1
330
8F
100
AcDbEntity
  8
AM_9
100
AcDbLine
 10
0.4129047576131359
 20
1.890434309983504
 30
0.0
 11
0.412904757613136
 21
-1.890434309983504
 31
0.0
  0
ARC
  5
D2
330
8F
100
AcDbEntity
  8
AM_9
100
AcDbCircle
 10
-0.0000000000000019
 20
-0.8374999999999768
 30
0.0
 40
1.131000000000023
100
AcDbArc
 50
260.1858105424296
 51
291.4124668133534
  0
ARC
  5
D3
330
8F
100
AcDbEntity
  8
AM_9
100
AcDbCircle
 10
-0.0000000000000001
 20
0.8374999999999961
 30
0.0
 40
1.131000000000004
100
AcDbArc
 50
68.58753318664631
 51
99.81418945757062
  0
ENDBLK
  5
92
330
8F
100
AcDbEntity
  8
0
100
AcDbBlockEnd
  0
BLOCK
  5
D6
330
D4
100
AcDbEntity
  8
0
100
AcDbBlockBegin
  2
3_129932_0_in_129199_2
 70
     2
 10
0.0
 20
0.0
 30
0.0
  3
3_129932_0_in_129199_2
  1

  0
ATTDEF
  5
D8
330
D4
100
AcDbEntity
  8
AM_6
100
AcDbText
 10
5.703125
 20
1.625
 30
0.0
 40
0.5
  1
Grip Tight Normal Duty Adapter and Nut Inch Bore
100
AcDbAttributeDefinition
  3

  2
NN
 70
     8
280
     0
  0
ATTDEF
  5
D9
330
D4
100
AcDbEntity
  8
AM_6
100
AcDbText
 10
5.703125
 20
1.125
 30
0.0
 40
0.5
  1
GT and GTM Adapter & Lock Nut Assemblies
100
AcDbAttributeDefinition
  3

  2
NT
 70
     8
280
     0
  0
ATTDEF
  5
DA
330
D4
100
AcDbEntity
  8
AM_6
100
AcDbText
 10
5.703125
 20
0.625
 30
0.0
 40
0.5
  1
129932
100
AcDbAttributeDefinition
  3

  2
NB
 70
     8
280
     0
  0
ATTDEF
  5
DB
330
D4
100
AcDbEntity
  8
AM_6
100
AcDbText
 10
5.703125
 20
0.125
 30
0.0
 40
0.5
  1
$PN.
100
AcDbAttributeDefinition
  3

  2
NBSYN
 70
     8
280
     0
  0
ATTDEF
  5
DC
330
D4
100
AcDbEntity
  8
AM_6
100
AcDbText
 10
5.703125
 20
-0.375
 30
0.0
 40
0.5
  1
129932
100
AcDbAttributeDefinition
  3

  2
LINA
 70
     8
280
     0
  0
ATTDEF
  5
DD
330
D4
100
AcDbEntity
  8
AM_6
100
AcDbText
 10
5.703125
 20
-0.875
 30
0.0
 40
0.5
  1
211
100
AcDbAttributeDefinition
  3

  2
SERIES
 70
     8
280
     0
  0
ATTDEF
  5
DE
330
D4
100
AcDbEntity
  8
AM_6
100
AcDbText
 10
5.703125
 20
-1.375
 30
0.0
 40
0.5
  1
2
100
AcDbAttributeDefinition
  3

  2
SS
 70
     8
280
     0
  0
ATTDEF
  5
DF
330
D4
100
AcDbEntity
  8
AM_6
100
AcDbText
 10
5.703125
 20
-1.875
 30
0.0
 40
0.5
  1
129932
100
AcDbAttributeDefinition
  3

  2
PN
 70
     8
280
     0
  0
ATTDEF
  5
E0
330
D4
100
AcDbEntity
  8
AM_6
100
AcDbText
 10
5.703125
 20
-2.375
 30
0.0
 40
0.5
  1
AN-GTM-11-200
100
AcDbAttributeDefinition
  3

  2
DESCRIPTION
 70
     8
280
     0
  0
ATTDEF
  5
E1
330
D4
100
AcDbEntity
  8
AM_6
100
AcDbText
 10
5.703125
 20
-2.875
 30
0.0
 40
0.5
  1
1-59/64
100
AcDbAttributeDefinition
  3

  2
A
 70
     8
280
     0
  0
ATTDEF
  5
E2
330
D4
100
AcDbEntity
  8
AM_6
100
AcDbText
 10
5.703125
 20
-3.375
 30
0.0
 40
0.5
  1
0.9449
100
AcDbAttributeDefinition
  3

  2
C
 70
     8
280
     0
  0
ATTDEF
  5
E3
330
D4
100
AcDbEntity
  8
AM_6
100
AcDbText
 10
5.703125
 20
-3.875
 30
0.0
 40
0.5
  1
3.9370
100
AcDbAttributeDefinition
  3

  2
D
 70
     8
280
     0
  0
ATTDEF
  5
E4
330
D4
100
AcDbEntity
  8
AM_6
100
AcDbText
 10
5.703125
 20
-4.375
 30
0.0
 40
0.5
  1
0.267
100
AcDbAttributeDefinition
  3

  2
J
 70
     8
280
     0
  0
ATTDEF
  5
E5
330
D4
100
AcDbEntity
  8
AM_6
100
AcDbText
 10
5.703125
 20
-4.875
 30
0.0
 40
0.5
  1
3-1/4
100
AcDbAttributeDefinition
  3

  2
L
 70
     8
280
     0
  0
ATTDEF
  5
E6
330
D4
100
AcDbEntity
  8
AM_6
100
AcDbText
 10
5.703125
 20
-5.375
 30
0.0
 40
0.5
  1
10 - 32 x 1/4
100
AcDbAttributeDefinition
  3

  2
N
 70
     8
280
     0
  0
ATTDEF
  5
E7
330
D4
100
AcDbEntity
  8
AM_6
100
AcDbText
 10
5.703125
 20
-5.875
 30
0.0
 40
0.5
  1
45/64
100
AcDbAttributeDefinition
  3

  2
W
 70
     8
280
     0
  0
ATTDEF
  5
E8
330
D4
100
AcDbEntity
  8
AM_6
100
AcDbText
 10
5.703125
 20
-6.375
 30
0.0
 40
0.5
  1
1-3/16
100
AcDbAttributeDefinition
  3

  2
X
 70
     8
280
     0
  0
ATTDEF
  5
E9
330
D4
100
AcDbEntity
  8
AM_6
100
AcDbText
 10
5.703125
 20
-6.875
 30
0.0
 40
0.5
  1
1-7/32
100
AcDbAttributeDefinition
  3

  2
Y
 70
     8
280
     0
  0
ATTDEF
  5
EA
330
D4
100
AcDbEntity
  8
AM_6
100
AcDbText
 10
5.703125
 20
-7.375
 30
0.0
 40
0.5
  1
baldor
100
AcDbAttributeDefinition
  3

  2
COMPANY
 70
     8
280
     0
  0
LWPOLYLINE
  5
EB
330
D4
100
AcDbEntity
  8
AM_9
100
AcDbPolyline
 90
        7
 70
     0
 43
0.0
 10
-1.149704
 20
0.0623981609553294
 10
-1.157043710292973
 20
0.0401264555278246
 10
-1.161403128296046
 20
0.0156699007615675
 10
-1.162028444031562
 20
-0.0070207816722861
 10
-1.159251590400473
 20
-0.0303283341884596
 10
-1.155196414435241
 20
-0.0467469384874531
 10
-1.149704
 20
-0.0623981609553275
  0
LWPOLYLINE
  5
EC
330
D4
100
AcDbEntity
  8
AM_9
100
AcDbPolyline
 90
       13
 70
     0
 43
0.0
 10
-0.9970027942341709
 20
0.0455078231242328
 10
-1.003286804385852
 20
0.0549144837497562
 10
-1.013593128888682
 20
0.0663477919689286
 10
-1.025620077186234
 20
0.0759579789895793
 10
-1.039429077224968
 20
0.0836627525199564
 10
-1.054310784080917
 20
0.0890191123815799
 10
-1.070250301000364
 20
0.091908313626811
 10
-1.08644906843248
 20
0.0921365691811654
 10
-1.10265533669707
 20
0.0896155670876469
 10
-1.118210154453928
 20
0.0844232053549709
 10
-1.132611637601485
 20
0.076676470324815
 10
-1.145485480593903
 20
0.0665985493088592
 10
-1.149704
 20
0.0623981609553294
  0
LWPOLYLINE
  5
ED
330
D4
100
AcDbEntity
  8
AM_9
100
AcDbPolyline
 90
       12
 70
     0
 43
0.0
 10
-1.149704
 20
-0.0623981609553275
 10
-1.138228057559186
 20
-0.0727144953633314
 10
-1.125235635605578
 20
-0.0810453110921731
 10
-1.110580239983255
 20
-0.0873327405209543
 10
-1.095092531235281
 20
-0.0911457023254238
 10
-1.078850241988437
 20
-0.092360000062879
 10
-1.062630658739067
 20
-0.090873958086211
 10
-1.04677115939737
 20
-0.086643826854459
 10
-1.031850580970712
 20
-0.0798112381569236
 10
-1.018425708083839
 20
-0.070593373373632
 10
-1.006771786088342
 20
-0.0592229593649447
 10
-0.9976227062611079
 20
-0.0465560044104567
  0
CIRCLE
  5
EE
330
D4
100
AcDbEntity
  8
AM_9
100
AcDbCircle
 10
-1.0796668666709
 20
0.0
 30
0.0
 40
0.0724499999999998
  0
LINE
  5
EF
330
D4
100
AcDbEntity
  8
AM_9
100
AcDbLine
 10
-1.149704
 20
0.0623981609553294
 30
0.0
 11
-1.149704
 21
0.1335
 31
0.0
  0
LINE
  5
F0
330
D4
100
AcDbEntity
  8
AM_9
100
AcDbLine
 10
-1.149704
 20
-0.1335
 30
0.0
 11
-1.149704
 21
-0.0623981609553275
 31
0.0
  0
LINE
  5
F1
330
D4
100
AcDbEntity
  8
AM_9
100
AcDbLine
 10
-0.59375
 20
1.246721624104598
 30
0.0
 11
-1.1875
 21
1.246721624104598
 31
0.0
  0
LINE
  5
F2
330
D4
100
AcDbEntity
  8
AM_9
100
AcDbLine
 10
-0.5937500000000002
 20
1.302938181927551
 30
0.0
 11
-0.6315459999999999
 21
1.335784157338066
 31
0.0
  0
LINE
  5
F3
330
D4
100
AcDbEntity
  8
AM_9
100
AcDbLine
 10
-0.6315459999999999
 20
1.335784157338066
 30
0.0
 11
-1.149704
 21
1.335784157338066
 31
0.0
  0
LINE
  5
F4
330
D4
100
AcDbEntity
  8
AM_9
100
AcDbLine
 10
-1.149704
 20
1.335784157338066
 30
0.0
 11
-1.1875
 21
1.302938181927551
 31
0.0
  0
LINE
  5
F5
330
D4
100
AcDbEntity
  8
AM_9
100
AcDbLine
 10
-0.59375
 20
-1.246721624104599
 30
0.0
 11
-1.1875
 21
-1.246721624104599
 31
0.0
  0
LINE
  5
F6
330
D4
100
AcDbEntity
  8
AM_9
100
AcDbLine
 10
-1.1875
 20
-1.302938181927551
 30
0.0
 11
-1.149704
 21
-1.335784157338066
 31
0.0
  0
LINE
  5
F7
330
D4
100
AcDbEntity
  8
AM_9
100
AcDbLine
 10
-1.149704
 20
-1.335784157338066
 30
0.0
 11
-0.6315459999999999
 21
-1.335784157338066
 31
0.0
  0
LINE
  5
F8
330
D4
100
AcDbEntity
  8
AM_9
100
AcDbLine
 10
-0.6315459999999999
 20
-1.335784157338066
 30
0.0
 11
-0.5937500000000002
 21
-1.302938181927551
 31
0.0
  0
LINE
  5
F9
330
D4
100
AcDbEntity
  8
AM_9
100
AcDbLine
 10
-0.59375
 20
1.380221624104598
 30
0.0
 11
-1.1875
 21
1.380221624104598
 31
0.0
  0
LINE
  5
FA
330
D4
100
AcDbEntity
  8
AM_9
100
AcDbLine
 10
-0.59375
 20
-1.380221624104598
 30
0.0
 11
-1.1875
 21
-1.380221624104598
 31
0.0
  0
ARC
  5
FB
330
D4
100
AcDbEntity
  8
AM_9
100
AcDbCircle
 10
-0.3946875000000002
 20
1.224176587301586
 30
0.0
 40
0.0118749999999987
100
AcDbArc
 50
270.0
 51
292.3996407151301
  0
LINE
  5
FC
330
D4
100
AcDbEntity
  8
AM_9
100
AcDbLine
 10
-1.15625
 20
1.212301587301587
 30
0.0
 11
-1.15625
 21
-1.212301587301587
 31
0.0
  0
LINE
  5
FD
330
D4
100
AcDbEntity
  8
AM_9
100
AcDbLine
 10
-0.890625
 20
1.212301587301587
 30
0.0
 11
-1.1875
 21
1.212301587301587
 31
0.0
  0
LINE
  5
FE
330
D4
100
AcDbEntity
  8
AM_9
100
AcDbLine
 10
0.703125
 20
0.9987492177719091
 30
0.0
 11
-1.15625
 21
0.9987492177719091
 31
0.0
  0
LINE
  5
FF
330
D4
100
AcDbEntity
  8
AM_9
100
AcDbLine
 10
-1.15625
 20
-1.0
 30
0.0
 11
0.7031249999999999
 21
-1.0
 31
0.0
  0
LINE
  5
100
330
D4
100
AcDbEntity
  8
AM_9
100
AcDbLine
 10
-1.1875
 20
-1.212301587301587
 30
0.0
 11
-1.15625
 21
-1.212301587301587
 31
0.0
  0
LINE
  5
101
330
D4
100
AcDbEntity
  8
AM_9
100
AcDbLine
 10
-0.8906249999999999
 20
1.211270051876932
 30
0.0
 11
-0.4453124999999991
 21
1.211270051876933
 31
0.0
  0
LINE
  5
102
330
D4
100
AcDbEntity
  8
AM_9
100
AcDbLine
 10
-0.8906249999999999
 20
-1.212301587301587
 30
0.0
 11
-0.4453124999999991
 21
-1.212301587301587
 31
0.0
  0
LINE
  5
103
330
D4
100
AcDbEntity
  8
AM_9
100
AcDbLine
 10
0.703125
 20
1.251407431527677
 30
0.0
 11
0.703125
 21
-1.252405908514766
 31
0.0
  0
LINE
  5
104
330
D4
100
AcDbEntity
  8
AM_9
100
AcDbLine
 10
-0.4453124999999991
 20
1.211270051876933
 30
0.0
 11
-0.4157983036560035
 21
1.212301587301587
 31
0.0
  0
LINE
  5
105
330
D4
100
AcDbEntity
  8
AM_9
100
AcDbLine
 10
-0.4453124999999991
 20
1.211270051876933
 30
0.0
 11
-0.4453124999999991
 21
-1.212301587301587
 31
0.0
  0
LINE
  5
106
330
D4
100
AcDbEntity
  8
AM_9
100
AcDbLine
 10
-0.3901623581268892
 20
1.2131975747764
 30
0.0
 11
0.703125
 21
1.251407431527677
 31
0.0
  0
LINE
  5
107
330
D4
100
AcDbEntity
  8
AM_9
100
AcDbLine
 10
-0.4453124999999991
 20
-1.212301587301587
 30
0.0
 11
0.703125
 21
-1.252405908514766
 31
0.0
  0
LINE
  5
108
330
D4
100
AcDbEntity
  8
AM_9
100
AcDbLine
 10
-0.388309751332055
 20
1.214292167148217
 30
0.0
 11
-0.4453124999999991
 21
1.212301587301587
 31
0.0
  0
LINE
  5
109
330
D4
100
AcDbEntity
  8
AM_9
100
AcDbLine
 10
-0.4453125000002503
 20
1.212301587301587
 30
0.0
 11
-0.3946875000000002
 21
1.212301587301587
 31
0.0
  0
LWPOLYLINE
  5
10A
330
D4
100
AcDbEntity
  8
AM_9
100
AcDbPolyline
 90
        3
 70
     0
 43
0.0
 10
-0.3880949197421631
 20
1.214299669232407
 10
-0.3881863488489035
 20
1.214239250701139
 10
-0.3901623581268855
 20
1.213197574776401
  0
LINE
  5
10B
330
D4
100
AcDbEntity
  8
AM_9
100
AcDbLine
 10
-0.7421875
 20
-1.328373015873015
 30
0.0
 11
-0.59375
 21
-1.328373015873015
 31
0.0
  0
LINE
  5
10C
330
D4
100
AcDbEntity
  8
AM_9
100
AcDbLine
 10
-0.59375
 20
1.328373015873015
 30
0.0
 11
-0.7421875
 21
1.328373015873015
 31
0.0
  0
LINE
  5
10D
330
D4
100
AcDbEntity
  8
AM_9
100
AcDbLine
 10
-0.7421875
 20
1.444444444444444
 30
0.0
 11
-0.7421875
 21
-1.444444444444444
 31
0.0
  0
LINE
  5
10E
330
D4
100
AcDbEntity
  8
AM_9
100
AcDbLine
 10
-0.8906249999999999
 20
1.444444444444444
 30
0.0
 11
-0.8906249999999999
 21
-1.444444444444444
 31
0.0
  0
LINE
  5
10F
330
D4
100
AcDbEntity
  8
AM_9
100
AcDbLine
 10
-0.8906249999999999
 20
-1.444444444444444
 30
0.0
 11
-0.7421875
 21
-1.444444444444444
 31
0.0
  0
LINE
  5
110
330
D4
100
AcDbEntity
  8
AM_9
100
AcDbLine
 10
-0.7421875
 20
1.444444444444444
 30
0.0
 11
-0.8906249999999999
 21
1.444444444444444
 31
0.0
  0
LINE
  5
111
330
D4
100
AcDbEntity
  8
AM_9
100
AcDbLine
 10
-0.59375
 20
0.1335
 30
0.0
 11
-0.9828926881119403
 21
0.1335
 31
0.0
  0
LINE
  5
112
330
D4
100
AcDbEntity
  8
AM_9
100
AcDbLine
 10
-1.149704
 20
1.469284157338066
 30
0.0
 11
-0.6315459999999999
 21
1.469284157338066
 31
0.0
  0
LINE
  5
113
330
D4
100
AcDbEntity
  8
AM_9
100
AcDbLine
 10
-0.6315459999999999
 20
1.625
 30
0.0
 11
-0.8456150503731341
 21
1.625
 31
0.0
  0
LINE
  5
114
330
D4
100
AcDbEntity
  8
AM_9
100
AcDbLine
 10
-0.5937500000000002
 20
-1.436438181927551
 30
0.0
 11
-0.6315459999999999
 21
-1.469284157338066
 31
0.0
  0
LINE
  5
115
330
D4
100
AcDbEntity
  8
AM_9
100
AcDbLine
 10
-1.007467364126866
 20
-0.1335
 30
0.0
 11
-0.59375
 21
-0.1335
 31
0.0
  0
LINE
  5
116
330
D4
100
AcDbEntity
  8
AM_9
100
AcDbLine
 10
-0.6315459999999999
 20
-1.625
 30
0.0
 11
-0.59375
 21
-1.587204
 31
0.0
  0
LINE
  5
117
330
D4
100
AcDbEntity
  8
AM_9
100
AcDbLine
 10
-1.1875
 20
1.43643818192755
 30
0.0
 11
-1.149704
 21
1.469284157338066
 31
0.0
  0
LINE
  5
118
330
D4
100
AcDbEntity
  8
AM_9
100
AcDbLine
 10
-0.6315459999999999
 20
1.469284157338066
 30
0.0
 11
-0.5937500000000002
 21
1.43643818192755
 31
0.0
  0
LINE
  5
119
330
D4
100
AcDbEntity
  8
AM_9
100
AcDbLine
 10
-0.59375
 20
1.587204
 30
0.0
 11
-0.6315459999999999
 21
1.625
 31
0.0
  0
LINE
  5
11A
330
D4
100
AcDbEntity
  8
AM_9
100
AcDbLine
 10
-0.59375
 20
1.587204
 30
0.0
 11
-0.59375
 21
-1.587204
 31
0.0
  0
LINE
  5
11B
330
D4
100
AcDbEntity
  8
AM_9
100
AcDbLine
 10
-0.6315459999999999
 20
1.625
 30
0.0
 11
-0.6315459999999999
 21
-1.625
 31
0.0
  0
LINE
  5
11C
330
D4
100
AcDbEntity
  8
AM_9
100
AcDbLine
 10
-1.149704
 20
-1.469284157338066
 30
0.0
 11
-1.1875
 21
-1.436438181927551
 31
0.0
  0
LINE
  5
11D
330
D4
100
AcDbEntity
  8
AM_9
100
AcDbLine
 10
-0.6315459999999999
 20
-1.469284157338066
 30
0.0
 11
-1.149704
 21
-1.469284157338066
 31
0.0
  0
LINE
  5
11E
330
D4
100
AcDbEntity
  8
AM_9
100
AcDbLine
 10
-1.144745001865669
 20
-1.625
 30
0.0
 11
-0.6315459999999999
 21
-1.625
 31
0.0
  0
LINE
  5
121
330
D4
100
AcDbEntity
  8
AM_7
100
AcDbLine
 10
-1.0796668666709
 20
-0.0997499999999999
 30
0.0
 11
-1.0796668666709
 21
0.0997499999999999
 31
0.0
  0
LINE
  5
123
330
D4
100
AcDbEntity
  8
AM_4
100
AcDbLine
 10
-0.9828926881119403
 20
0.1335
 30
0.0
 11
-1.1875
 21
0.1335
 31
0.0
  0
LINE
  5
124
330
D4
100
AcDbEntity
  8
AM_4
100
AcDbLine
 10
-0.8456150503731341
 20
1.625
 30
0.0
 11
-1.149704
 21
1.625
 31
0.0
  0
LINE
  5
125
330
D4
100
AcDbEntity
  8
AM_4
100
AcDbLine
 10
-1.149704
 20
1.625
 30
0.0
 11
-1.1875
 21
1.587204
 31
0.0
  0
LINE
  5
126
330
D4
100
AcDbEntity
  8
AM_4
100
AcDbLine
 10
-1.149704
 20
1.625
 30
0.0
 11
-1.149704
 21
0.1335
 31
0.0
  0
LINE
  5
127
330
D4
100
AcDbEntity
  8
AM_4
100
AcDbLine
 10
-1.1875
 20
-0.1335
 30
0.0
 11
-1.007467364126866
 21
-0.1335
 31
0.0
  0
LINE
  5
128
330
D4
100
AcDbEntity
  8
AM_4
100
AcDbLine
 10
-1.1875
 20
1.587204
 30
0.0
 11
-1.1875
 21
-1.587204
 31
0.0
  0
LINE
  5
129
330
D4
100
AcDbEntity
  8
AM_4
100
AcDbLine
 10
-1.1875
 20
-1.587204
 30
0.0
 11
-1.149704
 21
-1.625
 31
0.0
  0
LINE
  5
12A
330
D4
100
AcDbEntity
  8
AM_4
100
AcDbLine
 10
-1.149704
 20
-0.1335
 30
0.0
 11
-1.149704
 21
-1.625
 31
0.0
  0
LINE
  5
12B
330
D4
100
AcDbEntity
  8
AM_4
100
AcDbLine
 10
-1.149704
 20
-1.625
 30
0.0
 11
-1.144745001865669
 21
-1.625
 31
0.0
  0
ARC
  5
12D
330
D4
100
AcDbEntity
  8
AM_5
100
AcDbCircle
 10
-1.0796668666709
 20
0.0000000000000002
 30
0.0
 40
0.0949999999999999
100
AcDbArc
 50
74.99999999999979
 51
14.99999999999982
  0
ENDBLK
  5
D7
330
D4
100
AcDbEntity
  8
0
100
AcDbBlockEnd
  0
BLOCK
  5
130
330
12E
100
AcDbEntity
  8
0
100
AcDbBlockBegin
  2
4_129440I_0_in_129199_2
 70
     2
 10
0.0
 20
0.0
 30
0.0
  3
4_129440I_0_in_129199_2
  1

  0
ATTDEF
  5
132
330
12E
100
AcDbEntity
  8
AM_6
100
AcDbText
 10
6.271875
 20
3.368749999999999
 30
0.0
 40
0.5
  1
GTB-I
100
AcDbAttributeDefinition
  3

  2
NN
 70
     8
280
     0
  0
ATTDEF
  5
133
330
12E
100
AcDbEntity
  8
AM_6
100
AcDbText
 10
6.271875
 20
2.868749999999999
 30
0.0
 40
0.5
  1
GTB Normal Duty Pillow Blocks
100
AcDbAttributeDefinition
  3

  2
NT
 70
     8
280
     0
  0
ATTDEF
  5
134
330
12E
100
AcDbEntity
  8
AM_6
100
AcDbText
 10
6.271875
 20
2.368749999999999
 30
0.0
 40
0.5
  1
129440I
100
AcDbAttributeDefinition
  3

  2
NB
 70
     8
280
     0
  0
ATTDEF
  5
135
330
12E
100
AcDbEntity
  8
AM_6
100
AcDbText
 10
6.271875
 20
1.868749999999999
 30
0.0
 40
0.5
  1
$PN.$LUBE.I
100
AcDbAttributeDefinition
  3

  2
NBSYN
 70
     8
280
     0
  0
ATTDEF
  5
136
330
12E
100
AcDbEntity
  8
AM_6
100
AcDbText
 10
6.271875
 20
1.368749999999999
 30
0.0
 40
0.5
  1
129440
100
AcDbAttributeDefinition
  3

  2
LINA
 70
     8
280
     0
  0
ATTDEF
  5
137
330
12E
100
AcDbEntity
  8
AM_6
100
AcDbText
 10
6.271875
 20
0.8687499999999995
 30
0.0
 40
0.5
  1
211
100
AcDbAttributeDefinition
  3

  2
SERIES
 70
     8
280
     0
  0
ATTDEF
  5
138
330
12E
100
AcDbEntity
  8
AM_6
100
AcDbText
 10
6.271875
 20
0.3687499999999995
 30
0.0
 40
0.5
  1
129440
100
AcDbAttributeDefinition
  3

  2
PN
 70
     8
280
     0
  0
ATTDEF
  5
139
330
12E
100
AcDbEntity
  8
AM_6
100
AcDbText
 10
6.271875
 20
-0.1312500000000005
 30
0.0
 40
0.5
  1
P2B-GTB-11
100
AcDbAttributeDefinition
  3

  2
DESCRIPTION
 70
     8
280
     0
  0
ATTDEF
  5
13A
330
12E
100
AcDbEntity
  8
AM_6
100
AcDbText
 10
6.271875
 20
-0.6312500000000005
 30
0.0
 40
0.5
  1
1-59/64
100
AcDbAttributeDefinition
  3

  2
A
 70
     8
280
     0
  0
ATTDEF
  5
13B
330
12E
100
AcDbEntity
  8
AM_6
100
AcDbText
 10
6.271875
 20
-1.131250000000001
 30
0.0
 40
0.5
  1
8-7/8
100
AcDbAttributeDefinition
  3

  2
B
 70
     8
280
     0
  0
ATTDEF
  5
13C
330
12E
100
AcDbEntity
  8
AM_6
100
AcDbText
 10
6.271875
 20
-1.631250000000001
 30
0.0
 40
0.5
  1
2-5/16
100
AcDbAttributeDefinition
  3

  2
C
 70
     8
280
     0
  0
ATTDEF
  5
13D
330
12E
100
AcDbEntity
  8
AM_6
100
AcDbText
 10
6.271875
 20
-2.131250000000001
 30
0.0
 40
0.5
  1
6-3/8
100
AcDbAttributeDefinition
  3

  2
DMIN
 70
     8
280
     0
  0
ATTDEF
  5
13E
330
12E
100
AcDbEntity
  8
AM_6
100
AcDbText
 10
6.271875
 20
-2.631250000000001
 30
0.0
 40
0.5
  1
7-7/16
100
AcDbAttributeDefinition
  3

  2
DMAX
 70
     8
280
     0
  0
ATTDEF
  5
13F
330
12E
100
AcDbEntity
  8
AM_6
100
AcDbText
 10
6.271875
 20
-3.131250000000001
 30
0.0
 40
0.5
  1
5/8
100
AcDbAttributeDefinition
  3

  2
F
 70
     8
280
     0
  0
ATTDEF
  5
140
330
12E
100
AcDbEntity
  8
AM_6
100
AcDbText
 10
6.271875
 20
-3.631250000000001
 30
0.0
 40
0.5
  1
1-7/32
100
AcDbAttributeDefinition
  3

  2
G
 70
     8
280
     0
  0
ATTDEF
  5
141
330
12E
100
AcDbEntity
  8
AM_6
100
AcDbText
 10
6.271875
 20
-4.131250000000001
 30
0.0
 40
0.5
  1
11/16
100
AcDbAttributeDefinition
  3

  2
H
 70
     8
280
     0
  0
ATTDEF
  5
142
330
12E
100
AcDbEntity
  8
AM_6
100
AcDbText
 10
6.271875
 20
-4.631250000000001
 30
0.0
 40
0.5
  1
4-7/8
100
AcDbAttributeDefinition
  3

  2
J
 70
     8
280
     0
  0
ATTDEF
  5
143
330
12E
100
AcDbEntity
  8
AM_6
100
AcDbText
 10
6.271875
 20
-5.131250000000001
 30
0.0
 40
0.5
  1
3-1/4
100
AcDbAttributeDefinition
  3

  2
L
 70
     8
280
     0
  0
ATTDEF
  5
144
330
12E
100
AcDbEntity
  8
AM_6
100
AcDbText
 10
6.271875
 20
-5.631250000000001
 30
0.0
 40
0.5
  1
2-7/16
100
AcDbAttributeDefinition
  3

  2
M
 70
     8
280
     0
  0
ATTDEF
  5
145
330
12E
100
AcDbEntity
  8
AM_6
100
AcDbText
 10
6.271875
 20
-6.131250000000001
 30
0.0
 40
0.5
  1
45/64
100
AcDbAttributeDefinition
  3

  2
R
 70
     8
280
     0
  0
ATTDEF
  5
146
330
12E
100
AcDbEntity
  8
AM_6
100
AcDbText
 10
6.271875
 20
-6.631250000000001
 30
0.0
 40
0.5
  1
1-7/32
100
AcDbAttributeDefinition
  3

  2
S
 70
     8
280
     0
  0
ATTDEF
  5
147
330
12E
100
AcDbEntity
  8
AM_6
100
AcDbText
 10
6.271875
 20
-7.131250000000001
 30
0.0
 40
0.5
  1
3-15/16
100
AcDbAttributeDefinition
  3

  2
U
 70
     8
280
     0
  0
ATTDEF
  5
148
330
12E
100
AcDbEntity
  8
AM_6
100
AcDbText
 10
6.271875
 20
-7.631250000000001
 30
0.0
 40
0.5
  1
7-7/8
100
AcDbAttributeDefinition
  3

  2
V
 70
     8
280
     0
  0
ATTDEF
  5
149
330
12E
100
AcDbEntity
  8
AM_6
100
AcDbText
 10
6.271875
 20
-8.131250000000001
 30
0.0
 40
0.5
  1
13/16
100
AcDbAttributeDefinition
  3

  2
W
 70
     8
280
     0
  0
ATTDEF
  5
14A
330
12E
100
AcDbEntity
  8
AM_6
100
AcDbText
 10
6.271875
 20
-8.631250000000001
 30
0.0
 40
0.5
  1
3/16
100
AcDbAttributeDefinition
  3

  2
X
 70
     8
280
     0
  0
ATTDEF
  5
14B
330
12E
100
AcDbEntity
  8
AM_6
100
AcDbText
 10
6.271875
 20
-9.131250000000001
 30
0.0
 40
0.5
  1
1-3/16
100
AcDbAttributeDefinition
  3

  2
Z
 70
     8
280
     0
  0
ATTDEF
  5
14C
330
12E
100
AcDbEntity
  8
AM_6
100
AcDbText
 10
6.271875
 20
-9.631250000000001
 30
0.0
 40
0.5
  1
baldor
100
AcDbAttributeDefinition
  3

  2
COMPANY
 70
     8
280
     0
  0
LINE
  5
14D
330
12E
100
AcDbEntity
  8
AM_9
100
AcDbLine
 10
-0.0509854606030001
 20
2.415188576045464
 30
0.0
 11
0.0509853999999999
 21
2.415188576045464
 31
0.0
  0
LINE
  5
14E
330
12E
100
AcDbEntity
  8
AM_9
100
AcDbLine
 10
-0.0480720732030001
 20
2.42341011947754
 30
0.0
 11
-0.0509854606030001
 21
2.422056652780974
 31
0.0
  0
LINE
  5
14F
330
12E
100
AcDbEntity
  8
AM_9
100
AcDbLine
 10
0.0509853999999999
 20
2.422056652780975
 30
0.0
 11
0.0480719999999999
 21
2.42341011947754
 31
0.0
  0
LINE
  5
150
330
12E
100
AcDbEntity
  8
AM_9
100
AcDbLine
 10
-0.0422449047019999
 20
2.42438416880457
 30
0.0
 11
-0.0480720732030001
 21
2.42341011947754
 31
0.0
  0
LINE
  5
151
330
12E
100
AcDbEntity
  8
AM_9
100
AcDbLine
 10
0.0480719999999999
 20
2.42341011947754
 30
0.0
 11
0.0422449000000001
 21
2.424384168804569
 31
0.0
  0
LINE
  5
152
330
12E
100
AcDbEntity
  8
AM_9
100
AcDbLine
 10
-0.0335047031319002
 20
2.425013986845734
 30
0.0
 11
-0.0422449047019996
 21
2.424384168804569
 31
0.0
  0
LINE
  5
153
330
12E
100
AcDbEntity
  8
AM_9
100
AcDbLine
 10
0.0422449000000002
 20
2.424384168804569
 30
0.0
 11
0.0335047
 21
2.425013986845734
 31
0.0
  0
LINE
  5
154
330
12E
100
AcDbEntity
  8
AM_9
100
AcDbLine
 10
-0.0218508779411994
 20
2.425323060009186
 30
0.0
 11
-0.033504703131901
 21
2.425013986845734
 31
0.0
  0
LINE
  5
155
330
12E
100
AcDbEntity
  8
AM_9
100
AcDbLine
 10
0.0335047000000002
 20
2.425013986845734
 30
0.0
 11
0.0218509000000006
 21
2.425323060009185
 31
0.0
  0
LINE
  5
156
330
12E
100
AcDbEntity
  8
AM_9
100
AcDbLine
 10
0.0218509
 20
2.425323060009185
 30
0.0
 11
-0.0218508779412
 21
2.425323060009185
 31
0.0
  0
LINE
  5
157
330
12E
100
AcDbEntity
  8
AM_9
100
AcDbLine
 10
-0.0218508779412
 20
2.430686687766584
 30
0.0
 11
0.0218509
 21
2.430686687766584
 31
0.0
  0
LINE
  5
158
330
12E
100
AcDbEntity
  8
AM_9
100
AcDbLine
 10
0.0218509000000025
 20
2.430686687766584
 30
0.0
 11
0.033504699999995
 21
2.430914071743032
 31
0.0
  0
LINE
  5
159
330
12E
100
AcDbEntity
  8
AM_9
100
AcDbLine
 10
-0.0335047031319067
 20
2.430914071743033
 30
0.0
 11
-0.0218508779412061
 21
2.430686687766585
 31
0.0
  0
LINE
  5
15A
330
12E
100
AcDbEntity
  8
AM_9
100
AcDbLine
 10
-0.0422449047019988
 20
2.431357273618192
 30
0.0
 11
-0.0335047031319024
 21
2.430914071743033
 31
0.0
  0
LINE
  5
15B
330
12E
100
AcDbEntity
  8
AM_9
100
AcDbLine
 10
0.0335046999999982
 20
2.430914071743032
 30
0.0
 11
0.0422448999999976
 21
2.431357273618191
 31
0.0
  0
LINE
  5
15C
330
12E
100
AcDbEntity
  8
AM_9
100
AcDbLine
 10
0.0422448999999991
 20
2.431357273618192
 30
0.0
 11
0.0480719999999991
 21
2.43199297647463
 31
0.0
  0
LINE
  5
15D
330
12E
100
AcDbEntity
  8
AM_9
100
AcDbLine
 10
-0.0480720732030008
 20
2.43199297647463
 30
0.0
 11
-0.0422449047019996
 21
2.431357273618192
 31
0.0
  0
LINE
  5
15E
330
12E
100
AcDbEntity
  8
AM_9
100
AcDbLine
 10
-0.0509854606030002
 20
2.43278645160698
 30
0.0
 11
-0.0480720732030003
 21
2.43199297647463
 31
0.0
  0
LINE
  5
15F
330
12E
100
AcDbEntity
  8
AM_9
100
AcDbLine
 10
0.0480719999999993
 20
2.431992976474629
 30
0.0
 11
0.0509853999999997
 21
2.43278645160698
 31
0.0
  0
LINE
  5
160
330
12E
100
AcDbEntity
  8
AM_9
100
AcDbLine
 10
0.0509853999999999
 20
2.434187858789382
 30
0.0
 11
0.0480719999999999
 21
2.434795901592855
 31
0.0
  0
LINE
  5
161
330
12E
100
AcDbEntity
  8
AM_9
100
AcDbLine
 10
-0.048072073203
 20
2.434795901592855
 30
0.0
 11
-0.0509854606030001
 21
2.434187858789382
 31
0.0
  0
LINE
  5
162
330
12E
100
AcDbEntity
  8
AM_9
100
AcDbLine
 10
0.048072
 20
2.434795901592854
 30
0.0
 11
0.0422448999999999
 21
2.435211447658431
 31
0.0
  0
LINE
  5
163
330
12E
100
AcDbEntity
  8
AM_9
100
AcDbLine
 10
-0.042244904702
 20
2.435211447658431
 30
0.0
 11
-0.0480720732030001
 21
2.434795901592854
 31
0.0
  0
LINE
  5
164
330
12E
100
AcDbEntity
  8
AM_9
100
AcDbLine
 10
0.0422449
 20
2.435211447658431
 30
0.0
 11
0.0335047000000001
 21
2.435469215140814
 31
0.0
  0
LINE
  5
165
330
12E
100
AcDbEntity
  8
AM_9
100
AcDbLine
 10
-0.0335047031319003
 20
2.435469215140814
 30
0.0
 11
-0.0422449047020003
 21
2.435211447658431
 31
0.0
  0
LINE
  5
166
330
12E
100
AcDbEntity
  8
AM_9
100
AcDbLine
 10
0.0335047000000001
 20
2.435469215140814
 30
0.0
 11
-0.0335047031319009
 21
2.435469215140815
 31
0.0
  0
LINE
  5
167
330
12E
100
AcDbEntity
  8
AM_9
100
AcDbLine
 10
0.0684661
 20
2.433340941265525
 30
0.0
 11
0.0684661
 21
2.437418800928864
 31
0.0
  0
LINE
  5
168
330
12E
100
AcDbEntity
  8
AM_9
100
AcDbLine
 10
-0.068466178704
 20
2.433340941265525
 30
0.0
 11
-0.068466178704
 21
2.437418800928865
 31
0.0
  0
LINE
  5
169
330
12E
100
AcDbEntity
  8
AM_9
100
AcDbLine
 10
0.0509854
 20
2.433340941265525
 30
0.0
 11
0.0509854
 21
2.436842162780524
 31
0.0
  0
LINE
  5
16A
330
12E
100
AcDbEntity
  8
AM_9
100
AcDbLine
 10
-0.050985460603
 20
2.433340941265525
 30
0.0
 11
-0.050985460603
 21
2.436842162780524
 31
0.0
  0
LINE
  5
16B
330
12E
100
AcDbEntity
  8
AM_9
100
AcDbLine
 10
0.0655528
 20
2.434187882092093
 30
0.0
 11
0.0655528
 21
2.437245823252135
 31
0.0
  0
LINE
  5
16C
330
12E
100
AcDbEntity
  8
AM_9
100
AcDbLine
 10
-0.065552791304
 20
2.434187882092094
 30
0.0
 11
-0.065552791304
 21
2.437245823252135
 31
0.0
  0
LINE
  5
16D
330
12E
100
AcDbEntity
  8
AM_9
100
AcDbLine
 10
0.0597256
 20
2.434795907855726
 30
0.0
 11
0.0597256
 21
2.43703823222581
 31
0.0
  0
LINE
  5
16E
330
12E
100
AcDbEntity
  8
AM_9
100
AcDbLine
 10
-0.042244904702
 20
2.429981203008575
 30
0.0
 11
-0.042244904702
 21
2.436692208557244
 31
0.0
  0
LINE
  5
16F
330
12E
100
AcDbEntity
  8
AM_9
100
AcDbLine
 10
0.0422449
 20
2.429981203008573
 30
0.0
 11
0.0422449
 21
2.436692209191022
 31
0.0
  0
LINE
  5
170
330
12E
100
AcDbEntity
  8
AM_9
100
AcDbLine
 10
-0.059725622803
 20
2.434795907855727
 30
0.0
 11
-0.059725622803
 21
2.43703823222581
 31
0.0
  0
LINE
  5
171
330
12E
100
AcDbEntity
  8
AM_9
100
AcDbLine
 10
-0.050985460603
 20
2.437245823284658
 30
0.0
 11
0.0509854
 21
2.437245823284658
 31
0.0
  0
LINE
  5
172
330
12E
100
AcDbEntity
  8
AM_9
100
AcDbLine
 10
0.0335047
 20
2.429738279742077
 30
0.0
 11
0.0335047
 21
2.436594851970701
 31
0.0
  0
LINE
  5
173
330
12E
100
AcDbEntity
  8
AM_9
100
AcDbLine
 10
-0.0335047031319
 20
2.429738279742078
 30
0.0
 11
-0.0335047031319
 21
2.436594851876898
 31
0.0
  0
LINE
  5
174
330
12E
100
AcDbEntity
  8
AM_9
100
AcDbLine
 10
0.048072
 20
2.435342276452941
 30
0.0
 11
0.048072
 21
2.436769113402209
 31
0.0
  0
LINE
  5
175
330
12E
100
AcDbEntity
  8
AM_9
100
AcDbLine
 10
-0.048072073203
 20
2.43534227645294
 30
0.0
 11
-0.048072073203
 21
2.436769113402211
 31
0.0
  0
LINE
  5
176
330
12E
100
AcDbEntity
  8
AM_9
100
AcDbLine
 10
0.0364181
 20
2.3587598
 30
0.0
 11
0.0364181
 21
2.436611461098626
 31
0.0
  0
LINE
  5
177
330
12E
100
AcDbEntity
  8
AM_9
100
AcDbLine
 10
0.0218509
 20
2.3587598
 30
0.0
 11
0.0218509
 21
2.434938283553814
 31
0.0
  0
LINE
  5
178
330
12E
100
AcDbEntity
  8
AM_9
100
AcDbLine
 10
-0.0218508779412
 20
2.3587598
 30
0.0
 11
-0.0218508779412
 21
2.434938283553813
 31
0.0
  0
LINE
  5
179
330
12E
100
AcDbEntity
  8
AM_9
100
AcDbLine
 10
0.048072
 20
2.430686698675087
 30
0.0
 11
0.048072
 21
2.434026216463371
 31
0.0
  0
LINE
  5
17A
330
12E
100
AcDbEntity
  8
AM_9
100
AcDbLine
 10
-0.048072073203
 20
2.430686698675087
 30
0.0
 11
-0.048072073203
 21
2.434026216463371
 31
0.0
  0
LINE
  5
17B
330
12E
100
AcDbEntity
  8
AM_9
100
AcDbLine
 10
0.0684661
 20
2.425929485882884
 30
0.0
 11
0.0684661
 21
2.431573024887181
 31
0.0
  0
LINE
  5
17C
330
12E
100
AcDbEntity
  8
AM_9
100
AcDbLine
 10
-0.068466178704
 20
2.425929485882884
 30
0.0
 11
-0.068466178704
 21
2.431573024887181
 31
0.0
  0
LINE
  5
17D
330
12E
100
AcDbEntity
  8
AM_9
100
AcDbLine
 10
-0.050985460603
 20
2.4240634439121
 30
0.0
 11
-0.050985460603
 21
2.428727829093748
 31
0.0
  0
LINE
  5
17E
330
12E
100
AcDbEntity
  8
AM_9
100
AcDbLine
 10
0.0509854
 20
2.4240634439121
 30
0.0
 11
0.0509854
 21
2.428727829093748
 31
0.0
  0
LINE
  5
17F
330
12E
100
AcDbEntity
  8
AM_9
100
AcDbLine
 10
-0.065552791304
 20
2.3587598
 30
0.0
 11
-0.065552791304
 21
2.430455411339815
 31
0.0
  0
LINE
  5
180
330
12E
100
AcDbEntity
  8
AM_9
100
AcDbLine
 10
0.0655528
 20
2.3587598
 30
0.0
 11
0.0655528
 21
2.430455411339815
 31
0.0
  0
LINE
  5
181
330
12E
100
AcDbEntity
  8
AM_9
100
AcDbLine
 10
-0.0101970921206
 20
2.3587598
 30
0.0
 11
-0.0101970921206
 21
2.428199285816342
 31
0.0
  0
LINE
  5
182
330
12E
100
AcDbEntity
  8
AM_9
100
AcDbLine
 10
-0.042244904702
 20
2.3587598
 30
0.0
 11
-0.042244904702
 21
2.428332880179276
 31
0.0
  0
LINE
  5
183
330
12E
100
AcDbEntity
  8
AM_9
100
AcDbLine
 10
-0.0335047031319
 20
2.3587598
 30
0.0
 11
-0.0335047031319
 21
2.428199285816342
 31
0.0
  0
LINE
  5
184
330
12E
100
AcDbEntity
  8
AM_9
100
AcDbLine
 10
0.0422449
 20
2.3587598
 30
0.0
 11
0.0422449
 21
2.428359484527627
 31
0.0
  0
LINE
  5
185
330
12E
100
AcDbEntity
  8
AM_9
100
AcDbLine
 10
0.0597256
 20
2.3587598
 30
0.0
 11
0.0597256
 21
2.429491475529599
 31
0.0
  0
LINE
  5
186
330
12E
100
AcDbEntity
  8
AM_9
100
AcDbLine
 10
-0.059725622803
 20
2.3587598
 30
0.0
 11
-0.059725622803
 21
2.429491475529599
 31
0.0
  0
LINE
  5
187
330
12E
100
AcDbEntity
  8
AM_9
100
AcDbLine
 10
-0.048072073203
 20
2.3587598
 30
0.0
 11
-0.048072073203
 21
2.428465511614276
 31
0.0
  0
LINE
  5
188
330
12E
100
AcDbEntity
  8
AM_9
100
AcDbLine
 10
0.048072
 20
2.3587598
 30
0.0
 11
0.048072
 21
2.428465511614277
 31
0.0
  0
LINE
  5
189
330
12E
100
AcDbEntity
  8
AM_9
100
AcDbLine
 10
-0.036418129902
 20
2.3587598
 30
0.0
 11
-0.036418129902
 21
2.436611461098626
 31
0.0
  0
LINE
  5
18A
330
12E
100
AcDbEntity
  8
AM_9
100
AcDbLine
 10
0.00728362
 20
2.3587598
 30
0.0
 11
0.00728362
 21
2.428199285816342
 31
0.0
  0
LINE
  5
18B
330
12E
100
AcDbEntity
  8
AM_9
100
AcDbLine
 10
0.0335047
 20
2.3587598
 30
0.0
 11
0.0335047
 21
2.428199285816342
 31
0.0
  0
LINE
  5
18C
330
12E
100
AcDbEntity
  8
AM_9
100
AcDbLine
 10
-0.0043701598402
 20
2.3587598
 30
0.0
 11
-0.0043701598402
 21
2.414346703032519
 31
0.0
  0
LINE
  5
18D
330
12E
100
AcDbEntity
  8
AM_9
100
AcDbLine
 10
0.0131105
 20
2.3587598
 30
0.0
 11
0.0131105
 21
2.414346703032519
 31
0.0
  0
LINE
  5
18E
330
12E
100
AcDbEntity
  8
AM_9
100
AcDbLine
 10
-0.050985460603
 20
2.3587598
 30
0.0
 11
-0.050985460603
 21
2.412615434900264
 31
0.0
  0
LINE
  5
18F
330
12E
100
AcDbEntity
  8
AM_9
100
AcDbLine
 10
-0.068466178704
 20
2.3587598
 30
0.0
 11
-0.068466178704
 21
2.412615434900264
 31
0.0
  0
LINE
  5
190
330
12E
100
AcDbEntity
  8
AM_9
100
AcDbLine
 10
-0.068466178704
 20
2.3587598
 30
0.0
 11
0.0684661
 21
2.3587598
 31
0.0
  0
LINE
  5
191
330
12E
100
AcDbEntity
  8
AM_9
100
AcDbLine
 10
0.0509854
 20
2.3587598
 30
0.0
 11
0.0509854
 21
2.412615434900264
 31
0.0
  0
LINE
  5
192
330
12E
100
AcDbEntity
  8
AM_9
100
AcDbLine
 10
0.0684661
 20
2.3587598
 30
0.0
 11
0.0684661
 21
2.412615434900264
 31
0.0
  0
LWPOLYLINE
  5
193
330
12E
100
AcDbEntity
  8
AM_9
100
AcDbPolyline
 90
        5
 70
     0
 43
0.0
 10
0.090921409067117
 20
1.853463732200367
 10
0.0460980447457689
 20
1.850099903543988
 10
0.0008744807129147
 20
1.848848295695347
 10
-0.0450211226067939
 20
1.850043198880487
 10
-0.0909214090671168
 20
1.853463732200367
  0
LINE
  5
194
330
12E
100
AcDbEntity
  8
AM_9
100
AcDbLine
 10
-0.0909214090671168
 20
1.853463732200367
 30
0.0
 11
-0.0909214090671168
 21
1.941668235699722
 31
0.0
  0
LINE
  5
195
330
12E
100
AcDbEntity
  8
AM_9
100
AcDbLine
 10
0.090921409067117
 20
1.853463732200367
 30
0.0
 11
0.090921409067117
 21
1.941668235699722
 31
0.0
  0
LINE
  5
196
330
12E
100
AcDbEntity
  8
AM_9
100
AcDbLine
 10
-0.9866667437499997
 20
-0.8510976735956928
 30
0.0
 11
-0.9866667437499997
 21
-2.236252471339229
 31
0.0
  0
LINE
  5
197
330
12E
100
AcDbEntity
  8
AM_9
100
AcDbLine
 10
0.9866667437500003
 20
-0.8510976735956914
 30
0.0
 11
0.9866667437500003
 21
-2.23625247133923
 31
0.0
  0
LINE
  5
198
330
12E
100
AcDbEntity
  8
AM_9
100
AcDbLine
 10
-1.15625
 20
-2.267388662499999
 30
0.0
 11
1.15625
 21
-2.267388662499999
 31
0.0
  0
LINE
  5
199
330
12E
100
AcDbEntity
  8
AM_9
100
AcDbLine
 10
1.15625
 20
-2.23625247133923
 30
0.0
 11
0.9866667437500003
 21
-2.23625247133923
 31
0.0
  0
LINE
  5
19A
330
12E
100
AcDbEntity
  8
AM_9
100
AcDbLine
 10
-0.9866667437499997
 20
-2.236252471339229
 30
0.0
 11
-1.15625
 21
-2.236252471339232
 31
0.0
  0
LINE
  5
19B
330
12E
100
AcDbEntity
  8
AM_9
100
AcDbLine
 10
-0.9866667437499997
 20
-2.2083335625
 30
0.0
 11
0.9866667437500002
 21
-2.2083335625
 31
0.0
  0
LINE
  5
19C
330
12E
100
AcDbEntity
  8
AM_9
100
AcDbLine
 10
-0.110236
 20
1.737492211485206
 30
0.0
 11
-0.110236
 21
1.723570191886064
 31
0.0
  0
LINE
  5
19D
330
12E
100
AcDbEntity
  8
AM_9
100
AcDbLine
 10
0.1102360000000002
 20
1.723561524813683
 30
0.0
 11
0.1102360000000002
 21
1.737492211485206
 31
0.0
  0
LWPOLYLINE
  5
19E
330
12E
100
AcDbEntity
  8
AM_9
100
AcDbPolyline
 90
       20
 70
     0
 43
0.0
 10
0.1102359994888122
 20
1.723565272373949
 10
0.1095008518891717
 20
1.732536537109105
 10
0.1058074369134948
 20
1.74527771733587
 10
0.0991380025073269
 20
1.757321132283162
 10
0.0896376127080665
 20
1.76833319659798
 10
0.0776149921400909
 20
1.778036621921707
 10
0.0633636993060226
 20
1.786167759270362
 10
0.0473251711330741
 20
1.79253436636507
 10
0.0299315423549141
 20
1.796952043140182
 10
0.0116925262102702
 20
1.799338017518878
 10
-0.0068650513062852
 20
1.799606251154496
 10
-0.0252289820912476
 20
1.797781431854448
 10
-0.0428642641315899
 20
1.79388252248509
 10
-0.0592925829374367
 20
1.788032520419206
 10
-0.0740387069046267
 20
1.780345206995667
 10
-0.0866996325688607
 20
1.771041526423796
 10
-0.0968915379990081
 20
1.760330537024856
 10
-0.104351257479515
 20
1.748517186750399
 10
-0.1088251560142441
 20
1.735909160837107
 10
-0.1102359998288324
 20
1.723568435298526
  0
LWPOLYLINE
  5
19F
330
12E
100
AcDbEntity
  8
AM_9
100
AcDbPolyline
 90
       11
 70
     0
 43
0.0
 10
-0.1102359998288324
 20
1.723568435298526
 10
-0.1102313733508819
 20
1.722858479533024
 10
-0.1084890505149333
 20
1.709739259682838
 10
-0.1036940109239095
 20
1.69691671830406
 10
-0.09594087943095
 20
1.684772692529734
 10
-0.0854893275545192
 20
1.673658554684933
 10
-0.0725871200211722
 20
1.663920093089026
 10
-0.0576391776858541
 20
1.655847235558887
 10
-0.0410359962568198
 20
1.649716318109507
 10
-0.0232739504147563
 20
1.64569637882484
 10
0.0000000000000001
 20
1.643860639578551
  0
LWPOLYLINE
  5
1A0
330
12E
100
AcDbEntity
  8
AM_9
100
AcDbPolyline
 90
        5
 70
     0
 43
0.0
 10
0.1818428181342338
 20
1.74210820274572
 10
0.1594311359735598
 20
1.766192966874884
 10
0.1368193539571327
 20
1.792635023083886
 10
0.1138715522972784
 20
1.821935128661645
 10
0.090921409067117
 20
1.853463732200367
  0
LWPOLYLINE
  5
1A1
330
12E
100
AcDbEntity
  8
AM_9
100
AcDbPolyline
 90
        5
 70
     0
 43
0.0
 10
-0.0909214090671168
 20
1.853463732200367
 10
-0.1133330912277907
 20
1.822651310758444
 10
-0.1359448732442179
 20
1.793706038852159
 10
-0.1588926749040721
 20
1.766795739644682
 10
-0.1818428181342336
 20
1.74210820274572
  0
ELLIPSE
  5
1A2
330
12E
100
AcDbEntity
  8
AM_9
100
AcDbEllipse
 10
0.0000000000000001
 20
1.737492211485206
 30
0.0
 11
0.1574800000000005
 21
0.0
 31
0.0
210
0.0
220
0.0
230
1.0
 40
0.7071067811865478
 41
0.0
 42
6.283185307179586
  0
ELLIPSE
  5
1A3
330
12E
100
AcDbEntity
  8
AM_9
100
AcDbEllipse
 10
0.0000000000000001
 20
1.834928697505587
 30
0.0
 11
-0.110236
 21
1.642644418865006E-9
 31
0.0
210
0.0
220
0.0
230
1.0
 40
0.7071067811865485
 41
3.141592668490954
 42
6.283185322080747
  0
ELLIPSE
  5
1A4
330
12E
100
AcDbEntity
  8
AM_9
100
AcDbEllipse
 10
0.0000000000000207
 20
1.848848094494993
 30
0.0
 11
-0.1102359999985507
 21
1.350001645490328E-17
 31
0.0
210
0.0
220
0.0
230
1.0
 40
0.7071067811799802
 41
4.469191272884082
 42
4.715409550102574
  0
ELLIPSE
  5
1A5
330
12E
100
AcDbEntity
  8
AM_9
100
AcDbEllipse
 10
0.0000000000000005
 20
1.848848094493244
 30
0.0
 11
-0.1102360000000011
 21
1.350001645508089E-17
 31
0.0
210
0.0
220
0.0
230
1.0
 40
0.7071067811865478
 41
5.323210888651852
 42
5.688299935274548
  0
LINE
  5
1A6
330
12E
100
AcDbEntity
  8
AM_9
100
AcDbLine
 10
0.9866667437500003
 20
-0.8510976735956914
 30
0.0
 11
1.0735150432942
 21
-0.8510976735956914
 31
0.0
  0
LINE
  5
1A7
330
12E
100
AcDbEntity
  8
AM_9
100
AcDbLine
 10
-1.0735150432942
 20
-0.8510976735956914
 30
0.0
 11
-0.9866667437499997
 21
-0.8510976735956928
 31
0.0
  0
LINE
  5
1A8
330
12E
100
AcDbEntity
  8
AM_9
100
AcDbLine
 10
-0.9866667437500001
 20
-1.9685
 30
0.0
 11
0.9866667437500001
 21
-1.9685
 31
0.0
  0
LINE
  5
1A9
330
12E
100
AcDbEntity
  8
AM_9
100
AcDbLine
 10
0.8139993154999999
 20
1.9685
 30
0.0
 11
-0.8139993154999999
 21
1.9685
 31
0.0
  0
LINE
  5
1AA
330
12E
100
AcDbEntity
  8
AM_9
100
AcDbLine
 10
0.090921409067117
 20
1.941668235699722
 30
0.0
 11
0.1055038464457938
 21
1.926212099081813
 31
0.0
  0
LWPOLYLINE
  5
1AB
330
12E
100
AcDbEntity
  8
AM_9
100
AcDbPolyline
 90
        5
 70
     0
 43
0.0
 10
-0.0909214090671168
 20
1.941668235699722
 10
-0.0460980447457686
 20
1.945032064356101
 10
-0.0008744807129144
 20
1.946283672204742
 10
0.0450211226067941
 20
1.945088769019602
 10
0.090921409067117
 20
1.941668235699722
  0
LINE
  5
1AC
330
12E
100
AcDbEntity
  8
AM_9
100
AcDbLine
 10
-0.1055950427613318
 20
1.926113007197987
 30
0.0
 11
-0.0909214090671168
 21
1.941668235699722
 31
0.0
  0
ELLIPSE
  5
1AD
330
12E
100
AcDbEntity
  8
AM_9
100
AcDbEllipse
 10
0.0000000000000001
 20
1.834928697505587
 30
0.0
 11
-0.1574800000000002
 21
1.928573779297255E-17
 31
0.0
210
0.0
220
0.0
230
1.0
 40
0.7071067811865475
 41
3.986847650589347
 42
5.435155146449514
  0
LWPOLYLINE
  5
1AE
330
12E
100
AcDbEntity
  8
AM_9
100
AcDbPolyline
 90
       20
 70
     0
 43
0.0
 10
-0.0812441933109516
 20
1.883147310864244
 10
-0.0833594184252051
 20
1.885984146986883
 10
-0.0846768397982292
 20
1.88832053324093
 10
-0.0852424157322892
 20
1.889795977173238
 10
-0.0853795166385014
 20
1.890477644283111
 10
-0.0853516168228566
 20
1.890946413568744
 10
-0.0850284071326494
 20
1.892060914387695
 10
-0.0841006766723348
 20
1.894009276877332
 10
-0.0823098426328262
 20
1.896722428464773
 10
-0.0791039307180489
 20
1.900424548732518
 10
-0.0746087230169301
 20
1.904498016189798
 10
-0.0687902188519231
 20
1.908722475031958
 10
-0.0616598552976637
 20
1.91288872751549
 10
-0.0532868592753294
 20
1.916793214594216
 10
-0.0438081720286765
 20
1.920243632505864
 10
-0.0333862431893393
 20
1.923081666432571
 10
-0.0222225788271832
 20
1.925176712510621
 10
-0.0105495646746737
 20
1.926431351883259
 10
0.0013785501539316
 20
1.926785374289268
 10
0.0023264127965692
 20
1.926774041114919
  0
LINE
  5
1AF
330
12E
100
AcDbEntity
  8
AM_9
100
AcDbLine
 10
-0.0673858767259216
 20
1.871594322442654
 30
0.0
 11
-0.0685842366013113
 21
1.872355977625185
 31
0.0
  0
LINE
  5
1B0
330
12E
100
AcDbEntity
  8
AM_9
100
AcDbLine
 10
0.0756834250111649
 20
1.877607761944812
 30
0.0
 11
0.0739084703074537
 21
1.876154323598075
 31
0.0
  0
LWPOLYLINE
  5
1B1
330
12E
100
AcDbEntity
  8
AM_9
100
AcDbPolyline
 90
       21
 70
     0
 43
0.0
 10
0.0023264127965692
 20
1.926774041114919
 10
0.0132949209651269
 20
1.926218511022506
 10
0.0249231720817537
 20
1.924753183482805
 10
0.0359976013716539
 20
1.922455315920435
 10
0.0462754370559519
 20
1.919431966988657
 10
0.0555431796969682
 20
1.915829167488471
 10
0.0636276170525901
 20
1.911827909921875
 10
0.0704069206230575
 20
1.907637708093628
 10
0.0758185804533346
 20
1.903489221015478
 10
0.0798629490106684
 20
1.899629305205224
 10
0.0826317903543924
 20
1.896285804268999
 10
0.0842964638656686
 20
1.893651948355048
 10
0.0851025183897763
 20
1.891856988588087
 10
0.0853577645796701
 20
1.890909367313045
 10
0.0853818867631924
 20
1.890509397639965
 10
0.0852637827261154
 20
1.889873728987127
 10
0.0847242794990397
 20
1.888423444715874
 10
0.0834535817697994
 20
1.886129681885585
 10
0.0812378315865626
 20
1.883139697572657
 10
0.0775527174503243
 20
1.879273577138061
 10
0.0756834250111649
 20
1.877607761944812
  0
ELLIPSE
  5
1B2
330
12E
100
AcDbEntity
  8
AM_9
100
AcDbEllipse
 10
-0.0000000000000084
 20
1.848848094493239
 30
0.0
 11
-0.1102360000000116
 21
1.350001645508218E-17
 31
0.0
210
0.0
220
0.0
230
1.0
 40
0.7071067811865468
 41
3.737270145999016
 42
4.075983098416154
  0
ELLIPSE
  5
1B3
330
12E
100
AcDbEntity
  8
AM_9
100
AcDbEllipse
 10
-0.0000000000000275
 20
1.925930292097554
 30
0.0
 11
-0.1022054666021239
 21
1.251655975296528E-17
 31
0.0
210
0.0
220
0.0
230
1.0
 40
0.7071067811865581
 41
2.293049631690369
 42
7.026320700505782
  0
ELLIPSE
  5
1B4
330
12E
100
AcDbEntity
  8
AM_9
100
AcDbEllipse
 10
0.0000000000000215
 20
1.925930292097553
 30
0.0
 11
-0.102205466602118
 21
1.251655975296455E-17
 31
0.0
210
0.0
220
0.0
230
1.0
 40
0.7071067811865468
 41
0.7699191262152922
 42
0.848744508267547
  0
LINE
  5
1B5
330
12E
100
AcDbEntity
  8
AM_9
100
AcDbLine
 10
0.0873281928704092
 20
1.980703909848132
 30
0.0
 11
0.086289051095187
 21
1.981825176683809
 31
0.0
  0
LINE
  5
1B6
330
12E
100
AcDbEntity
  8
AM_9
100
AcDbLine
 10
-0.0868168690908753
 20
1.981260769790972
 30
0.0
 11
-0.0878983757987799
 21
1.980070783408197
 31
0.0
  0
ELLIPSE
  5
1B7
330
12E
100
AcDbEntity
  8
AM_9
100
AcDbEllipse
 10
0.0000000000000001
 20
1.94081945638439
 30
0.0
 11
-0.103958423779337
 21
1.273123509257691E-17
 31
0.0
210
0.0
220
0.0
230
1.0
 40
0.7071067811865507
 41
3.69430470771664
 42
5.720707614974748
  0
LINE
  5
1B8
330
12E
100
AcDbEntity
  8
AM_9
100
AcDbLine
 10
0.0538987683457739
 20
2.436911364764141
 30
0.0
 11
0.0684661
 21
2.436911364764141
 31
0.0
  0
LINE
  5
1B9
330
12E
100
AcDbEntity
  8
AM_9
100
AcDbLine
 10
-0.050985460603
 20
2.436911364764141
 30
0.0
 11
0.0509854
 21
2.436911364764141
 31
0.0
  0
LINE
  5
1BA
330
12E
100
AcDbEntity
  8
AM_9
100
AcDbLine
 10
-0.0684661787040001
 20
2.436911364764141
 30
0.0
 11
-0.0538988163489109
 21
2.436911364764141
 31
0.0
  0
LINE
  5
1BB
330
12E
100
AcDbEntity
  8
AM_9
100
AcDbLine
 10
-0.0218508779412
 20
2.429240829641835
 30
0.0
 11
0.0218509
 21
2.429240829641835
 31
0.0
  0
LINE
  5
1BC
330
12E
100
AcDbEntity
  8
AM_9
100
AcDbLine
 10
0.0218509000000031
 20
2.429240829641835
 30
0.0
 11
0.036418099999995
 21
2.429491485422191
 31
0.0
  0
LINE
  5
1BD
330
12E
100
AcDbEntity
  8
AM_9
100
AcDbLine
 10
0.0364180999999979
 20
2.429491485422191
 30
0.0
 11
0.0480719999999974
 21
2.429981216572117
 31
0.0
  0
LINE
  5
1BE
330
12E
100
AcDbEntity
  8
AM_9
100
AcDbLine
 10
0.0480719999999988
 20
2.429981216572118
 30
0.0
 11
0.0597255999999989
 21
2.430914071743033
 31
0.0
  0
LINE
  5
1BF
330
12E
100
AcDbEntity
  8
AM_9
100
AcDbLine
 10
0.0597255999999992
 20
2.430914071743033
 30
0.0
 11
0.0655527999999992
 21
2.431784955417622
 31
0.0
  0
LINE
  5
1C0
330
12E
100
AcDbEntity
  8
AM_9
100
AcDbLine
 10
0.0655527999999997
 20
2.431784955417622
 30
0.0
 11
0.0684660999999999
 21
2.43278645160698
 31
0.0
  0
LINE
  5
1C1
330
12E
100
AcDbEntity
  8
AM_9
100
AcDbLine
 10
0.0684660999999999
 20
2.434187858789382
 30
0.0
 11
0.0655527999999999
 21
2.434938278618006
 31
0.0
  0
LINE
  5
1C2
330
12E
100
AcDbEntity
  8
AM_9
100
AcDbLine
 10
0.0655528000000002
 20
2.434938278618006
 30
0.0
 11
0.0597256000000001
 21
2.435469215140815
 31
0.0
  0
LINE
  5
1C3
330
12E
100
AcDbEntity
  8
AM_9
100
AcDbLine
 10
0.0597255999999998
 20
2.435469215140815
 30
0.0
 11
0.0480719999999999
 21
2.435938482328186
 31
0.0
  0
LINE
  5
1C4
330
12E
100
AcDbEntity
  8
AM_9
100
AcDbLine
 10
0.0480720000000003
 20
2.435938482328186
 30
0.0
 11
0.0364181000000002
 21
2.436150008011407
 31
0.0
  0
LINE
  5
1C5
330
12E
100
AcDbEntity
  8
AM_9
100
AcDbLine
 10
0.0364181
 20
2.436150008011406
 30
0.0
 11
-0.0218508779412
 21
2.436250001985574
 31
0.0
  0
LINE
  5
1C6
330
12E
100
AcDbEntity
  8
AM_9
100
AcDbLine
 10
-0.0364181299020003
 20
2.436150008011406
 30
0.0
 11
-0.0480720732029995
 21
2.435938482328185
 31
0.0
  0
LINE
  5
1C7
330
12E
100
AcDbEntity
  8
AM_9
100
AcDbLine
 10
-0.0480720732029997
 20
2.435938482328185
 30
0.0
 11
-0.0597256228030002
 21
2.435469215140814
 31
0.0
  0
LINE
  5
1C8
330
12E
100
AcDbEntity
  8
AM_9
100
AcDbLine
 10
-0.0597256228030002
 20
2.435469215140814
 30
0.0
 11
-0.065552791304
 21
2.434938278618005
 31
0.0
  0
LINE
  5
1C9
330
12E
100
AcDbEntity
  8
AM_9
100
AcDbLine
 10
-0.0655527913040001
 20
2.434938278618005
 30
0.0
 11
-0.0684661787040001
 21
2.434187858789381
 31
0.0
  0
LINE
  5
1CA
330
12E
100
AcDbEntity
  8
AM_9
100
AcDbLine
 10
-0.0684661787040001
 20
2.43278645160698
 30
0.0
 11
-0.0655527913040003
 21
2.431784955417622
 31
0.0
  0
LINE
  5
1CB
330
12E
100
AcDbEntity
  8
AM_9
100
AcDbLine
 10
-0.0655527913040009
 20
2.431784955417622
 30
0.0
 11
-0.0597256228030009
 21
2.430914071743032
 31
0.0
  0
LINE
  5
1CC
330
12E
100
AcDbEntity
  8
AM_9
100
AcDbLine
 10
-0.0597256228030016
 20
2.430914071743032
 30
0.0
 11
-0.0480720732029995
 21
2.429981216572117
 31
0.0
  0
LINE
  5
1CD
330
12E
100
AcDbEntity
  8
AM_9
100
AcDbLine
 10
-0.0480720732029991
 20
2.429981216572118
 30
0.0
 11
-0.0364181299020035
 21
2.429491485422191
 31
0.0
  0
LINE
  5
1CE
330
12E
100
AcDbEntity
  8
AM_9
100
AcDbLine
 10
-0.036418129902009
 20
2.429491485422191
 30
0.0
 11
-0.0218508779412069
 21
2.429240829641835
 31
0.0
  0
LINE
  5
1CF
330
12E
100
AcDbEntity
  8
AM_9
100
AcDbLine
 10
-0.0509854606030001
 20
2.41261534325771
 30
0.0
 11
0.0509854
 21
2.41261534325771
 31
0.0
  0
LINE
  5
1D0
330
12E
100
AcDbEntity
  8
AM_9
100
AcDbLine
 10
0.0684660999999999
 20
2.422056652780974
 30
0.0
 11
0.0655527999999998
 21
2.423738725633984
 31
0.0
  0
LINE
  5
1D1
330
12E
100
AcDbEntity
  8
AM_9
100
AcDbLine
 10
0.0655527999999999
 20
2.423738725633984
 30
0.0
 11
0.0597256
 21
2.425013986845734
 31
0.0
  0
LINE
  5
1D2
330
12E
100
AcDbEntity
  8
AM_9
100
AcDbLine
 10
0.0597255999999998
 20
2.425013986845734
 30
0.0
 11
0.0480719999999998
 21
2.426226833907423
 31
0.0
  0
LINE
  5
1D3
330
12E
100
AcDbEntity
  8
AM_9
100
AcDbLine
 10
0.0480720000000001
 20
2.426226833907423
 30
0.0
 11
0.0364181000000003
 21
2.426809847331263
 31
0.0
  0
LINE
  5
1D4
330
12E
100
AcDbEntity
  8
AM_9
100
AcDbLine
 10
0.0364180999999999
 20
2.426809847331263
 30
0.0
 11
0.0218509
 21
2.427095529729016
 31
0.0
  0
LINE
  5
1D5
330
12E
100
AcDbEntity
  8
AM_9
100
AcDbLine
 10
0.0218509
 20
2.427095529729015
 30
0.0
 11
-0.0218508779412
 21
2.427095529729015
 31
0.0
  0
LINE
  5
1D6
330
12E
100
AcDbEntity
  8
AM_9
100
AcDbLine
 10
-0.0218508779411991
 20
2.427095529729016
 30
0.0
 11
-0.0364181299020016
 21
2.426809847331263
 31
0.0
  0
LINE
  5
1D7
330
12E
100
AcDbEntity
  8
AM_9
100
AcDbLine
 10
-0.0364181299019995
 20
2.426809847331262
 30
0.0
 11
-0.0480720732030005
 21
2.426226833907421
 31
0.0
  0
LINE
  5
1D8
330
12E
100
AcDbEntity
  8
AM_9
100
AcDbLine
 10
-0.048072073203
 20
2.426226833907422
 30
0.0
 11
-0.059725622803
 21
2.425013986845734
 31
0.0
  0
LINE
  5
1D9
330
12E
100
AcDbEntity
  8
AM_9
100
AcDbLine
 10
-0.0597256228030001
 20
2.425013986845734
 30
0.0
 11
-0.065552791304
 21
2.423738725633984
 31
0.0
  0
LINE
  5
1DA
330
12E
100
AcDbEntity
  8
AM_9
100
AcDbLine
 10
-0.0655527913040001
 20
2.423738725633984
 30
0.0
 11
-0.0684661787040001
 21
2.422056652780975
 31
0.0
  0
LWPOLYLINE
  5
1DB
330
12E
100
AcDbEntity
  8
AM_9
100
AcDbPolyline
 90
       11
 70
     0
 43
0.0
 10
0.0000000000000001
 20
1.643860639578551
 10
0.0184945879176488
 20
1.645023816103674
 10
0.0364675912344457
 20
1.648442538786257
 10
0.0533975373956251
 20
1.654039206899974
 10
0.0688234763872618
 20
1.6616063764516
 10
0.0822927980736815
 20
1.67093955090538
 10
0.0934435001977831
 20
1.681722716189454
 10
0.1019275998841952
 20
1.693649665877004
 10
0.1075370975225978
 20
1.706344766867699
 10
0.1100695462263228
 20
1.719430955171887
 10
0.1102359994888122
 20
1.723565272373949
  0
LINE
  5
1DC
330
12E
100
AcDbEntity
  8
AM_9
100
AcDbLine
 10
-0.9062499999999993
 20
-1.81875
 30
0.0
 11
-0.7187499999999996
 21
-1.81875
 31
0.0
  0
LINE
  5
1DD
330
12E
100
AcDbEntity
  8
AM_9
100
AcDbLine
 10
-0.9062499999999993
 20
-1.75
 30
0.0
 11
-0.9062499999999993
 21
-1.81875
 31
0.0
  0
LINE
  5
1DE
330
12E
100
AcDbEntity
  8
AM_9
100
AcDbLine
 10
-0.7187499999999996
 20
-1.81875
 30
0.0
 11
-0.7187499999999996
 21
-1.75
 31
0.0
  0
LINE
  5
1DF
330
12E
100
AcDbEntity
  8
AM_9
100
AcDbLine
 10
0.3437500000000003
 20
-1.75
 30
0.0
 11
0.3437500000000003
 21
-2.4375
 31
0.0
  0
LINE
  5
1E0
330
12E
100
AcDbEntity
  8
AM_9
100
AcDbLine
 10
-0.3437499999999997
 20
-1.75
 30
0.0
 11
-0.3437499999999996
 21
-2.4375
 31
0.0
  0
ELLIPSE
  5
1E1
330
12E
100
AcDbEntity
  8
AM_9
100
AcDbEllipse
 10
0.0000000000000002
 20
1.737492211485206
 30
0.0
 11
-0.1102360000000002
 21
1.642644418865009E-9
 31
0.0
210
0.0
220
0.0
230
1.0
 40
0.7071067811865495
 41
0.0
 42
6.283185307179586
  0
LINE
  5
1E2
330
12E
100
AcDbEntity
  8
AM_7
100
AcDbLine
 10
1.271875
 20
0.0
 30
0.0
 11
-1.28203125
 21
0.0
 31
0.0
  0
LINE
  5
1E3
330
12E
100
AcDbEntity
  8
AM_7
100
AcDbLine
 10
-0.0000000000000004
 20
-1.99375
 30
0.0
 11
-0.0000000000000004
 21
3.368749999999999
 31
0.0
  0
LINE
  5
1E4
330
12E
100
AcDbEntity
  8
AM_7
100
AcDbLine
 10
-0.8125000000000006
 20
-1.825625
 30
0.0
 11
-0.8125000000000006
 21
-1.674375
 31
0.0
  0
LINE
  5
1E5
330
12E
100
AcDbEntity
  8
AM_4
100
AcDbLine
 10
-0.0480720732030001
 20
2.437288108087215
 30
0.0
 11
-0.0509854606030001
 21
2.437418800928865
 31
0.0
  0
LINE
  5
1E6
330
12E
100
AcDbEntity
  8
AM_4
100
AcDbLine
 10
0.0509853999999999
 20
2.437418800928865
 30
0.0
 11
0.0480719999999999
 21
2.437288108087215
 31
0.0
  0
LINE
  5
1E7
330
12E
100
AcDbEntity
  8
AM_4
100
AcDbLine
 10
0.048072
 20
2.437288108087214
 30
0.0
 11
-0.0218508779412
 21
2.436976726536694
 31
0.0
  0
LINE
  5
1E8
330
12E
100
AcDbEntity
  8
AM_4
100
AcDbLine
 10
-0.0218508779412004
 20
2.436976726536694
 30
0.0
 11
-0.048072073203
 21
2.437288108087215
 31
0.0
  0
LINE
  5
1E9
330
12E
100
AcDbEntity
  8
AM_4
100
AcDbLine
 10
-0.048072073203
 20
2.434026216463371
 30
0.0
 11
-0.048072073203
 21
2.43534227645294
 31
0.0
  0
LINE
  5
1EA
330
12E
100
AcDbEntity
  8
AM_4
100
AcDbLine
 10
0.048072
 20
2.434026216463371
 30
0.0
 11
0.048072
 21
2.435342276452941
 31
0.0
  0
LINE
  5
1EB
330
12E
100
AcDbEntity
  8
AM_4
100
AcDbLine
 10
0.0597256
 20
2.4294914755296
 30
0.0
 11
0.0597256
 21
2.434795907855726
 31
0.0
  0
LINE
  5
1EC
330
12E
100
AcDbEntity
  8
AM_4
100
AcDbLine
 10
-0.059725622803
 20
2.4294914755296
 30
0.0
 11
-0.059725622803
 21
2.434795907855727
 31
0.0
  0
LINE
  5
1ED
330
12E
100
AcDbEntity
  8
AM_4
100
AcDbLine
 10
0.0655528
 20
2.430455411339816
 30
0.0
 11
0.0655528
 21
2.434187882092093
 31
0.0
  0
LINE
  5
1EE
330
12E
100
AcDbEntity
  8
AM_4
100
AcDbLine
 10
-0.065552791304
 20
2.430455411339816
 30
0.0
 11
-0.065552791304
 21
2.434187882092094
 31
0.0
  0
LINE
  5
1EF
330
12E
100
AcDbEntity
  8
AM_4
100
AcDbLine
 10
-0.050985460603
 20
2.428727829093748
 30
0.0
 11
-0.050985460603
 21
2.433340941265525
 31
0.0
  0
LINE
  5
1F0
330
12E
100
AcDbEntity
  8
AM_4
100
AcDbLine
 10
0.0509854
 20
2.428727829093748
 30
0.0
 11
0.0509854
 21
2.433340941265525
 31
0.0
  0
LINE
  5
1F1
330
12E
100
AcDbEntity
  8
AM_4
100
AcDbLine
 10
-0.048072073203
 20
2.428465511614277
 30
0.0
 11
-0.048072073203
 21
2.430686698675087
 31
0.0
  0
LINE
  5
1F2
330
12E
100
AcDbEntity
  8
AM_4
100
AcDbLine
 10
0.048072
 20
2.428465511614277
 30
0.0
 11
0.048072
 21
2.430686698675087
 31
0.0
  0
LINE
  5
1F3
330
12E
100
AcDbEntity
  8
AM_4
100
AcDbLine
 10
-0.0101970921206
 20
2.428199285816342
 30
0.0
 11
-0.0101970921206001
 21
2.43178494215175
 31
0.0
  0
LINE
  5
1F4
330
12E
100
AcDbEntity
  8
AM_4
100
AcDbLine
 10
-0.042244904702
 20
2.428332880179276
 30
0.0
 11
-0.042244904702
 21
2.429981203008575
 31
0.0
  0
LINE
  5
1F5
330
12E
100
AcDbEntity
  8
AM_4
100
AcDbLine
 10
-0.0335047031319
 20
2.428199285816342
 30
0.0
 11
-0.0335047031319
 21
2.429738279742078
 31
0.0
  0
LINE
  5
1F6
330
12E
100
AcDbEntity
  8
AM_4
100
AcDbLine
 10
0.0422449
 20
2.428359484527627
 30
0.0
 11
0.0422449
 21
2.429981203008573
 31
0.0
  0
LINE
  5
1F7
330
12E
100
AcDbEntity
  8
AM_4
100
AcDbLine
 10
-0.1102359999999999
 20
1.848848094493244
 30
0.0
 11
-0.1102359999999999
 21
1.834928697505587
 31
0.0
  0
LINE
  5
1F8
330
12E
100
AcDbEntity
  8
AM_4
100
AcDbLine
 10
0.1102360000000001
 20
1.834928697505587
 30
0.0
 11
0.1102360000000001
 21
1.848848094493244
 31
0.0
  0
ELLIPSE
  5
1F9
330
12E
100
AcDbEntity
  8
AM_4
100
AcDbEllipse
 10
0.0000000000000002
 20
1.834928697505587
 30
0.0
 11
-0.110236
 21
1.350001645508076E-17
 31
0.0
210
0.0
220
0.0
230
1.0
 40
0.7071067811865485
 41
0.0
 42
3.141592653589793
  0
ELLIPSE
  5
1FA
330
12E
100
AcDbEntity
  8
AM_4
100
AcDbEllipse
 10
0.0000000000000003
 20
1.848848094493244
 30
0.0
 11
-0.1102359999999997
 21
1.350001645508073E-17
 31
0.0
210
0.0
220
0.0
230
1.0
 40
0.7071067811865464
 41
5.688299935274546
 42
10.0204554531786
  0
LWPOLYLINE
  5
1FB
330
12E
100
AcDbEntity
  8
AM_4
100
AcDbPolyline
 90
        5
 70
     0
 43
0.0
 10
0.090921409067117
 20
1.630752673291071
 10
0.1133330912277912
 20
1.654837437420236
 10
0.1359448732442183
 20
1.681279493629238
 10
0.1588926749040725
 20
1.710579599206996
 10
0.1818428181342338
 20
1.74210820274572
  0
LINE
  5
1FC
330
12E
100
AcDbEntity
  8
AM_4
100
AcDbLine
 10
0.1818428181342338
 20
1.74210820274572
 30
0.0
 11
0.1818428181342338
 21
1.830312706245074
 31
0.0
  0
LINE
  5
1FD
330
12E
100
AcDbEntity
  8
AM_4
100
AcDbLine
 10
-0.1818428181342336
 20
1.74210820274572
 30
0.0
 11
-0.1818428181342336
 21
1.830312706245074
 31
0.0
  0
LWPOLYLINE
  5
1FE
330
12E
100
AcDbEntity
  8
AM_4
100
AcDbPolyline
 90
        5
 70
     0
 43
0.0
 10
-0.1818428181342336
 20
1.74210820274572
 10
-0.1594311359735595
 20
1.711295781303796
 10
-0.1368193539571323
 20
1.682350509397511
 10
-0.1138715522972779
 20
1.655440210190033
 10
-0.0909214090671167
 20
1.630752673291071
  0
LINE
  5
1FF
330
12E
100
AcDbEntity
  8
AM_4
100
AcDbLine
 10
-0.0909214090671167
 20
1.630752673291071
 30
0.0
 11
-0.0909214090671167
 21
1.718957176790425
 31
0.0
  0
LWPOLYLINE
  5
200
330
12E
100
AcDbEntity
  8
AM_4
100
AcDbPolyline
 90
        5
 70
     0
 43
0.0
 10
-0.0909214090671167
 20
1.630752673291071
 10
-0.0460980447457686
 20
1.627388844634692
 10
-0.0008744807129144
 20
1.626137236786051
 10
0.0450211226067941
 20
1.627332139971191
 10
0.090921409067117
 20
1.630752673291071
  0
LINE
  5
201
330
12E
100
AcDbEntity
  8
AM_4
100
AcDbLine
 10
0.090921409067117
 20
1.630752673291071
 30
0.0
 11
0.090921409067117
 21
1.718957176790425
 31
0.0
  0
LWPOLYLINE
  5
202
330
12E
100
AcDbEntity
  8
AM_4
100
AcDbPolyline
 90
        5
 70
     0
 43
0.0
 10
-0.0909214090671167
 20
1.718957176790425
 10
-0.1133330912277906
 20
1.749769598232349
 10
-0.135944873244218
 20
1.778714870138634
 10
-0.1588926749040724
 20
1.805625169346112
 10
-0.1818428181342336
 20
1.830312706245074
  0
LWPOLYLINE
  5
203
330
12E
100
AcDbEntity
  8
AM_4
100
AcDbPolyline
 90
        5
 70
     0
 43
0.0
 10
0.090921409067117
 20
1.718957176790425
 10
0.0460980447457689
 20
1.722321005446805
 10
0.0008744807129147
 20
1.723572613295446
 10
-0.0450211226067939
 20
1.722377710110306
 10
-0.0909214090671167
 20
1.718957176790425
  0
LWPOLYLINE
  5
204
330
12E
100
AcDbEntity
  8
AM_4
100
AcDbPolyline
 90
        5
 70
     0
 43
0.0
 10
0.1818428181342338
 20
1.830312706245074
 10
0.1594311359735598
 20
1.806227942115909
 10
0.1368193539571327
 20
1.779785885906907
 10
0.1138715522972784
 20
1.750485780329148
 10
0.090921409067117
 20
1.718957176790425
  0
LWPOLYLINE
  5
205
330
12E
100
AcDbEntity
  8
AM_4
100
AcDbPolyline
 90
        5
 70
     0
 43
0.0
 10
0.1055038464457938
 20
1.926212099081813
 10
0.1133330912277912
 20
1.917583471570557
 10
0.1359448732442181
 20
1.891141415361555
 10
0.1588926749040724
 20
1.861841309783797
 10
0.1818428181342338
 20
1.830312706245074
  0
LWPOLYLINE
  5
206
330
12E
100
AcDbEntity
  8
AM_4
100
AcDbPolyline
 90
        5
 70
     0
 43
0.0
 10
-0.1818428181342336
 20
1.830312706245074
 10
-0.1594311359735593
 20
1.861125127686997
 10
-0.1368193539571324
 20
1.890070399593282
 10
-0.1138715522972782
 20
1.916980698800759
 10
-0.1055950427613318
 20
1.926113007197987
  0
ELLIPSE
  5
207
330
12E
100
AcDbEntity
  8
AM_4
100
AcDbEllipse
 10
0.0000000000000002
 20
1.834928697505587
 30
0.0
 11
-0.1574800000000003
 21
1.928573779297256E-17
 31
0.0
210
0.0
220
0.0
230
1.0
 40
0.7071067811865469
 41
5.435155146449512
 42
10.27003295776893
  0
ELLIPSE
  5
208
330
12E
100
AcDbEntity
  8
AM_4
100
AcDbEllipse
 10
-0.0000000000001973
 20
1.925930292097798
 30
0.0
 11
-0.1022054666024017
 21
1.522980145251361E-9
 31
0.0
210
0.0
220
0.0
230
1.0
 40
0.7071067811872037
 41
-4.061114314175475
 42
-3.990135660348253
  0
ELLIPSE
  5
209
330
12E
100
AcDbEntity
  8
AM_4
100
AcDbEllipse
 10
-0.0000000000000006
 20
1.925930292097536
 30
0.0
 11
-0.1022054666020843
 21
1.522980145246630E-9
 31
0.0
210
0.0
220
0.0
230
1.0
 40
0.7071067811865583
 41
0.9617963820054714
 42
2.22207099300434
  0
LWPOLYLINE
  5
20A
330
12E
100
AcDbEntity
  8
AM_4
100
AcDbPolyline
 90
        3
 70
     0
 43
0.0
 10
0.0954859415647695
 20
1.970072360643582
 10
0.0905816264817063
 20
1.976901652894899
 10
0.0873281928704092
 20
1.980703909848132
  0
LWPOLYLINE
  5
20B
330
12E
100
AcDbEntity
  8
AM_4
100
AcDbPolyline
 90
       12
 70
     0
 43
0.0
 10
0.0692992143211836
 20
1.872807015484778
 10
0.0791836899306158
 20
1.880147447732325
 10
0.0877596079101165
 20
1.888472469614529
 10
0.0948384127970963
 20
1.897627992854169
 10
0.1002696596684771
 20
1.907415839684009
 10
0.1039630589360068
 20
1.917612525649904
 10
0.1058934314736665
 20
1.927998247581496
 10
0.1060852409605602
 20
1.938379593578696
 10
0.1045882341406702
 20
1.948596893622241
 10
0.1014662705151341
 20
1.95849614591038
 10
0.0967795207576074
 20
1.967966055061696
 10
0.0954859415647695
 20
1.970072360643582
  0
LINE
  5
20C
330
12E
100
AcDbEntity
  8
AM_4
100
AcDbLine
 10
0.0617674362334111
 20
1.868345228355856
 30
0.0
 11
0.0692992143211836
 21
1.872807015484778
 31
0.0
  0
LWPOLYLINE
  5
20D
330
12E
100
AcDbEntity
  8
AM_4
100
AcDbPolyline
 90
       15
 70
     0
 43
0.0
 10
-0.0878983757987799
 20
1.980070783408197
 10
-0.0907499956595737
 20
1.97669136147226
 10
-0.0971916902941906
 20
1.967259852699529
 10
-0.1019421149096667
 20
1.957283010969015
 10
-0.1049374245812343
 20
1.9469863346546
 10
-0.1061747755245219
 20
1.936581099196488
 10
-0.1056915489712574
 20
1.926247378685597
 10
-0.1035436515106939
 20
1.916140118955563
 10
-0.099795932887434
 20
1.906398393823623
 10
-0.0945048233165722
 20
1.897126970547999
 10
-0.0877249917359132
 20
1.888433853017779
 10
-0.0795272775383625
 20
1.880440223514979
 10
-0.0700173324275343
 20
1.873278238519259
 10
-0.0593435010231903
 20
1.867078023241647
 10
-0.0581803084848642
 20
1.86649639723598
  0
ELLIPSE
  5
20E
330
12E
100
AcDbEntity
  8
AM_4
100
AcDbEllipse
 10
-0.0000000000000534
 20
1.925930292097455
 30
0.0
 11
-0.1022054666020018
 21
1.251655975295032E-17
 31
0.0
210
0.0
220
0.0
230
1.0
 40
0.7071067811862753
 41
0.8487445082673943
 42
0.9617963680207139
  0
ELLIPSE
  5
20F
330
12E
100
AcDbEntity
  8
AM_4
100
AcDbEllipse
 10
0.0000000000000002
 20
1.94081945638439
 30
0.0
 11
-0.1039584237793371
 21
1.273123509257693E-17
 31
0.0
210
0.0
220
0.0
230
1.0
 40
0.7071067811865517
 41
5.730473253052746
 42
9.977490014896222
  0
LINE
  5
210
330
12E
100
AcDbEntity
  8
AM_4
100
AcDbLine
 10
-0.0605219071451564
 20
2.011460443071797
 30
0.0
 11
-0.0884794128974536
 21
1.979411860870286
 31
0.0
  0
LINE
  5
211
330
12E
100
AcDbEntity
  8
AM_4
100
AcDbLine
 10
0.0884794128974538
 20
1.979411860870286
 30
0.0
 11
0.0605219071451567
 21
2.011460443071797
 31
0.0
  0
ELLIPSE
  5
212
330
12E
100
AcDbEntity
  8
AM_4
100
AcDbEllipse
 10
0.0000000000000001
 20
1.985062370974384
 30
0.0
 11
-0.07110989850511254
 21
8.708450959197923E-18
 31
0.0
210
0.0
220
0.0
230
1.0
 40
0.7071067811865522
 41
3.457786458015175
 42
5.984223844621495
  0
ELLIPSE
  5
213
330
12E
100
AcDbEntity
  8
AM_4
100
AcDbEllipse
 10
0.0000000000000001
 20
1.988042064369816
 30
0.0
 11
0.06413825024007701
 21
0.0
 31
0.0
210
0.0
220
0.0
230
1.0
 40
0.7071067811865492
 41
0.0
 42
6.283185307179586
  0
ELLIPSE
  5
214
330
12E
100
AcDbEntity
  8
AM_4
100
AcDbEllipse
 10
0.0000000000000003
 20
1.985062370974384
 30
0.0
 11
-0.07110989850511241
 21
8.708450959197908E-18
 31
0.0
210
0.0
220
0.0
230
1.0
 40
0.7071067811865472
 41
5.984223844621492
 42
9.740971765194764
  0
LINE
  5
215
330
12E
100
AcDbEntity
  8
AM_4
100
AcDbLine
 10
-1.15625
 20
-1.750000000000002
 30
0.0
 11
-0.7708325625
 21
2.437499999999999
 31
0.0
  0
LINE
  5
216
330
12E
100
AcDbEntity
  8
AM_4
100
AcDbLine
 10
-0.068466178704
 20
2.412615434900264
 30
0.0
 11
-0.0684661787040001
 21
2.425929485882884
 31
0.0
  0
LINE
  5
217
330
12E
100
AcDbEntity
  8
AM_4
100
AcDbLine
 10
-0.0684661787040001
 20
2.425929485882884
 30
0.0
 11
0.0684661
 21
2.425929485882884
 31
0.0
  0
LINE
  5
218
330
12E
100
AcDbEntity
  8
AM_4
100
AcDbLine
 10
0.0684661
 20
2.425929485882884
 30
0.0
 11
0.0684661
 21
2.412615434900264
 31
0.0
  0
LINE
  5
219
330
12E
100
AcDbEntity
  8
AM_4
100
AcDbLine
 10
0.0684661
 20
2.412615434900264
 30
0.0
 11
0.0509854
 21
2.412615434900264
 31
0.0
  0
LINE
  5
21A
330
12E
100
AcDbEntity
  8
AM_4
100
AcDbLine
 10
0.0509854
 20
2.412615434900264
 30
0.0
 11
0.0509854
 21
2.4240634439121
 31
0.0
  0
LINE
  5
21B
330
12E
100
AcDbEntity
  8
AM_4
100
AcDbLine
 10
0.0509854
 20
2.4240634439121
 30
0.0
 11
0.0131105
 21
2.4240634439121
 31
0.0
  0
LINE
  5
21C
330
12E
100
AcDbEntity
  8
AM_4
100
AcDbLine
 10
0.0131105
 20
2.4240634439121
 30
0.0
 11
0.0131105
 21
2.414346703032519
 31
0.0
  0
LINE
  5
21D
330
12E
100
AcDbEntity
  8
AM_4
100
AcDbLine
 10
0.0131105
 20
2.414346703032519
 30
0.0
 11
-0.0043701598402
 21
2.414346703032519
 31
0.0
  0
LINE
  5
21E
330
12E
100
AcDbEntity
  8
AM_4
100
AcDbLine
 10
-0.0043701598402
 20
2.414346703032519
 30
0.0
 11
-0.0043701598401999
 21
2.4240634439121
 31
0.0
  0
LINE
  5
21F
330
12E
100
AcDbEntity
  8
AM_4
100
AcDbLine
 10
-0.0043701598401999
 20
2.4240634439121
 30
0.0
 11
-0.050985460603
 21
2.4240634439121
 31
0.0
  0
LINE
  5
220
330
12E
100
AcDbEntity
  8
AM_4
100
AcDbLine
 10
-0.050985460603
 20
2.4240634439121
 30
0.0
 11
-0.050985460603
 21
2.412615434900264
 31
0.0
  0
LINE
  5
221
330
12E
100
AcDbEntity
  8
AM_4
100
AcDbLine
 10
-0.050985460603
 20
2.412615434900264
 30
0.0
 11
-0.068466178704
 21
2.412615434900264
 31
0.0
  0
LINE
  5
222
330
12E
100
AcDbEntity
  8
AM_4
100
AcDbLine
 10
0.0364181000000009
 20
2.43559230519533
 30
0.0
 11
0.0480720000000015
 21
2.43534227645294
 31
0.0
  0
LINE
  5
223
330
12E
100
AcDbEntity
  8
AM_4
100
AcDbLine
 10
0.0480719999999987
 20
2.435342276452941
 30
0.0
 11
0.0597255999999992
 21
2.434795907855727
 31
0.0
  0
LINE
  5
224
330
12E
100
AcDbEntity
  8
AM_4
100
AcDbLine
 10
0.0597255999999996
 20
2.434795907855728
 30
0.0
 11
0.0655528000000003
 21
2.434187882092095
 31
0.0
  0
LINE
  5
225
330
12E
100
AcDbEntity
  8
AM_4
100
AcDbLine
 10
0.0655528000000001
 20
2.434187882092095
 30
0.0
 11
0.0684660999999999
 21
2.433340941265526
 31
0.0
  0
LINE
  5
226
330
12E
100
AcDbEntity
  8
AM_4
100
AcDbLine
 10
0.0684661
 20
2.433340941265525
 30
0.0
 11
0.0684661
 21
2.431573024887181
 31
0.0
  0
LINE
  5
227
330
12E
100
AcDbEntity
  8
AM_4
100
AcDbLine
 10
0.0684661
 20
2.43157302488718
 30
0.0
 11
0.0655528
 21
2.430455411339815
 31
0.0
  0
LINE
  5
228
330
12E
100
AcDbEntity
  8
AM_4
100
AcDbLine
 10
0.0655528000000001
 20
2.430455411339815
 30
0.0
 11
0.0597256
 21
2.4294914755296
 31
0.0
  0
LINE
  5
229
330
12E
100
AcDbEntity
  8
AM_4
100
AcDbLine
 10
0.0597256000000001
 20
2.4294914755296
 30
0.0
 11
0.0480719999999998
 21
2.428465511614277
 31
0.0
  0
LINE
  5
22A
330
12E
100
AcDbEntity
  8
AM_4
100
AcDbLine
 10
0.0480719999999987
 20
2.428465511614277
 30
0.0
 11
0.0335046999999998
 21
2.428199285816342
 31
0.0
  0
LINE
  5
22B
330
12E
100
AcDbEntity
  8
AM_4
100
AcDbLine
 10
0.0335047
 20
2.428199285816342
 30
0.0
 11
0.0335046999999999
 21
2.429738279742077
 31
0.0
  0
LINE
  5
22C
330
12E
100
AcDbEntity
  8
AM_4
100
AcDbLine
 10
0.0335046999999981
 20
2.429738279742078
 30
0.0
 11
0.0422448999999984
 21
2.429981203008573
 31
0.0
  0
LINE
  5
22D
330
12E
100
AcDbEntity
  8
AM_4
100
AcDbLine
 10
0.0422448999999996
 20
2.429981203008573
 30
0.0
 11
0.0480719999999988
 21
2.430686698675086
 31
0.0
  0
LINE
  5
22E
330
12E
100
AcDbEntity
  8
AM_4
100
AcDbLine
 10
0.0480719999999996
 20
2.430686698675087
 30
0.0
 11
0.0509854
 21
2.431573024887181
 31
0.0
  0
LINE
  5
22F
330
12E
100
AcDbEntity
  8
AM_4
100
AcDbLine
 10
0.0509854000000001
 20
2.433340941265525
 30
0.0
 11
0.0480720000000001
 21
2.434026216463371
 31
0.0
  0
LINE
  5
230
330
12E
100
AcDbEntity
  8
AM_4
100
AcDbLine
 10
0.0480720000000001
 20
2.434026216463371
 30
0.0
 11
0.0422449000000002
 21
2.434499585330627
 31
0.0
  0
LINE
  5
231
330
12E
100
AcDbEntity
  8
AM_4
100
AcDbLine
 10
0.0422449000000003
 20
2.434499585330627
 30
0.0
 11
0.0335047000000002
 21
2.434795907855727
 31
0.0
  0
LINE
  5
232
330
12E
100
AcDbEntity
  8
AM_4
100
AcDbLine
 10
0.0335047000000008
 20
2.434795907855726
 30
0.0
 11
-0.0218508779412
 21
2.434938283553813
 31
0.0
  0
LINE
  5
233
330
12E
100
AcDbEntity
  8
AM_4
100
AcDbLine
 10
-0.0218508779412009
 20
2.434938283553814
 30
0.0
 11
-0.0335047031318997
 21
2.434795907855727
 31
0.0
  0
LINE
  5
234
330
12E
100
AcDbEntity
  8
AM_4
100
AcDbLine
 10
-0.0335047031318999
 20
2.434795907855727
 30
0.0
 11
-0.042244904702
 21
2.434499585330627
 31
0.0
  0
LINE
  5
235
330
12E
100
AcDbEntity
  8
AM_4
100
AcDbLine
 10
-0.0422449047020001
 20
2.434499585330626
 30
0.0
 11
-0.048072073203
 21
2.434026216463371
 31
0.0
  0
LINE
  5
236
330
12E
100
AcDbEntity
  8
AM_4
100
AcDbLine
 10
-0.0480720732029999
 20
2.434026216463371
 30
0.0
 11
-0.0509854606029999
 21
2.433340941265525
 31
0.0
  0
LINE
  5
237
330
12E
100
AcDbEntity
  8
AM_4
100
AcDbLine
 10
-0.0509854606030001
 20
2.43157302488718
 30
0.0
 11
-0.0480720732030002
 21
2.430686698675087
 31
0.0
  0
LINE
  5
238
330
12E
100
AcDbEntity
  8
AM_4
100
AcDbLine
 10
-0.0480720732030006
 20
2.430686698675087
 30
0.0
 11
-0.042244904702
 21
2.429981203008573
 31
0.0
  0
LINE
  5
239
330
12E
100
AcDbEntity
  8
AM_4
100
AcDbLine
 10
-0.0422449047020009
 20
2.429981203008574
 30
0.0
 11
-0.0335047031319006
 21
2.429738279742078
 31
0.0
  0
LINE
  5
23A
330
12E
100
AcDbEntity
  8
AM_4
100
AcDbLine
 10
-0.0335047031319
 20
2.429738279742078
 30
0.0
 11
-0.0101970921206
 21
2.429738279742077
 31
0.0
  0
LINE
  5
23B
330
12E
100
AcDbEntity
  8
AM_4
100
AcDbLine
 10
-0.0101970921206001
 20
2.43178494215175
 30
0.0
 11
0.00728362
 21
2.43178494215175
 31
0.0
  0
LINE
  5
23C
330
12E
100
AcDbEntity
  8
AM_4
100
AcDbLine
 10
0.00728362
 20
2.43178494215175
 30
0.0
 11
0.00728362
 21
2.428199285816342
 31
0.0
  0
LINE
  5
23D
330
12E
100
AcDbEntity
  8
AM_4
100
AcDbLine
 10
0.00728362
 20
2.428199285816342
 30
0.0
 11
-0.036418129902
 21
2.428199285816342
 31
0.0
  0
LINE
  5
23E
330
12E
100
AcDbEntity
  8
AM_4
100
AcDbLine
 10
-0.036418129901999
 20
2.428199285816342
 30
0.0
 11
-0.0480720732030003
 21
2.428465511614277
 31
0.0
  0
LINE
  5
23F
330
12E
100
AcDbEntity
  8
AM_4
100
AcDbLine
 10
-0.048072073203
 20
2.428465511614277
 30
0.0
 11
-0.0597256228029998
 21
2.4294914755296
 31
0.0
  0
LINE
  5
240
330
12E
100
AcDbEntity
  8
AM_4
100
AcDbLine
 10
-0.0597256228029999
 20
2.4294914755296
 30
0.0
 11
-0.0655527913039999
 21
2.430455411339816
 31
0.0
  0
LINE
  5
241
330
12E
100
AcDbEntity
  8
AM_4
100
AcDbLine
 10
-0.0655527913039999
 20
2.430455411339816
 30
0.0
 11
-0.068466178704
 21
2.431573024887181
 31
0.0
  0
LINE
  5
242
330
12E
100
AcDbEntity
  8
AM_4
100
AcDbLine
 10
-0.068466178704
 20
2.431573024887181
 30
0.0
 11
-0.0684661787040001
 21
2.433340941265525
 31
0.0
  0
LINE
  5
243
330
12E
100
AcDbEntity
  8
AM_4
100
AcDbLine
 10
-0.0684661787040001
 20
2.433340941265525
 30
0.0
 11
-0.0655527913040003
 21
2.434187882092094
 31
0.0
  0
LINE
  5
244
330
12E
100
AcDbEntity
  8
AM_4
100
AcDbLine
 10
-0.0655527913040005
 20
2.434187882092094
 30
0.0
 11
-0.0597256228029998
 21
2.434795907855727
 31
0.0
  0
LINE
  5
245
330
12E
100
AcDbEntity
  8
AM_4
100
AcDbLine
 10
-0.0597256228029999
 20
2.434795907855727
 30
0.0
 11
-0.0480720732030015
 21
2.43534227645294
 31
0.0
  0
LINE
  5
246
330
12E
100
AcDbEntity
  8
AM_4
100
AcDbLine
 10
-0.0480720732030032
 20
2.43534227645294
 30
0.0
 11
-0.0364181299020026
 21
2.43559230519533
 31
0.0
  0
LINE
  5
247
330
12E
100
AcDbEntity
  8
AM_4
100
AcDbLine
 10
-0.0364181299020064
 20
2.435592305195331
 30
0.0
 11
0.0364181000000022
 21
2.43559230519533
 31
0.0
  0
LINE
  5
248
330
12E
100
AcDbEntity
  8
AM_4
100
AcDbLine
 10
-0.0538988163489109
 20
2.436911364764141
 30
0.0
 11
0.0538987683457739
 21
2.436911364764141
 31
0.0
  0
LINE
  5
249
330
12E
100
AcDbEntity
  8
AM_4
100
AcDbLine
 10
0.0684660999999998
 20
2.437418800928865
 30
0.0
 11
0.0655527999999998
 21
2.437245823252137
 31
0.0
  0
LINE
  5
24A
330
12E
100
AcDbEntity
  8
AM_4
100
AcDbLine
 10
0.0655528000000002
 20
2.437245823252137
 30
0.0
 11
0.0480720000000001
 21
2.43676911340221
 31
0.0
  0
LINE
  5
24B
330
12E
100
AcDbEntity
  8
AM_4
100
AcDbLine
 10
0.0364180999999993
 20
2.436611461098626
 30
0.0
 11
-0.0364181299020006
 21
2.436611461098626
 31
0.0
  0
LINE
  5
24C
330
12E
100
AcDbEntity
  8
AM_4
100
AcDbLine
 10
-0.0364181299020003
 20
2.436611461098626
 30
0.0
 11
-0.0655527913039999
 21
2.437245823252137
 31
0.0
  0
LINE
  5
24D
330
12E
100
AcDbEntity
  8
AM_4
100
AcDbLine
 10
-0.0655527913040001
 20
2.437245823252136
 30
0.0
 11
-0.0684661787040001
 21
2.437418800928864
 31
0.0
  0
LINE
  5
24E
330
12E
100
AcDbEntity
  8
AM_4
100
AcDbLine
 10
0.7708325625000002
 20
2.437499999999998
 30
0.0
 11
0.0684661
 21
2.437499999999998
 31
0.0
  0
LINE
  5
24F
330
12E
100
AcDbEntity
  8
AM_4
100
AcDbLine
 10
-0.0684661787040001
 20
2.437499999999998
 30
0.0
 11
-0.7708325625
 21
2.437499999999998
 31
0.0
  0
LINE
  5
250
330
12E
100
AcDbEntity
  8
AM_4
100
AcDbLine
 10
0.7708325625
 20
2.437499999999999
 30
0.0
 11
1.15625
 21
-1.750000000000002
 31
0.0
  0
LINE
  5
251
330
12E
100
AcDbEntity
  8
AM_4
100
AcDbLine
 10
-0.9423100482536868
 20
0.5744240160713667
 30
0.0
 11
0.9423100482536872
 21
0.5744240160713667
 31
0.0
  0
LINE
  5
252
330
12E
100
AcDbEntity
  8
AM_4
100
AcDbLine
 10
1.15625
 20
-2.4375
 30
0.0
 11
1.15625
 21
-1.750000000000002
 31
0.0
  0
LWPOLYLINE
  5
253
330
12E
100
AcDbEntity
  8
AM_4
100
AcDbPolyline
 90
       29
 70
     0
 43
0.0
 10
0.671994466123048
 20
-1.75
 10
0.6472126098981206
 20
-1.512474203454407
 10
0.61750507491421
 20
-1.284759327639471
 10
0.5830979534504436
 20
-1.068588420258143
 10
0.5442531044767488
 20
-0.8656066724431589
 10
0.5012661607489765
 20
-0.6773588978591195
 10
0.454464278865121
 20
-0.5052777757377247
 10
0.4042036494060678
 20
-0.3506729473237396
 10
0.3508667861101981
 20
-0.2147210487143439
 10
0.2948596147128717
 20
-0.098456755947954
 10
0.2366083836064773
 20
-0.0027649104948236
 10
0.1765564198327893
 20
0.0716262149208349
 10
0.1151607550964929
 20
0.1241504589160174
 10
0.052888647477947
 20
0.1544080802789158
 10
-0.0097859746829446
 20
0.1621688002409067
 10
-0.0723861196675659
 20
0.1473735550370277
 10
-0.1344353625735829
 20
0.1101349454168954
 10
-0.1954614711961236
 20
0.0507363796850044
 10
-0.2549999999999987
 20
-0.0303700832075891
 10
-0.3125978248306641
 20
-0.1325671741048528
 10
-0.3678165914626407
 20
-0.2550771114367672
 10
-0.4202360517398566
 20
-0.3969675206067141
 10
-0.4694572619178664
 20
-0.5571585299251381
 10
-0.5151056188666362
 20
-0.7344309890851505
 10
-0.5568337110265545
 20
-0.9274357476325057
 10
-0.5943239624201732
 20
-1.134703922815199
 10
-0.6272910495971543
 20
-1.354658078668145
 10
-0.6554840731180093
 20
-1.585624231253351
 10
-0.6719944661230474
 20
-1.750000000000001
  0
LINE
  5
254
330
12E
100
AcDbEntity
  8
AM_4
100
AcDbLine
 10
0.7974902000000004
 20
-1.75
 30
0.0
 11
0.7974902000000004
 21
-1.9791664375
 31
0.0
  0
LINE
  5
255
330
12E
100
AcDbEntity
  8
AM_4
100
AcDbLine
 10
0.000000000000001
 20
-1.9791664375
 30
0.0
 11
1.15625
 21
-1.9791664375
 31
0.0
  0
LINE
  5
256
330
12E
100
AcDbEntity
  8
AM_4
100
AcDbLine
 10
0.9212500000000005
 20
-2.4375
 30
0.0
 11
0.9212500000000007
 21
-1.9791664375
 31
0.0
  0
LINE
  5
257
330
12E
100
AcDbEntity
  8
AM_4
100
AcDbLine
 10
-0.9212499999999995
 20
-1.8090551
 30
0.0
 11
0.0000000000000005
 21
-1.8090551
 31
0.0
  0
LINE
  5
258
330
12E
100
AcDbEntity
  8
AM_4
100
AcDbLine
 10
0.0000000000000005
 20
-1.8090551
 30
0.0
 11
0.000000000000001
 21
-1.9791664375
 31
0.0
  0
LINE
  5
259
330
12E
100
AcDbEntity
  8
AM_4
100
AcDbLine
 10
0.7187500000000008
 20
-1.75
 30
0.0
 11
0.7187500000000008
 21
-1.9791664375
 31
0.0
  0
LINE
  5
25A
330
12E
100
AcDbEntity
  8
AM_4
100
AcDbLine
 10
-1.15625
 20
-1.75
 30
0.0
 11
1.15625
 21
-1.750000000000002
 31
0.0
  0
LWPOLYLINE
  5
25B
330
12E
100
AcDbEntity
  8
AM_4
100
AcDbPolyline
 90
        9
 70
     0
 43
0.0
 10
0.0000000000000005
 20
-1.8090551
 10
0.0010227175181089
 20
-1.808761947067261
 10
0.0438330099844454
 20
-1.796555145835814
 10
0.0865964070779584
 20
-1.78474503218007
 10
0.1299004520065525
 20
-1.77358406054754
 10
0.1730297808087124
 20
-1.763780253949305
 10
0.2292209356425822
 20
-1.754062209728533
 10
0.2574380545299927
 20
-1.751098760873781
 10
0.2853142152329448
 20
-1.75
  0
LWPOLYLINE
  5
25C
330
12E
100
AcDbEntity
  8
AM_4
100
AcDbPolyline
 90
       19
 70
     0
 43
0.0
 10
-0.9803050999999999
 20
-1.75
 10
-0.9751581088964627
 20
-1.750224722484722
 10
-0.9700502895030617
 20
-1.750897179665088
 10
-0.965020515409566
 20
-1.752012253735916
 10
-0.9601070662338882
 20
-1.753561458310226
 10
-0.9553473362910767
 20
-1.755533003005772
 10
-0.9507775499999999
 20
-1.757911883176969
 10
-0.9464324861936453
 20
-1.760679994109309
 10
-0.9423452134312003
 20
-1.763816268807164
 10
-0.9385468383263501
 20
-1.76729683832635
 10
-0.9350662688071641
 20
-1.7710952134312
 10
-0.931929994109309
 20
-1.775182486193645
 10
-0.9291618831769693
 20
-1.779527549999999
 10
-0.9267830030057715
 20
-1.784097336291076
 10
-0.9248114583102258
 20
-1.788857066233888
 10
-0.9232622537359162
 20
-1.793770515409566
 10
-0.9221471796650884
 20
-1.798800289503061
 10
-0.9214747224847218
 20
-1.803908108896462
 10
-0.9212499999999997
 20
-1.809055099999999
  0
LINE
  5
25D
330
12E
100
AcDbEntity
  8
AM_4
100
AcDbLine
 10
-1.15625
 20
-1.75
 30
0.0
 11
-1.15625
 21
-2.4375
 31
0.0
  0
LINE
  5
25E
330
12E
100
AcDbEntity
  8
AM_4
100
AcDbLine
 10
-1.15625
 20
-2.4375
 30
0.0
 11
1.15625
 21
-2.4375
 31
0.0
  0
LINE
  5
25F
330
12E
100
AcDbEntity
  8
AM_4
100
AcDbLine
 10
-0.9212499999999995
 20
-1.8090551
 30
0.0
 11
-0.9212499999999997
 21
-2.4375
 31
0.0
  0
ENDBLK
  5
131
330
12E
100
AcDbEntity
  8
0
100
AcDbBlockEnd
  0
ENDSEC
  0
SECTION
  2
ENTITIES
  0
INSERT
  5
6F
330
1F
100
AcDbEntity
  8
0
100
AcDbBlockReference
  2
1_129199_2
 10
0.0
 20
0.0
 30
0.0
  0
POINT
  5
261
330
1F
100
AcDbEntity
  8
ConnectionPoints
100
AcDbPoint
 10
0.0
 20
0.0
 30
0.0
  0
POINT
  5
262
330
1F
100
AcDbEntity
  8
ConnectionPoints
100
AcDbPoint
 10
0.703125
 20
0.0
 30
0.0
  0
POINT
  5
263
330
1F
100
AcDbEntity
  8
ConnectionPoints
100
AcDbPoint
 10
0.0
 20
0.0
 30
0.0
  0
POINT
  5
264
330
1F
100
AcDbEntity
  8
ConnectionPoints
100
AcDbPoint
 10
0.0
 20
0.0
 30
0.0
  0
ENDSEC
  0
SECTION
  2
OBJECTS
  0
DICTIONARY
  5
C
330
0
100
AcDbDictionary
281
     1
  3
ACAD_DETAILVIEWSTYLE
350
26C
  3
ACAD_GROUP
350
D
  3
ACAD_LAYOUT
350
1A
  3
ACAD_MATERIAL
350
43
  3
ACAD_MLEADERSTYLE
350
6B
  3
ACAD_MLINESTYLE
350
17
  3
ACAD_PLOTSETTINGS
350
19
  3
ACAD_PLOTSTYLENAME
350
E
  3
ACAD_SCALELIST
350
47
  3
ACAD_SECTIONVIEWSTYLE
350
26D
  3
ACAD_TABLESTYLE
350
69
  3
ACAD_VISUALSTYLE
350
2A
  3
ACDB_RECOMPOSE_DATA
350
269
  3
AcDbVariableDictionary
350
265
  0
SUN
  5
6D
330
29
100
AcDbSun
 90
        1
290
     0
 63
     7
421
 16777215
 40
1.0
291
     1
 91
  2455826
 92
 54000000
292
     0
 70
     2
 71
   256
280
     1
  0
DICTIONARY
  5
26C
102
{ACAD_REACTORS
330
C
102
}
330
C
100
AcDbDictionary
281
     1
  0
DICTIONARY
  5
D
102
{ACAD_REACTORS
330
C
102
}
330
C
100
AcDbDictionary
281
     1
  0
DICTIONARY
  5
1A
102
{ACAD_REACTORS
330
C
102
}
330
C
100
AcDbDictionary
281
     1
  3
Layout1
350
1E
  3
Layout2
350
26
  3
Model
350
22
  0
DICTIONARY
  5
43
102
{ACAD_REACTORS
330
C
102
}
330
C
100
AcDbDictionary
281
     1
  3
ByBlock
350
45
  3
ByLayer
350
44
  3
Global
350
46
  0
DICTIONARY
  5
6B
102
{ACAD_REACTORS
330
C
102
}
330
C
100
AcDbDictionary
281
     1
  3
Standard
350
6C
  0
DICTIONARY
  5
17
102
{ACAD_REACTORS
330
C
102
}
330
C
100
AcDbDictionary
281
     1
  3
Standard
350
18
  0
DICTIONARY
  5
19
102
{ACAD_REACTORS
330
C
102
}
330
C
100
AcDbDictionary
281
     1
  0
ACDBDICTIONARYWDFLT
  5
E
102
{ACAD_REACTORS
330
C
102
}
330
C
100
AcDbDictionary
281
     1
  3
Normal
350
F
100
AcDbDictionaryWithDefault
340
F
  0
DICTIONARY
  5
47
102
{ACAD_REACTORS
330
C
102
}
330
C
100
AcDbDictionary
281
     1
  3
A0
350
48
  3
A1
350
49
  3
A2
350
4A
  3
A3
350
4B
  3
A4
350
4C
  3
A5
350
4D
  3
A6
350
4E
  3
A7
350
4F
  3
A8
350
50
  3
A9
350
51
  3
B0
350
52
  3
B1
350
53
  3
B2
350
54
  3
B3
350
55
  3
B4
350
56
  3
B5
350
57
  3
B6
350
58
  3
B7
350
59
  3
B8
350
5A
  3
B9
350
5B
  3
C0
350
5C
  3
C1
350
5D
  3
C2
350
5E
  3
C3
350
5F
  3
C4
350
60
  3
C5
350
61
  3
C6
350
62
  3
C7
350
63
  3
C8
350
64
  3
C9
350
65
  3
D0
350
66
  3
D1
350
67
  3
D2
350
68
  0
DICTIONARY
  5
26D
102
{ACAD_REACTORS
330
C
102
}
330
C
100
AcDbDictionary
281
     1
  0
DICTIONARY
  5
69
102
{ACAD_REACTORS
330
C
102
}
330
C
100
AcDbDictionary
281
     1
  3
Standard
350
6A
  0
DICTIONARY
  5
2A
102
{ACAD_REACTORS
330
C
102
}
330
C
100
AcDbDictionary
281
     1
  3
2dWireframe
350
2F
  3
Basic
350
32
  3
Brighten
350
36
  3
ColorChange
350
3A
  3
Conceptual
350
34
  3
Dim
350
35
  3
EdgeColorOff
350
3D
  3
Facepattern
350
39
  3
Flat
350
2B
  3
FlatWithEdges
350
2C
  3
Gouraud
350
2D
  3
GouraudWithEdges
350
2E
  3
Hidden
350
31
  3
JitterOff
350
3B
  3
Linepattern
350
38
  3
OverhangOff
350
3C
  3
Realistic
350
33
  3
Shaded
350
42
  3
Shaded with edges
350
41
  3
Shades of Gray
350
3E
  3
Sketchy
350
3F
  3
Thicken
350
37
  3
Wireframe
350
30
  3
X-Ray
350
40
  0
XRECORD
  5
269
102
{ACAD_REACTORS
330
C
102
}
330
C
100
AcDbXrecord
280
     1
 90
        1
330
6A
  0
DICTIONARY
  5
265
102
{ACAD_REACTORS
330
C
102
}
330
C
100
AcDbDictionary
281
     1
  3
CANNOSCALE
350
266
  3
CMLEADERSTYLE
350
26B
  3
CTABLESTYLE
350
26A
  0
LAYOUT
  5
1E
102
{ACAD_REACTORS
330
1A
102
}
330
1A
100
AcDbPlotSettings
  1

  2
none_device
  4

  6

 40
0.0
 41
0.0
 42
0.0
 43
0.0
 44
0.0
 45
0.0
 46
0.0
 47
0.0
 48
0.0
 49
0.0
140
0.0
141
0.0
142
1.0
143
1.0
 70
   688
 72
     0
 73
     0
 74
     5
  7

 75
    16
 76
     0
 77
     2
 78
   300
147
1.0
148
0.0
149
0.0
100
AcDbLayout
  1
Layout1
 70
     1
 71
     1
 10
0.0
 20
0.0
 11
12.0
 21
9.0
 12
0.0
 22
0.0
 32
0.0
 14
1.000000000000000E+20
 24
1.000000000000000E+20
 34
1.000000000000000E+20
 15
-1.000000000000000E+20
 25
-1.000000000000000E+20
 35
-1.000000000000000E+20
146
0.0
 13
0.0
 23
0.0
 33
0.0
 16
1.0
 26
0.0
 36
0.0
 17
0.0
 27
1.0
 37
0.0
 76
     0
330
1B
  0
LAYOUT
  5
26
102
{ACAD_REACTORS
330
1A
102
}
330
1A
100
AcDbPlotSettings
  1

  2
none_device
  4

  6

 40
0.0
 41
0.0
 42
0.0
 43
0.0
 44
0.0
 45
0.0
 46
0.0
 47
0.0
 48
0.0
 49
0.0
140
0.0
141
0.0
142
1.0
143
1.0
 70
   688
 72
     0
 73
     0
 74
     5
  7

 75
    16
 76
     0
 77
     2
 78
   300
147
1.0
148
0.0
149
0.0
100
AcDbLayout
  1
Layout2
 70
     1
 71
     2
 10
0.0
 20
0.0
 11
0.0
 21
0.0
 12
0.0
 22
0.0
 32
0.0
 14
0.0
 24
0.0
 34
0.0
 15
0.0
 25
0.0
 35
0.0
146
0.0
 13
0.0
 23
0.0
 33
0.0
 16
1.0
 26
0.0
 36
0.0
 17
0.0
 27
1.0
 37
0.0
 76
     0
330
23
  0
LAYOUT
  5
22
102
{ACAD_REACTORS
330
1A
102
}
330
1A
100
AcDbPlotSettings
  1

  2
none_device
  4
Letter_(8.50_x_11.00_Inches)
  6

 40
6.35
 41
6.35
 42
6.35000508
 43
6.35000508
 44
215.9
 45
279.4
 46
0.0
 47
0.0
 48
0.0
 49
0.0
140
0.0
141
0.0
142
1.0
143
1.0
 70
  1712
 72
     0
 73
     0
 74
     0
  7

 75
     0
 76
     0
 77
     2
 78
   300
147
1.0
148
0.0
149
0.0
100
AcDbLayout
  1
Model
 70
     1
 71
     0
 10
0.0
 20
0.0
 11
12.0
 21
9.0
 12
0.0
 22
0.0
 32
0.0
 14
1.000000000000000E+20
 24
1.000000000000000E+20
 34
1.000000000000000E+20
 15
-1.000000000000000E+20
 25
-1.000000000000000E+20
 35
-1.000000000000000E+20
146
0.0
 13
0.0
 23
0.0
 33
0.0
 16
1.0
 26
0.0
 36
0.0
 17
0.0
 27
1.0
 37
0.0
 76
     0
330
1F
331
29
  0
MATERIAL
  5
45
102
{ACAD_REACTORS
330
43
102
}
330
43
100
AcDbMaterial
  1
ByBlock
 72
     1
 94
      127
  0
MATERIAL
  5
44
102
{ACAD_REACTORS
330
43
102
}
330
43
100
AcDbMaterial
  1
ByLayer
 72
     1
 94
      127
  0
MATERIAL
  5
46
102
{ACAD_REACTORS
330
43
102
}
330
43
100
AcDbMaterial
  1
Global
 72
     1
 94
      127
  0
MLEADERSTYLE
  5
6C
102
{ACAD_REACTORS
330
6B
102
}
330
6B
100
AcDbMLeaderStyle
179
     2
170
     2
171
     1
172
     0
 90
        2
 40
0.0
 41
0.0
173
     1
 91
-1056964608
340
14
 92
       -2
290
     1
 42
0.09
291
     1
 43
0.36
  3
Standard
341
0
 44
0.18
300

342
11
174
     1
178
     6
175
     1
176
     0
 93
-1056964608
 45
0.18
292
     0
297
     0
 46
0.18
343
0
 94
-1056964608
 47
1.0
 49
1.0
140
1.0
293
     1
141
0.0
294
     1
177
     0
142
1.0
295
     0
296
     0
143
0.125
271
     0
272
     9
273
     9
298
     0
  0
MLINESTYLE
  5
18
102
{ACAD_REACTORS
330
17
102
}
330
17
100
AcDbMlineStyle
  2
Standard
 70
     0
  3

 62
   256
 51
90.0
 52
90.0
 71
     2
 49
0.5
 62
   256
  6
BYLAYER
 49
-0.5
 62
   256
  6
BYLAYER
  0
ACDBPLACEHOLDER
  5
F
102
{ACAD_REACTORS
330
E
102
}
330
E
  0
SCALE
  5
48
102
{ACAD_REACTORS
330
47
102
}
330
47
100
AcDbScale
 70
     0
300
1:1
140
1.0
141
1.0
290
     1
  0
SCALE
  5
49
102
{ACAD_REACTORS
330
47
102
}
330
47
100
AcDbScale
 70
     0
300
1:2
140
1.0
141
2.0
290
     0
  0
SCALE
  5
4A
102
{ACAD_REACTORS
330
47
102
}
330
47
100
AcDbScale
 70
     0
300
1:4
140
1.0
141
4.0
290
     0
  0
SCALE
  5
4B
102
{ACAD_REACTORS
330
47
102
}
330
47
100
AcDbScale
 70
     0
300
1:5
140
1.0
141
5.0
290
     0
  0
SCALE
  5
4C
102
{ACAD_REACTORS
330
47
102
}
330
47
100
AcDbScale
 70
     0
300
1:8
140
1.0
141
8.0
290
     0
  0
SCALE
  5
4D
102
{ACAD_REACTORS
330
47
102
}
330
47
100
AcDbScale
 70
     0
300
1:10
140
1.0
141
10.0
290
     0
  0
SCALE
  5
4E
102
{ACAD_REACTORS
330
47
102
}
330
47
100
AcDbScale
 70
     0
300
1:16
140
1.0
141
16.0
290
     0
  0
SCALE
  5
4F
102
{ACAD_REACTORS
330
47
102
}
330
47
100
AcDbScale
 70
     0
300
1:20
140
1.0
141
20.0
290
     0
  0
SCALE
  5
50
102
{ACAD_REACTORS
330
47
102
}
330
47
100
AcDbScale
 70
     0
300
1:30
140
1.0
141
30.0
290
     0
  0
SCALE
  5
51
102
{ACAD_REACTORS
330
47
102
}
330
47
100
AcDbScale
 70
     0
300
1:40
140
1.0
141
40.0
290
     0
  0
SCALE
  5
52
102
{ACAD_REACTORS
330
47
102
}
330
47
100
AcDbScale
 70
     0
300
1:50
140
1.0
141
50.0
290
     0
  0
SCALE
  5
53
102
{ACAD_REACTORS
330
47
102
}
330
47
100
AcDbScale
 70
     0
300
1:100
140
1.0
141
100.0
290
     0
  0
SCALE
  5
54
102
{ACAD_REACTORS
330
47
102
}
330
47
100
AcDbScale
 70
     0
300
2:1
140
2.0
141
1.0
290
     0
  0
SCALE
  5
55
102
{ACAD_REACTORS
330
47
102
}
330
47
100
AcDbScale
 70
     0
300
4:1
140
4.0
141
1.0
290
     0
  0
SCALE
  5
56
102
{ACAD_REACTORS
330
47
102
}
330
47
100
AcDbScale
 70
     0
300
8:1
140
8.0
141
1.0
290
     0
  0
SCALE
  5
57
102
{ACAD_REACTORS
330
47
102
}
330
47
100
AcDbScale
 70
     0
300
10:1
140
10.0
141
1.0
290
     0
  0
SCALE
  5
58
102
{ACAD_REACTORS
330
47
102
}
330
47
100
AcDbScale
 70
     0
300
100:1
140
100.0
141
1.0
290
     0
  0
SCALE
  5
59
102
{ACAD_REACTORS
330
47
102
}
330
47
100
AcDbScale
 70
     0
300
1/128" = 1'-0"
140
0.0078125
141
12.0
290
     0
  0
SCALE
  5
5A
102
{ACAD_REACTORS
330
47
102
}
330
47
100
AcDbScale
 70
     0
300
1/64" = 1'-0"
140
0.015625
141
12.0
290
     0
  0
SCALE
  5
5B
102
{ACAD_REACTORS
330
47
102
}
330
47
100
AcDbScale
 70
     0
300
1/32" = 1'-0"
140
0.03125
141
12.0
290
     0
  0
SCALE
  5
5C
102
{ACAD_REACTORS
330
47
102
}
330
47
100
AcDbScale
 70
     0
300
1/16" = 1'-0"
140
0.0625
141
12.0
290
     0
  0
SCALE
  5
5D
102
{ACAD_REACTORS
330
47
102
}
330
47
100
AcDbScale
 70
     0
300
3/32" = 1'-0"
140
0.09375
141
12.0
290
     0
  0
SCALE
  5
5E
102
{ACAD_REACTORS
330
47
102
}
330
47
100
AcDbScale
 70
     0
300
1/8" = 1'-0"
140
0.125
141
12.0
290
     0
  0
SCALE
  5
5F
102
{ACAD_REACTORS
330
47
102
}
330
47
100
AcDbScale
 70
     0
300
3/16" = 1'-0"
140
0.1875
141
12.0
290
     0
  0
SCALE
  5
60
102
{ACAD_REACTORS
330
47
102
}
330
47
100
AcDbScale
 70
     0
300
1/4" = 1'-0"
140
0.25
141
12.0
290
     0
  0
SCALE
  5
61
102
{ACAD_REACTORS
330
47
102
}
330
47
100
AcDbScale
 70
     0
300
3/8" = 1'-0"
140
0.375
141
12.0
290
     0
  0
SCALE
  5
62
102
{ACAD_REACTORS
330
47
102
}
330
47
100
AcDbScale
 70
     0
300
1/2" = 1'-0"
140
0.5
141
12.0
290
     0
  0
SCALE
  5
63
102
{ACAD_REACTORS
330
47
102
}
330
47
100
AcDbScale
 70
     0
300
3/4" = 1'-0"
140
0.75
141
12.0
290
     0
  0
SCALE
  5
64
102
{ACAD_REACTORS
330
47
102
}
330
47
100
AcDbScale
 70
     0
300
1" = 1'-0"
140
1.0
141
12.0
290
     0
  0
SCALE
  5
65
102
{ACAD_REACTORS
330
47
102
}
330
47
100
AcDbScale
 70
     0
300
1-1/2" = 1'-0"
140
1.5
141
12.0
290
     0
  0
SCALE
  5
66
102
{ACAD_REACTORS
330
47
102
}
330
47
100
AcDbScale
 70
     0
300
3" = 1'-0"
140
3.0
141
12.0
290
     0
  0
SCALE
  5
67
102
{ACAD_REACTORS
330
47
102
}
330
47
100
AcDbScale
 70
     0
300
6" = 1'-0"
140
6.0
141
12.0
290
     0
  0
SCALE
  5
68
102
{ACAD_REACTORS
330
47
102
}
330
47
100
AcDbScale
 70
     0
300
1'-0" = 1'-0"
140
12.0
141
12.0
290
     0
  0
TABLESTYLE
  5
6A
102
{ACAD_REACTORS
330
69
102
}
102
{ACAD_XDICTIONARY
360
267
102
}
330
69
100
AcDbTableStyle
  3
Standard
 70
     0
 71
     0
 40
0.06
 41
0.06
280
     0
281
     0
  7
Standard
140
0.18
170
     2
 62
     0
 63
   257
283
     0
 90
        4
 91
        0
  1

274
    -2
284
     1
 64
     0
275
    -2
285
     1
 65
     0
276
    -2
286
     1
 66
     0
277
    -2
287
     1
 67
     0
278
    -2
288
     1
 68
     0
279
    -2
289
     1
 69
     0
  7
Standard
140
0.25
170
     5
 62
     0
 63
   257
283
     0
 90
        4
 91
        0
  1

274
    -2
284
     1
 64
     0
275
    -2
285
     1
 65
     0
276
    -2
286
     1
 66
     0
277
    -2
287
     1
 67
     0
278
    -2
288
     1
 68
     0
279
    -2
289
     1
 69
     0
  7
Standard
140
0.18
170
     5
 62
     0
 63
   257
283
     0
 90
        4
 91
        0
  1

274
    -2
284
     1
 64
     0
275
    -2
285
     1
 65
     0
276
    -2
286
     1
 66
     0
277
    -2
287
     1
 67
     0
278
    -2
288
     1
 68
     0
279
    -2
289
     1
 69
     0
  0
VISUALSTYLE
  5
2F
102
{ACAD_REACTORS
330
2A
102
}
330
2A
100
AcDbVisualStyle
  2
2dWireframe
 70
     4
177
     3
291
     0
 70
    58
 90
        0
176
     1
 90
        2
176
     1
 90
        0
176
     1
 90
        0
176
     1
 40
0.6
176
     1
 40
30.0
176
     1
 62
     7
420
 16777215
176
     1
 90
        1
176
     1
 90
        4
176
     1
 62
     7
176
     1
 62
   257
176
     1
 90
        1
176
     1
 90
        1
176
     1
 40
1.0
176
     1
 90
        0
176
     1
 62
   257
176
     1
 40
1.0
176
     1
 90
        1
176
     1
 90
        6
176
     1
 90
        2
176
     1
 62
     7
176
     1
 90
        5
176
     1
 90
        0
176
     1
 90
        0
176
     1
290
     0
176
     1
 90
        1
176
     1
 40
0.0
176
     1
 90
        0
176
     1
290
     1
176
     1
290
     1
176
     1
290
     0
176
     1
290
     0
176
     1
290
     0
176
     1
290
     0
176
     1
290
     0
176
     1
290
     0
176
     1
290
     0
176
     1
 90
       50
176
     1
 40
0.0
176
     1
 40
1.0
176
     1
 90
        0
176
     1
 62
    18
420
        0
176
     1
 90
       50
176
     1
 90
        3
176
     1
 62
     5
420
      255
176
     1
290
     0
176
     1
 90
       50
176
     1
 90
       50
176
     1
 90
       50
176
     1
290
     0
176
     1
 90
       50
176
     1
 62
   256
176
     0
 40
1.0
176
     0
 90
        2
176
     1
  1
strokes_ogs.tif
176
     1
290
     0
176
     1
 40
1.0
176
     1
 40
1.0
176
     1
  0
VISUALSTYLE
  5
32
102
{ACAD_REACTORS
330
2A
102
}
330
2A
100
AcDbVisualStyle
  2
Basic
 70
     7
177
     3
291
     1
 70
    58
 90
        1
176
     1
 90
        0
176
     1
 90
        1
176
     1
 90
        0
176
     1
 40
0.6
176
     1
 40
30.0
176
     1
 62
     7
420
 16777215
176
     1
 90
        0
176
     1
 90
        4
176
     1
 62
     7
176
     1
 62
   257
176
     1
 90
        1
176
     1
 90
        1
176
     1
 40
1.0
176
     1
 90
        8
176
     1
 62
     7
176
     1
 40
1.0
176
     1
 90
        1
176
     1
 90
        6
176
     1
 90
        2
176
     1
 62
     7
176
     1
 90
        5
176
     1
 90
        0
176
     1
 90
        0
176
     1
290
     0
176
     1
 90
        1
176
     1
 40
0.0
176
     1
 90
        0
176
     1
290
     0
176
     1
290
     1
176
     1
290
     1
176
     1
290
     0
176
     1
290
     0
176
     1
290
     0
176
     1
290
     0
176
     1
290
     0
176
     1
290
     0
176
     1
 90
       50
176
     1
 40
0.0
176
     1
 40
1.0
176
     1
 90
        0
176
     1
 62
    18
420
        0
176
     1
 90
       50
176
     1
 90
        3
176
     1
 62
     5
420
      255
176
     1
290
     0
176
     1
 90
       50
176
     1
 90
       50
176
     1
 90
       50
176
     1
290
     0
176
     1
 90
       50
176
     1
 62
   256
176
     0
 40
1.0
176
     0
 90
        2
176
     1
  1
strokes_ogs.tif
176
     1
290
     0
176
     1
 40
1.0
176
     1
 40
1.0
176
     1
  0
VISUALSTYLE
  5
36
102
{ACAD_REACTORS
330
2A
102
}
330
2A
100
AcDbVisualStyle
  2
Brighten
 70
    12
177
     3
291
     1
 70
    58
 90
        2
176
     1
 90
        2
176
     1
 90
        0
176
     1
 90
        0
176
     1
 40
0.6
176
     1
 40
30.0
176
     1
 62
     7
420
 16777215
176
     1
 90
        1
176
     1
 90
        4
176
     1
 62
     7
176
     1
 62
   257
176
     1
 90
        1
176
     1
 90
        1
176
     1
 40
1.0
176
     1
 90
        8
176
     1
 62
     7
176
     1
 40
1.0
176
     1
 90
        1
176
     1
 90
        6
176
     1
 90
        2
176
     1
 62
     7
176
     1
 90
        5
176
     1
 90
        0
176
     1
 90
        0
176
     1
290
     0
176
     1
 90
        1
176
     1
 40
50.0
176
     1
 90
        0
176
     1
290
     0
176
     1
290
     1
176
     1
290
     1
176
     1
290
     0
176
     1
290
     0
176
     1
290
     0
176
     1
290
     0
176
     1
290
     0
176
     1
290
     0
176
     1
 90
       50
176
     1
 40
0.0
176
     1
 40
1.0
176
     1
 90
        0
176
     1
 62
    18
420
        0
176
     1
 90
       50
176
     1
 90
        3
176
     1
 62
     5
420
      255
176
     1
290
     0
176
     1
 90
       50
176
     1
 90
       50
176
     1
 90
       50
176
     1
290
     0
176
     1
 90
       50
176
     1
 62
   256
176
     0
 40
1.0
176
     0
 90
        2
176
     1
  1
strokes_ogs.tif
176
     1
290
     0
176
     1
 40
1.0
176
     1
 40
1.0
176
     1
  0
VISUALSTYLE
  5
3A
102
{ACAD_REACTORS
330
2A
102
}
330
2A
100
AcDbVisualStyle
  2
ColorChange
 70
    16
177
     3
291
     1
 70
    58
 90
        2
176
     1
 90
        2
176
     1
 90
        3
176
     1
 90
        0
176
     1
 40
0.6
176
     1
 40
30.0
176
     1
 62
     8
420
  8421504
176
     1
 90
        1
176
     1
 90
        4
176
     1
 62
     7
176
     1
 62
   257
176
     1
 90
        1
176
     1
 90
        1
176
     1
 40
1.0
176
     1
 90
        8
176
     1
 62
     8
420
  8421504
176
     1
 40
1.0
176
     1
 90
        1
176
     1
 90
        6
176
     1
 90
        2
176
     1
 62
     7
176
     1
 90
        5
176
     1
 90
        0
176
     1
 90
        0
176
     1
290
     0
176
     1
 90
        1
176
     1
 40
0.0
176
     1
 90
        0
176
     1
290
     0
176
     1
290
     1
176
     1
290
     1
176
     1
290
     0
176
     1
290
     0
176
     1
290
     0
176
     1
290
     0
176
     1
290
     0
176
     1
290
     0
176
     1
 90
       50
176
     1
 40
0.0
176
     1
 40
1.0
176
     1
 90
        0
176
     1
 62
    18
420
        0
176
     1
 90
       50
176
     1
 90
        3
176
     1
 62
     5
420
      255
176
     1
290
     0
176
     1
 90
       50
176
     1
 90
       50
176
     1
 90
       50
176
     1
290
     0
176
     1
 90
       50
176
     1
 62
   256
176
     0
 40
1.0
176
     0
 90
        2
176
     1
  1
strokes_ogs.tif
176
     1
290
     0
176
     1
 40
1.0
176
     1
 40
1.0
176
     1
  0
VISUALSTYLE
  5
34
102
{ACAD_REACTORS
330
2A
102
}
330
2A
100
AcDbVisualStyle
  2
Conceptual
 70
     9
177
     3
291
     0
 70
    58
 90
        3
176
     1
 90
        2
176
     1
 90
        0
176
     1
 90
        0
176
     1
 40
0.6
176
     1
 40
30.0
176
     1
 62
     7
420
 16777215
176
     1
 90
        2
176
     1
 90
        2
176
     1
 62
     7
176
     1
 62
   257
176
     1
 90
        1
176
     1
 90
        1
176
     1
 40
179.0
176
     1
 90
        8
176
     1
 62
     7
176
     1
 40
1.0
176
     1
 90
        1
176
     1
 90
        6
176
     1
 90
        2
176
     1
 62
     7
176
     1
 90
        3
176
     1
 90
        0
176
     1
 90
        0
176
     1
290
     0
176
     1
 90
        1
176
     1
 40
0.0
176
     1
 90
        0
176
     1
290
     0
176
     1
290
     1
176
     1
290
     1
176
     1
290
     0
176
     1
290
     0
176
     1
290
     0
176
     1
290
     0
176
     1
290
     0
176
     1
290
     0
176
     1
 90
       50
176
     1
 40
0.0
176
     1
 40
1.0
176
     1
 90
        0
176
     1
 62
    18
420
        0
176
     1
 90
       50
176
     1
 90
        3
176
     1
 62
     5
420
      255
176
     1
290
     0
176
     1
 90
       50
176
     1
 90
       50
176
     1
 90
       50
176
     1
290
     0
176
     1
 90
       50
176
     1
 62
   256
176
     0
 40
1.0
176
     0
 90
        2
176
     1
  1
strokes_ogs.tif
176
     1
290
     0
176
     1
 40
1.0
176
     1
 40
1.0
176
     1
  0
VISUALSTYLE
  5
35
102
{ACAD_REACTORS
330
2A
102
}
330
2A
100
AcDbVisualStyle
  2
Dim
 70
    11
177
     3
291
     1
 70
    58
 90
        2
176
     1
 90
        2
176
     1
 90
        0
176
     1
 90
        0
176
     1
 40
0.6
176
     1
 40
30.0
176
     1
 62
     7
420
 16777215
176
     1
 90
        1
176
     1
 90
        4
176
     1
 62
     7
176
     1
 62
   257
176
     1
 90
        1
176
     1
 90
        1
176
     1
 40
1.0
176
     1
 90
        8
176
     1
 62
     7
176
     1
 40
1.0
176
     1
 90
        1
176
     1
 90
        6
176
     1
 90
        2
176
     1
 62
     7
176
     1
 90
        5
176
     1
 90
        0
176
     1
 90
        0
176
     1
290
     0
176
     1
 90
        1
176
     1
 40
-50.0
176
     1
 90
        0
176
     1
290
     0
176
     1
290
     1
176
     1
290
     1
176
     1
290
     0
176
     1
290
     0
176
     1
290
     0
176
     1
290
     0
176
     1
290
     0
176
     1
290
     0
176
     1
 90
       50
176
     1
 40
0.0
176
     1
 40
1.0
176
     1
 90
        0
176
     1
 62
    18
420
        0
176
     1
 90
       50
176
     1
 90
        3
176
     1
 62
     5
420
      255
176
     1
290
     0
176
     1
 90
       50
176
     1
 90
       50
176
     1
 90
       50
176
     1
290
     0
176
     1
 90
       50
176
     1
 62
   256
176
     0
 40
1.0
176
     0
 90
        2
176
     1
  1
strokes_ogs.tif
176
     1
290
     0
176
     1
 40
1.0
176
     1
 40
1.0
176
     1
  0
VISUALSTYLE
  5
3D
102
{ACAD_REACTORS
330
2A
102
}
330
2A
100
AcDbVisualStyle
  2
EdgeColorOff
 70
    22
177
     3
291
     1
 70
    58
 90
        2
176
     0
 90
        2
176
     0
 90
        0
176
     0
 90
        0
176
     0
 40
0.6
176
     0
 40
30.0
176
     0
 62
     7
420
 16777215
176
     0
 90
        1
176
     0
 90
        4
176
     0
 62
     7
176
     0
 62
   257
176
     0
 90
        1
176
     0
 90
        1
176
     0
 40
1.0
176
     0
 90
        8
176
     2
 62
     7
176
     0
 40
1.0
176
     0
 90
        1
176
     0
 90
        6
176
     0
 90
        2
176
     0
 62
     7
176
     0
 90
        5
176
     0
 90
        0
176
     0
 90
        0
176
     0
290
     0
176
     0
 90
        1
176
     0
 40
0.0
176
     0
 90
        0
176
     0
290
     0
176
     0
290
     1
176
     0
290
     1
176
     0
290
     0
176
     0
290
     0
176
     0
290
     0
176
     0
290
     0
176
     0
290
     0
176
     0
290
     0
176
     0
 90
       50
176
     0
 40
0.0
176
     0
 40
1.0
176
     0
 90
        0
176
     0
 62
    18
420
        0
176
     0
 90
       50
176
     0
 90
        3
176
     0
 62
     5
420
      255
176
     0
290
     0
176
     0
 90
       50
176
     0
 90
       50
176
     0
 90
       50
176
     0
290
     0
176
     0
 90
       50
176
     0
 62
   256
176
     0
 40
1.0
176
     0
 90
        2
176
     0
  1
strokes_ogs.tif
176
     0
290
     0
176
     0
 40
1.0
176
     0
 40
1.0
176
     0
  0
VISUALSTYLE
  5
39
102
{ACAD_REACTORS
330
2A
102
}
330
2A
100
AcDbVisualStyle
  2
Facepattern
 70
    15
177
     3
291
     1
 70
    58
 90
        2
176
     1
 90
        2
176
     1
 90
        0
176
     1
 90
        0
176
     1
 40
0.6
176
     1
 40
30.0
176
     1
 62
     7
420
 16777215
176
     1
 90
        1
176
     1
 90
        4
176
     1
 62
     7
176
     1
 62
   257
176
     1
 90
        1
176
     1
 90
        1
176
     1
 40
1.0
176
     1
 90
        8
176
     1
 62
     7
176
     1
 40
1.0
176
     1
 90
        1
176
     1
 90
        6
176
     1
 90
        2
176
     1
 62
     7
176
     1
 90
        5
176
     1
 90
        0
176
     1
 90
        0
176
     1
290
     0
176
     1
 90
        1
176
     1
 40
0.0
176
     1
 90
        0
176
     1
290
     0
176
     1
290
     1
176
     1
290
     1
176
     1
290
     0
176
     1
290
     0
176
     1
290
     0
176
     1
290
     0
176
     1
290
     0
176
     1
290
     0
176
     1
 90
       50
176
     1
 40
0.0
176
     1
 40
1.0
176
     1
 90
        0
176
     1
 62
    18
420
        0
176
     1
 90
       50
176
     1
 90
        3
176
     1
 62
     5
420
      255
176
     1
290
     0
176
     1
 90
       50
176
     1
 90
       50
176
     1
 90
       50
176
     1
290
     0
176
     1
 90
       50
176
     1
 62
   256
176
     0
 40
1.0
176
     0
 90
        2
176
     1
  1
strokes_ogs.tif
176
     1
290
     0
176
     1
 40
1.0
176
     1
 40
1.0
176
     1
  0
VISUALSTYLE
  5
2B
102
{ACAD_REACTORS
330
2A
102
}
330
2A
100
AcDbVisualStyle
  2
Flat
 70
     0
177
     3
291
     1
 70
    58
 90
        2
176
     1
 90
        1
176
     1
 90
        1
176
     1
 90
        2
176
     1
 40
0.6
176
     1
 40
30.0
176
     1
 62
     7
420
 16777215
176
     1
 90
        0
176
     1
 90
        0
176
     1
 62
     7
176
     1
 62
   257
176
     1
 90
        1
176
     1
 90
        1
176
     1
 40
1.0
176
     1
 90
        8
176
     1
 62
     7
176
     1
 40
1.0
176
     1
 90
        1
176
     1
 90
        6
176
     1
 90
        2
176
     1
 62
     7
176
     1
 90
        5
176
     1
 90
        0
176
     1
 90
        0
176
     1
290
     0
176
     1
 90
       13
176
     1
 40
0.0
176
     1
 90
        0
176
     1
290
     0
176
     1
290
     1
176
     1
290
     1
176
     1
290
     0
176
     1
290
     0
176
     1
290
     0
176
     1
290
     0
176
     1
290
     0
176
     1
290
     0
176
     1
 90
       50
176
     1
 40
0.0
176
     1
 40
1.0
176
     1
 90
        0
176
     1
 62
    18
420
        0
176
     1
 90
       50
176
     1
 90
        3
176
     1
 62
     5
420
      255
176
     1
290
     0
176
     1
 90
       50
176
     1
 90
       50
176
     1
 90
       50
176
     1
290
     0
176
     1
 90
       50
176
     1
 62
   256
176
     0
 40
1.0
176
     0
 90
        2
176
     1
  1
strokes_ogs.tif
176
     1
290
     0
176
     1
 40
1.0
176
     1
 40
1.0
176
     1
  0
VISUALSTYLE
  5
2C
102
{ACAD_REACTORS
330
2A
102
}
330
2A
100
AcDbVisualStyle
  2
FlatWithEdges
 70
     1
177
     3
291
     1
 70
    58
 90
        2
176
     1
 90
        1
176
     1
 90
        1
176
     1
 90
        2
176
     1
 40
0.6
176
     1
 40
30.0
176
     1
 62
     7
420
 16777215
176
     1
 90
        1
176
     1
 90
        0
176
     1
 62
     7
176
     1
 62
   257
176
     1
 90
        1
176
     1
 90
        1
176
     1
 40
1.0
176
     1
 90
        0
176
     1
 62
   257
176
     1
 40
1.0
176
     1
 90
        1
176
     1
 90
        6
176
     1
 90
        2
176
     1
 62
     7
176
     1
 90
        5
176
     1
 90
        0
176
     1
 90
        0
176
     1
290
     0
176
     1
 90
       13
176
     1
 40
0.0
176
     1
 90
        0
176
     1
290
     0
176
     1
290
     1
176
     1
290
     1
176
     1
290
     0
176
     1
290
     0
176
     1
290
     0
176
     1
290
     0
176
     1
290
     0
176
     1
290
     0
176
     1
 90
       50
176
     1
 40
0.0
176
     1
 40
1.0
176
     1
 90
        0
176
     1
 62
    18
420
        0
176
     1
 90
       50
176
     1
 90
        3
176
     1
 62
     5
420
      255
176
     1
290
     0
176
     1
 90
       50
176
     1
 90
       50
176
     1
 90
       50
176
     1
290
     0
176
     1
 90
       50
176
     1
 62
   256
176
     0
 40
1.0
176
     0
 90
        2
176
     1
  1
strokes_ogs.tif
176
     1
290
     0
176
     1
 40
1.0
176
     1
 40
1.0
176
     1
  0
VISUALSTYLE
  5
2D
102
{ACAD_REACTORS
330
2A
102
}
330
2A
100
AcDbVisualStyle
  2
Gouraud
 70
     2
177
     3
291
     1
 70
    58
 90
        2
176
     1
 90
        2
176
     1
 90
        1
176
     1
 90
        2
176
     1
 40
0.6
176
     1
 40
30.0
176
     1
 62
     7
420
 16777215
176
     1
 90
        0
176
     1
 90
        0
176
     1
 62
     7
176
     1
 62
   257
176
     1
 90
        1
176
     1
 90
        1
176
     1
 40
1.0
176
     1
 90
        0
176
     1
 62
     7
176
     1
 40
1.0
176
     1
 90
        1
176
     1
 90
        6
176
     1
 90
        2
176
     1
 62
     7
176
     1
 90
        5
176
     1
 90
        0
176
     1
 90
        0
176
     1
290
     0
176
     1
 90
       13
176
     1
 40
0.0
176
     1
 90
        0
176
     1
290
     0
176
     1
290
     1
176
     1
290
     1
176
     1
290
     0
176
     1
290
     0
176
     1
290
     0
176
     1
290
     0
176
     1
290
     0
176
     1
290
     0
176
     1
 90
       50
176
     1
 40
0.0
176
     1
 40
1.0
176
     1
 90
        0
176
     1
 62
    18
420
        0
176
     1
 90
       50
176
     1
 90
        3
176
     1
 62
     5
420
      255
176
     1
290
     0
176
     1
 90
       50
176
     1
 90
       50
176
     1
 90
       50
176
     1
290
     0
176
     1
 90
       50
176
     1
 62
   256
176
     0
 40
1.0
176
     0
 90
        2
176
     1
  1
strokes_ogs.tif
176
     1
290
     0
176
     1
 40
1.0
176
     1
 40
1.0
176
     1
  0
VISUALSTYLE
  5
2E
102
{ACAD_REACTORS
330
2A
102
}
330
2A
100
AcDbVisualStyle
  2
GouraudWithEdges
 70
     3
177
     3
291
     1
 70
    58
 90
        2
176
     1
 90
        2
176
     1
 90
        1
176
     1
 90
        2
176
     1
 40
0.6
176
     1
 40
30.0
176
     1
 62
     7
420
 16777215
176
     1
 90
        1
176
     1
 90
        0
176
     1
 62
     7
176
     1
 62
   257
176
     1
 90
        1
176
     1
 90
        1
176
     1
 40
1.0
176
     1
 90
        0
176
     1
 62
   257
176
     1
 40
1.0
176
     1
 90
        1
176
     1
 90
        6
176
     1
 90
        2
176
     1
 62
     7
176
     1
 90
        5
176
     1
 90
        0
176
     1
 90
        0
176
     1
290
     0
176
     1
 90
       13
176
     1
 40
0.0
176
     1
 90
        0
176
     1
290
     0
176
     1
290
     1
176
     1
290
     1
176
     1
290
     0
176
     1
290
     0
176
     1
290
     0
176
     1
290
     0
176
     1
290
     0
176
     1
290
     0
176
     1
 90
       50
176
     1
 40
0.0
176
     1
 40
1.0
176
     1
 90
        0
176
     1
 62
    18
420
        0
176
     1
 90
       50
176
     1
 90
        3
176
     1
 62
     5
420
      255
176
     1
290
     0
176
     1
 90
       50
176
     1
 90
       50
176
     1
 90
       50
176
     1
290
     0
176
     1
 90
       50
176
     1
 62
   256
176
     0
 40
1.0
176
     0
 90
        2
176
     1
  1
strokes_ogs.tif
176
     1
290
     0
176
     1
 40
1.0
176
     1
 40
1.0
176
     1
  0
VISUALSTYLE
  5
31
102
{ACAD_REACTORS
330
2A
102
}
330
2A
100
AcDbVisualStyle
  2
Hidden
 70
     6
177
     3
291
     0
 70
    58
 90
        1
176
     1
 90
        2
176
     1
 90
        2
176
     1
 90
        0
176
     1
 40
0.6
176
     1
 40
30.0
176
     1
 62
     7
420
 16777215
176
     1
 90
        2
176
     1
 90
        2
176
     1
 62
     7
176
     1
 62
   257
176
     1
 90
        2
176
     1
 90
        1
176
     1
 40
40.0
176
     1
 90
        0
176
     1
 62
   257
176
     1
 40
1.0
176
     1
 90
        1
176
     1
 90
        6
176
     1
 90
        2
176
     1
 62
     7
176
     1
 90
        3
176
     1
 90
        0
176
     1
 90
        0
176
     1
290
     0
176
     1
 90
        1
176
     1
 40
0.0
176
     1
 90
        0
176
     1
290
     0
176
     1
290
     1
176
     1
290
     1
176
     1
290
     0
176
     1
290
     0
176
     1
290
     0
176
     1
290
     0
176
     1
290
     0
176
     1
290
     0
176
     1
 90
       50
176
     1
 40
0.0
176
     1
 40
1.0
176
     1
 90
        0
176
     1
 62
    18
420
        0
176
     1
 90
       50
176
     1
 90
        3
176
     1
 62
     5
420
      255
176
     1
290
     0
176
     1
 90
       50
176
     1
 90
       50
176
     1
 90
       50
176
     1
290
     0
176
     1
 90
       50
176
     1
 62
   256
176
     0
 40
1.0
176
     0
 90
        2
176
     1
  1
strokes_ogs.tif
176
     1
290
     0
176
     1
 40
1.0
176
     1
 40
1.0
176
     1
  0
VISUALSTYLE
  5
3B
102
{ACAD_REACTORS
330
2A
102
}
330
2A
100
AcDbVisualStyle
  2
JitterOff
 70
    20
177
     3
291
     1
 70
    58
 90
        2
176
     0
 90
        2
176
     0
 90
        0
176
     0
 90
        0
176
     0
 40
0.6
176
     0
 40
30.0
176
     0
 62
     7
420
 16777215
176
     0
 90
        1
176
     0
 90
        4
176
     0
 62
     7
176
     0
 62
   257
176
     0
 90
        1
176
     0
 90
        1
176
     0
 40
1.0
176
     0
 90
       10
176
     2
 62
     7
176
     0
 40
1.0
176
     0
 90
        1
176
     0
 90
        6
176
     0
 90
        2
176
     0
 62
     7
176
     0
 90
        5
176
     0
 90
        0
176
     0
 90
        0
176
     0
290
     0
176
     0
 90
        1
176
     0
 40
0.0
176
     0
 90
        0
176
     0
290
     0
176
     0
290
     1
176
     0
290
     1
176
     0
290
     0
176
     0
290
     0
176
     0
290
     0
176
     0
290
     0
176
     0
290
     0
176
     0
290
     0
176
     0
 90
       50
176
     0
 40
0.0
176
     0
 40
1.0
176
     0
 90
        0
176
     0
 62
    18
420
        0
176
     0
 90
       50
176
     0
 90
        3
176
     0
 62
     5
420
      255
176
     0
290
     0
176
     0
 90
       50
176
     0
 90
       50
176
     0
 90
       50
176
     0
290
     0
176
     0
 90
       50
176
     0
 62
   256
176
     0
 40
1.0
176
     0
 90
        2
176
     0
  1
strokes_ogs.tif
176
     0
290
     0
176
     0
 40
1.0
176
     0
 40
1.0
176
     0
  0
VISUALSTYLE
  5
38
102
{ACAD_REACTORS
330
2A
102
}
330
2A
100
AcDbVisualStyle
  2
Linepattern
 70
    14
177
     3
291
     1
 70
    58
 90
        2
176
     1
 90
        2
176
     1
 90
        0
176
     1
 90
        0
176
     1
 40
0.6
176
     1
 40
30.0
176
     1
 62
     7
420
 16777215
176
     1
 90
        1
176
     1
 90
        4
176
     1
 62
     7
176
     1
 62
   257
176
     1
 90
        7
176
     1
 90
        7
176
     1
 40
1.0
176
     1
 90
        8
176
     1
 62
     7
176
     1
 40
1.0
176
     1
 90
        1
176
     1
 90
        6
176
     1
 90
        2
176
     1
 62
     7
176
     1
 90
        5
176
     1
 90
        0
176
     1
 90
        0
176
     1
290
     0
176
     1
 90
        1
176
     1
 40
0.0
176
     1
 90
        0
176
     1
290
     0
176
     1
290
     1
176
     1
290
     1
176
     1
290
     0
176
     1
290
     0
176
     1
290
     0
176
     1
290
     0
176
     1
290
     0
176
     1
290
     0
176
     1
 90
       50
176
     1
 40
0.0
176
     1
 40
1.0
176
     1
 90
        0
176
     1
 62
    18
420
        0
176
     1
 90
       50
176
     1
 90
        3
176
     1
 62
     5
420
      255
176
     1
290
     0
176
     1
 90
       50
176
     1
 90
       50
176
     1
 90
       50
176
     1
290
     0
176
     1
 90
       50
176
     1
 62
   256
176
     0
 40
1.0
176
     0
 90
        2
176
     1
  1
strokes_ogs.tif
176
     1
290
     0
176
     1
 40
1.0
176
     1
 40
1.0
176
     1
  0
VISUALSTYLE
  5
3C
102
{ACAD_REACTORS
330
2A
102
}
330
2A
100
AcDbVisualStyle
  2
OverhangOff
 70
    21
177
     3
291
     1
 70
    58
 90
        2
176
     0
 90
        2
176
     0
 90
        0
176
     0
 90
        0
176
     0
 40
0.6
176
     0
 40
30.0
176
     0
 62
     7
420
 16777215
176
     0
 90
        1
176
     0
 90
        4
176
     0
 62
     7
176
     0
 62
   257
176
     0
 90
        1
176
     0
 90
        1
176
     0
 40
1.0
176
     0
 90
        9
176
     2
 62
     7
176
     0
 40
1.0
176
     0
 90
        1
176
     0
 90
        6
176
     0
 90
        2
176
     0
 62
     7
176
     0
 90
        5
176
     0
 90
        0
176
     0
 90
        0
176
     0
290
     0
176
     0
 90
        1
176
     0
 40
0.0
176
     0
 90
        0
176
     0
290
     0
176
     0
290
     1
176
     0
290
     1
176
     0
290
     0
176
     0
290
     0
176
     0
290
     0
176
     0
290
     0
176
     0
290
     0
176
     0
290
     0
176
     0
 90
       50
176
     0
 40
0.0
176
     0
 40
1.0
176
     0
 90
        0
176
     0
 62
    18
420
        0
176
     0
 90
       50
176
     0
 90
        3
176
     0
 62
     5
420
      255
176
     0
290
     0
176
     0
 90
       50
176
     0
 90
       50
176
     0
 90
       50
176
     0
290
     0
176
     0
 90
       50
176
     0
 62
   256
176
     0
 40
1.0
176
     0
 90
        2
176
     0
  1
strokes_ogs.tif
176
     0
290
     0
176
     0
 40
1.0
176
     0
 40
1.0
176
     0
  0
VISUALSTYLE
  5
33
102
{ACAD_REACTORS
330
2A
102
}
330
2A
100
AcDbVisualStyle
  2
Realistic
 70
     8
177
     3
291
     0
 70
    58
 90
        2
176
     1
 90
        3
176
     1
 90
        0
176
     1
 90
        2
176
     1
 40
0.6
176
     1
 40
30.0
176
     1
 62
     7
420
 16777215
176
     1
 90
        0
176
     1
 90
        0
176
     1
 62
     7
176
     1
 62
   257
176
     1
 90
        1
176
     1
 90
        1
176
     1
 40
1.0
176
     1
 90
        8
176
     1
 62
   257
176
     1
 40
1.0
176
     1
 90
        1
176
     1
 90
        6
176
     1
 90
        2
176
     1
 62
     7
176
     1
 90
        3
176
     1
 90
        0
176
     1
 90
        0
176
     1
290
     0
176
     1
 90
       13
176
     1
 40
0.0
176
     1
 90
        0
176
     1
290
     0
176
     1
290
     1
176
     1
290
     1
176
     1
290
     0
176
     1
290
     0
176
     1
290
     0
176
     1
290
     0
176
     1
290
     0
176
     1
290
     0
176
     1
 90
       50
176
     1
 40
0.0
176
     1
 40
1.0
176
     1
 90
        0
176
     1
 62
    18
420
        0
176
     1
 90
       50
176
     1
 90
        3
176
     1
 62
     5
420
      255
176
     1
290
     0
176
     1
 90
       50
176
     1
 90
       50
176
     1
 90
       50
176
     1
290
     0
176
     1
 90
       50
176
     1
 62
   256
176
     0
 40
1.0
176
     0
 90
        2
176
     1
  1
strokes_ogs.tif
176
     1
290
     0
176
     1
 40
1.0
176
     1
 40
1.0
176
     1
  0
VISUALSTYLE
  5
42
102
{ACAD_REACTORS
330
2A
102
}
330
2A
100
AcDbVisualStyle
  2
Shaded
 70
    27
177
     3
291
     0
 70
    58
 90
        2
176
     1
 90
        2
176
     1
 90
        1
176
     1
 90
        2
176
     1
 40
0.6
176
     1
 40
30.0
176
     1
 62
     7
420
 16777215
176
     1
 90
        0
176
     1
 90
        4
176
     1
 62
     7
176
     1
 62
   257
176
     1
 90
        1
176
     1
 90
        1
176
     1
 40
1.0
176
     1
 90
        8
176
     1
 62
   257
176
     1
 40
1.0
176
     1
 90
        1
176
     1
 90
        6
176
     1
 90
        2
176
     1
 62
     8
420
  7895160
176
     1
 90
        3
176
     1
 90
        0
176
     1
 90
        0
176
     1
290
     0
176
     1
 90
        5
176
     1
 40
0.0
176
     1
 90
        0
176
     1
290
     0
176
     1
290
     1
176
     1
290
     1
176
     1
290
     0
176
     1
290
     0
176
     1
290
     0
176
     1
290
     0
176
     1
290
     0
176
     1
290
     0
176
     1
 90
       50
176
     1
 40
0.0
176
     1
 40
1.0
176
     1
 90
        0
176
     1
 62
    18
420
        0
176
     1
 90
       50
176
     1
 90
        3
176
     1
 62
     5
420
      255
176
     1
290
     0
176
     1
 90
       50
176
     1
 90
       50
176
     1
 90
       50
176
     1
290
     0
176
     1
 90
       50
176
     1
 62
   256
176
     0
 40
1.0
176
     0
 90
        2
176
     1
  1
strokes_ogs.tif
176
     1
290
     0
176
     1
 40
1.0
176
     1
 40
1.0
176
     1
  0
VISUALSTYLE
  5
41
102
{ACAD_REACTORS
330
2A
102
}
330
2A
100
AcDbVisualStyle
  2
Shaded with edges
 70
    26
177
     3
291
     0
 70
    58
 90
        2
176
     1
 90
        2
176
     1
 90
        1
176
     1
 90
        2
176
     1
 40
0.6
176
     1
 40
30.0
176
     1
 62
     7
420
 16777215
176
     1
 90
        1
176
     1
 90
       10
176
     1
 62
     7
176
     1
 62
   257
176
     1
 90
        2
176
     1
 90
        1
176
     1
 40
1.0
176
     1
 90
        8
176
     1
 62
   257
176
     1
 40
1.0
176
     1
 90
        1
176
     1
 90
        6
176
     1
 90
        2
176
     1
 62
     7
176
     1
 90
        3
176
     1
 90
        0
176
     1
 90
        0
176
     1
290
     0
176
     1
 90
        5
176
     1
 40
0.0
176
     1
 90
        0
176
     1
290
     0
176
     1
290
     1
176
     1
290
     1
176
     1
290
     0
176
     1
290
     0
176
     1
290
     0
176
     1
290
     0
176
     1
290
     0
176
     1
290
     0
176
     1
 90
       50
176
     1
 40
0.0
176
     1
 40
1.0
176
     1
 90
        0
176
     1
 62
    18
420
        0
176
     1
 90
       50
176
     1
 90
        3
176
     1
 62
     5
420
      255
176
     1
290
     0
176
     1
 90
       50
176
     1
 90
       50
176
     1
 90
       50
176
     1
290
     0
176
     1
 90
       50
176
     1
 62
   256
176
     0
 40
1.0
176
     0
 90
        2
176
     1
  1
strokes_ogs.tif
176
     1
290
     0
176
     1
 40
1.0
176
     1
 40
1.0
176
     1
  0
VISUALSTYLE
  5
3E
102
{ACAD_REACTORS
330
2A
102
}
330
2A
100
AcDbVisualStyle
  2
Shades of Gray
 70
    23
177
     3
291
     0
 70
    58
 90
        2
176
     1
 90
        2
176
     1
 90
        3
176
     1
 90
        0
176
     1
 40
0.6
176
     1
 40
30.0
176
     1
 62
     7
420
 16777215
176
     1
 90
        2
176
     1
 90
        2
176
     1
 62
     7
176
     1
 62
     7
176
     1
 90
        1
176
     1
 90
        1
176
     1
 40
40.0
176
     1
 90
        8
176
     1
 62
     7
176
     1
 40
1.0
176
     1
 90
        1
176
     1
 90
        6
176
     1
 90
        2
176
     1
 62
     7
176
     1
 90
        3
176
     1
 90
        0
176
     1
 90
        0
176
     1
290
     0
176
     1
 90
        1
176
     1
 40
0.0
176
     1
 90
        0
176
     1
290
     0
176
     1
290
     1
176
     1
290
     1
176
     1
290
     0
176
     1
290
     0
176
     1
290
     0
176
     1
290
     0
176
     1
290
     0
176
     1
290
     0
176
     1
 90
       50
176
     1
 40
0.0
176
     1
 40
1.0
176
     1
 90
        0
176
     1
 62
    18
420
        0
176
     1
 90
       50
176
     1
 90
        3
176
     1
 62
     5
420
      255
176
     1
290
     0
176
     1
 90
       50
176
     1
 90
       50
176
     1
 90
       50
176
     1
290
     0
176
     1
 90
       50
176
     1
 62
   256
176
     0
 40
1.0
176
     0
 90
        2
176
     1
  1
strokes_ogs.tif
176
     1
290
     0
176
     1
 40
1.0
176
     1
 40
1.0
176
     1
  0
VISUALSTYLE
  5
3F
102
{ACAD_REACTORS
330
2A
102
}
330
2A
100
AcDbVisualStyle
  2
Sketchy
 70
    24
177
     3
291
     0
 70
    58
 90
        1
176
     1
 90
        2
176
     1
 90
        2
176
     1
 90
        0
176
     1
 40
0.6
176
     1
 40
30.0
176
     1
 62
     7
420
 16777215
176
     1
 90
        2
176
     1
 90
        2
176
     1
 62
     7
176
     1
 62
     7
176
     1
 90
        1
176
     1
 90
        1
176
     1
 40
40.0
176
     1
 90
       11
176
     1
 62
     7
176
     1
 40
1.0
176
     1
 90
        1
176
     1
 90
        6
176
     1
 90
        2
176
     1
 62
     7
176
     1
 90
        6
176
     1
 90
        0
176
     1
 90
        0
176
     1
290
     0
176
     1
 90
        1
176
     1
 40
0.0
176
     1
 90
        0
176
     1
290
     0
176
     1
290
     1
176
     1
290
     1
176
     1
290
     0
176
     1
290
     0
176
     1
290
     0
176
     1
290
     0
176
     1
290
     0
176
     1
290
     0
176
     1
 90
       50
176
     1
 40
0.0
176
     1
 40
1.0
176
     1
 90
        0
176
     1
 62
    18
420
        0
176
     1
 90
       50
176
     1
 90
        3
176
     1
 62
     5
420
      255
176
     1
290
     0
176
     1
 90
       50
176
     1
 90
       50
176
     1
 90
       50
176
     1
290
     0
176
     1
 90
       50
176
     1
 62
   256
176
     0
 40
1.0
176
     0
 90
        2
176
     1
  1
strokes_ogs.tif
176
     1
290
     0
176
     1
 40
1.0
176
     1
 40
1.0
176
     1
  0
VISUALSTYLE
  5
37
102
{ACAD_REACTORS
330
2A
102
}
330
2A
100
AcDbVisualStyle
  2
Thicken
 70
    13
177
     3
291
     1
 70
    58
 90
        2
176
     1
 90
        2
176
     1
 90
        0
176
     1
 90
        0
176
     1
 40
0.6
176
     1
 40
30.0
176
     1
 62
     7
420
 16777215
176
     1
 90
        1
176
     1
 90
        4
176
     1
 62
     7
176
     1
 62
   257
176
     1
 90
        1
176
     1
 90
        1
176
     1
 40
1.0
176
     1
 90
       12
176
     1
 62
     7
176
     1
 40
1.0
176
     1
 90
        1
176
     1
 90
        6
176
     1
 90
        2
176
     1
 62
     7
176
     1
 90
        5
176
     1
 90
        0
176
     1
 90
        0
176
     1
290
     0
176
     1
 90
        1
176
     1
 40
0.0
176
     1
 90
        0
176
     1
290
     0
176
     1
290
     1
176
     1
290
     1
176
     1
290
     0
176
     1
290
     0
176
     1
290
     0
176
     1
290
     0
176
     1
290
     0
176
     1
290
     0
176
     1
 90
       50
176
     1
 40
0.0
176
     1
 40
1.0
176
     1
 90
        0
176
     1
 62
    18
420
        0
176
     1
 90
       50
176
     1
 90
        3
176
     1
 62
     5
420
      255
176
     1
290
     0
176
     1
 90
       50
176
     1
 90
       50
176
     1
 90
       50
176
     1
290
     0
176
     1
 90
       50
176
     1
 62
   256
176
     0
 40
1.0
176
     0
 90
        2
176
     1
  1
strokes_ogs.tif
176
     1
290
     0
176
     1
 40
1.0
176
     1
 40
1.0
176
     1
  0
VISUALSTYLE
  5
30
102
{ACAD_REACTORS
330
2A
102
}
330
2A
100
AcDbVisualStyle
  2
Wireframe
 70
     5
177
     3
291
     0
 70
    58
 90
        0
176
     1
 90
        2
176
     1
 90
        0
176
     1
 90
        0
176
     1
 40
0.6
176
     1
 40
30.0
176
     1
 62
     7
420
 16777215
176
     1
 90
        1
176
     1
 90
        4
176
     1
 62
     7
176
     1
 62
   257
176
     1
 90
        1
176
     1
 90
        1
176
     1
 40
1.0
176
     1
 90
        0
176
     1
 62
   257
176
     1
 40
1.0
176
     1
 90
        1
176
     1
 90
        6
176
     1
 90
        2
176
     1
 62
     7
176
     1
 90
        3
176
     1
 90
        0
176
     1
 90
        0
176
     1
290
     0
176
     1
 90
        1
176
     1
 40
0.0
176
     1
 90
        0
176
     1
290
     0
176
     1
290
     1
176
     1
290
     1
176
     1
290
     0
176
     1
290
     0
176
     1
290
     0
176
     1
290
     0
176
     1
290
     0
176
     1
290
     0
176
     1
 90
       50
176
     1
 40
0.0
176
     1
 40
1.0
176
     1
 90
        0
176
     1
 62
    18
420
        0
176
     1
 90
       50
176
     1
 90
        3
176
     1
 62
     5
420
      255
176
     1
290
     0
176
     1
 90
       50
176
     1
 90
       50
176
     1
 90
       50
176
     1
290
     0
176
     1
 90
       50
176
     1
 62
   256
176
     0
 40
1.0
176
     0
 90
        2
176
     1
  1
strokes_ogs.tif
176
     1
290
     0
176
     1
 40
1.0
176
     1
 40
1.0
176
     1
  0
VISUALSTYLE
  5
40
102
{ACAD_REACTORS
330
2A
102
}
330
2A
100
AcDbVisualStyle
  2
X-Ray
 70
    25
177
     3
291
     0
 70
    58
 90
        2
176
     1
 90
        2
176
     1
 90
        1
176
     1
 90
        1
176
     1
 40
0.5
176
     1
 40
30.0
176
     1
 62
     7
420
 16777215
176
     1
 90
        1
176
     1
 90
        0
176
     1
 62
     7
176
     1
 62
   257
176
     1
 90
        1
176
     1
 90
        1
176
     1
 40
1.0
176
     1
 90
        8
176
     1
 62
     7
176
     1
 40
1.0
176
     1
 90
        1
176
     1
 90
        6
176
     1
 90
        2
176
     1
 62
     7
176
     1
 90
        3
176
     1
 90
        0
176
     1
 90
        0
176
     1
290
     0
176
     1
 90
       13
176
     1
 40
0.0
176
     1
 90
        0
176
     1
290
     0
176
     1
290
     1
176
     1
290
     1
176
     1
290
     0
176
     1
290
     0
176
     1
290
     0
176
     1
290
     0
176
     1
290
     0
176
     1
290
     0
176
     1
 90
       50
176
     1
 40
0.0
176
     1
 40
1.0
176
     1
 90
        0
176
     1
 62
    18
420
        0
176
     1
 90
       50
176
     1
 90
        3
176
     1
 62
     5
420
      255
176
     1
290
     0
176
     1
 90
       50
176
     1
 90
       50
176
     1
 90
       50
176
     1
290
     0
176
     1
 90
       50
176
     1
 62
   256
176
     0
 40
1.0
176
     0
 90
        2
176
     1
  1
strokes_ogs.tif
176
     1
290
     0
176
     1
 40
1.0
176
     1
 40
1.0
176
     1
  0
DICTIONARYVAR
  5
266
102
{ACAD_REACTORS
330
265
102
}
330
265
100
DictionaryVariables
280
     0
  1
1:1
  0
DICTIONARYVAR
  5
26B
102
{ACAD_REACTORS
330
265
102
}
330
265
100
DictionaryVariables
280
     0
  1
Standard
  0
DICTIONARYVAR
  5
26A
102
{ACAD_REACTORS
330
265
102
}
330
265
100
DictionaryVariables
280
     0
  1
Standard
  0
DICTIONARY
  5
267
330
6A
100
AcDbDictionary
280
     1
281
     1
  3
ACAD_ROUNDTRIP_2008_TABLESTYLE_CELLSTYLEMAP
360
268
  0
CELLSTYLEMAP
  5
268
102
{ACAD_REACTORS
330
267
102
}
330
267
100
AcDbCellStyleMap
 90
        3
300
CELLSTYLE
  1
TABLEFORMAT_BEGIN
 90
        5
170
     1
 91
        0
 92
    32768
 62
   257
 93
        1
300
CONTENTFORMAT
  1
CONTENTFORMAT_BEGIN
 90
        0
 91
        0
 92
        4
 93
        0
300

 40
0.0
140
1.0
 94
        5
 62
     0
340
11
144
0.25
309
CONTENTFORMAT_END
171
     1
301
MARGIN
  1
CELLMARGIN_BEGIN
 40
0.06
 40
0.06
 40
0.06
 40
0.06
 40
0.06
 40
0.06
309
CELLMARGIN_END
 94
        6
 95
        1
302
GRIDFORMAT
  1
GRIDFORMAT_BEGIN
 90
        0
 91
        1
 62
     0
 92
       -2
340
14
 93
        0
 40
0.045
309
GRIDFORMAT_END
 95
        2
302
GRIDFORMAT
  1
GRIDFORMAT_BEGIN
 90
        0
 91
        1
 62
     0
 92
       -2
340
14
 93
        0
 40
0.045
309
GRIDFORMAT_END
 95
        4
302
GRIDFORMAT
  1
GRIDFORMAT_BEGIN
 90
        0
 91
        1
 62
     0
 92
       -2
340
14
 93
        0
 40
0.045
309
GRIDFORMAT_END
 95
        8
302
GRIDFORMAT
  1
GRIDFORMAT_BEGIN
 90
        0
 91
        1
 62
     0
 92
       -2
340
14
 93
        0
 40
0.045
309
GRIDFORMAT_END
 95
       16
302
GRIDFORMAT
  1
GRIDFORMAT_BEGIN
 90
        0
 91
        1
 62
     0
 92
       -2
340
14
 93
        0
 40
0.045
309
GRIDFORMAT_END
 95
       32
302
GRIDFORMAT
  1
GRIDFORMAT_BEGIN
 90
        0
 91
        1
 62
     0
 92
       -2
340
14
 93
        0
 40
0.045
309
GRIDFORMAT_END
309
TABLEFORMAT_END
  1
CELLSTYLE_BEGIN
 90
        1
 91
        1
300
_TITLE
309
CELLSTYLE_END
300
CELLSTYLE
  1
TABLEFORMAT_BEGIN
 90
        5
170
     1
 91
        0
 92
        0
 62
   257
 93
        1
300
CONTENTFORMAT
  1
CONTENTFORMAT_BEGIN
 90
        0
 91
        0
 92
        4
 93
        0
300

 40
0.0
140
1.0
 94
        5
 62
     0
340
11
144
0.18
309
CONTENTFORMAT_END
171
     1
301
MARGIN
  1
CELLMARGIN_BEGIN
 40
0.06
 40
0.06
 40
0.06
 40
0.06
 40
0.06
 40
0.06
309
CELLMARGIN_END
 94
        6
 95
        1
302
GRIDFORMAT
  1
GRIDFORMAT_BEGIN
 90
        0
 91
        1
 62
     0
 92
       -2
340
14
 93
        0
 40
0.045
309
GRIDFORMAT_END
 95
        2
302
GRIDFORMAT
  1
GRIDFORMAT_BEGIN
 90
        0
 91
        1
 62
     0
 92
       -2
340
14
 93
        0
 40
0.045
309
GRIDFORMAT_END
 95
        4
302
GRIDFORMAT
  1
GRIDFORMAT_BEGIN
 90
        0
 91
        1
 62
     0
 92
       -2
340
14
 93
        0
 40
0.045
309
GRIDFORMAT_END
 95
        8
302
GRIDFORMAT
  1
GRIDFORMAT_BEGIN
 90
        0
 91
        1
 62
     0
 92
       -2
340
14
 93
        0
 40
0.045
309
GRIDFORMAT_END
 95
       16
302
GRIDFORMAT
  1
GRIDFORMAT_BEGIN
 90
        0
 91
        1
 62
     0
 92
       -2
340
14
 93
        0
 40
0.045
309
GRIDFORMAT_END
 95
       32
302
GRIDFORMAT
  1
GRIDFORMAT_BEGIN
 90
        0
 91
        1
 62
     0
 92
       -2
340
14
 93
        0
 40
0.045
309
GRIDFORMAT_END
309
TABLEFORMAT_END
  1
CELLSTYLE_BEGIN
 90
        2
 91
        1
300
_HEADER
309
CELLSTYLE_END
300
CELLSTYLE
  1
TABLEFORMAT_BEGIN
 90
        5
170
     1
 91
        0
 92
        0
 62
   257
 93
        1
300
CONTENTFORMAT
  1
CONTENTFORMAT_BEGIN
 90
        0
 91
        0
 92
        4
 93
        0
300

 40
0.0
140
1.0
 94
        2
 62
     0
340
11
144
0.18
309
CONTENTFORMAT_END
171
     1
301
MARGIN
  1
CELLMARGIN_BEGIN
 40
0.06
 40
0.06
 40
0.06
 40
0.06
 40
0.06
 40
0.06
309
CELLMARGIN_END
 94
        6
 95
        1
302
GRIDFORMAT
  1
GRIDFORMAT_BEGIN
 90
        0
 91
        1
 62
     0
 92
       -2
340
14
 93
        0
 40
0.045
309
GRIDFORMAT_END
 95
        2
302
GRIDFORMAT
  1
GRIDFORMAT_BEGIN
 90
        0
 91
        1
 62
     0
 92
       -2
340
14
 93
        0
 40
0.045
309
GRIDFORMAT_END
 95
        4
302
GRIDFORMAT
  1
GRIDFORMAT_BEGIN
 90
        0
 91
        1
 62
     0
 92
       -2
340
14
 93
        0
 40
0.045
309
GRIDFORMAT_END
 95
        8
302
GRIDFORMAT
  1
GRIDFORMAT_BEGIN
 90
        0
 91
        1
 62
     0
 92
       -2
340
14
 93
        0
 40
0.045
309
GRIDFORMAT_END
 95
       16
302
GRIDFORMAT
  1
GRIDFORMAT_BEGIN
 90
        0
 91
        1
 62
     0
 92
       -2
340
14
 93
        0
 40
0.045
309
GRIDFORMAT_END
 95
       32
302
GRIDFORMAT
  1
GRIDFORMAT_BEGIN
 90
        0
 91
        1
 62
     0
 92
       -2
340
14
 93
        0
 40
0.045
309
GRIDFORMAT_END
309
TABLEFORMAT_END
  1
CELLSTYLE_BEGIN
 90
        3
 91
        2
300
_DATA
309
CELLSTYLE_END
  0
ENDSEC
  0
EOF