0
SECTION
  2
HEADER
  9
$ACADVER
  1
AC1027
  9
$ACADMAINTVER
 70
     8
  9
$DWGCODEPAGE
  3
ANSI_1252
  9
$REQUIREDVERSIONS
160
                 0
  9
$COMMENTS
  1
File was created by Cadenas
  9
$CUSTOMPROPERTYTAG
  1
NN
  9
$CUSTOMPROPERTY
  1
Grip Tight Low Backing Height Two-Bolt Pillow Block Inch Bore
  9
$CUSTOMPROPERTYTAG
  1
NT
  9
$CUSTOMPROPERTY
  1
GTB Normal Duty Pillow Blocks
  9
$CUSTOMPROPERTYTAG
  1
NB
  9
$CUSTOMPROPERTY
  1
129198
  9
$CUSTOMPROPERTYTAG
  1
NBSYN
  9
$CUSTOMPROPERTY
  1
$PN.$LUBE.
  9
$CUSTOMPROPERTYTAG
  1
LINA
  9
$CUSTOMPROPERTY
  1
129198
  9
$CUSTOMPROPERTYTAG
  1
SERIES
  9
$CUSTOMPROPERTY
  1
210
  9
$CUSTOMPROPERTYTAG
  1
SS
  9
$CUSTOMPROPERTY
  1
2
  9
$CUSTOMPROPERTYTAG
  1
PN
  9
$CUSTOMPROPERTY
  1
129198
  9
$CUSTOMPROPERTYTAG
  1
DESCRIPTION
  9
$CUSTOMPROPERTY
  1
P2B-GTB-200
  9
$CUSTOMPROPERTYTAG
  1
A
  9
$CUSTOMPROPERTY
  1
1-55/64
  9
$CUSTOMPROPERTYTAG
  1
B
  9
$CUSTOMPROPERTY
  1
8-1/8
  9
$CUSTOMPROPERTYTAG
  1
C
  9
$CUSTOMPROPERTY
  1
2-1/4
  9
$CUSTOMPROPERTYTAG
  1
DMIN
  9
$CUSTOMPROPERTY
  1
6
  9
$CUSTOMPROPERTYTAG
  1
DMAX
  9
$CUSTOMPROPERTY
  1
6-11/16
  9
$CUSTOMPROPERTYTAG
  1
F
  9
$CUSTOMPROPERTY
  1
5/8
  9
$CUSTOMPROPERTYTAG
  1
G
  9
$CUSTOMPROPERTY
  1
1-1/64
  9
$CUSTOMPROPERTYTAG
  1
H
  9
$CUSTOMPROPERTY
  1
11/16
  9
$CUSTOMPROPERTYTAG
  1
J
  9
$CUSTOMPROPERTY
  1
4-15/32
  9
$CUSTOMPROPERTYTAG
  1
L
  9
$CUSTOMPROPERTY
  1
2-15/16
  9
$CUSTOMPROPERTYTAG
  1
M
  9
$CUSTOMPROPERTY
  1
2-3/16
  9
$CUSTOMPROPERTYTAG
  1
R
  9
$CUSTOMPROPERTY
  1
21/32
  9
$CUSTOMPROPERTYTAG
  1
S
  9
$CUSTOMPROPERTY
  1
1-13/64
  9
$CUSTOMPROPERTYTAG
  1
U
  9
$CUSTOMPROPERTY
  1
3-11/16
  9
$CUSTOMPROPERTYTAG
  1
V
  9
$CUSTOMPROPERTY
  1
7-3/8
  9
$CUSTOMPROPERTYTAG
  1
W
  9
$CUSTOMPROPERTY
  1
13/16
  9
$CUSTOMPROPERTYTAG
  1
X
  9
$CUSTOMPROPERTY
  1
3/16
  9
$CUSTOMPROPERTYTAG
  1
Z
  9
$CUSTOMPROPERTY
  1
1-5/32
  9
$CUSTOMPROPERTYTAG
  1
COMPANY
  9
$CUSTOMPROPERTY
  1
baldor
  9
$INSBASE
 10
0.0
 20
0.0
 30
0.0
  9
$EXTMIN
 10
1.000000000000000E+20
 20
1.000000000000000E+20
 30
1.000000000000000E+20
  9
$EXTMAX
 10
-1.000000000000000E+20
 20
-1.000000000000000E+20
 30
-1.000000000000000E+20
  9
$LIMMIN
 10
0.0
 20
0.0
  9
$LIMMAX
 10
12.0
 20
9.0
  9
$ORTHOMODE
 70
     0
  9
$REGENMODE
 70
     1
  9
$FILLMODE
 70
     1
  9
$QTEXTMODE
 70
     0
  9
$MIRRTEXT
 70
     1
  9
$LTSCALE
 40
1.0
  9
$ATTMODE
 70
     1
  9
$TEXTSIZE
 40
0.2
  9
$TRACEWID
 40
0.05
  9
$TEXTSTYLE
  7
Standard
  9
$CLAYER
  8
0
  9
$CELTYPE
  6
ByLayer
  9
$CECOLOR
 62
   256
  9
$CELTSCALE
 40
1.0
  9
$DISPSILH
 70
     0
  9
$DIMSCALE
 40
1.0
  9
$DIMASZ
 40
0.18
  9
$DIMEXO
 40
0.0625
  9
$DIMDLI
 40
0.38
  9
$DIMRND
 40
0.0
  9
$DIMDLE
 40
0.0
  9
$DIMEXE
 40
0.18
  9
$DIMTP
 40
0.0
  9
$DIMTM
 40
0.0
  9
$DIMTXT
 40
0.18
  9
$DIMCEN
 40
0.09
  9
$DIMTSZ
 40
0.0
  9
$DIMTOL
 70
     0
  9
$DIMLIM
 70
     0
  9
$DIMTIH
 70
     1
  9
$DIMTOH
 70
     1
  9
$DIMSE1
 70
     0
  9
$DIMSE2
 70
     0
  9
$DIMTAD
 70
     0
  9
$DIMZIN
 70
     0
  9
$DIMBLK
  1

  9
$DIMASO
 70
     1
  9
$DIMSHO
 70
     1
  9
$DIMPOST
  1

  9
$DIMAPOST
  1

  9
$DIMALT
 70
     0
  9
$DIMALTD
 70
     2
  9
$DIMALTF
 40
25.4
  9
$DIMLFAC
 40
1.0
  9
$DIMTOFL
 70
     0
  9
$DIMTVP
 40
0.0
  9
$DIMTIX
 70
     0
  9
$DIMSOXD
 70
     0
  9
$DIMSAH
 70
     0
  9
$DIMBLK1
  1

  9
$DIMBLK2
  1

  9
$DIMSTYLE
  2
Standard
  9
$DIMCLRD
 70
     0
  9
$DIMCLRE
 70
     0
  9
$DIMCLRT
 70
     0
  9
$DIMTFAC
 40
1.0
  9
$DIMGAP
 40
0.09
  9
$DIMJUST
 70
     0
  9
$DIMSD1
 70
     0
  9
$DIMSD2
 70
     0
  9
$DIMTOLJ
 70
     1
  9
$DIMTZIN
 70
     0
  9
$DIMALTZ
 70
     0
  9
$DIMALTTZ
 70
     0
  9
$DIMUPT
 70
     0
  9
$DIMDEC
 70
     4
  9
$DIMTDEC
 70
     4
  9
$DIMALTU
 70
     2
  9
$DIMALTTD
 70
     2
  9
$DIMTXSTY
  7
Standard
  9
$DIMAUNIT
 70
     0
  9
$DIMADEC
 70
     0
  9
$DIMALTRND
 40
0.0
  9
$DIMAZIN
 70
     0
  9
$DIMDSEP
 70
    46
  9
$DIMATFIT
 70
     3
  9
$DIMFRAC
 70
     0
  9
$DIMLDRBLK
  1

  9
$DIMLUNIT
 70
     2
  9
$DIMLWD
 70
    -2
  9
$DIMLWE
 70
    -2
  9
$DIMTMOVE
 70
     0
  9
$DIMFXL
 40
1.0
  9
$DIMFXLON
 70
     0
  9
$DIMJOGANG
 40
0.7853981633974483
  9
$DIMTFILL
 70
     0
  9
$DIMTFILLCLR
 70
     0
  9
$DIMARCSYM
 70
     0
  9
$DIMLTYPE
  6

  9
$DIMLTEX1
  6

  9
$DIMLTEX2
  6

  9
$DIMTXTDIRECTION
 70
     0
  9
$LUNITS
 70
     2
  9
$LUPREC
 70
     4
  9
$SKETCHINC
 40
0.1
  9
$FILLETRAD
 40
0.5
  9
$AUNITS
 70
     0
  9
$AUPREC
 70
     0
  9
$MENU
  1
.
  9
$ELEVATION
 40
0.0
  9
$PELEVATION
 40
0.0
  9
$THICKNESS
 40
0.0
  9
$LIMCHECK
 70
     0
  9
$CHAMFERA
 40
0.0
  9
$CHAMFERB
 40
0.0
  9
$CHAMFERC
 40
0.0
  9
$CHAMFERD
 40
0.0
  9
$SKPOLY
 70
     0
  9
$TDCREATE
 40
2458168.994497002
  9
$TDUCREATE
 40
2458168.952830336
  9
$TDUPDATE
 40
2458168.994497187
  9
$TDUUPDATE
 40
2458168.952830521
  9
$TDINDWG
 40
0.0000000116
  9
$TDUSRTIMER
 40
0.0000000116
  9
$USRTIMER
 70
     1
  9
$ANGBASE
 50
0.0
  9
$ANGDIR
 70
     0
  9
$PDMODE
 70
     0
  9
$PDSIZE
 40
0.0
  9
$PLINEWID
 40
0.0
  9
$SPLFRAME
 70
     0
  9
$SPLINETYPE
 70
     6
  9
$SPLINESEGS
 70
     8
  9
$HANDSEED
  5
26B
  9
$SURFTAB1
 70
     6
  9
$SURFTAB2
 70
     6
  9
$SURFTYPE
 70
     6
  9
$SURFU
 70
     6
  9
$SURFV
 70
     6
  9
$UCSBASE
  2

  9
$UCSNAME
  2

  9
$UCSORG
 10
0.0
 20
0.0
 30
0.0
  9
$UCSXDIR
 10
1.0
 20
0.0
 30
0.0
  9
$UCSYDIR
 10
0.0
 20
1.0
 30
0.0
  9
$UCSORTHOREF
  2

  9
$UCSORTHOVIEW
 70
     0
  9
$UCSORGTOP
 10
0.0
 20
0.0
 30
0.0
  9
$UCSORGBOTTOM
 10
0.0
 20
0.0
 30
0.0
  9
$UCSORGLEFT
 10
0.0
 20
0.0
 30
0.0
  9
$UCSORGRIGHT
 10
0.0
 20
0.0
 30
0.0
  9
$UCSORGFRONT
 10
0.0
 20
0.0
 30
0.0
  9
$UCSORGBACK
 10
0.0
 20
0.0
 30
0.0
  9
$PUCSBASE
  2

  9
$PUCSNAME
  2

  9
$PUCSORG
 10
0.0
 20
0.0
 30
0.0
  9
$PUCSXDIR
 10
1.0
 20
0.0
 30
0.0
  9
$PUCSYDIR
 10
0.0
 20
1.0
 30
0.0
  9
$PUCSORTHOREF
  2

  9
$PUCSORTHOVIEW
 70
     0
  9
$PUCSORGTOP
 10
0.0
 20
0.0
 30
0.0
  9
$PUCSORGBOTTOM
 10
0.0
 20
0.0
 30
0.0
  9
$PUCSORGLEFT
 10
0.0
 20
0.0
 30
0.0
  9
$PUCSORGRIGHT
 10
0.0
 20
0.0
 30
0.0
  9
$PUCSORGFRONT
 10
0.0
 20
0.0
 30
0.0
  9
$PUCSORGBACK
 10
0.0
 20
0.0
 30
0.0
  9
$USERI1
 70
     0
  9
$USERI2
 70
     0
  9
$USERI3
 70
     0
  9
$USERI4
 70
     0
  9
$USERI5
 70
     0
  9
$USERR1
 40
0.0
  9
$USERR2
 40
0.0
  9
$USERR3
 40
0.0
  9
$USERR4
 40
0.0
  9
$USERR5
 40
0.0
  9
$WORLDVIEW
 70
     1
  9
$SHADEDGE
 70
     3
  9
$SHADEDIF
 70
    70
  9
$TILEMODE
 70
     1
  9
$MAXACTVP
 70
    64
  9
$PINSBASE
 10
0.0
 20
0.0
 30
0.0
  9
$PLIMCHECK
 70
     0
  9
$PEXTMIN
 10
1.000000000000000E+20
 20
1.000000000000000E+20
 30
1.000000000000000E+20
  9
$PEXTMAX
 10
-1.000000000000000E+20
 20
-1.000000000000000E+20
 30
-1.000000000000000E+20
  9
$PLIMMIN
 10
0.0
 20
0.0
  9
$PLIMMAX
 10
12.0
 20
9.0
  9
$UNITMODE
 70
     0
  9
$VISRETAIN
 70
     1
  9
$PLINEGEN
 70
     0
  9
$PSLTSCALE
 70
     1
  9
$TREEDEPTH
 70
  3020
  9
$CMLSTYLE
  2
Standard
  9
$CMLJUST
 70
     0
  9
$CMLSCALE
 40
1.0
  9
$PROXYGRAPHICS
 70
     1
  9
$MEASUREMENT
 70
     0
  9
$CELWEIGHT
370
    -1
  9
$ENDCAPS
280
     0
  9
$JOINSTYLE
280
     0
  9
$LWDISPLAY
290
     0
  9
$INSUNITS
 70
     1
  9
$HYPERLINKBASE
  1

  9
$STYLESHEET
  1

  9
$XEDIT
290
     1
  9
$CEPSNTYPE
380
     0
  9
$PSTYLEMODE
290
     1
  9
$FINGERPRINTGUID
  2
{B8144589-471C-4FF6-B8AD-6F3A72D356EE}
  9
$VERSIONGUID
  2
{FAEB1C32-E019-11D5-929B-00C0DF256EC4}
  9
$EXTNAMES
290
     1
  9
$PSVPSCALE
 40
0.0
  9
$OLESTARTUP
290
     0
  9
$SORTENTS
280
   127
  9
$INDEXCTL
280
     0
  9
$HIDETEXT
280
     1
  9
$XCLIPFRAME
280
     2
  9
$HALOGAP
280
     0
  9
$OBSCOLOR
 70
   257
  9
$OBSLTYPE
280
     0
  9
$INTERSECTIONDISPLAY
280
     0
  9
$INTERSECTIONCOLOR
 70
   257
  9
$DIMASSOC
280
     2
  9
$PROJECTNAME
  1

  9
$CAMERADISPLAY
290
     0
  9
$LENSLENGTH
 40
50.0
  9
$CAMERAHEIGHT
 40
0.0
  9
$STEPSPERSEC
 40
2.0
  9
$STEPSIZE
 40
6.0
  9
$3DDWFPREC
 40
2.0
  9
$PSOLWIDTH
 40
0.25
  9
$PSOLHEIGHT
 40
4.0
  9
$LOFTANG1
 40
1.570796326794897
  9
$LOFTANG2
 40
1.570796326794897
  9
$LOFTMAG1
 40
0.0
  9
$LOFTMAG2
 40
0.0
  9
$LOFTPARAM
 70
     7
  9
$LOFTNORMALS
280
     1
  9
$LATITUDE
 40
37.795
  9
$LONGITUDE
 40
-122.394
  9
$NORTHDIRECTION
 40
0.0
  9
$TIMEZONE
 70
 -8000
  9
$LIGHTGLYPHDISPLAY
280
     1
  9
$TILEMODELIGHTSYNCH
280
     1
  9
$CMATERIAL
347
44
  9
$SOLIDHIST
280
     0
  9
$SHOWHIST
280
     1
  9
$DWFFRAME
280
     2
  9
$DGNFRAME
280
     2
  9
$REALWORLDSCALE
290
     1
  9
$INTERFERECOLOR
 62
   256
  9
$CSHADOW
280
     0
  9
$SHADOWPLANELOCATION
 40
0.0
  0
ENDSEC
  0
SECTION
  2
CLASSES
  0
CLASS
  1
ACDBDICTIONARYWDFLT
  2
AcDbDictionaryWithDefault
  3
ObjectDBX Classes
 90
        0
 91
        4
280
     0
281
     0
  0
CLASS
  1
VISUALSTYLE
  2
AcDbVisualStyle
  3
ObjectDBX Classes
 90
     4095
 91
        4
280
     0
281
     0
  0
CLASS
  1
MATERIAL
  2
AcDbMaterial
  3
ObjectDBX Classes
 90
     1153
 91
        4
280
     0
281
     0
  0
CLASS
  1
SCALE
  2
AcDbScale
  3
ObjectDBX Classes
 90
     1153
 91
        4
280
     0
281
     0
  0
CLASS
  1
TABLESTYLE
  2
AcDbTableStyle
  3
ObjectDBX Classes
 90
     4095
 91
        4
280
     0
281
     0
  0
CLASS
  1
MLEADERSTYLE
  2
AcDbMLeaderStyle
  3
ACDB_MLEADERSTYLE_CLASS
 90
     4095
 91
        4
280
     0
281
     0
  0
CLASS
  1
SUN
  2
AcDbSun
  3
SCENEOE
 90
     1153
 91
        4
280
     0
281
     0
  0
CLASS
  1
DICTIONARYVAR
  2
AcDbDictionaryVar
  3
ObjectDBX Classes
 90
        0
 91
        4
280
     0
281
     0
  0
CLASS
  1
CELLSTYLEMAP
  2
AcDbCellStyleMap
  3
ObjectDBX Classes
 90
     1152
 91
        4
280
     0
281
     0
  0
ENDSEC
  0
SECTION
  2
TABLES
  0
TABLE
  2
VPORT
  5
8
330
0
100
AcDbSymbolTable
 70
     1
  0
VPORT
  5
29
330
8
100
AcDbSymbolTableRecord
100
AcDbViewportTableRecord
  2
*Active
 70
     0
 10
0.0
 20
0.0
 11
1.0
 21
1.0
 12
-0.029296875
 22
0.4937500000000004
 13
0.0
 23
0.0
 14
0.5
 24
0.5
 15
0.5
 25
0.5
 16
0.0
 26
0.0
 36
1.0
 17
0.0
 27
0.0
 37
0.0
 40
5.469750000000001
 41
0.4724650349650351
 42
50.0
 43
0.0
 44
0.0
 50
0.0
 51
0.0
 71
     0
 72
   100
 73
     1
 74
     3
 75
     0
 76
     0
 77
     0
 78
     0
281
     0
 65
     1
110
0.0
120
0.0
130
0.0
111
1.0
121
0.0
131
0.0
112
0.0
122
1.0
132
0.0
 79
     0
146
0.0
348
2F
 60
     3
 61
     5
292
     1
282
     1
141
0.0
142
0.0
 63
   250
361
6D
  0
ENDTAB
  0
TABLE
  2
LTYPE
  5
5
330
0
100
AcDbSymbolTable
 70
     3
  0
LTYPE
  5
14
330
5
100
AcDbSymbolTableRecord
100
AcDbLinetypeTableRecord
  2
ByBlock
 70
     0
  3

 72
    65
 73
     0
 40
0.0
  0
LTYPE
  5
15
330
5
100
AcDbSymbolTableRecord
100
AcDbLinetypeTableRecord
  2
ByLayer
 70
     0
  3

 72
    65
 73
     0
 40
0.0
  0
LTYPE
  5
16
330
5
100
AcDbSymbolTableRecord
100
AcDbLinetypeTableRecord
  2
Continuous
 70
     0
  3
Solid line
 72
    65
 73
     0
 40
0.0
  0
LTYPE
  5
A5
330
5
100
AcDbSymbolTableRecord
100
AcDbLinetypeTableRecord
  2
Dashed
 70
     0
  3

 72
    65
 73
     2
 40
2.0
 49
1.0
 74
     0
 49
-1.0
 74
     0
  0
LTYPE
  5
11A
330
5
100
AcDbSymbolTableRecord
100
AcDbLinetypeTableRecord
  2
Center
 70
     0
  3

 72
    65
 73
     4
 40
1.5
 49
0.45
 74
     0
 49
-0.5
 74
     0
 49
0.05
 74
     0
 49
-0.5
 74
     0
  0
ENDTAB
  0
TABLE
  2
LAYER
  5
2
330
0
100
AcDbSymbolTable
 70
     7
  0
LAYER
  5
10
330
2
100
AcDbSymbolTableRecord
100
AcDbLayerTableRecord
  2
0
 70
     0
 62
     7
  6
Continuous
370
    -3
390
F
347
46
348
0
  0
LAYER
  5
72
330
2
100
AcDbSymbolTableRecord
100
AcDbLayerTableRecord
  2
AM_6
 70
     0
 62
    -2
  6
Continuous
370
    35
390
F
347
46
348
0
  0
LAYER
  5
A6
330
2
100
AcDbSymbolTableRecord
100
AcDbLayerTableRecord
  2
AM_9
 70
     0
 62
     6
  6
Dashed
370
    25
390
F
347
46
348
0
  0
LAYER
  5
11B
330
2
100
AcDbSymbolTableRecord
100
AcDbLayerTableRecord
  2
AM_7
 70
     0
 62
     7
  6
Center
370
    25
390
F
347
46
348
0
  0
LAYER
  5
11D
330
2
100
AcDbSymbolTableRecord
100
AcDbLayerTableRecord
  2
AM_4
 70
     0
 62
     7
  6
Continuous
370
    50
390
F
347
46
348
0
  0
LAYER
  5
129
330
2
100
AcDbSymbolTableRecord
100
AcDbLayerTableRecord
  2
AM_5
 70
     0
 62
     3
  6
Continuous
370
    25
390
F
347
46
348
0
  0
LAYER
  5
25D
330
2
100
AcDbSymbolTableRecord
100
AcDbLayerTableRecord
  2
ConnectionPoints
 70
     0
 62
     7
  6
Continuous
370
    50
390
F
347
46
348
0
  0
ENDTAB
  0
TABLE
  2
STYLE
  5
3
330
0
100
AcDbSymbolTable
 70
     1
  0
STYLE
  5
11
330
3
100
AcDbSymbolTableRecord
100
AcDbTextStyleTableRecord
  2
Standard
 70
     0
 40
0.0
 41
1.0
 50
0.0
 71
     0
 42
0.2
  3
txt
  4

  0
ENDTAB
  0
TABLE
  2
VIEW
  5
6
330
0
100
AcDbSymbolTable
 70
     0
  0
ENDTAB
  0
TABLE
  2
UCS
  5
7
330
0
100
AcDbSymbolTable
 70
     0
  0
ENDTAB
  0
TABLE
  2
APPID
  5
9
330
0
100
AcDbSymbolTable
 70
     1
  0
APPID
  5
12
330
9
100
AcDbSymbolTableRecord
100
AcDbRegAppTableRecord
  2
ACAD
 70
     0
  0
ENDTAB
  0
TABLE
  2
DIMSTYLE
  5
A
330
0
100
AcDbSymbolTable
 70
     1
100
AcDbDimStyleTable
  0
DIMSTYLE
105
27
330
A
100
AcDbSymbolTableRecord
100
AcDbDimStyleTableRecord
  2
Standard
 70
     0
178
     0
340
11
  0
ENDTAB
  0
TABLE
  2
BLOCK_RECORD
  5
1
330
0
100
AcDbSymbolTable
 70
     5
  0
BLOCK_RECORD
  5
1F
330
1
100
AcDbSymbolTableRecord
100
AcDbBlockTableRecord
  2
*Model_Space
340
22
 70
     0
280
     1
281
     0
  0
BLOCK_RECORD
  5
1B
330
1
100
AcDbSymbolTableRecord
100
AcDbBlockTableRecord
  2
*Paper_Space
340
1E
 70
     0
280
     1
281
     0
  0
BLOCK_RECORD
  5
23
330
1
100
AcDbSymbolTableRecord
100
AcDbBlockTableRecord
  2
*Paper_Space0
340
26
 70
     0
280
     1
281
     0
  0
BLOCK_RECORD
  5
6E
330
1
100
AcDbSymbolTableRecord
100
AcDbBlockTableRecord
  2
1_129198_2
340
0
102
{BLKREFS
331
6F
102
}
 70
     0
280
     1
281
     0
  0
BLOCK_RECORD
  5
8F
330
1
100
AcDbSymbolTableRecord
100
AcDbBlockTableRecord
  2
2_129523I_0_in_129198_2
340
0
102
{BLKREFS
331
90
102
}
 70
     0
280
     1
281
     0
  0
BLOCK_RECORD
  5
D4
330
1
100
AcDbSymbolTableRecord
100
AcDbBlockTableRecord
  2
3_129919_0_in_129198_2
340
0
102
{BLKREFS
331
D5
102
}
 70
     0
280
     1
281
     0
  0
BLOCK_RECORD
  5
12B
330
1
100
AcDbSymbolTableRecord
100
AcDbBlockTableRecord
  2
4_129439I_0_in_129198_2
340
0
102
{BLKREFS
331
12C
102
}
 70
     0
280
     1
281
     0
  0
ENDTAB
  0
ENDSEC
  0
SECTION
  2
BLOCKS
  0
BLOCK
  5
20
330
1F
100
AcDbEntity
  8
0
100
AcDbBlockBegin
  2
*Model_Space
 70
     0
 10
0.0
 20
0.0
 30
0.0
  3
*Model_Space
  1

  0
ENDBLK
  5
21
330
1F
100
AcDbEntity
  8
0
100
AcDbBlockEnd
  0
BLOCK
  5
1C
330
1B
100
AcDbEntity
 67
     1
  8
0
100
AcDbBlockBegin
  2
*Paper_Space
 70
     0
 10
0.0
 20
0.0
 30
0.0
  3
*Paper_Space
  1

  0
ENDBLK
  5
1D
330
1B
100
AcDbEntity
 67
     1
  8
0
100
AcDbBlockEnd
  0
BLOCK
  5
24
330
23
100
AcDbEntity
  8
0
100
AcDbBlockBegin
  2
*Paper_Space0
 70
     0
 10
0.0
 20
0.0
 30
0.0
  3
*Paper_Space0
  1

  0
ENDBLK
  5
25
330
23
100
AcDbEntity
  8
0
100
AcDbBlockEnd
  0
BLOCK
  5
70
330
6E
100
AcDbEntity
  8
0
100
AcDbBlockBegin
  2
1_129198_2
 70
     2
 10
0.0
 20
0.0
 30
0.0
  3
1_129198_2
  1

  0
ATTDEF
  5
73
330
6E
100
AcDbEntity
  8
AM_6
100
AcDbText
 10
6.2375
 20
3.175
 30
0.0
 40
0.5
  1
Grip Tight Low Backing Height Two-Bolt Pillow Block Inch Bore
100
AcDbAttributeDefinition
  3

  2
NN
 70
     8
280
     0
  0
ATTDEF
  5
74
330
6E
100
AcDbEntity
  8
AM_6
100
AcDbText
 10
6.2375
 20
2.675
 30
0.0
 40
0.5
  1
GTB Normal Duty Pillow Blocks
100
AcDbAttributeDefinition
  3

  2
NT
 70
     8
280
     0
  0
ATTDEF
  5
75
330
6E
100
AcDbEntity
  8
AM_6
100
AcDbText
 10
6.2375
 20
2.175
 30
0.0
 40
0.5
  1
129198
100
AcDbAttributeDefinition
  3

  2
NB
 70
     8
280
     0
  0
ATTDEF
  5
76
330
6E
100
AcDbEntity
  8
AM_6
100
AcDbText
 10
6.2375
 20
1.675
 30
0.0
 40
0.5
  1
$PN.$LUBE.
100
AcDbAttributeDefinition
  3

  2
NBSYN
 70
     8
280
     0
  0
ATTDEF
  5
77
330
6E
100
AcDbEntity
  8
AM_6
100
AcDbText
 10
6.2375
 20
1.175
 30
0.0
 40
0.5
  1
129198
100
AcDbAttributeDefinition
  3

  2
LINA
 70
     8
280
     0
  0
ATTDEF
  5
78
330
6E
100
AcDbEntity
  8
AM_6
100
AcDbText
 10
6.2375
 20
0.6749999999999998
 30
0.0
 40
0.5
  1
210
100
AcDbAttributeDefinition
  3

  2
SERIES
 70
     8
280
     0
  0
ATTDEF
  5
79
330
6E
100
AcDbEntity
  8
AM_6
100
AcDbText
 10
6.2375
 20
0.1749999999999998
 30
0.0
 40
0.5
  1
2
100
AcDbAttributeDefinition
  3

  2
SS
 70
     8
280
     0
  0
ATTDEF
  5
7A
330
6E
100
AcDbEntity
  8
AM_6
100
AcDbText
 10
6.2375
 20
-0.3250000000000002
 30
0.0
 40
0.5
  1
129198
100
AcDbAttributeDefinition
  3

  2
PN
 70
     8
280
     0
  0
ATTDEF
  5
7B
330
6E
100
AcDbEntity
  8
AM_6
100
AcDbText
 10
6.2375
 20
-0.8250000000000002
 30
0.0
 40
0.5
  1
P2B-GTB-200
100
AcDbAttributeDefinition
  3

  2
DESCRIPTION
 70
     8
280
     0
  0
ATTDEF
  5
7C
330
6E
100
AcDbEntity
  8
AM_6
100
AcDbText
 10
6.2375
 20
-1.325
 30
0.0
 40
0.5
  1
1-55/64
100
AcDbAttributeDefinition
  3

  2
A
 70
     8
280
     0
  0
ATTDEF
  5
7D
330
6E
100
AcDbEntity
  8
AM_6
100
AcDbText
 10
6.2375
 20
-1.825
 30
0.0
 40
0.5
  1
8-1/8
100
AcDbAttributeDefinition
  3

  2
B
 70
     8
280
     0
  0
ATTDEF
  5
7E
330
6E
100
AcDbEntity
  8
AM_6
100
AcDbText
 10
6.2375
 20
-2.325
 30
0.0
 40
0.5
  1
2-1/4
100
AcDbAttributeDefinition
  3

  2
C
 70
     8
280
     0
  0
ATTDEF
  5
7F
330
6E
100
AcDbEntity
  8
AM_6
100
AcDbText
 10
6.2375
 20
-2.825
 30
0.0
 40
0.5
  1
6
100
AcDbAttributeDefinition
  3

  2
DMIN
 70
     8
280
     0
  0
ATTDEF
  5
80
330
6E
100
AcDbEntity
  8
AM_6
100
AcDbText
 10
6.2375
 20
-3.325
 30
0.0
 40
0.5
  1
6-11/16
100
AcDbAttributeDefinition
  3

  2
DMAX
 70
     8
280
     0
  0
ATTDEF
  5
81
330
6E
100
AcDbEntity
  8
AM_6
100
AcDbText
 10
6.2375
 20
-3.825
 30
0.0
 40
0.5
  1
5/8
100
AcDbAttributeDefinition
  3

  2
F
 70
     8
280
     0
  0
ATTDEF
  5
82
330
6E
100
AcDbEntity
  8
AM_6
100
AcDbText
 10
6.2375
 20
-4.325
 30
0.0
 40
0.5
  1
1-1/64
100
AcDbAttributeDefinition
  3

  2
G
 70
     8
280
     0
  0
ATTDEF
  5
83
330
6E
100
AcDbEntity
  8
AM_6
100
AcDbText
 10
6.2375
 20
-4.825
 30
0.0
 40
0.5
  1
11/16
100
AcDbAttributeDefinition
  3

  2
H
 70
     8
280
     0
  0
ATTDEF
  5
84
330
6E
100
AcDbEntity
  8
AM_6
100
AcDbText
 10
6.2375
 20
-5.325
 30
0.0
 40
0.5
  1
4-15/32
100
AcDbAttributeDefinition
  3

  2
J
 70
     8
280
     0
  0
ATTDEF
  5
85
330
6E
100
AcDbEntity
  8
AM_6
100
AcDbText
 10
6.2375
 20
-5.825
 30
0.0
 40
0.5
  1
2-15/16
100
AcDbAttributeDefinition
  3

  2
L
 70
     8
280
     0
  0
ATTDEF
  5
86
330
6E
100
AcDbEntity
  8
AM_6
100
AcDbText
 10
6.2375
 20
-6.325
 30
0.0
 40
0.5
  1
2-3/16
100
AcDbAttributeDefinition
  3

  2
M
 70
     8
280
     0
  0
ATTDEF
  5
87
330
6E
100
AcDbEntity
  8
AM_6
100
AcDbText
 10
6.2375
 20
-6.825
 30
0.0
 40
0.5
  1
21/32
100
AcDbAttributeDefinition
  3

  2
R
 70
     8
280
     0
  0
ATTDEF
  5
88
330
6E
100
AcDbEntity
  8
AM_6
100
AcDbText
 10
6.2375
 20
-7.325
 30
0.0
 40
0.5
  1
1-13/64
100
AcDbAttributeDefinition
  3

  2
S
 70
     8
280
     0
  0
ATTDEF
  5
89
330
6E
100
AcDbEntity
  8
AM_6
100
AcDbText
 10
6.2375
 20
-7.825
 30
0.0
 40
0.5
  1
3-11/16
100
AcDbAttributeDefinition
  3

  2
U
 70
     8
280
     0
  0
ATTDEF
  5
8A
330
6E
100
AcDbEntity
  8
AM_6
100
AcDbText
 10
6.2375
 20
-8.325
 30
0.0
 40
0.5
  1
7-3/8
100
AcDbAttributeDefinition
  3

  2
V
 70
     8
280
     0
  0
ATTDEF
  5
8B
330
6E
100
AcDbEntity
  8
AM_6
100
AcDbText
 10
6.2375
 20
-8.825
 30
0.0
 40
0.5
  1
13/16
100
AcDbAttributeDefinition
  3

  2
W
 70
     8
280
     0
  0
ATTDEF
  5
8C
330
6E
100
AcDbEntity
  8
AM_6
100
AcDbText
 10
6.2375
 20
-9.325
 30
0.0
 40
0.5
  1
3/16
100
AcDbAttributeDefinition
  3

  2
X
 70
     8
280
     0
  0
ATTDEF
  5
8D
330
6E
100
AcDbEntity
  8
AM_6
100
AcDbText
 10
6.2375
 20
-9.825
 30
0.0
 40
0.5
  1
1-5/32
100
AcDbAttributeDefinition
  3

  2
Z
 70
     8
280
     0
  0
ATTDEF
  5
8E
330
6E
100
AcDbEntity
  8
AM_6
100
AcDbText
 10
6.2375
 20
-10.325
 30
0.0
 40
0.5
  1
baldor
100
AcDbAttributeDefinition
  3

  2
COMPANY
 70
     8
280
     0
  0
INSERT
  5
90
330
6E
100
AcDbEntity
  8
0
100
AcDbBlockReference
  2
2_129523I_0_in_129198_2
 10
0.0
 20
0.0
 30
0.0
  0
INSERT
  5
D5
330
6E
100
AcDbEntity
  8
0
100
AcDbBlockReference
  2
3_129919_0_in_129198_2
 10
0.0
 20
0.0
 30
0.0
  0
INSERT
  5
12C
330
6E
100
AcDbEntity
  8
0
100
AcDbBlockReference
  2
4_129439I_0_in_129198_2
 10
0.0
 20
0.0
 30
0.0
  0
ENDBLK
  5
71
330
6E
100
AcDbEntity
  8
0
100
AcDbBlockEnd
  0
BLOCK
  5
91
330
8F
100
AcDbEntity
  8
0
100
AcDbBlockBegin
  2
2_129523I_0_in_129198_2
 70
     2
 10
0.0
 20
0.0
 30
0.0
  3
2_129523I_0_in_129198_2
  1

  0
ATTDEF
  5
93
330
8F
100
AcDbEntity
  8
AM_6
100
AcDbText
 10
5.567
 20
1.771512852384941
 30
0.0
 40
0.5
  1
INS-GT B
100
AcDbAttributeDefinition
  3

  2
NN
 70
     8
280
     0
  0
ATTDEF
  5
94
330
8F
100
AcDbEntity
  8
AM_6
100
AcDbText
 10
5.567
 20
1.271512852384941
 30
0.0
 40
0.5
  1
GT Normal Duty Bearing Inserts
100
AcDbAttributeDefinition
  3

  2
NT
 70
     8
280
     0
  0
ATTDEF
  5
95
330
8F
100
AcDbEntity
  8
AM_6
100
AcDbText
 10
5.567
 20
0.771512852384941
 30
0.0
 40
0.5
  1
129523I
100
AcDbAttributeDefinition
  3

  2
NB
 70
     8
280
     0
  0
ATTDEF
  5
96
330
8F
100
AcDbEntity
  8
AM_6
100
AcDbText
 10
5.567
 20
0.2715128523849411
 30
0.0
 40
0.5
  1
$PN.I
100
AcDbAttributeDefinition
  3

  2
NBSYN
 70
     8
280
     0
  0
ATTDEF
  5
97
330
8F
100
AcDbEntity
  8
AM_6
100
AcDbText
 10
5.567
 20
-0.2284871476150589
 30
0.0
 40
0.5
  1
129523
100
AcDbAttributeDefinition
  3

  2
LINA
 70
     8
280
     0
  0
ATTDEF
  5
98
330
8F
100
AcDbEntity
  8
AM_6
100
AcDbText
 10
5.567
 20
-0.728487147615059
 30
0.0
 40
0.5
  1
210
100
AcDbAttributeDefinition
  3

  2
SERIES
 70
     8
280
     0
  0
ATTDEF
  5
99
330
8F
100
AcDbEntity
  8
AM_6
100
AcDbText
 10
5.567
 20
-1.228487147615059
 30
0.0
 40
0.5
  1
129523
100
AcDbAttributeDefinition
  3

  2
PN
 70
     8
280
     0
  0
ATTDEF
  5
9A
330
8F
100
AcDbEntity
  8
AM_6
100
AcDbText
 10
5.567
 20
-1.728487147615059
 30
0.0
 40
0.5
  1
INS-GT-10
100
AcDbAttributeDefinition
  3

  2
DESCRIPTION
 70
     8
280
     0
  0
ATTDEF
  5
9B
330
8F
100
AcDbEntity
  8
AM_6
100
AcDbText
 10
5.567
 20
-2.228487147615059
 30
0.0
 40
0.5
  1
1.86
100
AcDbAttributeDefinition
  3

  2
A
 70
     8
280
     0
  0
ATTDEF
  5
9C
330
8F
100
AcDbEntity
  8
AM_6
100
AcDbText
 10
5.567
 20
-2.728487147615059
 30
0.0
 40
0.5
  1
0.87
100
AcDbAttributeDefinition
  3

  2
C
 70
     8
280
     0
  0
ATTDEF
  5
9D
330
8F
100
AcDbEntity
  8
AM_6
100
AcDbText
 10
5.567
 20
-3.228487147615059
 30
0.0
 40
0.5
  1
3.5433
100
AcDbAttributeDefinition
  3

  2
D
 70
     8
280
     0
  0
ATTDEF
  5
9E
330
8F
100
AcDbEntity
  8
AM_6
100
AcDbText
 10
5.567
 20
-3.728487147615059
 30
0.0
 40
0.5
  1
0.25
100
AcDbAttributeDefinition
  3

  2
J
 70
     8
280
     0
  0
ATTDEF
  5
9F
330
8F
100
AcDbEntity
  8
AM_6
100
AcDbText
 10
5.567
 20
-4.228487147615059
 30
0.0
 40
0.5
  1
3.13
100
AcDbAttributeDefinition
  3

  2
L
 70
     8
280
     0
  0
ATTDEF
  5
A0
330
8F
100
AcDbEntity
  8
AM_6
100
AcDbText
 10
5.567
 20
-4.728487147615059
 30
0.0
 40
0.5
  1
#10 - 32 x 1/4
100
AcDbAttributeDefinition
  3

  2
N
 70
     8
280
     0
  0
ATTDEF
  5
A1
330
8F
100
AcDbEntity
  8
AM_6
100
AcDbText
 10
5.567
 20
-5.228487147615059
 30
0.0
 40
0.5
  1
0.63000
100
AcDbAttributeDefinition
  3

  2
W
 70
     8
280
     0
  0
ATTDEF
  5
A2
330
8F
100
AcDbEntity
  8
AM_6
100
AcDbText
 10
5.567
 20
-5.728487147615059
 30
0.0
 40
0.5
  1
1.26
100
AcDbAttributeDefinition
  3

  2
X
 70
     8
280
     0
  0
ATTDEF
  5
A3
330
8F
100
AcDbEntity
  8
AM_6
100
AcDbText
 10
5.567
 20
-6.228487147615059
 30
0.0
 40
0.5
  1
1.23
100
AcDbAttributeDefinition
  3

  2
Y
 70
     8
280
     0
  0
ATTDEF
  5
A4
330
8F
100
AcDbEntity
  8
AM_6
100
AcDbText
 10
5.567
 20
-6.728487147615059
 30
0.0
 40
0.5
  1
baldor
100
AcDbAttributeDefinition
  3

  2
COMPANY
 70
     8
280
     0
  0
LINE
  5
A7
330
8F
100
AcDbEntity
  8
AM_9
100
AcDbLine
 10
-0.9449991998983996
 20
-1.167539593111111
 30
0.0
 11
-0.4724991998983998
 21
-1.167539593111111
 31
0.0
  0
LINE
  5
A8
330
8F
100
AcDbEntity
  8
AM_9
100
AcDbLine
 10
-0.4724991998983998
 20
1.167539593111111
 30
0.0
 11
-0.9449991998983996
 21
1.167539593111111
 31
0.0
  0
LINE
  5
A9
330
8F
100
AcDbEntity
  8
AM_9
100
AcDbLine
 10
-0.4724991998983998
 20
1.167539593111111
 30
0.0
 11
-0.4724991998983998
 21
-1.167539593111111
 31
0.0
  0
LINE
  5
AA
330
8F
100
AcDbEntity
  8
AM_9
100
AcDbLine
 10
-0.4724991998983998
 20
-1.167539593111111
 30
0.0
 11
0.5669999999999998
 21
-1.203839705057619
 31
0.0
  0
LINE
  5
AB
330
8F
100
AcDbEntity
  8
AM_9
100
AcDbLine
 10
0.5669999999999998
 20
1.203839705057619
 30
0.0
 11
-0.4724991998983998
 21
1.167539593111111
 31
0.0
  0
LINE
  5
AC
330
8F
100
AcDbEntity
  8
AM_9
100
AcDbLine
 10
-0.7874991998983998
 20
-1.279325352111111
 30
0.0
 11
-0.6299991998983996
 21
-1.279325352111111
 31
0.0
  0
LINE
  5
AD
330
8F
100
AcDbEntity
  8
AM_9
100
AcDbLine
 10
-0.6299991998983996
 20
1.279325352111111
 30
0.0
 11
-0.7874991998983998
 21
1.279325352111111
 31
0.0
  0
LINE
  5
AE
330
8F
100
AcDbEntity
  8
AM_9
100
AcDbLine
 10
-0.7874991998983998
 20
1.391111111111111
 30
0.0
 11
-0.7874991998983998
 21
-1.391111111111111
 31
0.0
  0
LINE
  5
AF
330
8F
100
AcDbEntity
  8
AM_9
100
AcDbLine
 10
-0.9101991998983998
 20
-1.391111111111111
 30
0.0
 11
-0.7874991998983998
 21
-1.391111111111111
 31
0.0
  0
LINE
  5
B0
330
8F
100
AcDbEntity
  8
AM_9
100
AcDbLine
 10
-0.7874991998983998
 20
1.391111111111111
 30
0.0
 11
-0.9101991998983998
 21
1.391111111111111
 31
0.0
  0
LINE
  5
B1
330
8F
100
AcDbEntity
  8
AM_9
100
AcDbLine
 10
-0.6299991998983996
 20
1.391111111111111
 30
0.0
 11
-0.6299991998983996
 21
-1.391111111111111
 31
0.0
  0
LINE
  5
B2
330
8F
100
AcDbEntity
  8
AM_9
100
AcDbLine
 10
-0.6299991998983996
 20
-1.391111111111111
 30
0.0
 11
-0.4349999999999999
 21
-1.391111111111111
 31
0.0
  0
LINE
  5
B3
330
8F
100
AcDbEntity
  8
AM_9
100
AcDbLine
 10
-0.4349999999999999
 20
1.391111111111111
 30
0.0
 11
-0.6299991998983996
 21
1.391111111111111
 31
0.0
  0
LINE
  5
B4
330
8F
100
AcDbEntity
  8
AM_9
100
AcDbLine
 10
0.567
 20
1.356311111111111
 30
0.0
 11
0.567
 21
-1.356311111111111
 31
0.0
  0
LINE
  5
B5
330
8F
100
AcDbEntity
  8
AM_9
100
AcDbLine
 10
0.567
 20
1.356311111111111
 30
0.0
 11
0.5322
 21
1.391111111111111
 31
0.0
  0
LINE
  5
B6
330
8F
100
AcDbEntity
  8
AM_9
100
AcDbLine
 10
0.5322
 20
-1.391111111111111
 30
0.0
 11
0.567
 21
-1.356311111111111
 31
0.0
  0
LINE
  5
B7
330
8F
100
AcDbEntity
  8
AM_9
100
AcDbLine
 10
-0.9449991998983996
 20
1.356311111111111
 30
0.0
 11
-0.9449991998983996
 21
-1.356311111111111
 31
0.0
  0
LINE
  5
B8
330
8F
100
AcDbEntity
  8
AM_9
100
AcDbLine
 10
-0.9101991998983998
 20
1.391111111111111
 30
0.0
 11
-0.9101991998983998
 21
-1.391111111111111
 31
0.0
  0
LINE
  5
B9
330
8F
100
AcDbEntity
  8
AM_9
100
AcDbLine
 10
-0.9449991998983996
 20
-1.356311111111111
 30
0.0
 11
-0.9101991998983998
 21
-1.391111111111111
 31
0.0
  0
LINE
  5
BA
330
8F
100
AcDbEntity
  8
AM_9
100
AcDbLine
 10
-0.9101991998983998
 20
1.391111111111111
 30
0.0
 11
-0.9449991998983996
 21
1.356311111111111
 31
0.0
  0
LINE
  5
BB
330
8F
100
AcDbEntity
  8
AM_9
100
AcDbLine
 10
0.5322
 20
1.391111111111111
 30
0.0
 11
0.5322
 21
-1.391111111111111
 31
0.0
  0
LINE
  5
BC
330
8F
100
AcDbEntity
  8
AM_9
100
AcDbLine
 10
0.435
 20
-1.391111111111111
 30
0.0
 11
0.5322
 21
-1.391111111111111
 31
0.0
  0
LINE
  5
BD
330
8F
100
AcDbEntity
  8
AM_9
100
AcDbLine
 10
0.5322
 20
1.391111111111111
 30
0.0
 11
0.435
 21
1.391111111111111
 31
0.0
  0
LINE
  5
BE
330
8F
100
AcDbEntity
  8
AM_9
100
AcDbLine
 10
-0.3000000000000002
 20
-1.68465
 30
0.0
 11
-0.2
 21
-1.68465
 31
0.0
  0
LINE
  5
BF
330
8F
100
AcDbEntity
  8
AM_9
100
AcDbLine
 10
-0.2
 20
1.68465
 30
0.0
 11
-0.3000000000000002
 21
1.68465
 31
0.0
  0
LINE
  5
C0
330
8F
100
AcDbEntity
  8
AM_9
100
AcDbLine
 10
0.435
 20
1.661186329583616
 30
0.0
 11
0.435
 21
-1.66118632958125
 31
0.0
  0
ARC
  5
C1
330
8F
100
AcDbEntity
  8
AM_9
100
AcDbCircle
 10
0.4001999999999999
 20
-1.661186329583616
 30
0.0
 40
0.0348000000000003
100
AcDbArc
 50
291.4124695896704
 51
0.0
  0
ARC
  5
C2
330
8F
100
AcDbEntity
  8
AM_9
100
AcDbCircle
 10
0.4001999999999999
 20
1.661186329583616
 30
0.0
 40
0.0348000000000001
100
AcDbArc
 50
0.0
 51
68.58753041032962
  0
LINE
  5
C3
330
8F
100
AcDbEntity
  8
AM_9
100
AcDbLine
 10
-0.4349999999999997
 20
1.661186329583617
 30
0.0
 11
-0.4349999999999997
 21
-1.66118632958125
 31
0.0
  0
ARC
  5
C4
330
8F
100
AcDbEntity
  8
AM_9
100
AcDbCircle
 10
-0.4001999999999995
 20
-1.661186329583616
 30
0.0
 40
0.0348000000000002
100
AcDbArc
 50
180.0
 51
248.587532953115
  0
ARC
  5
C5
330
8F
100
AcDbEntity
  8
AM_9
100
AcDbCircle
 10
-0.4001999999999995
 20
1.661186329583616
 30
0.0
 40
0.0348000000000004
100
AcDbArc
 50
111.412467046885
 51
180.0
  0
LINE
  5
C6
330
8F
100
AcDbEntity
  8
AM_9
100
AcDbLine
 10
-0.4129047619047621
 20
1.693584308300557
 30
0.0
 11
-0.4129047619047621
 21
-1.693584308300557
 31
0.0
  0
ARC
  5
C7
330
8F
100
AcDbEntity
  8
AM_9
100
AcDbCircle
 10
-0.0000000000000137
 20
-0.6406500000000319
 30
0.0
 40
1.130999999999965
100
AcDbArc
 50
248.587532953116
 51
254.0344017040175
  0
ARC
  5
C8
330
8F
100
AcDbEntity
  8
AM_9
100
AcDbCircle
 10
-0.0000000000000434
 20
0.6406500000001172
 30
0.0
 40
1.130999999999875
100
AcDbArc
 50
105.9655982959823
 51
111.4124670468842
  0
LINE
  5
C9
330
8F
100
AcDbEntity
  8
AM_9
100
AcDbLine
 10
-0.3110930212041978
 20
1.728023961504525
 30
0.0
 11
-0.3110930212041978
 21
-1.728023961504525
 31
0.0
  0
LINE
  5
CA
330
8F
100
AcDbEntity
  8
AM_9
100
AcDbLine
 10
-0.3000000000000002
 20
1.719659545833585
 30
0.0
 11
-0.3000000000000002
 21
-1.719659545829625
 31
0.0
  0
ARC
  5
CB
330
8F
100
AcDbEntity
  8
AM_9
100
AcDbCircle
 10
-0.3087000000000002
 20
-1.719659545833585
 30
0.0
 40
0.0087000000000001
100
AcDbArc
 50
254.0344156493716
 51
0.0
  0
ARC
  5
CC
330
8F
100
AcDbEntity
  8
AM_9
100
AcDbCircle
 10
-0.3087000000000002
 20
1.719659545833585
 30
0.0
 40
0.0087
100
AcDbArc
 50
0.0
 51
105.9655843506284
  0
LINE
  5
CD
330
8F
100
AcDbEntity
  8
AM_9
100
AcDbLine
 10
-0.2
 20
1.746525942539095
 30
0.0
 11
-0.2
 21
-1.746525942536671
 31
0.0
  0
ARC
  5
CE
330
8F
100
AcDbEntity
  8
AM_9
100
AcDbCircle
 10
-0.191299999999999
 20
-1.746525942409454
 30
0.0
 40
0.008700000000001
100
AcDbArc
 50
180.0
 51
260.185810542422
  0
ARC
  5
CF
330
8F
100
AcDbEntity
  8
AM_9
100
AcDbCircle
 10
-0.191299999999999
 20
1.746525942409454
 30
0.0
 40
0.0087000000000009
100
AcDbArc
 50
99.81418945757792
 51
180.0
  0
LINE
  5
D0
330
8F
100
AcDbEntity
  8
AM_9
100
AcDbLine
 10
-0.1927829457364343
 20
1.755098624133559
 30
0.0
 11
-0.1927829457364343
 21
-1.755098624133559
 31
0.0
  0
LINE
  5
D1
330
8F
100
AcDbEntity
  8
AM_9
100
AcDbLine
 10
0.412904763342584
 20
1.693584307736719
 30
0.0
 11
0.412904763342584
 21
-1.693584307736719
 31
0.0
  0
ARC
  5
D2
330
8F
100
AcDbEntity
  8
AM_9
100
AcDbCircle
 10
-0.0000000000000018
 20
-0.6406499999999873
 30
0.0
 40
1.131000000000012
100
AcDbArc
 50
260.1858105424295
 51
291.4124671251236
  0
ARC
  5
D3
330
8F
100
AcDbEntity
  8
AM_9
100
AcDbCircle
 10
-0.0000000000000009
 20
0.6406499999999948
 30
0.0
 40
1.131000000000005
100
AcDbArc
 50
68.58753287487642
 51
99.81418945757059
  0
ENDBLK
  5
92
330
8F
100
AcDbEntity
  8
0
100
AcDbBlockEnd
  0
BLOCK
  5
D6
330
D4
100
AcDbEntity
  8
0
100
AcDbBlockBegin
  2
3_129919_0_in_129198_2
 70
     2
 10
0.0
 20
0.0
 30
0.0
  3
3_129919_0_in_129198_2
  1

  0
ATTDEF
  5
D8
330
D4
100
AcDbEntity
  8
AM_6
100
AcDbText
 10
5.65625
 20
1.46875
 30
0.0
 40
0.5
  1
Grip Tight Normal Duty Adapter and Nut Inch Bore
100
AcDbAttributeDefinition
  3

  2
NN
 70
     8
280
     0
  0
ATTDEF
  5
D9
330
D4
100
AcDbEntity
  8
AM_6
100
AcDbText
 10
5.65625
 20
0.9687500000000004
 30
0.0
 40
0.5
  1
GT and GTM Adapter & Lock Nut Assemblies
100
AcDbAttributeDefinition
  3

  2
NT
 70
     8
280
     0
  0
ATTDEF
  5
DA
330
D4
100
AcDbEntity
  8
AM_6
100
AcDbText
 10
5.65625
 20
0.4687500000000004
 30
0.0
 40
0.5
  1
129919
100
AcDbAttributeDefinition
  3

  2
NB
 70
     8
280
     0
  0
ATTDEF
  5
DB
330
D4
100
AcDbEntity
  8
AM_6
100
AcDbText
 10
5.65625
 20
-0.0312499999999996
 30
0.0
 40
0.5
  1
$PN.
100
AcDbAttributeDefinition
  3

  2
NBSYN
 70
     8
280
     0
  0
ATTDEF
  5
DC
330
D4
100
AcDbEntity
  8
AM_6
100
AcDbText
 10
5.65625
 20
-0.5312499999999996
 30
0.0
 40
0.5
  1
129919
100
AcDbAttributeDefinition
  3

  2
LINA
 70
     8
280
     0
  0
ATTDEF
  5
DD
330
D4
100
AcDbEntity
  8
AM_6
100
AcDbText
 10
5.65625
 20
-1.03125
 30
0.0
 40
0.5
  1
210
100
AcDbAttributeDefinition
  3

  2
SERIES
 70
     8
280
     0
  0
ATTDEF
  5
DE
330
D4
100
AcDbEntity
  8
AM_6
100
AcDbText
 10
5.65625
 20
-1.53125
 30
0.0
 40
0.5
  1
2
100
AcDbAttributeDefinition
  3

  2
SS
 70
     8
280
     0
  0
ATTDEF
  5
DF
330
D4
100
AcDbEntity
  8
AM_6
100
AcDbText
 10
5.65625
 20
-2.03125
 30
0.0
 40
0.5
  1
129919
100
AcDbAttributeDefinition
  3

  2
PN
 70
     8
280
     0
  0
ATTDEF
  5
E0
330
D4
100
AcDbEntity
  8
AM_6
100
AcDbText
 10
5.65625
 20
-2.53125
 30
0.0
 40
0.5
  1
AN-GT-10-200
100
AcDbAttributeDefinition
  3

  2
DESCRIPTION
 70
     8
280
     0
  0
ATTDEF
  5
E1
330
D4
100
AcDbEntity
  8
AM_6
100
AcDbText
 10
5.65625
 20
-3.03125
 30
0.0
 40
0.5
  1
1-55/64
100
AcDbAttributeDefinition
  3

  2
A
 70
     8
280
     0
  0
ATTDEF
  5
E2
330
D4
100
AcDbEntity
  8
AM_6
100
AcDbText
 10
5.65625
 20
-3.53125
 30
0.0
 40
0.5
  1
0.8661
100
AcDbAttributeDefinition
  3

  2
C
 70
     8
280
     0
  0
ATTDEF
  5
E3
330
D4
100
AcDbEntity
  8
AM_6
100
AcDbText
 10
5.65625
 20
-4.03125
 30
0.0
 40
0.5
  1
3.5433
100
AcDbAttributeDefinition
  3

  2
D
 70
     8
280
     0
  0
ATTDEF
  5
E4
330
D4
100
AcDbEntity
  8
AM_6
100
AcDbText
 10
5.65625
 20
-4.53125
 30
0.0
 40
0.5
  1
0.248
100
AcDbAttributeDefinition
  3

  2
J
 70
     8
280
     0
  0
ATTDEF
  5
E5
330
D4
100
AcDbEntity
  8
AM_6
100
AcDbText
 10
5.65625
 20
-5.03125
 30
0.0
 40
0.5
  1
2-15/16
100
AcDbAttributeDefinition
  3

  2
L
 70
     8
280
     0
  0
ATTDEF
  5
E6
330
D4
100
AcDbEntity
  8
AM_6
100
AcDbText
 10
5.65625
 20
-5.53125
 30
0.0
 40
0.5
  1
10 - 32 x 1/4
100
AcDbAttributeDefinition
  3

  2
N
 70
     8
280
     0
  0
ATTDEF
  5
E7
330
D4
100
AcDbEntity
  8
AM_6
100
AcDbText
 10
5.65625
 20
-6.03125
 30
0.0
 40
0.5
  1
21/32
100
AcDbAttributeDefinition
  3

  2
W
 70
     8
280
     0
  0
ATTDEF
  5
E8
330
D4
100
AcDbEntity
  8
AM_6
100
AcDbText
 10
5.65625
 20
-6.53125
 30
0.0
 40
0.5
  1
1-5/32
100
AcDbAttributeDefinition
  3

  2
X
 70
     8
280
     0
  0
ATTDEF
  5
E9
330
D4
100
AcDbEntity
  8
AM_6
100
AcDbText
 10
5.65625
 20
-7.03125
 30
0.0
 40
0.5
  1
1-13/64
100
AcDbAttributeDefinition
  3

  2
Y
 70
     8
280
     0
  0
ATTDEF
  5
EA
330
D4
100
AcDbEntity
  8
AM_6
100
AcDbText
 10
5.65625
 20
-7.53125
 30
0.0
 40
0.5
  1
baldor
100
AcDbAttributeDefinition
  3

  2
COMPANY
 70
     8
280
     0
  0
LWPOLYLINE
  5
EB
330
D4
100
AcDbEntity
  8
AM_9
100
AcDbPolyline
 90
        5
 70
     0
 43
0.0
 10
-1.121606000000001
 20
0.0397333646840972
 10
-1.125320489806272
 20
0.0178422529703618
 10
-1.126175380191767
 20
-0.0052454682959433
 10
-1.124762762841628
 20
-0.022537323200924
 10
-1.121606
 20
-0.0397333646840994
  0
LWPOLYLINE
  5
EC
330
D4
100
AcDbEntity
  8
AM_9
100
AcDbPolyline
 90
       13
 70
     0
 43
0.0
 10
-0.9541450125525915
 20
0.0468870966365607
 10
-0.9614601632157533
 20
0.0571904960171979
 10
-0.9719910034355744
 20
0.0681315862842809
 10
-0.9845099924954146
 20
0.0774452861380141
 10
-0.9983751321839269
 20
0.0846104058401817
 10
-1.013667298138926
 20
0.0895386360219504
 10
-1.029561869014893
 20
0.0919031428813369
 10
-1.045939662556817
 20
0.0915841865802829
 10
-1.062036274201842
 20
0.0885533795901569
 10
-1.077444452554102
 20
0.0828199186096165
 10
-1.09165884603697
 20
0.0745679176904797
 10
-1.109817132638993
 20
0.0578527501820774
 10
-1.121606000000001
 20
0.0397333646840972
  0
LWPOLYLINE
  5
ED
330
D4
100
AcDbEntity
  8
AM_9
100
AcDbPolyline
 90
       15
 70
     0
 43
0.0
 10
-1.119413365385201
 20
-0.0439014070928423
 10
-1.113804461465403
 20
-0.0527071891622799
 10
-1.103864433623928
 20
-0.0643369872197598
 10
-1.09217108340324
 20
-0.0742052558140463
 10
-1.078626593408023
 20
-0.0822540533802985
 10
-1.063952231230327
 20
-0.0880003031904708
 10
-1.048110540943512
 20
-0.0913362943873644
 10
-1.031934521441451
 20
-0.0920283533739945
 10
-1.015633604344548
 20
-0.0899759282634385
 10
-0.999906096783741
 20
-0.0852338662176643
 10
-0.9852394030730147
 20
-0.0778938816358774
 10
-0.9720361862687682
 20
-0.0681714100546385
 10
-0.960920153393015
 20
-0.0565199444618161
 10
-0.9519738137487551
 20
-0.0431319017430167
 10
-0.9478568475414626
 20
-0.0345705610289453
  0
LINE
  5
EE
330
D4
100
AcDbEntity
  8
AM_9
100
AcDbLine
 10
-1.121606
 20
-0.0397333646840994
 30
0.0
 11
-1.119413365385201
 21
-0.0439014070928423
 31
0.0
  0
LINE
  5
EF
330
D4
100
AcDbEntity
  8
AM_9
100
AcDbLine
 10
-1.121606000000001
 20
0.0397333646840972
 30
0.0
 11
-1.121606
 21
0.124
 31
0.0
  0
LINE
  5
F0
330
D4
100
AcDbEntity
  8
AM_9
100
AcDbLine
 10
-1.121606
 20
-0.124
 30
0.0
 11
-1.121606
 21
-0.0397333646840994
 31
0.0
  0
LINE
  5
F1
330
D4
100
AcDbEntity
  8
AM_9
100
AcDbLine
 10
-0.5781250000000001
 20
1.125176275633002
 30
0.0
 11
-1.15625
 21
1.125176275633002
 31
0.0
  0
LINE
  5
F2
330
D4
100
AcDbEntity
  8
AM_9
100
AcDbLine
 10
-0.5781249999999999
 20
1.175320901959956
 30
0.0
 11
-0.6127690000000002
 21
1.20543359663337
 31
0.0
  0
LINE
  5
F3
330
D4
100
AcDbEntity
  8
AM_9
100
AcDbLine
 10
-0.6127690000000002
 20
1.20543359663337
 30
0.0
 11
-1.121606
 21
1.20543359663337
 31
0.0
  0
LINE
  5
F4
330
D4
100
AcDbEntity
  8
AM_9
100
AcDbLine
 10
-1.121606
 20
1.20543359663337
 30
0.0
 11
-1.15625
 21
1.175320901959956
 31
0.0
  0
LINE
  5
F5
330
D4
100
AcDbEntity
  8
AM_9
100
AcDbLine
 10
-0.5781250000000001
 20
-1.125176275633002
 30
0.0
 11
-1.15625
 21
-1.125176275633002
 31
0.0
  0
LINE
  5
F6
330
D4
100
AcDbEntity
  8
AM_9
100
AcDbLine
 10
-1.15625
 20
-1.175320901959957
 30
0.0
 11
-1.121606
 21
-1.20543359663337
 31
0.0
  0
LINE
  5
F7
330
D4
100
AcDbEntity
  8
AM_9
100
AcDbLine
 10
-1.121606
 20
-1.20543359663337
 30
0.0
 11
-0.6127690000000002
 21
-1.20543359663337
 31
0.0
  0
LINE
  5
F8
330
D4
100
AcDbEntity
  8
AM_9
100
AcDbLine
 10
-0.6127690000000002
 20
-1.20543359663337
 30
0.0
 11
-0.5781249999999999
 21
-1.175320901959957
 31
0.0
  0
LINE
  5
F9
330
D4
100
AcDbEntity
  8
AM_9
100
AcDbLine
 10
-0.5781250000000001
 20
1.249176275633002
 30
0.0
 11
-1.15625
 21
1.249176275633002
 31
0.0
  0
LINE
  5
FA
330
D4
100
AcDbEntity
  8
AM_9
100
AcDbLine
 10
-0.5781250000000001
 20
-1.249176275633002
 30
0.0
 11
-1.15625
 21
-1.249176275633002
 31
0.0
  0
LINE
  5
FB
330
D4
100
AcDbEntity
  8
AM_9
100
AcDbLine
 10
-0.8671875
 20
1.095734126984127
 30
0.0
 11
-1.15625
 21
1.095734126984127
 31
0.0
  0
LINE
  5
FC
330
D4
100
AcDbEntity
  8
AM_9
100
AcDbLine
 10
0.65625
 20
0.9987492177719091
 30
0.0
 11
-1.203125
 21
0.9987492177719091
 31
0.0
  0
LINE
  5
FD
330
D4
100
AcDbEntity
  8
AM_9
100
AcDbLine
 10
-1.203125
 20
-1.0
 30
0.0
 11
0.6562499999999999
 21
-1.0
 31
0.0
  0
LINE
  5
FE
330
D4
100
AcDbEntity
  8
AM_9
100
AcDbLine
 10
-0.8671874999999999
 20
1.094592744831459
 30
0.0
 11
-0.4335937500000009
 21
1.094592744831459
 31
0.0
  0
LINE
  5
FF
330
D4
100
AcDbEntity
  8
AM_9
100
AcDbLine
 10
-0.8671874999999999
 20
-1.095734126984127
 30
0.0
 11
-0.4335937500000008
 21
-1.095734126984127
 31
0.0
  0
LINE
  5
100
330
D4
100
AcDbEntity
  8
AM_9
100
AcDbLine
 10
-0.4335937500000009
 20
1.094592744831459
 30
0.0
 11
0.65625
 21
1.132689278118078
 31
0.0
  0
LINE
  5
101
330
D4
100
AcDbEntity
  8
AM_9
100
AcDbLine
 10
-0.4335937500000009
 20
1.094592744831459
 30
0.0
 11
-0.4335937500000008
 21
-1.095734126984127
 31
0.0
  0
LINE
  5
102
330
D4
100
AcDbEntity
  8
AM_9
100
AcDbLine
 10
0.65625
 20
1.132689278118078
 30
0.0
 11
0.65625
 21
-1.133792309359899
 31
0.0
  0
LINE
  5
103
330
D4
100
AcDbEntity
  8
AM_9
100
AcDbLine
 10
-0.4335937500000008
 20
-1.095734126984127
 30
0.0
 11
0.65625
 21
-1.133792309359899
 31
0.0
  0
LINE
  5
104
330
D4
100
AcDbEntity
  8
AM_9
100
AcDbLine
 10
-0.7226562500000001
 20
-1.200644841269842
 30
0.0
 11
-0.5781249999999999
 21
-1.200644841269842
 31
0.0
  0
LINE
  5
105
330
D4
100
AcDbEntity
  8
AM_9
100
AcDbLine
 10
-0.5781249999999999
 20
1.200644841269842
 30
0.0
 11
-0.7226562500000001
 21
1.200644841269842
 31
0.0
  0
LINE
  5
106
330
D4
100
AcDbEntity
  8
AM_9
100
AcDbLine
 10
-0.7226562500000001
 20
1.305555555555557
 30
0.0
 11
-0.7226562500000001
 21
-1.305555555555557
 31
0.0
  0
LINE
  5
107
330
D4
100
AcDbEntity
  8
AM_9
100
AcDbLine
 10
-0.8671874999999999
 20
1.305555555555557
 30
0.0
 11
-0.8671874999999999
 21
-1.305555555555557
 31
0.0
  0
LINE
  5
108
330
D4
100
AcDbEntity
  8
AM_9
100
AcDbLine
 10
-0.8671874999999999
 20
-1.305555555555557
 30
0.0
 11
-0.7226562500000001
 21
-1.305555555555557
 31
0.0
  0
LINE
  5
109
330
D4
100
AcDbEntity
  8
AM_9
100
AcDbLine
 10
-0.7226562500000001
 20
1.305555555555557
 30
0.0
 11
-0.8671874999999999
 21
1.305555555555557
 31
0.0
  0
LINE
  5
10A
330
D4
100
AcDbEntity
  8
AM_9
100
AcDbLine
 10
-1.15625
 20
1.299320901959957
 30
0.0
 11
-1.121606
 21
1.32943359663337
 31
0.0
  0
LINE
  5
10B
330
D4
100
AcDbEntity
  8
AM_9
100
AcDbLine
 10
-1.121606
 20
-1.32943359663337
 30
0.0
 11
-1.15625
 21
-1.299320901959957
 31
0.0
  0
LINE
  5
10C
330
D4
100
AcDbEntity
  8
AM_9
100
AcDbLine
 10
-0.5781249999999999
 20
-1.299320901959957
 30
0.0
 11
-0.6127690000000002
 21
-1.32943359663337
 31
0.0
  0
LINE
  5
10D
330
D4
100
AcDbEntity
  8
AM_9
100
AcDbLine
 10
-0.9885369171570245
 20
-0.124
 30
0.0
 11
-0.5781249999999997
 21
-0.124
 31
0.0
  0
LINE
  5
10E
330
D4
100
AcDbEntity
  8
AM_9
100
AcDbLine
 10
-0.6127689999999999
 20
-1.46875
 30
0.0
 11
-0.5781249999999999
 21
-1.434106000000001
 31
0.0
  0
LINE
  5
10F
330
D4
100
AcDbEntity
  8
AM_9
100
AcDbLine
 10
-0.5781249999999997
 20
0.124
 30
0.0
 11
-0.9639418266446279
 21
0.124
 31
0.0
  0
LINE
  5
110
330
D4
100
AcDbEntity
  8
AM_9
100
AcDbLine
 10
-0.6127690000000002
 20
1.32943359663337
 30
0.0
 11
-0.5781249999999999
 21
1.299320901959957
 31
0.0
  0
LINE
  5
111
330
D4
100
AcDbEntity
  8
AM_9
100
AcDbLine
 10
-0.5781249999999999
 20
1.434106000000001
 30
0.0
 11
-0.6127689999999999
 21
1.46875
 31
0.0
  0
LINE
  5
112
330
D4
100
AcDbEntity
  8
AM_9
100
AcDbLine
 10
-0.5781249999999999
 20
1.434106000000001
 30
0.0
 11
-0.5781249999999999
 21
-1.434106000000001
 31
0.0
  0
LINE
  5
113
330
D4
100
AcDbEntity
  8
AM_9
100
AcDbLine
 10
-1.121606
 20
1.32943359663337
 30
0.0
 11
-0.6127690000000002
 21
1.32943359663337
 31
0.0
  0
LINE
  5
114
330
D4
100
AcDbEntity
  8
AM_9
100
AcDbLine
 10
-0.6127689999999999
 20
1.46875
 30
0.0
 11
-0.8305779235537187
 21
1.46875
 31
0.0
  0
LINE
  5
115
330
D4
100
AcDbEntity
  8
AM_9
100
AcDbLine
 10
-0.6127689999999999
 20
1.46875
 30
0.0
 11
-0.6127689999999999
 21
-1.46875
 31
0.0
  0
LINE
  5
116
330
D4
100
AcDbEntity
  8
AM_9
100
AcDbLine
 10
-0.6127690000000002
 20
-1.32943359663337
 30
0.0
 11
-1.121606
 21
-1.32943359663337
 31
0.0
  0
LINE
  5
117
330
D4
100
AcDbEntity
  8
AM_9
100
AcDbLine
 10
-1.121606
 20
-1.4657772351122
 30
0.0
 11
-1.121606
 21
-1.46875
 31
0.0
  0
LINE
  5
118
330
D4
100
AcDbEntity
  8
AM_9
100
AcDbLine
 10
-1.121606
 20
-1.46875
 30
0.0
 11
-0.6127689999999999
 21
-1.46875
 31
0.0
  0
CIRCLE
  5
119
330
D4
100
AcDbEntity
  8
AM_9
100
AcDbCircle
 10
-1.035906433324867
 20
0.0
 30
0.0
 40
0.07245
  0
LINE
  5
11C
330
D4
100
AcDbEntity
  8
AM_7
100
AcDbLine
 10
-1.035906433324867
 20
-0.0997499999999999
 30
0.0
 11
-1.035906433324867
 21
0.0997499999999999
 31
0.0
  0
LINE
  5
11E
330
D4
100
AcDbEntity
  8
AM_4
100
AcDbLine
 10
-1.203125
 20
1.094592744831459
 30
0.0
 11
-1.15625
 21
1.094592744831459
 31
0.0
  0
LINE
  5
11F
330
D4
100
AcDbEntity
  8
AM_4
100
AcDbLine
 10
-1.203125
 20
1.094592744831459
 30
0.0
 11
-1.203125
 21
-1.095734126984127
 31
0.0
  0
LINE
  5
120
330
D4
100
AcDbEntity
  8
AM_4
100
AcDbLine
 10
-1.203125
 20
-1.095734126984127
 30
0.0
 11
-1.15625
 21
-1.095734126984127
 31
0.0
  0
LINE
  5
121
330
D4
100
AcDbEntity
  8
AM_4
100
AcDbLine
 10
-0.9639418266446279
 20
0.124
 30
0.0
 11
-1.15625
 21
0.124
 31
0.0
  0
LINE
  5
122
330
D4
100
AcDbEntity
  8
AM_4
100
AcDbLine
 10
-1.121606
 20
1.46875
 30
0.0
 11
-1.15625
 21
1.434106
 31
0.0
  0
LINE
  5
123
330
D4
100
AcDbEntity
  8
AM_4
100
AcDbLine
 10
-1.15625
 20
-0.124
 30
0.0
 11
-0.9885369171570245
 21
-0.124
 31
0.0
  0
LINE
  5
124
330
D4
100
AcDbEntity
  8
AM_4
100
AcDbLine
 10
-1.15625
 20
1.434106
 30
0.0
 11
-1.15625
 21
-1.434106
 31
0.0
  0
LINE
  5
125
330
D4
100
AcDbEntity
  8
AM_4
100
AcDbLine
 10
-1.15625
 20
-1.434106
 30
0.0
 11
-1.121874219876413
 21
-1.468481780123587
 31
0.0
  0
LINE
  5
126
330
D4
100
AcDbEntity
  8
AM_4
100
AcDbLine
 10
-0.8305779235537187
 20
1.46875
 30
0.0
 11
-1.121606
 21
1.46875
 31
0.0
  0
LINE
  5
127
330
D4
100
AcDbEntity
  8
AM_4
100
AcDbLine
 10
-1.121606
 20
1.46875
 30
0.0
 11
-1.121606
 21
0.124
 31
0.0
  0
LINE
  5
128
330
D4
100
AcDbEntity
  8
AM_4
100
AcDbLine
 10
-1.121606
 20
-0.124
 30
0.0
 11
-1.121606
 21
-1.4657772351122
 31
0.0
  0
ARC
  5
12A
330
D4
100
AcDbEntity
  8
AM_5
100
AcDbCircle
 10
-1.035906433324867
 20
0.0
 30
0.0
 40
0.095
100
AcDbArc
 50
74.99999999999994
 51
14.99999999999997
  0
ENDBLK
  5
D7
330
D4
100
AcDbEntity
  8
0
100
AcDbBlockEnd
  0
BLOCK
  5
12D
330
12B
100
AcDbEntity
  8
0
100
AcDbBlockBegin
  2
4_129439I_0_in_129198_2
 70
     2
 10
0.0
 20
0.0
 30
0.0
  3
4_129439I_0_in_129198_2
  1

  0
ATTDEF
  5
12F
330
12B
100
AcDbEntity
  8
AM_6
100
AcDbText
 10
6.2375
 20
3.175
 30
0.0
 40
0.5
  1
GTB-I
100
AcDbAttributeDefinition
  3

  2
NN
 70
     8
280
     0
  0
ATTDEF
  5
130
330
12B
100
AcDbEntity
  8
AM_6
100
AcDbText
 10
6.2375
 20
2.675
 30
0.0
 40
0.5
  1
GTB Normal Duty Pillow Blocks
100
AcDbAttributeDefinition
  3

  2
NT
 70
     8
280
     0
  0
ATTDEF
  5
131
330
12B
100
AcDbEntity
  8
AM_6
100
AcDbText
 10
6.2375
 20
2.175
 30
0.0
 40
0.5
  1
129439I
100
AcDbAttributeDefinition
  3

  2
NB
 70
     8
280
     0
  0
ATTDEF
  5
132
330
12B
100
AcDbEntity
  8
AM_6
100
AcDbText
 10
6.2375
 20
1.675
 30
0.0
 40
0.5
  1
$PN.$LUBE.I
100
AcDbAttributeDefinition
  3

  2
NBSYN
 70
     8
280
     0
  0
ATTDEF
  5
133
330
12B
100
AcDbEntity
  8
AM_6
100
AcDbText
 10
6.2375
 20
1.175
 30
0.0
 40
0.5
  1
129439
100
AcDbAttributeDefinition
  3

  2
LINA
 70
     8
280
     0
  0
ATTDEF
  5
134
330
12B
100
AcDbEntity
  8
AM_6
100
AcDbText
 10
6.2375
 20
0.6749999999999998
 30
0.0
 40
0.5
  1
210
100
AcDbAttributeDefinition
  3

  2
SERIES
 70
     8
280
     0
  0
ATTDEF
  5
135
330
12B
100
AcDbEntity
  8
AM_6
100
AcDbText
 10
6.2375
 20
0.1749999999999998
 30
0.0
 40
0.5
  1
129439
100
AcDbAttributeDefinition
  3

  2
PN
 70
     8
280
     0
  0
ATTDEF
  5
136
330
12B
100
AcDbEntity
  8
AM_6
100
AcDbText
 10
6.2375
 20
-0.3250000000000002
 30
0.0
 40
0.5
  1
P2B-GTB-10
100
AcDbAttributeDefinition
  3

  2
DESCRIPTION
 70
     8
280
     0
  0
ATTDEF
  5
137
330
12B
100
AcDbEntity
  8
AM_6
100
AcDbText
 10
6.2375
 20
-0.8250000000000002
 30
0.0
 40
0.5
  1
1-55/64
100
AcDbAttributeDefinition
  3

  2
A
 70
     8
280
     0
  0
ATTDEF
  5
138
330
12B
100
AcDbEntity
  8
AM_6
100
AcDbText
 10
6.2375
 20
-1.325
 30
0.0
 40
0.5
  1
8-1/8
100
AcDbAttributeDefinition
  3

  2
B
 70
     8
280
     0
  0
ATTDEF
  5
139
330
12B
100
AcDbEntity
  8
AM_6
100
AcDbText
 10
6.2375
 20
-1.825
 30
0.0
 40
0.5
  1
2-1/4
100
AcDbAttributeDefinition
  3

  2
C
 70
     8
280
     0
  0
ATTDEF
  5
13A
330
12B
100
AcDbEntity
  8
AM_6
100
AcDbText
 10
6.2375
 20
-2.325
 30
0.0
 40
0.5
  1
6
100
AcDbAttributeDefinition
  3

  2
DMIN
 70
     8
280
     0
  0
ATTDEF
  5
13B
330
12B
100
AcDbEntity
  8
AM_6
100
AcDbText
 10
6.2375
 20
-2.825
 30
0.0
 40
0.5
  1
6-11/16
100
AcDbAttributeDefinition
  3

  2
DMAX
 70
     8
280
     0
  0
ATTDEF
  5
13C
330
12B
100
AcDbEntity
  8
AM_6
100
AcDbText
 10
6.2375
 20
-3.325
 30
0.0
 40
0.5
  1
5/8
100
AcDbAttributeDefinition
  3

  2
F
 70
     8
280
     0
  0
ATTDEF
  5
13D
330
12B
100
AcDbEntity
  8
AM_6
100
AcDbText
 10
6.2375
 20
-3.825
 30
0.0
 40
0.5
  1
1-1/64
100
AcDbAttributeDefinition
  3

  2
G
 70
     8
280
     0
  0
ATTDEF
  5
13E
330
12B
100
AcDbEntity
  8
AM_6
100
AcDbText
 10
6.2375
 20
-4.325
 30
0.0
 40
0.5
  1
11/16
100
AcDbAttributeDefinition
  3

  2
H
 70
     8
280
     0
  0
ATTDEF
  5
13F
330
12B
100
AcDbEntity
  8
AM_6
100
AcDbText
 10
6.2375
 20
-4.825
 30
0.0
 40
0.5
  1
4-15/32
100
AcDbAttributeDefinition
  3

  2
J
 70
     8
280
     0
  0
ATTDEF
  5
140
330
12B
100
AcDbEntity
  8
AM_6
100
AcDbText
 10
6.2375
 20
-5.325
 30
0.0
 40
0.5
  1
2-15/16
100
AcDbAttributeDefinition
  3

  2
L
 70
     8
280
     0
  0
ATTDEF
  5
141
330
12B
100
AcDbEntity
  8
AM_6
100
AcDbText
 10
6.2375
 20
-5.825
 30
0.0
 40
0.5
  1
2-3/16
100
AcDbAttributeDefinition
  3

  2
M
 70
     8
280
     0
  0
ATTDEF
  5
142
330
12B
100
AcDbEntity
  8
AM_6
100
AcDbText
 10
6.2375
 20
-6.325
 30
0.0
 40
0.5
  1
21/32
100
AcDbAttributeDefinition
  3

  2
R
 70
     8
280
     0
  0
ATTDEF
  5
143
330
12B
100
AcDbEntity
  8
AM_6
100
AcDbText
 10
6.2375
 20
-6.825
 30
0.0
 40
0.5
  1
1-13/64
100
AcDbAttributeDefinition
  3

  2
S
 70
     8
280
     0
  0
ATTDEF
  5
144
330
12B
100
AcDbEntity
  8
AM_6
100
AcDbText
 10
6.2375
 20
-7.325
 30
0.0
 40
0.5
  1
3-11/16
100
AcDbAttributeDefinition
  3

  2
U
 70
     8
280
     0
  0
ATTDEF
  5
145
330
12B
100
AcDbEntity
  8
AM_6
100
AcDbText
 10
6.2375
 20
-7.825
 30
0.0
 40
0.5
  1
7-3/8
100
AcDbAttributeDefinition
  3

  2
V
 70
     8
280
     0
  0
ATTDEF
  5
146
330
12B
100
AcDbEntity
  8
AM_6
100
AcDbText
 10
6.2375
 20
-8.325
 30
0.0
 40
0.5
  1
13/16
100
AcDbAttributeDefinition
  3

  2
W
 70
     8
280
     0
  0
ATTDEF
  5
147
330
12B
100
AcDbEntity
  8
AM_6
100
AcDbText
 10
6.2375
 20
-8.825
 30
0.0
 40
0.5
  1
3/16
100
AcDbAttributeDefinition
  3

  2
X
 70
     8
280
     0
  0
ATTDEF
  5
148
330
12B
100
AcDbEntity
  8
AM_6
100
AcDbText
 10
6.2375
 20
-9.325
 30
0.0
 40
0.5
  1
1-5/32
100
AcDbAttributeDefinition
  3

  2
Z
 70
     8
280
     0
  0
ATTDEF
  5
149
330
12B
100
AcDbEntity
  8
AM_6
100
AcDbText
 10
6.2375
 20
-9.825
 30
0.0
 40
0.5
  1
baldor
100
AcDbAttributeDefinition
  3

  2
COMPANY
 70
     8
280
     0
  0
LINE
  5
14A
330
12B
100
AcDbEntity
  8
AM_9
100
AcDbLine
 10
-0.0509854606030001
 20
2.257394775036154
 30
0.0
 11
0.0509853999999999
 21
2.257394775036154
 31
0.0
  0
LINE
  5
14B
330
12B
100
AcDbEntity
  8
AM_9
100
AcDbLine
 10
-0.0480720732030001
 20
2.266188853490847
 30
0.0
 11
-0.0509854606030001
 21
2.264741429342561
 31
0.0
  0
LINE
  5
14C
330
12B
100
AcDbEntity
  8
AM_9
100
AcDbLine
 10
0.0509853999999999
 20
2.264741429342562
 30
0.0
 11
0.0480719999999999
 21
2.266188853490847
 31
0.0
  0
LINE
  5
14D
330
12B
100
AcDbEntity
  8
AM_9
100
AcDbLine
 10
0.048072
 20
2.266188853490847
 30
0.0
 11
0.0422449000000002
 21
2.26723044934789
 31
0.0
  0
LINE
  5
14E
330
12B
100
AcDbEntity
  8
AM_9
100
AcDbLine
 10
-0.0422449047020001
 20
2.26723044934789
 30
0.0
 11
-0.0480720732030003
 21
2.266188853490847
 31
0.0
  0
LINE
  5
14F
330
12B
100
AcDbEntity
  8
AM_9
100
AcDbLine
 10
-0.0335047031318998
 20
2.267903910860743
 30
0.0
 11
-0.0422449047019997
 21
2.26723044934789
 31
0.0
  0
LINE
  5
150
330
12B
100
AcDbEntity
  8
AM_9
100
AcDbLine
 10
0.0422449000000004
 20
2.26723044934789
 30
0.0
 11
0.0335046999999999
 21
2.267903910860743
 31
0.0
  0
LINE
  5
151
330
12B
100
AcDbEntity
  8
AM_9
100
AcDbLine
 10
-0.0218508779412
 20
2.268234392189734
 30
0.0
 11
-0.0335047031319002
 21
2.267903910860744
 31
0.0
  0
LINE
  5
152
330
12B
100
AcDbEntity
  8
AM_9
100
AcDbLine
 10
0.0335047000000012
 20
2.267903910860743
 30
0.0
 11
0.021850900000001
 21
2.268234392189734
 31
0.0
  0
LINE
  5
153
330
12B
100
AcDbEntity
  8
AM_9
100
AcDbLine
 10
0.0218509
 20
2.268234392189734
 30
0.0
 11
-0.0218508779412
 21
2.268234392189733
 31
0.0
  0
LINE
  5
154
330
12B
100
AcDbEntity
  8
AM_9
100
AcDbLine
 10
-0.0218508779412
 20
2.273968576428817
 30
0.0
 11
0.0218509
 21
2.273968576428817
 31
0.0
  0
LINE
  5
155
330
12B
100
AcDbEntity
  8
AM_9
100
AcDbLine
 10
0.0218508999999985
 20
2.273968576428816
 30
0.0
 11
0.0335046999999975
 21
2.27421162970782
 31
0.0
  0
LINE
  5
156
330
12B
100
AcDbEntity
  8
AM_9
100
AcDbLine
 10
-0.0335047031319008
 20
2.274211629707821
 30
0.0
 11
-0.0218508779412019
 21
2.273968576428817
 31
0.0
  0
LINE
  5
157
330
12B
100
AcDbEntity
  8
AM_9
100
AcDbLine
 10
-0.0422449047020021
 20
2.274685363841799
 30
0.0
 11
-0.0335047031319004
 21
2.274211629707821
 31
0.0
  0
LINE
  5
158
330
12B
100
AcDbEntity
  8
AM_9
100
AcDbLine
 10
0.033504699999999
 20
2.27421162970782
 30
0.0
 11
0.0422449000000006
 21
2.274685363841799
 31
0.0
  0
LINE
  5
159
330
12B
100
AcDbEntity
  8
AM_9
100
AcDbLine
 10
0.0422449000000003
 20
2.274685363841799
 30
0.0
 11
0.0480719999999988
 21
2.275364838904289
 31
0.0
  0
LINE
  5
15A
330
12B
100
AcDbEntity
  8
AM_9
100
AcDbLine
 10
-0.0480720732030008
 20
2.275364838904289
 30
0.0
 11
-0.0422449047020009
 21
2.274685363841799
 31
0.0
  0
LINE
  5
15B
330
12B
100
AcDbEntity
  8
AM_9
100
AcDbLine
 10
0.0480719999999994
 20
2.275364838904288
 30
0.0
 11
0.0509853999999998
 21
2.276212914387073
 31
0.0
  0
LINE
  5
15C
330
12B
100
AcDbEntity
  8
AM_9
100
AcDbLine
 10
-0.0509854606030001
 20
2.276212914387073
 30
0.0
 11
-0.0480720732030003
 21
2.275364838904289
 31
0.0
  0
LINE
  5
15D
330
12B
100
AcDbEntity
  8
AM_9
100
AcDbLine
 10
-0.0480720732030001
 20
2.278360462023816
 30
0.0
 11
-0.0509854606030001
 21
2.277710658617035
 31
0.0
  0
LINE
  5
15E
330
12B
100
AcDbEntity
  8
AM_9
100
AcDbLine
 10
0.0509853999999999
 20
2.277710658617035
 30
0.0
 11
0.0480719999999999
 21
2.278360462023816
 31
0.0
  0
LINE
  5
15F
330
12B
100
AcDbEntity
  8
AM_9
100
AcDbLine
 10
0.0480719999999999
 20
2.278360462023815
 30
0.0
 11
0.0422449000000001
 21
2.278804534686264
 31
0.0
  0
LINE
  5
160
330
12B
100
AcDbEntity
  8
AM_9
100
AcDbLine
 10
-0.042244904702
 20
2.278804534686264
 30
0.0
 11
-0.0480720732029999
 21
2.278360462023815
 31
0.0
  0
LINE
  5
161
330
12B
100
AcDbEntity
  8
AM_9
100
AcDbLine
 10
-0.0335047031318997
 20
2.279079992101775
 30
0.0
 11
-0.0422449047019997
 21
2.278804534686264
 31
0.0
  0
LINE
  5
162
330
12B
100
AcDbEntity
  8
AM_9
100
AcDbLine
 10
0.0422449
 20
2.278804534686264
 30
0.0
 11
0.0335047000000001
 21
2.279079992101775
 31
0.0
  0
LINE
  5
163
330
12B
100
AcDbEntity
  8
AM_9
100
AcDbLine
 10
0.0218509
 20
2.279914337135218
 30
0.0
 11
-0.033504703131901
 21
2.279079992101776
 31
0.0
  0
LINE
  5
164
330
12B
100
AcDbEntity
  8
AM_9
100
AcDbLine
 10
0.0684661
 20
2.276805536039256
 30
0.0
 11
0.0684661
 21
2.281163239143905
 31
0.0
  0
LINE
  5
165
330
12B
100
AcDbEntity
  8
AM_9
100
AcDbLine
 10
-0.068466178704
 20
2.276805536039256
 30
0.0
 11
-0.068466178704
 21
2.281163239143905
 31
0.0
  0
LINE
  5
166
330
12B
100
AcDbEntity
  8
AM_9
100
AcDbLine
 10
0.0509854
 20
2.276805536039256
 30
0.0
 11
0.0509854
 21
2.280547091994566
 31
0.0
  0
LINE
  5
167
330
12B
100
AcDbEntity
  8
AM_9
100
AcDbLine
 10
-0.050985460603
 20
2.276805536039256
 30
0.0
 11
-0.050985460603
 21
2.280547091994567
 31
0.0
  0
LINE
  5
168
330
12B
100
AcDbEntity
  8
AM_9
100
AcDbLine
 10
0.0655528
 20
2.277710683520627
 30
0.0
 11
0.0655528
 21
2.280978411879427
 31
0.0
  0
LINE
  5
169
330
12B
100
AcDbEntity
  8
AM_9
100
AcDbLine
 10
-0.065552791304
 20
2.277710683520628
 30
0.0
 11
-0.065552791304
 21
2.280978411879427
 31
0.0
  0
LINE
  5
16A
330
12B
100
AcDbEntity
  8
AM_9
100
AcDbLine
 10
0.0597256
 20
2.278360468716704
 30
0.0
 11
0.0597256
 21
2.280756597673306
 31
0.0
  0
LINE
  5
16B
330
12B
100
AcDbEntity
  8
AM_9
100
AcDbLine
 10
-0.042244904702
 20
2.273214455231844
 30
0.0
 11
-0.042244904702
 21
2.280386860105888
 31
0.0
  0
LINE
  5
16C
330
12B
100
AcDbEntity
  8
AM_9
100
AcDbLine
 10
-0.059725622803
 20
2.278360468716705
 30
0.0
 11
-0.059725622803
 21
2.280756597673306
 31
0.0
  0
LINE
  5
16D
330
12B
100
AcDbEntity
  8
AM_9
100
AcDbLine
 10
0.0422449
 20
2.273214455231843
 30
0.0
 11
0.0422449
 21
2.280386860783107
 31
0.0
  0
LINE
  5
16E
330
12B
100
AcDbEntity
  8
AM_9
100
AcDbLine
 10
-0.050985460603
 20
2.280978411914177
 30
0.0
 11
0.0509854
 21
2.280978411914177
 31
0.0
  0
LINE
  5
16F
330
12B
100
AcDbEntity
  8
AM_9
100
AcDbLine
 10
0.0335047
 20
2.272954777496465
 30
0.0
 11
0.0335047
 21
2.280282830078351
 31
0.0
  0
LINE
  5
170
330
12B
100
AcDbEntity
  8
AM_9
100
AcDbLine
 10
-0.0335047031319
 20
2.272954777496465
 30
0.0
 11
-0.0335047031319
 21
2.280282829978119
 31
0.0
  0
LINE
  5
171
330
12B
100
AcDbEntity
  8
AM_9
100
AcDbLine
 10
0.048072
 20
2.278944342448715
 30
0.0
 11
0.048072
 21
2.28046903608249
 31
0.0
  0
LINE
  5
172
330
12B
100
AcDbEntity
  8
AM_9
100
AcDbLine
 10
-0.048072073203
 20
2.278944342448714
 30
0.0
 11
-0.048072073203
 21
2.280469036082491
 31
0.0
  0
LINE
  5
173
330
12B
100
AcDbEntity
  8
AM_9
100
AcDbLine
 10
0.0364181
 20
2.2025098
 30
0.0
 11
0.0364181
 21
2.280300577743467
 31
0.0
  0
LINE
  5
174
330
12B
100
AcDbEntity
  8
AM_9
100
AcDbLine
 10
-0.0218508779412
 20
2.2025098
 30
0.0
 11
-0.0218508779412
 21
2.278512619498958
 31
0.0
  0
LINE
  5
175
330
12B
100
AcDbEntity
  8
AM_9
100
AcDbLine
 10
0.0218509
 20
2.2025098
 30
0.0
 11
0.0218509
 21
2.278512619498958
 31
0.0
  0
LINE
  5
176
330
12B
100
AcDbEntity
  8
AM_9
100
AcDbLine
 10
0.048072
 20
2.273968588089115
 30
0.0
 11
0.048072
 21
2.277537910756043
 31
0.0
  0
LINE
  5
177
330
12B
100
AcDbEntity
  8
AM_9
100
AcDbLine
 10
-0.048072073203
 20
2.273968588089115
 30
0.0
 11
-0.048072073203
 21
2.277537910756043
 31
0.0
  0
LINE
  5
178
330
12B
100
AcDbEntity
  8
AM_9
100
AcDbLine
 10
-0.068466178704
 20
2.26888280503335
 30
0.0
 11
-0.068466178704
 21
2.274915973801891
 31
0.0
  0
LINE
  5
179
330
12B
100
AcDbEntity
  8
AM_9
100
AcDbLine
 10
0.0684661
 20
2.26888280503335
 30
0.0
 11
0.0684661
 21
2.274915973801891
 31
0.0
  0
LINE
  5
17A
330
12B
100
AcDbEntity
  8
AM_9
100
AcDbLine
 10
-0.050985460603
 20
2.266887490064517
 30
0.0
 11
-0.050985460603
 21
2.271874596080171
 31
0.0
  0
LINE
  5
17B
330
12B
100
AcDbEntity
  8
AM_9
100
AcDbLine
 10
0.0509854
 20
2.266887490064517
 30
0.0
 11
0.0509854
 21
2.271874596080171
 31
0.0
  0
LINE
  5
17C
330
12B
100
AcDbEntity
  8
AM_9
100
AcDbLine
 10
0.0655528
 20
2.2025098
 30
0.0
 11
0.0655528
 21
2.273721359140342
 31
0.0
  0
LINE
  5
17D
330
12B
100
AcDbEntity
  8
AM_9
100
AcDbLine
 10
-0.065552791304
 20
2.2025098
 30
0.0
 11
-0.065552791304
 21
2.273721359140342
 31
0.0
  0
LINE
  5
17E
330
12B
100
AcDbEntity
  8
AM_9
100
AcDbLine
 10
-0.042244904702
 20
2.2025098
 30
0.0
 11
-0.042244904702
 21
2.271452374464363
 31
0.0
  0
LINE
  5
17F
330
12B
100
AcDbEntity
  8
AM_9
100
AcDbLine
 10
-0.0335047031319
 20
2.2025098
 30
0.0
 11
-0.0335047031319
 21
2.271309552689594
 31
0.0
  0
LINE
  5
180
330
12B
100
AcDbEntity
  8
AM_9
100
AcDbLine
 10
-0.0101970921206
 20
2.2025098
 30
0.0
 11
-0.0101970921206
 21
2.271309552689594
 31
0.0
  0
LINE
  5
181
330
12B
100
AcDbEntity
  8
AM_9
100
AcDbLine
 10
0.0422449
 20
2.2025098
 30
0.0
 11
0.0422449
 21
2.271480816250777
 31
0.0
  0
LINE
  5
182
330
12B
100
AcDbEntity
  8
AM_9
100
AcDbLine
 10
0.0597256
 20
2.2025098
 30
0.0
 11
0.0597256
 21
2.272690947350959
 31
0.0
  0
LINE
  5
183
330
12B
100
AcDbEntity
  8
AM_9
100
AcDbLine
 10
-0.059725622803
 20
2.2025098
 30
0.0
 11
-0.059725622803
 21
2.272690947350959
 31
0.0
  0
LINE
  5
184
330
12B
100
AcDbEntity
  8
AM_9
100
AcDbLine
 10
-0.048072073203
 20
2.2025098
 30
0.0
 11
-0.048072073203
 21
2.271594165690694
 31
0.0
  0
LINE
  5
185
330
12B
100
AcDbEntity
  8
AM_9
100
AcDbLine
 10
0.048072
 20
2.2025098
 30
0.0
 11
0.048072
 21
2.271594165690694
 31
0.0
  0
LINE
  5
186
330
12B
100
AcDbEntity
  8
AM_9
100
AcDbLine
 10
0.0335047
 20
2.2025098
 30
0.0
 11
0.0335047
 21
2.271309552689594
 31
0.0
  0
LINE
  5
187
330
12B
100
AcDbEntity
  8
AM_9
100
AcDbLine
 10
0.00728362
 20
2.2025098
 30
0.0
 11
0.00728362
 21
2.271309552689594
 31
0.0
  0
LINE
  5
188
330
12B
100
AcDbEntity
  8
AM_9
100
AcDbLine
 10
-0.036418129902
 20
2.2025098
 30
0.0
 11
-0.036418129902
 21
2.280300577743467
 31
0.0
  0
LINE
  5
189
330
12B
100
AcDbEntity
  8
AM_9
100
AcDbLine
 10
-0.0043701598402
 20
2.2025098
 30
0.0
 11
-0.0043701598402
 21
2.256494031665939
 31
0.0
  0
LINE
  5
18A
330
12B
100
AcDbEntity
  8
AM_9
100
AcDbLine
 10
0.0131105
 20
2.2025098
 30
0.0
 11
0.0131105
 21
2.256494031665939
 31
0.0
  0
LINE
  5
18B
330
12B
100
AcDbEntity
  8
AM_9
100
AcDbLine
 10
-0.068466178704
 20
2.2025098
 30
0.0
 11
-0.068466178704
 21
2.254641556704525
 31
0.0
  0
LINE
  5
18C
330
12B
100
AcDbEntity
  8
AM_9
100
AcDbLine
 10
0.0684661
 20
2.2025098
 30
0.0
 11
0.0684661
 21
2.254641556704525
 31
0.0
  0
LINE
  5
18D
330
12B
100
AcDbEntity
  8
AM_9
100
AcDbLine
 10
-0.050985460603
 20
2.2025098
 30
0.0
 11
-0.050985460603
 21
2.254641556704525
 31
0.0
  0
LINE
  5
18E
330
12B
100
AcDbEntity
  8
AM_9
100
AcDbLine
 10
0.0509854
 20
2.2025098
 30
0.0
 11
0.0509854
 21
2.254641556704525
 31
0.0
  0
LINE
  5
18F
330
12B
100
AcDbEntity
  8
AM_9
100
AcDbLine
 10
-0.068466178704
 20
2.2025098
 30
0.0
 11
0.0684661
 21
2.2025098
 31
0.0
  0
LWPOLYLINE
  5
190
330
12B
100
AcDbEntity
  8
AM_9
100
AcDbPolyline
 90
        5
 70
     0
 43
0.0
 10
0.0909214090671169
 20
1.742978297639969
 10
0.0460980447457688
 20
1.73961446898359
 10
0.0008744807129146
 20
1.738362861134949
 10
-0.045021122606794
 20
1.739557764320089
 10
-0.0909214090671168
 20
1.742978297639969
  0
LINE
  5
191
330
12B
100
AcDbEntity
  8
AM_9
100
AcDbLine
 10
0.0909214090671169
 20
1.742978297639969
 30
0.0
 11
0.090921409067117
 21
1.831182801139323
 31
0.0
  0
LINE
  5
192
330
12B
100
AcDbEntity
  8
AM_9
100
AcDbLine
 10
-0.0909214090671168
 20
1.742978297639969
 30
0.0
 11
-0.0909214090671168
 21
1.831182801139323
 31
0.0
  0
LINE
  5
193
330
12B
100
AcDbEntity
  8
AM_9
100
AcDbLine
 10
0.9600000750000002
 20
-0.7057752634514762
 30
0.0
 11
0.9600000750000002
 21
-1.987495021871932
 31
0.0
  0
LINE
  5
194
330
12B
100
AcDbEntity
  8
AM_9
100
AcDbLine
 10
-0.9600000749999996
 20
-0.7057752634514755
 30
0.0
 11
-0.9600000749999996
 21
-1.987495021871932
 31
0.0
  0
LINE
  5
195
330
12B
100
AcDbEntity
  8
AM_9
100
AcDbLine
 10
-1.125
 20
-2.0173886625
 30
0.0
 11
1.125
 21
-2.0173886625
 31
0.0
  0
LINE
  5
196
330
12B
100
AcDbEntity
  8
AM_9
100
AcDbLine
 10
1.125
 20
-1.987495021871932
 30
0.0
 11
0.9600000750000002
 21
-1.987495021871932
 31
0.0
  0
LINE
  5
197
330
12B
100
AcDbEntity
  8
AM_9
100
AcDbLine
 10
-0.9600000749999996
 20
-1.987495021871932
 30
0.0
 11
-1.125
 21
-1.987495021871932
 31
0.0
  0
LINE
  5
198
330
12B
100
AcDbEntity
  8
AM_9
100
AcDbLine
 10
-0.9600000749999996
 20
-1.9583335625
 30
0.0
 11
0.9600000750000001
 21
-1.9583335625
 31
0.0
  0
LINE
  5
199
330
12B
100
AcDbEntity
  8
AM_9
100
AcDbLine
 10
-0.1102359999999999
 20
1.627006776924808
 30
0.0
 11
-0.1102359999999999
 21
1.613084645419414
 31
0.0
  0
LINE
  5
19A
330
12B
100
AcDbEntity
  8
AM_9
100
AcDbLine
 10
0.1102360000000001
 20
1.613075312588594
 30
0.0
 11
0.1102360000000001
 21
1.627006776924808
 31
0.0
  0
LWPOLYLINE
  5
19B
330
12B
100
AcDbEntity
  8
AM_9
100
AcDbPolyline
 90
       20
 70
     0
 43
0.0
 10
0.1102359994904605
 20
1.613079849925761
 10
0.1095017434007916
 20
1.622044095120717
 10
0.1058103446471626
 20
1.634775818905017
 10
0.0991437667182081
 20
1.64680439898895
 10
0.0896464932144272
 20
1.657798318158235
 10
0.0776273795087297
 20
1.667481869949667
 10
0.0633778292037774
 20
1.675594680039068
 10
0.0473404898643135
 20
1.681945398425479
 10
0.0299472769083414
 20
1.686351657560386
 10
0.0117079957304492
 20
1.68873190867314
 10
-0.006848069687767
 20
1.689001119615817
 10
-0.0252109485270443
 20
1.687184271220368
 10
-0.0428446247311485
 20
1.683300112410714
 10
-0.059272076088263
 20
1.677470057647198
 10
-0.0740197152485021
 20
1.669805205536469
 10
-0.0866829526364546
 20
1.660524581520953
 10
-0.0968789805920101
 20
1.649833614290585
 10
-0.1043430413826804
 20
1.638035992428638
 10
-0.1088211116261113
 20
1.625438233957531
 10
-0.1102359998358216
 20
1.613083090347657
  0
LWPOLYLINE
  5
19C
330
12B
100
AcDbEntity
  8
AM_9
100
AcDbPolyline
 90
       11
 70
     0
 43
0.0
 10
-0.1102359998358216
 20
1.613083090347657
 10
-0.1102316015000411
 20
1.612390872980388
 10
-0.1084938895657747
 20
1.599269233694028
 10
-0.1037040873788779
 20
1.586437458887431
 10
-0.0959567690398619
 20
1.574278290676749
 10
-0.085511434751547
 20
1.563144763579315
 10
-0.0726138532209986
 20
1.553383373154718
 10
-0.0576698436570351
 20
1.545287829678369
 10
-0.0410686284308354
 20
1.539136455326885
 10
-0.0233073267258547
 20
1.535100760200541
 10
0.0000000000000001
 20
1.533254279486292
  0
LWPOLYLINE
  5
19D
330
12B
100
AcDbEntity
  8
AM_9
100
AcDbPolyline
 90
        5
 70
     0
 43
0.0
 10
-0.0909214090671168
 20
1.742978297639969
 10
-0.1133330912277909
 20
1.712165876198046
 10
-0.1359448732442179
 20
1.683220604291762
 10
-0.1588926749040722
 20
1.656310305084284
 10
-0.1818428181342336
 20
1.631622768185322
  0
LWPOLYLINE
  5
19E
330
12B
100
AcDbEntity
  8
AM_9
100
AcDbPolyline
 90
        5
 70
     0
 43
0.0
 10
0.1818428181342338
 20
1.631622768185322
 10
0.1594311359735598
 20
1.655707532314486
 10
0.1368193539571329
 20
1.682149588523488
 10
0.1138715522972784
 20
1.711449694101247
 10
0.0909214090671169
 20
1.742978297639969
  0
ELLIPSE
  5
19F
330
12B
100
AcDbEntity
  8
AM_9
100
AcDbEllipse
 10
0.0000000000000001
 20
1.627006776924808
 30
0.0
 11
0.1574799999999993
 21
0.0
 31
0.0
210
0.0
220
0.0
230
1.0
 40
0.707106781186546
 41
0.0
 42
6.283185307179586
  0
LINE
  5
1A0
330
12B
100
AcDbEntity
  8
AM_9
100
AcDbLine
 10
0.9600000750000002
 20
-0.7057752634514762
 30
0.0
 11
1.046233752892761
 21
-0.7057752634514762
 31
0.0
  0
LINE
  5
1A1
330
12B
100
AcDbEntity
  8
AM_9
100
AcDbLine
 10
-1.04623375289276
 20
-0.7057752634514755
 30
0.0
 11
-0.9600000749999996
 21
-0.7057752634514755
 31
0.0
  0
LINE
  5
1A2
330
12B
100
AcDbEntity
  8
AM_9
100
AcDbLine
 10
-0.960000075
 20
-1.77165
 30
0.0
 11
0.960000075
 21
-1.77165
 31
0.0
  0
LINE
  5
1A3
330
12B
100
AcDbEntity
  8
AM_9
100
AcDbLine
 10
0.8005381940528927
 20
1.77165
 30
0.0
 11
-0.8005381940528926
 21
1.77165
 31
0.0
  0
ELLIPSE
  5
1A4
330
12B
100
AcDbEntity
  8
AM_9
100
AcDbEllipse
 10
0.0000000000000001
 20
1.724443262945189
 30
0.0
 11
-0.110236
 21
1.642644418865006E-9
 31
0.0
210
0.0
220
0.0
230
1.0
 40
0.7071067811865466
 41
3.141592668490954
 42
6.283185322080747
  0
ELLIPSE
  5
1A5
330
12B
100
AcDbEntity
  8
AM_9
100
AcDbEllipse
 10
0.0000000000000029
 20
1.738362659932862
 30
0.0
 11
-0.1102360000000181
 21
1.350001645508298E-17
 31
0.0
210
0.0
220
0.0
230
1.0
 40
0.7071067811862851
 41
4.743801656128634
 42
4.97730129014449
  0
ELLIPSE
  5
1A6
330
12B
100
AcDbEntity
  8
AM_9
100
AcDbEllipse
 10
-0.0000000000000017
 20
1.738362659932846
 30
0.0
 11
-0.1102359999999971
 21
1.642644418864963E-9
 31
0.0
210
0.0
220
0.0
230
1.0
 40
0.707106781186547
 41
5.222311158292656
 42
5.688821380298874
  0
LINE
  5
1A7
330
12B
100
AcDbEntity
  8
AM_9
100
AcDbLine
 10
0.090921409067117
 20
1.831182801139323
 30
0.0
 11
0.1055227561463897
 21
1.81570612031745
 31
0.0
  0
LWPOLYLINE
  5
1A8
330
12B
100
AcDbEntity
  8
AM_9
100
AcDbPolyline
 90
        5
 70
     0
 43
0.0
 10
-0.0909214090671168
 20
1.831182801139323
 10
-0.0460980447457686
 20
1.834546629795703
 10
-0.0008744807129144
 20
1.835798237644344
 10
0.0450211226067941
 20
1.834603334459204
 10
0.090921409067117
 20
1.831182801139323
  0
LINE
  5
1A9
330
12B
100
AcDbEntity
  8
AM_9
100
AcDbLine
 10
-0.105524368497541
 20
1.81570436853477
 30
0.0
 11
-0.0909214090671168
 21
1.831182801139323
 31
0.0
  0
ELLIPSE
  5
1AA
330
12B
100
AcDbEntity
  8
AM_9
100
AcDbEllipse
 10
0.0000000000000001
 20
1.724443262945189
 30
0.0
 11
-0.1574799999999999
 21
1.928573779297251E-17
 31
0.0
210
0.0
220
0.0
230
1.0
 40
0.7071067811865488
 41
3.987534898439412
 42
5.436122349514264
  0
LWPOLYLINE
  5
1AB
330
12B
100
AcDbEntity
  8
AM_9
100
AcDbPolyline
 90
       19
 70
     0
 43
0.0
 10
-0.0812185358489394
 20
1.772631197156453
 10
-0.0832962724927954
 20
1.775402372697216
 10
-0.084642333049594
 20
1.77776159223753
 10
-0.0852299221111441
 20
1.779266828862798
 10
-0.085377971408533
 20
1.779974728648974
 10
-0.0853588261639311
 20
1.780417235053175
 10
-0.0850271729489859
 20
1.78157875691442
 10
-0.0841029604056381
 20
1.783519779215406
 10
-0.0823212288023086
 20
1.786221830920095
 10
-0.0791342581947495
 20
1.789908089277294
 10
-0.0746670612413032
 20
1.793965164847723
 10
-0.0688854537679516
 20
1.798174784167355
 10
-0.0618000386195309
 20
1.802329724774
 10
-0.0534781305917906
 20
1.806228366857351
 10
-0.0440547765543588
 20
1.809679631675261
 10
-0.033689886419364
 20
1.812526174098951
 10
-0.0225820895791015
 20
1.814637864739813
 10
-0.0109607191905732
 20
1.815917205575131
 10
-0.0099207478262308
 20
1.815987681591818
  0
LWPOLYLINE
  5
1AC
330
12B
100
AcDbEntity
  8
AM_9
100
AcDbPolyline
 90
        3
 70
     0
 43
0.0
 10
-0.0696388125750023
 20
1.762566386159173
 10
-0.0724133796479386
 20
1.764525226622517
 10
-0.0732055521451222
 20
1.765122725391763
  0
LINE
  5
1AD
330
12B
100
AcDbEntity
  8
AM_9
100
AcDbLine
 10
-0.0673544893227856
 20
1.761089335124097
 30
0.0
 11
-0.0696388125750023
 21
1.762566386159173
 31
0.0
  0
LINE
  5
1AE
330
12B
100
AcDbEntity
  8
AM_9
100
AcDbLine
 10
0.0765615511207964
 20
1.767885727480162
 30
0.0
 11
0.0740632793503714
 21
1.765791298556893
 31
0.0
  0
LWPOLYLINE
  5
1AF
330
12B
100
AcDbEntity
  8
AM_9
100
AcDbPolyline
 90
       22
 70
     0
 43
0.0
 10
-0.0099207478262308
 20
1.815987681591818
 10
0.000923045942748
 20
1.816303322647555
 10
0.012805293332807
 20
1.815774686019686
 10
0.0244127115949946
 20
1.814351765678385
 10
0.0354812774140798
 20
1.812098039279059
 10
0.0457695622087858
 20
1.809117643424453
 10
0.0550645135498028
 20
1.805553304854718
 10
0.0631922651142904
 20
1.80158249873677
 10
0.0700290622155036
 20
1.797411255107495
 10
0.0755098537112943
 20
1.793266443733173
 10
0.0796293906205385
 20
1.789392877629714
 10
0.0824731623634451
 20
1.786017586461755
 10
0.0842053562503488
 20
1.783335138737094
 10
0.0850639002831575
 20
1.781479656824321
 10
0.0853496168403427
 20
1.780472479082065
 10
0.0853837422783312
 20
1.780057849815482
 10
0.0852763933211017
 20
1.779436269451834
 10
0.0847696849664014
 20
1.778038689517514
 10
0.0835497693696951
 20
1.775795352239832
 10
0.0814012650496042
 20
1.772851222131004
 10
0.0777999335461387
 20
1.769020619329831
 10
0.0765615511207964
 20
1.767885727480162
  0
ELLIPSE
  5
1B0
330
12B
100
AcDbEntity
  8
AM_9
100
AcDbEllipse
 10
0.0000000000000013
 20
1.738362659932846
 30
0.0
 11
-0.1102359999999974
 21
1.350001645508045E-17
 31
0.0
210
0.0
220
0.0
230
1.0
 40
0.7071067811865469
 41
3.737824844667426
 42
4.078470040270016
  0
ELLIPSE
  5
1B1
330
12B
100
AcDbEntity
  8
AM_9
100
AcDbEllipse
 10
0.0
 20
1.81544485753714
 30
0.0
 11
-0.1022054666020871
 21
1.251655975296076E-17
 31
0.0
210
0.0
220
0.0
230
1.0
 40
0.7071067811865458
 41
2.293098187375282
 42
7.03018120917322
  0
ELLIPSE
  5
1B2
330
12B
100
AcDbEntity
  8
AM_9
100
AcDbEllipse
 10
0.0000000000000359
 20
1.815444857537315
 30
0.0
 11
-0.1022054666021388
 21
1.522980145247443E-9
 31
0.0
210
0.0
220
0.0
230
1.0
 40
0.7071067811876257
 41
0.7721327903894011
 42
0.8492744858018692
  0
LINE
  5
1B3
330
12B
100
AcDbEntity
  8
AM_9
100
AcDbLine
 10
0.0874241398738976
 20
1.870112847321569
 30
0.0
 11
0.0865016687985239
 21
1.871113634005284
 31
0.0
  0
ELLIPSE
  5
1B4
330
12B
100
AcDbEntity
  8
AM_9
100
AcDbEllipse
 10
-0.0000000000000889
 20
1.830334021824386
 30
0.0
 11
-0.1039584237794386
 21
1.273123509258936E-17
 31
0.0
210
0.0
220
0.0
230
1.0
 40
0.7071067811843491
 41
3.694304707712998
 42
5.730473253055484
  0
LINE
  5
1B5
330
12B
100
AcDbEntity
  8
AM_9
100
AcDbLine
 10
0.0538987683457858
 20
2.280621036519799
 30
0.0
 11
0.0684661
 21
2.280621036519799
 31
0.0
  0
LINE
  5
1B6
330
12B
100
AcDbEntity
  8
AM_9
100
AcDbLine
 10
-0.050985460603
 20
2.280621036519799
 30
0.0
 11
0.0509854
 21
2.280621036519799
 31
0.0
  0
LINE
  5
1B7
330
12B
100
AcDbEntity
  8
AM_9
100
AcDbLine
 10
-0.0684661787039999
 20
2.280621036519799
 30
0.0
 11
-0.0538988163489227
 21
2.280621036519799
 31
0.0
  0
LINE
  5
1B8
330
12B
100
AcDbEntity
  8
AM_9
100
AcDbLine
 10
-0.0218508779412
 20
2.272423006594275
 30
0.0
 11
0.0218509
 21
2.272423006594274
 31
0.0
  0
LINE
  5
1B9
330
12B
100
AcDbEntity
  8
AM_9
100
AcDbLine
 10
0.0218508999999916
 20
2.272423006594275
 30
0.0
 11
0.0364180999999942
 21
2.272690957926074
 31
0.0
  0
LINE
  5
1BA
330
12B
100
AcDbEntity
  8
AM_9
100
AcDbLine
 10
0.0364181000000014
 20
2.272690957926074
 30
0.0
 11
0.0480719999999986
 21
2.273214469730764
 31
0.0
  0
LINE
  5
1BB
330
12B
100
AcDbEntity
  8
AM_9
100
AcDbLine
 10
0.0480719999999992
 20
2.273214469730765
 30
0.0
 11
0.0597255999999992
 21
2.274211629707821
 31
0.0
  0
LINE
  5
1BC
330
12B
100
AcDbEntity
  8
AM_9
100
AcDbLine
 10
0.0597255999999996
 20
2.274211629707821
 30
0.0
 11
0.0655527999999994
 21
2.275142497052767
 31
0.0
  0
LINE
  5
1BD
330
12B
100
AcDbEntity
  8
AM_9
100
AcDbLine
 10
0.0655527999999999
 20
2.275142497052766
 30
0.0
 11
0.0684661
 21
2.276212914387073
 31
0.0
  0
LINE
  5
1BE
330
12B
100
AcDbEntity
  8
AM_9
100
AcDbLine
 10
0.0684660999999999
 20
2.277710658617035
 30
0.0
 11
0.0655527999999999
 21
2.278512614224295
 31
0.0
  0
LINE
  5
1BF
330
12B
100
AcDbEntity
  8
AM_9
100
AcDbLine
 10
0.0655528
 20
2.278512614224295
 30
0.0
 11
0.0597255999999999
 21
2.279079992101776
 31
0.0
  0
LINE
  5
1C0
330
12B
100
AcDbEntity
  8
AM_9
100
AcDbLine
 10
0.0597256000000001
 20
2.279079992101776
 30
0.0
 11
0.048072
 21
2.279581453290791
 31
0.0
  0
LINE
  5
1C1
330
12B
100
AcDbEntity
  8
AM_9
100
AcDbLine
 10
0.048072
 20
2.279581453290791
 30
0.0
 11
0.0218509000000007
 21
2.279914337135218
 31
0.0
  0
LINE
  5
1C2
330
12B
100
AcDbEntity
  8
AM_9
100
AcDbLine
 10
0.0335047000000003
 20
2.279079992101775
 30
0.0
 11
-0.036418129902
 21
2.279807486178161
 31
0.0
  0
LINE
  5
1C3
330
12B
100
AcDbEntity
  8
AM_9
100
AcDbLine
 10
-0.036418129902
 20
2.279807486178161
 30
0.0
 11
-0.0480720732030003
 21
2.279581453290791
 31
0.0
  0
LINE
  5
1C4
330
12B
100
AcDbEntity
  8
AM_9
100
AcDbLine
 10
-0.0480720732030001
 20
2.279581453290791
 30
0.0
 11
-0.0597256228030002
 21
2.279079992101775
 31
0.0
  0
LINE
  5
1C5
330
12B
100
AcDbEntity
  8
AM_9
100
AcDbLine
 10
-0.0597256228029999
 20
2.279079992101775
 30
0.0
 11
-0.065552791304
 21
2.278512614224294
 31
0.0
  0
LINE
  5
1C6
330
12B
100
AcDbEntity
  8
AM_9
100
AcDbLine
 10
-0.0655527913040001
 20
2.278512614224294
 30
0.0
 11
-0.0684661787040002
 21
2.277710658617035
 31
0.0
  0
LINE
  5
1C7
330
12B
100
AcDbEntity
  8
AM_9
100
AcDbLine
 10
-0.0684661787040002
 20
2.276212914387073
 30
0.0
 11
-0.0655527913040001
 21
2.275142497052766
 31
0.0
  0
LINE
  5
1C8
330
12B
100
AcDbEntity
  8
AM_9
100
AcDbLine
 10
-0.0655527913039999
 20
2.275142497052766
 30
0.0
 11
-0.0597256228030001
 21
2.27421162970782
 31
0.0
  0
LINE
  5
1C9
330
12B
100
AcDbEntity
  8
AM_9
100
AcDbLine
 10
-0.0597256228030003
 20
2.27421162970782
 30
0.0
 11
-0.0480720732030003
 21
2.273214469730764
 31
0.0
  0
LINE
  5
1CA
330
12B
100
AcDbEntity
  8
AM_9
100
AcDbLine
 10
-0.0480720732030005
 20
2.273214469730765
 30
0.0
 11
-0.0364181299020031
 21
2.272690957926074
 31
0.0
  0
LINE
  5
1CB
330
12B
100
AcDbEntity
  8
AM_9
100
AcDbLine
 10
-0.0364181299020074
 20
2.272690957926074
 30
0.0
 11
-0.0218508779412046
 21
2.272423006594274
 31
0.0
  0
LINE
  5
1CC
330
12B
100
AcDbEntity
  8
AM_9
100
AcDbLine
 10
-0.050985460603
 20
2.254641458640936
 30
0.0
 11
0.0509854
 21
2.254641458640936
 31
0.0
  0
LINE
  5
1CD
330
12B
100
AcDbEntity
  8
AM_9
100
AcDbLine
 10
0.0684660999999999
 20
2.264741429342561
 30
0.0
 11
0.0655527999999999
 21
2.266540253919585
 31
0.0
  0
LINE
  5
1CE
330
12B
100
AcDbEntity
  8
AM_9
100
AcDbLine
 10
0.0655527999999999
 20
2.266540253919586
 30
0.0
 11
0.0597256
 21
2.267903910860744
 31
0.0
  0
LINE
  5
1CF
330
12B
100
AcDbEntity
  8
AM_9
100
AcDbLine
 10
0.0597256000000002
 20
2.267903910860744
 30
0.0
 11
0.0480720000000002
 21
2.269200731991872
 31
0.0
  0
LINE
  5
1D0
330
12B
100
AcDbEntity
  8
AM_9
100
AcDbLine
 10
0.0480720000000006
 20
2.269200731991872
 30
0.0
 11
0.0364181000000003
 21
2.269824078558513
 31
0.0
  0
LINE
  5
1D1
330
12B
100
AcDbEntity
  8
AM_9
100
AcDbLine
 10
0.0364181000000001
 20
2.269824078558513
 30
0.0
 11
0.0218509000000006
 21
2.270129516774447
 31
0.0
  0
LINE
  5
1D2
330
12B
100
AcDbEntity
  8
AM_9
100
AcDbLine
 10
0.0218509
 20
2.270129516774446
 30
0.0
 11
-0.0218508779412
 21
2.270129516774446
 31
0.0
  0
LINE
  5
1D3
330
12B
100
AcDbEntity
  8
AM_9
100
AcDbLine
 10
-0.0218508779411998
 20
2.270129516774447
 30
0.0
 11
-0.0364181299019993
 21
2.269824078558513
 31
0.0
  0
LINE
  5
1D4
330
12B
100
AcDbEntity
  8
AM_9
100
AcDbLine
 10
-0.0364181299019997
 20
2.269824078558512
 30
0.0
 11
-0.048072073203
 21
2.269200731991871
 31
0.0
  0
LINE
  5
1D5
330
12B
100
AcDbEntity
  8
AM_9
100
AcDbLine
 10
-0.048072073203
 20
2.269200731991872
 30
0.0
 11
-0.059725622803
 21
2.267903910860744
 31
0.0
  0
LINE
  5
1D6
330
12B
100
AcDbEntity
  8
AM_9
100
AcDbLine
 10
-0.059725622803
 20
2.267903910860743
 30
0.0
 11
-0.0655527913039999
 21
2.266540253919585
 31
0.0
  0
LINE
  5
1D7
330
12B
100
AcDbEntity
  8
AM_9
100
AcDbLine
 10
-0.065552791304
 20
2.266540253919586
 30
0.0
 11
-0.0684661787040001
 21
2.264741429342562
 31
0.0
  0
LWPOLYLINE
  5
1D8
330
12B
100
AcDbEntity
  8
AM_9
100
AcDbPolyline
 90
       11
 70
     0
 43
0.0
 10
0.0000000000000001
 20
1.533254279486292
 10
0.0184930864599961
 20
1.534420723162192
 10
0.0364645950038007
 20
1.537848655330713
 10
0.0533930459024026
 20
1.543459448702759
 10
0.0688177840131617
 20
1.551043860426887
 10
0.0822875897305195
 20
1.560396365905345
 10
0.0934390767799095
 20
1.571198160840033
 10
0.1019247333641004
 20
1.583141692532347
 10
0.1075356671571362
 20
1.595848959274178
 10
0.1100691625265351
 20
1.608940078144532
 10
0.1102359994904605
 20
1.613079849925761
  0
LINE
  5
1D9
330
12B
100
AcDbEntity
  8
AM_9
100
AcDbLine
 10
0.3359375000000004
 20
-1.5
 30
0.0
 11
0.3359375000000004
 21
-2.1875
 31
0.0
  0
LINE
  5
1DA
330
12B
100
AcDbEntity
  8
AM_9
100
AcDbLine
 10
-0.3359374999999996
 20
-1.5
 30
0.0
 11
-0.3359374999999996
 21
-2.1875
 31
0.0
  0
LINE
  5
1DB
330
12B
100
AcDbEntity
  8
AM_9
100
AcDbLine
 10
-0.9062499999999993
 20
-1.56875
 30
0.0
 11
-0.7187499999999996
 21
-1.56875
 31
0.0
  0
LINE
  5
1DC
330
12B
100
AcDbEntity
  8
AM_9
100
AcDbLine
 10
-0.9062499999999993
 20
-1.5
 30
0.0
 11
-0.9062499999999993
 21
-1.56875
 31
0.0
  0
LINE
  5
1DD
330
12B
100
AcDbEntity
  8
AM_9
100
AcDbLine
 10
-0.7187499999999996
 20
-1.56875
 30
0.0
 11
-0.7187499999999996
 21
-1.5
 31
0.0
  0
ELLIPSE
  5
1DE
330
12B
100
AcDbEntity
  8
AM_9
100
AcDbEllipse
 10
-0.0000000000000007
 20
1.627006776924807
 30
0.0
 11
-0.1102359999999992
 21
1.350001645508066E-17
 31
0.0
210
0.0
220
0.0
230
1.0
 40
0.7071067811865457
 41
0.0
 42
6.283185307179586
  0
LINE
  5
1DF
330
12B
100
AcDbEntity
  8
AM_7
100
AcDbLine
 10
1.2375
 20
0.0
 30
0.0
 11
-1.29609375
 21
0.0
 31
0.0
  0
LINE
  5
1E0
330
12B
100
AcDbEntity
  8
AM_7
100
AcDbLine
 10
-0.0000000000000004
 20
-1.7234375
 30
0.0
 11
-0.0000000000000004
 21
3.175
 31
0.0
  0
LINE
  5
1E1
330
12B
100
AcDbEntity
  8
AM_7
100
AcDbLine
 10
-0.8125000000000006
 20
-1.575625
 30
0.0
 11
-0.8125000000000006
 21
-1.424375
 31
0.0
  0
LINE
  5
1E2
330
12B
100
AcDbEntity
  8
AM_4
100
AcDbLine
 10
-0.048072073203
 20
2.281023593548161
 30
0.0
 11
-0.050985460603
 21
2.281163239143906
 31
0.0
  0
LINE
  5
1E3
330
12B
100
AcDbEntity
  8
AM_4
100
AcDbLine
 10
0.0480720000000002
 20
2.28102359354816
 30
0.0
 11
0.0335046999999999
 21
2.280756597673306
 31
0.0
  0
LINE
  5
1E4
330
12B
100
AcDbEntity
  8
AM_4
100
AcDbLine
 10
0.0509854
 20
2.281163239143906
 30
0.0
 11
0.048072
 21
2.281023593548161
 31
0.0
  0
LINE
  5
1E5
330
12B
100
AcDbEntity
  8
AM_4
100
AcDbLine
 10
0.0335046999999994
 20
2.280756597673306
 30
0.0
 11
-0.0655527913039999
 21
2.280978411879427
 31
0.0
  0
LINE
  5
1E6
330
12B
100
AcDbEntity
  8
AM_4
100
AcDbLine
 10
-0.048072073203
 20
2.277537910756044
 30
0.0
 11
-0.048072073203
 21
2.278944342448714
 31
0.0
  0
LINE
  5
1E7
330
12B
100
AcDbEntity
  8
AM_4
100
AcDbLine
 10
0.048072
 20
2.277537910756044
 30
0.0
 11
0.048072
 21
2.278944342448715
 31
0.0
  0
LINE
  5
1E8
330
12B
100
AcDbEntity
  8
AM_4
100
AcDbLine
 10
0.0597256
 20
2.27269094735096
 30
0.0
 11
0.0597256
 21
2.278360468716704
 31
0.0
  0
LINE
  5
1E9
330
12B
100
AcDbEntity
  8
AM_4
100
AcDbLine
 10
-0.059725622803
 20
2.27269094735096
 30
0.0
 11
-0.059725622803
 21
2.278360468716705
 31
0.0
  0
LINE
  5
1EA
330
12B
100
AcDbEntity
  8
AM_4
100
AcDbLine
 10
0.0655528
 20
2.273721359140342
 30
0.0
 11
0.0655528
 21
2.277710683520627
 31
0.0
  0
LINE
  5
1EB
330
12B
100
AcDbEntity
  8
AM_4
100
AcDbLine
 10
-0.065552791304
 20
2.273721359140342
 30
0.0
 11
-0.065552791304
 21
2.277710683520628
 31
0.0
  0
LINE
  5
1EC
330
12B
100
AcDbEntity
  8
AM_4
100
AcDbLine
 10
-0.050985460603
 20
2.271874596080171
 30
0.0
 11
-0.050985460603
 21
2.276805536039256
 31
0.0
  0
LINE
  5
1ED
330
12B
100
AcDbEntity
  8
AM_4
100
AcDbLine
 10
0.0509854
 20
2.271874596080171
 30
0.0
 11
0.0509854
 21
2.276805536039256
 31
0.0
  0
LINE
  5
1EE
330
12B
100
AcDbEntity
  8
AM_4
100
AcDbLine
 10
-0.048072073203
 20
2.271594165690694
 30
0.0
 11
-0.048072073203
 21
2.273968588089115
 31
0.0
  0
LINE
  5
1EF
330
12B
100
AcDbEntity
  8
AM_4
100
AcDbLine
 10
0.048072
 20
2.271594165690695
 30
0.0
 11
0.048072
 21
2.273968588089115
 31
0.0
  0
LINE
  5
1F0
330
12B
100
AcDbEntity
  8
AM_4
100
AcDbLine
 10
-0.042244904702
 20
2.271452374464363
 30
0.0
 11
-0.042244904702
 21
2.273214455231844
 31
0.0
  0
LINE
  5
1F1
330
12B
100
AcDbEntity
  8
AM_4
100
AcDbLine
 10
-0.0335047031319
 20
2.271309552689594
 30
0.0
 11
-0.0335047031319
 21
2.272954777496465
 31
0.0
  0
LINE
  5
1F2
330
12B
100
AcDbEntity
  8
AM_4
100
AcDbLine
 10
-0.0101970921206
 20
2.271309552689594
 30
0.0
 11
-0.0101970921206001
 21
2.275142482873546
 31
0.0
  0
LINE
  5
1F3
330
12B
100
AcDbEntity
  8
AM_4
100
AcDbLine
 10
0.0422449
 20
2.271480816250777
 30
0.0
 11
0.0422449
 21
2.273214455231843
 31
0.0
  0
LINE
  5
1F4
330
12B
100
AcDbEntity
  8
AM_4
100
AcDbLine
 10
-0.1102359999999998
 20
1.738362659932845
 30
0.0
 11
-0.1102359999999998
 21
1.724443262945189
 31
0.0
  0
LINE
  5
1F5
330
12B
100
AcDbEntity
  8
AM_4
100
AcDbLine
 10
0.110236
 20
1.724443262945189
 30
0.0
 11
0.110236
 21
1.738362659932845
 31
0.0
  0
ELLIPSE
  5
1F6
330
12B
100
AcDbEntity
  8
AM_4
100
AcDbEllipse
 10
0.0000000000000001
 20
1.724443262945189
 30
0.0
 11
-0.1102359999999999
 21
1.350001645508075E-17
 31
0.0
210
0.0
220
0.0
230
1.0
 40
0.7071067811865509
 41
0.0
 42
3.141592653589793
  0
ELLIPSE
  5
1F7
330
12B
100
AcDbEntity
  8
AM_4
100
AcDbEllipse
 10
-0.0000000000000002
 20
1.738362659932846
 30
0.0
 11
-0.1102360000000002
 21
1.350001645508078E-17
 31
0.0
210
0.0
220
0.0
230
1.0
 40
0.7071067811865474
 41
5.688821362529552
 42
10.02101015184701
  0
LWPOLYLINE
  5
1F8
330
12B
100
AcDbEntity
  8
AM_4
100
AcDbPolyline
 90
        5
 70
     0
 43
0.0
 10
0.090921409067117
 20
1.520267238730673
 10
0.1133330912277911
 20
1.544352002859838
 10
0.1359448732442181
 20
1.570794059068841
 10
0.1588926749040726
 20
1.600094164646599
 10
0.1818428181342338
 20
1.631622768185322
  0
LINE
  5
1F9
330
12B
100
AcDbEntity
  8
AM_4
100
AcDbLine
 10
0.1818428181342338
 20
1.631622768185322
 30
0.0
 11
0.1818428181342338
 21
1.719827271684675
 31
0.0
  0
LINE
  5
1FA
330
12B
100
AcDbEntity
  8
AM_4
100
AcDbLine
 10
-0.1818428181342336
 20
1.631622768185322
 30
0.0
 11
-0.1818428181342336
 21
1.719827271684675
 31
0.0
  0
LWPOLYLINE
  5
1FB
330
12B
100
AcDbEntity
  8
AM_4
100
AcDbPolyline
 90
        5
 70
     0
 43
0.0
 10
-0.1818428181342336
 20
1.631622768185322
 10
-0.1594311359735596
 20
1.600810346743398
 10
-0.1368193539571324
 20
1.571865074837113
 10
-0.1138715522972781
 20
1.544954775629635
 10
-0.0909214090671168
 20
1.520267238730673
  0
LINE
  5
1FC
330
12B
100
AcDbEntity
  8
AM_4
100
AcDbLine
 10
-0.0909214090671168
 20
1.520267238730673
 30
0.0
 11
-0.0909214090671167
 21
1.608471742230027
 31
0.0
  0
LWPOLYLINE
  5
1FD
330
12B
100
AcDbEntity
  8
AM_4
100
AcDbPolyline
 90
        5
 70
     0
 43
0.0
 10
-0.0909214090671168
 20
1.520267238730673
 10
-0.0460980447457686
 20
1.516903410074294
 10
-0.0008744807129144
 20
1.515651802225653
 10
0.0450211226067941
 20
1.516846705410793
 10
0.090921409067117
 20
1.520267238730673
  0
LINE
  5
1FE
330
12B
100
AcDbEntity
  8
AM_4
100
AcDbLine
 10
0.090921409067117
 20
1.520267238730673
 30
0.0
 11
0.090921409067117
 21
1.608471742230027
 31
0.0
  0
LWPOLYLINE
  5
1FF
330
12B
100
AcDbEntity
  8
AM_4
100
AcDbPolyline
 90
        5
 70
     0
 43
0.0
 10
-0.0909214090671167
 20
1.608471742230027
 10
-0.1133330912277907
 20
1.639284163671951
 10
-0.135944873244218
 20
1.668229435578236
 10
-0.1588926749040723
 20
1.695139734785713
 10
-0.1818428181342336
 20
1.719827271684675
  0
LWPOLYLINE
  5
200
330
12B
100
AcDbEntity
  8
AM_4
100
AcDbPolyline
 90
        5
 70
     0
 43
0.0
 10
0.090921409067117
 20
1.608471742230027
 10
0.0460980447457689
 20
1.611835570886407
 10
0.0008744807129147
 20
1.613087178735048
 10
-0.0450211226067939
 20
1.611892275549908
 10
-0.0909214090671167
 20
1.608471742230027
  0
LWPOLYLINE
  5
201
330
12B
100
AcDbEntity
  8
AM_4
100
AcDbPolyline
 90
        5
 70
     0
 43
0.0
 10
0.1818428181342338
 20
1.719827271684675
 10
0.1594311359735599
 20
1.695742507555511
 10
0.1368193539571327
 20
1.669300451346509
 10
0.1138715522972785
 20
1.64000034576875
 10
0.090921409067117
 20
1.608471742230027
  0
LWPOLYLINE
  5
202
330
12B
100
AcDbEntity
  8
AM_4
100
AcDbPolyline
 90
        5
 70
     0
 43
0.0
 10
0.1055227561463897
 20
1.81570612031745
 10
0.113333091227791
 20
1.807098037010159
 10
0.1359448732442182
 20
1.780655980801157
 10
0.1588926749040725
 20
1.751355875223398
 10
0.1818428181342338
 20
1.719827271684675
  0
LWPOLYLINE
  5
203
330
12B
100
AcDbEntity
  8
AM_4
100
AcDbPolyline
 90
        5
 70
     0
 43
0.0
 10
-0.1818428181342336
 20
1.719827271684675
 10
-0.1594311359735596
 20
1.750639693126599
 10
-0.1368193539571326
 20
1.779584965032883
 10
-0.1138715522972783
 20
1.806495264240361
 10
-0.105524368497541
 20
1.81570436853477
  0
ELLIPSE
  5
204
330
12B
100
AcDbEntity
  8
AM_4
100
AcDbEllipse
 10
0.0000000000000001
 20
1.724443262945189
 30
0.0
 11
-0.1574800000000003
 21
1.928573779297255E-17
 31
0.0
210
0.0
220
0.0
230
1.0
 40
0.7071067811865471
 41
5.436122349514262
 42
10.270720205619
  0
ELLIPSE
  5
205
330
12B
100
AcDbEntity
  8
AM_4
100
AcDbEllipse
 10
-0.0000000000000476
 20
1.815444857537521
 30
0.0
 11
-0.1022054666021574
 21
1.251655975296938E-17
 31
0.0
210
0.0
220
0.0
230
1.0
 40
0.7071067811891592
 41
-4.052230639086081
 42
-3.990087119805612
  0
ELLIPSE
  5
206
330
12B
100
AcDbEntity
  8
AM_4
100
AcDbEllipse
 10
-0.0000000000000005
 20
1.815444857537135
 30
0.0
 11
-0.1022054666020851
 21
1.251655975296052E-17
 31
0.0
210
0.0
220
0.0
230
1.0
 40
0.7071067811865137
 41
0.9555559667354876
 42
2.230954668094608
  0
LWPOLYLINE
  5
207
330
12B
100
AcDbEntity
  8
AM_4
100
AcDbPolyline
 90
        3
 70
     0
 43
0.0
 10
0.0942364781079894
 20
1.861482977990861
 10
0.0909651017303788
 20
1.865935120814285
 10
0.0874241398738976
 20
1.870112847321569
  0
LWPOLYLINE
  5
208
330
12B
100
AcDbEntity
  8
AM_4
100
AcDbPolyline
 90
       13
 70
     0
 43
0.0
 10
0.0625053077158438
 20
1.758260877076027
 10
0.0691045969709507
 20
1.762195353425491
 10
0.0789800904219904
 20
1.769489888754409
 10
0.0875600543721776
 20
1.777765085239022
 10
0.0946573049170291
 20
1.786869472662361
 10
0.1001216666110486
 20
1.796607906107785
 10
0.1038618670296153
 20
1.806759620227807
 10
0.105850990451199
 20
1.817106636988497
 10
0.1061117756245288
 20
1.827456444774282
 10
0.1046927545501093
 20
1.837649734392764
 10
0.101656496548636
 20
1.847533943940077
 10
0.0970629148512624
 20
1.856997025898709
 10
0.0950491782633781
 20
1.860264019955759
  0
LINE
  5
209
330
12B
100
AcDbEntity
  8
AM_4
100
AcDbLine
 10
-0.059904837325731
 20
1.756879323110555
 30
0.0
 11
-0.0587119848861016
 21
1.756274734735163
 31
0.0
  0
LWPOLYLINE
  5
20A
330
12B
100
AcDbEntity
  8
AM_4
100
AcDbPolyline
 90
       15
 70
     0
 43
0.0
 10
-0.0881822338932237
 20
1.869265211191054
 10
-0.089951273401424
 20
1.867190840136616
 10
-0.0965506356581535
 20
1.857865083704851
 10
-0.1014814820781283
 20
1.847972968740315
 10
-0.1046731633492353
 20
1.837737488981502
 10
-0.1061166302549251
 20
1.82737044126564
 10
-0.1058453012544961
 20
1.81705404368803
 10
-0.1039124056546122
 20
1.806942100735046
 10
-0.1003822790309108
 20
1.79717878403853
 10
-0.0953117233065393
 20
1.787868741692423
 10
-0.088754181536816
 20
1.779117860306216
 10
-0.0807764489089568
 20
1.771044339181079
 10
-0.0714776042415281
 20
1.763778215530185
 10
-0.0609986970045199
 20
1.757449647832077
 10
-0.059904837325731
 20
1.756879323110555
  0
ELLIPSE
  5
20B
330
12B
100
AcDbEntity
  8
AM_4
100
AcDbEllipse
 10
0.0000000000000084
 20
1.815444857537108
 30
0.0
 11
-0.1022054666021009
 21
1.522980145246877E-9
 31
0.0
210
0.0
220
0.0
230
1.0
 40
0.7071067811862395
 41
0.8492744858011454
 42
0.9555559807819561
  0
ELLIPSE
  5
20C
330
12B
100
AcDbEntity
  8
AM_4
100
AcDbEllipse
 10
0.0
 20
1.830334021823991
 30
0.0
 11
-0.103958423779337
 21
1.273123509257691E-17
 31
0.0
210
0.0
220
0.0
230
1.0
 40
0.7071067811865482
 41
5.730473253052748
 42
9.977490014896217
  0
LINE
  5
20D
330
12B
100
AcDbEntity
  8
AM_4
100
AcDbLine
 10
-0.0605219071451571
 20
1.900975008511399
 30
0.0
 11
-0.0884794128974543
 21
1.868926426309887
 31
0.0
  0
LINE
  5
20E
330
12B
100
AcDbEntity
  8
AM_4
100
AcDbLine
 10
0.0884794128974545
 20
1.868926426309887
 30
0.0
 11
0.0605219071451574
 21
1.900975008511399
 31
0.0
  0
ELLIPSE
  5
20F
330
12B
100
AcDbEntity
  8
AM_4
100
AcDbEllipse
 10
0.0000000000000001
 20
1.874576936413986
 30
0.0
 11
-0.07110989850511271
 21
8.708450959197943E-18
 31
0.0
210
0.0
220
0.0
230
1.0
 40
0.7071067811865444
 41
3.46021242268835
 42
5.982196803356226
  0
ELLIPSE
  5
210
330
12B
100
AcDbEntity
  8
AM_4
100
AcDbEllipse
 10
0.0000000000000001
 20
1.877556629809418
 30
0.0
 11
0.06413825024007777
 21
0.0
 31
0.0
210
0.0
220
0.0
230
1.0
 40
0.7071067811865478
 41
0.0
 42
6.283185307179586
  0
ELLIPSE
  5
211
330
12B
100
AcDbEntity
  8
AM_4
100
AcDbEllipse
 10
0.0
 20
1.874576936413986
 30
0.0
 11
-0.07110989850511289
 21
8.708450959197965E-18
 31
0.0
210
0.0
220
0.0
230
1.0
 40
0.7071067811865457
 41
5.982196803356222
 42
9.74339772986794
  0
LINE
  5
212
330
12B
100
AcDbEntity
  8
AM_4
100
AcDbLine
 10
-1.125
 20
-1.500000000000002
 30
0.0
 11
-0.7499992499999999
 21
2.281250000000001
 31
0.0
  0
LINE
  5
213
330
12B
100
AcDbEntity
  8
AM_4
100
AcDbLine
 10
-0.068466178704
 20
2.254641556704525
 30
0.0
 11
-0.0684661787039999
 21
2.26888280503335
 31
0.0
  0
LINE
  5
214
330
12B
100
AcDbEntity
  8
AM_4
100
AcDbLine
 10
-0.0684661787039999
 20
2.26888280503335
 30
0.0
 11
0.0684661
 21
2.26888280503335
 31
0.0
  0
LINE
  5
215
330
12B
100
AcDbEntity
  8
AM_4
100
AcDbLine
 10
0.0684661
 20
2.26888280503335
 30
0.0
 11
0.0684661
 21
2.254641556704525
 31
0.0
  0
LINE
  5
216
330
12B
100
AcDbEntity
  8
AM_4
100
AcDbLine
 10
0.0684661
 20
2.254641556704525
 30
0.0
 11
0.0509854
 21
2.254641556704525
 31
0.0
  0
LINE
  5
217
330
12B
100
AcDbEntity
  8
AM_4
100
AcDbLine
 10
0.0509854
 20
2.254641556704525
 30
0.0
 11
0.0509854
 21
2.266887490064517
 31
0.0
  0
LINE
  5
218
330
12B
100
AcDbEntity
  8
AM_4
100
AcDbLine
 10
0.0509854
 20
2.266887490064517
 30
0.0
 11
0.0131105
 21
2.266887490064517
 31
0.0
  0
LINE
  5
219
330
12B
100
AcDbEntity
  8
AM_4
100
AcDbLine
 10
0.0131105
 20
2.266887490064517
 30
0.0
 11
0.0131105
 21
2.256494031665939
 31
0.0
  0
LINE
  5
21A
330
12B
100
AcDbEntity
  8
AM_4
100
AcDbLine
 10
0.0131105
 20
2.256494031665939
 30
0.0
 11
-0.0043701598402
 21
2.256494031665939
 31
0.0
  0
LINE
  5
21B
330
12B
100
AcDbEntity
  8
AM_4
100
AcDbLine
 10
-0.0043701598402
 20
2.256494031665939
 30
0.0
 11
-0.0043701598401999
 21
2.266887490064517
 31
0.0
  0
LINE
  5
21C
330
12B
100
AcDbEntity
  8
AM_4
100
AcDbLine
 10
-0.0043701598401999
 20
2.266887490064517
 30
0.0
 11
-0.050985460603
 21
2.266887490064517
 31
0.0
  0
LINE
  5
21D
330
12B
100
AcDbEntity
  8
AM_4
100
AcDbLine
 10
-0.050985460603
 20
2.266887490064517
 30
0.0
 11
-0.050985460603
 21
2.254641556704525
 31
0.0
  0
LINE
  5
21E
330
12B
100
AcDbEntity
  8
AM_4
100
AcDbLine
 10
-0.050985460603
 20
2.254641556704525
 30
0.0
 11
-0.068466178704
 21
2.254641556704525
 31
0.0
  0
LINE
  5
21F
330
12B
100
AcDbEntity
  8
AM_4
100
AcDbLine
 10
0.0364180999999991
 20
2.279211528056734
 30
0.0
 11
0.0480720000000011
 21
2.278944342448714
 31
0.0
  0
LINE
  5
220
330
12B
100
AcDbEntity
  8
AM_4
100
AcDbLine
 10
0.0480720000000006
 20
2.278944342448715
 30
0.0
 11
0.0597255999999992
 21
2.278360468716706
 31
0.0
  0
LINE
  5
221
330
12B
100
AcDbEntity
  8
AM_4
100
AcDbLine
 10
0.0597255999999996
 20
2.278360468716706
 30
0.0
 11
0.0655527999999992
 21
2.277710683520628
 31
0.0
  0
LINE
  5
222
330
12B
100
AcDbEntity
  8
AM_4
100
AcDbLine
 10
0.0655527999999997
 20
2.277710683520628
 30
0.0
 11
0.0684660999999997
 21
2.276805536039257
 31
0.0
  0
LINE
  5
223
330
12B
100
AcDbEntity
  8
AM_4
100
AcDbLine
 10
0.0684661
 20
2.276805536039256
 30
0.0
 11
0.0684661
 21
2.274915973801891
 31
0.0
  0
LINE
  5
224
330
12B
100
AcDbEntity
  8
AM_4
100
AcDbLine
 10
0.0684661
 20
2.27491597380189
 30
0.0
 11
0.0655528
 21
2.273721359140342
 31
0.0
  0
LINE
  5
225
330
12B
100
AcDbEntity
  8
AM_4
100
AcDbLine
 10
0.0655527999999999
 20
2.273721359140342
 30
0.0
 11
0.0597255999999999
 21
2.27269094735096
 31
0.0
  0
LINE
  5
226
330
12B
100
AcDbEntity
  8
AM_4
100
AcDbLine
 10
0.0597256000000001
 20
2.27269094735096
 30
0.0
 11
0.0480720000000002
 21
2.271594165690695
 31
0.0
  0
LINE
  5
227
330
12B
100
AcDbEntity
  8
AM_4
100
AcDbLine
 10
0.0480720000000009
 20
2.271594165690695
 30
0.0
 11
0.0335046999999998
 21
2.271309552689594
 31
0.0
  0
LINE
  5
228
330
12B
100
AcDbEntity
  8
AM_4
100
AcDbLine
 10
0.0335047
 20
2.271309552689594
 30
0.0
 11
0.0335047000000001
 21
2.272954777496465
 31
0.0
  0
LINE
  5
229
330
12B
100
AcDbEntity
  8
AM_4
100
AcDbLine
 10
0.0335046999999955
 20
2.272954777496465
 30
0.0
 11
0.0422448999999989
 21
2.273214455231843
 31
0.0
  0
LINE
  5
22A
330
12B
100
AcDbEntity
  8
AM_4
100
AcDbLine
 10
0.0422448999999999
 20
2.273214455231843
 30
0.0
 11
0.0480719999999993
 21
2.273968588089115
 31
0.0
  0
LINE
  5
22B
330
12B
100
AcDbEntity
  8
AM_4
100
AcDbLine
 10
0.0480719999999997
 20
2.273968588089116
 30
0.0
 11
0.0509854000000001
 21
2.274915973801891
 31
0.0
  0
LINE
  5
22C
330
12B
100
AcDbEntity
  8
AM_4
100
AcDbLine
 10
0.0509854
 20
2.276805536039256
 30
0.0
 11
0.048072
 21
2.277537910756044
 31
0.0
  0
LINE
  5
22D
330
12B
100
AcDbEntity
  8
AM_4
100
AcDbLine
 10
0.0480720000000001
 20
2.277537910756044
 30
0.0
 11
0.0422449
 21
2.278043797532217
 31
0.0
  0
LINE
  5
22E
330
12B
100
AcDbEntity
  8
AM_4
100
AcDbLine
 10
0.0422449000000002
 20
2.278043797532217
 30
0.0
 11
0.0335047000000004
 21
2.278360468716705
 31
0.0
  0
LINE
  5
22F
330
12B
100
AcDbEntity
  8
AM_4
100
AcDbLine
 10
0.0335047000000007
 20
2.278360468716705
 30
0.0
 11
-0.0218508779412
 21
2.278512619498958
 31
0.0
  0
LINE
  5
230
330
12B
100
AcDbEntity
  8
AM_4
100
AcDbLine
 10
-0.0218508779411991
 20
2.278512619498958
 30
0.0
 11
-0.0335047031318996
 21
2.278360468716705
 31
0.0
  0
LINE
  5
231
330
12B
100
AcDbEntity
  8
AM_4
100
AcDbLine
 10
-0.0335047031319003
 20
2.278360468716705
 30
0.0
 11
-0.0422449047020001
 21
2.278043797532217
 31
0.0
  0
LINE
  5
232
330
12B
100
AcDbEntity
  8
AM_4
100
AcDbLine
 10
-0.0422449047020001
 20
2.278043797532217
 30
0.0
 11
-0.0480720732029999
 21
2.277537910756044
 31
0.0
  0
LINE
  5
233
330
12B
100
AcDbEntity
  8
AM_4
100
AcDbLine
 10
-0.0480720732030001
 20
2.277537910756044
 30
0.0
 11
-0.0509854606030001
 21
2.276805536039256
 31
0.0
  0
LINE
  5
234
330
12B
100
AcDbEntity
  8
AM_4
100
AcDbLine
 10
-0.0509854606030002
 20
2.274915973801891
 30
0.0
 11
-0.0480720732029998
 21
2.273968588089115
 31
0.0
  0
LINE
  5
235
330
12B
100
AcDbEntity
  8
AM_4
100
AcDbLine
 10
-0.0480720732029996
 20
2.273968588089115
 30
0.0
 11
-0.0422449047020002
 21
2.273214455231843
 31
0.0
  0
LINE
  5
236
330
12B
100
AcDbEntity
  8
AM_4
100
AcDbLine
 10
-0.0422449047020013
 20
2.273214455231843
 30
0.0
 11
-0.0335047031318978
 21
2.272954777496465
 31
0.0
  0
LINE
  5
237
330
12B
100
AcDbEntity
  8
AM_4
100
AcDbLine
 10
-0.0335047031319
 20
2.272954777496465
 30
0.0
 11
-0.0101970921206
 21
2.272954777496465
 31
0.0
  0
LINE
  5
238
330
12B
100
AcDbEntity
  8
AM_4
100
AcDbLine
 10
-0.0101970921206001
 20
2.275142482873546
 30
0.0
 11
0.00728362
 21
2.275142482873546
 31
0.0
  0
LINE
  5
239
330
12B
100
AcDbEntity
  8
AM_4
100
AcDbLine
 10
0.00728362
 20
2.275142482873546
 30
0.0
 11
0.00728362
 21
2.271309552689594
 31
0.0
  0
LINE
  5
23A
330
12B
100
AcDbEntity
  8
AM_4
100
AcDbLine
 10
0.00728362
 20
2.271309552689594
 30
0.0
 11
-0.036418129902
 21
2.271309552689594
 31
0.0
  0
LINE
  5
23B
330
12B
100
AcDbEntity
  8
AM_4
100
AcDbLine
 10
-0.0364181299020005
 20
2.271309552689595
 30
0.0
 11
-0.0480720732029994
 21
2.271594165690695
 31
0.0
  0
LINE
  5
23C
330
12B
100
AcDbEntity
  8
AM_4
100
AcDbLine
 10
-0.048072073203
 20
2.271594165690695
 30
0.0
 11
-0.0597256228029999
 21
2.27269094735096
 31
0.0
  0
LINE
  5
23D
330
12B
100
AcDbEntity
  8
AM_4
100
AcDbLine
 10
-0.0597256228029998
 20
2.27269094735096
 30
0.0
 11
-0.065552791304
 21
2.273721359140342
 31
0.0
  0
LINE
  5
23E
330
12B
100
AcDbEntity
  8
AM_4
100
AcDbLine
 10
-0.0655527913040002
 20
2.273721359140342
 30
0.0
 11
-0.0684661787040001
 21
2.274915973801891
 31
0.0
  0
LINE
  5
23F
330
12B
100
AcDbEntity
  8
AM_4
100
AcDbLine
 10
-0.068466178704
 20
2.274915973801891
 30
0.0
 11
-0.0684661787040001
 21
2.276805536039256
 31
0.0
  0
LINE
  5
240
330
12B
100
AcDbEntity
  8
AM_4
100
AcDbLine
 10
-0.0684661787040003
 20
2.276805536039256
 30
0.0
 11
-0.0655527913040004
 21
2.277710683520627
 31
0.0
  0
LINE
  5
241
330
12B
100
AcDbEntity
  8
AM_4
100
AcDbLine
 10
-0.0655527913040006
 20
2.277710683520628
 30
0.0
 11
-0.059725622803
 21
2.278360468716705
 31
0.0
  0
LINE
  5
242
330
12B
100
AcDbEntity
  8
AM_4
100
AcDbLine
 10
-0.059725622803
 20
2.278360468716705
 30
0.0
 11
-0.0480720732030014
 21
2.278944342448714
 31
0.0
  0
LINE
  5
243
330
12B
100
AcDbEntity
  8
AM_4
100
AcDbLine
 10
-0.0480720732030025
 20
2.278944342448714
 30
0.0
 11
-0.0364181299020006
 21
2.279211528056734
 31
0.0
  0
LINE
  5
244
330
12B
100
AcDbEntity
  8
AM_4
100
AcDbLine
 10
-0.0364181299020016
 20
2.279211528056735
 30
0.0
 11
0.0364180999999975
 21
2.279211528056734
 31
0.0
  0
LINE
  5
245
330
12B
100
AcDbEntity
  8
AM_4
100
AcDbLine
 10
-0.0538988163489227
 20
2.280621036519799
 30
0.0
 11
0.0538987683457858
 21
2.280621036519799
 31
0.0
  0
LINE
  5
246
330
12B
100
AcDbEntity
  8
AM_4
100
AcDbLine
 10
0.0684660999999999
 20
2.281163239143906
 30
0.0
 11
0.0655527999999999
 21
2.280978411879427
 31
0.0
  0
LINE
  5
247
330
12B
100
AcDbEntity
  8
AM_4
100
AcDbLine
 10
0.0655528
 20
2.280978411879427
 30
0.0
 11
0.0480720000000001
 21
2.28046903608249
 31
0.0
  0
LINE
  5
248
330
12B
100
AcDbEntity
  8
AM_4
100
AcDbLine
 10
0.0364181000000001
 20
2.280300577743468
 30
0.0
 11
-0.036418129901999
 21
2.280300577743468
 31
0.0
  0
LINE
  5
249
330
12B
100
AcDbEntity
  8
AM_4
100
AcDbLine
 10
-0.0364181299020004
 20
2.280300577743468
 30
0.0
 11
-0.0480720732029996
 21
2.28046903608249
 31
0.0
  0
LINE
  5
24A
330
12B
100
AcDbEntity
  8
AM_4
100
AcDbLine
 10
-0.0655527913040001
 20
2.280978411879427
 30
0.0
 11
-0.0684661787040001
 21
2.281163239143905
 31
0.0
  0
LINE
  5
24B
330
12B
100
AcDbEntity
  8
AM_4
100
AcDbLine
 10
0.7499992499999998
 20
2.281250000000001
 30
0.0
 11
0.0684661
 21
2.281250000000001
 31
0.0
  0
LINE
  5
24C
330
12B
100
AcDbEntity
  8
AM_4
100
AcDbLine
 10
-0.0684661787039999
 20
2.281250000000001
 30
0.0
 11
-0.7499992499999999
 21
2.281250000000001
 31
0.0
  0
LINE
  5
24D
330
12B
100
AcDbEntity
  8
AM_4
100
AcDbLine
 10
0.7499992499999999
 20
2.281250000000001
 30
0.0
 11
1.125
 21
-1.500000000000002
 31
0.0
  0
LINE
  5
24E
330
12B
100
AcDbEntity
  8
AM_4
100
AcDbLine
 10
1.125
 20
-2.1875
 30
0.0
 11
1.125
 21
-1.500000000000002
 31
0.0
  0
LINE
  5
24F
330
12B
100
AcDbEntity
  8
AM_4
100
AcDbLine
 10
-0.9180404284188713
 20
0.5868381731000324
 30
0.0
 11
0.9180404284188715
 21
0.5868381731000324
 31
0.0
  0
LWPOLYLINE
  5
250
330
12B
100
AcDbEntity
  8
AM_4
100
AcDbPolyline
 90
       30
 70
     0
 43
0.0
 10
0.677496540581574
 20
-1.5
 10
0.6540010834434251
 20
-1.281615964842273
 10
0.6255282831636209
 20
-1.071755443020409
 10
0.5922948349446373
 20
-0.872015599822722
 10
0.5545536653943255
 20
-0.6839165760621593
 10
0.5125920076017046
 20
-0.5088899188868359
 10
0.4667292151197184
 20
-0.34826768684184
 10
0.4173143314918656
 20
-0.2032723120993906
 10
0.3647234338200771
 20
-0.075007297011878
 10
0.3093567705908873
 20
0.0355511842073479
 10
0.2516357155427755
 20
0.1275617147591732
 10
0.191999560757584
 20
0.2003240389486199
 10
0.1309021733825228
 20
0.2532843915535156
 10
0.0688085414271272
 20
0.2860397123121998
 10
0.006191234923738
 20
0.2983407134554973
 10
-0.0564731906157908
 20
0.2900937769371588
 10
-0.1187078210752886
 20
0.2613616669237254
 10
-0.1800390133386613
 20
0.2123630521213224
 10
-0.2399999999999984
 20
0.1434708415747677
 10
-0.2981344417453732
 20
0.0552093466045757
 10
-0.3539999003705681
 20
-0.0517497095187835
 10
-0.4071712060029588
 20
-0.1765923037945666
 10
-0.4572436929009709
 20
-0.3183683086983163
 10
-0.5038362792047163
 20
-0.4759987232260223
 10
-0.5465943671990507
 20
-0.6482838847432831
 10
-0.5851925420162977
 20
-0.8339125991423255
 10
-0.6193370482398827
 20
-1.031472119820892
 10
-0.6487680255604279
 20
-1.239458899536918
 10
-0.6732614864696139
 20
-1.456290033310914
 10
-0.6774965405815732
 20
-1.5
  0
LINE
  5
251
330
12B
100
AcDbEntity
  8
AM_4
100
AcDbLine
 10
0.7974902000000004
 20
-1.5
 30
0.0
 11
0.7974902000000004
 21
-1.7291664375
 31
0.0
  0
LINE
  5
252
330
12B
100
AcDbEntity
  8
AM_4
100
AcDbLine
 10
-1.125
 20
-1.5
 30
0.0
 11
-1.125
 21
-2.1875
 31
0.0
  0
LINE
  5
253
330
12B
100
AcDbEntity
  8
AM_4
100
AcDbLine
 10
0.0000000000000003
 20
-1.7291664375
 30
0.0
 11
1.125
 21
-1.7291664375
 31
0.0
  0
LINE
  5
254
330
12B
100
AcDbEntity
  8
AM_4
100
AcDbLine
 10
-0.8912499999999991
 20
-1.5590551
 30
0.0
 11
-0.8912499999999991
 21
-2.1875
 31
0.0
  0
LINE
  5
255
330
12B
100
AcDbEntity
  8
AM_4
100
AcDbLine
 10
-0.8912499999999991
 20
-1.5590551
 30
0.0
 11
0.0000000000000005
 21
-1.559055100000001
 31
0.0
  0
LWPOLYLINE
  5
256
330
12B
100
AcDbEntity
  8
AM_4
100
AcDbPolyline
 90
       19
 70
     0
 43
0.0
 10
-0.9503050999999999
 20
-1.5
 10
-0.9451581088964627
 20
-1.500224722484722
 10
-0.9400502895030615
 20
-1.500897179665089
 10
-0.9350205154095658
 20
-1.502012253735916
 10
-0.930107066233888
 20
-1.503561458310226
 10
-0.9253473362910765
 20
-1.505533003005772
 10
-0.9207775499999995
 20
-1.50791188317697
 10
-0.9164324861936449
 20
-1.510679994109309
 10
-0.9123452134311999
 20
-1.513816268807164
 10
-0.9085468383263497
 20
-1.51729683832635
 10
-0.9050662688071638
 20
-1.5210952134312
 10
-0.9019299941093084
 20
-1.525182486193645
 10
-0.8991618831769689
 20
-1.52952755
 10
-0.8967830030057712
 20
-1.534097336291077
 10
-0.8948114583102252
 20
-1.538857066233889
 10
-0.8932622537359156
 20
-1.543770515409566
 10
-0.8921471796650879
 20
-1.548800289503062
 10
-0.8914747224847213
 20
-1.553908108896463
 10
-0.8912499999999991
 20
-1.559055100000001
  0
LINE
  5
257
330
12B
100
AcDbEntity
  8
AM_4
100
AcDbLine
 10
0.8912500000000001
 20
-2.1875
 30
0.0
 11
0.8912500000000001
 21
-1.7291664375
 31
0.0
  0
LINE
  5
258
330
12B
100
AcDbEntity
  8
AM_4
100
AcDbLine
 10
-1.125
 20
-2.1875
 30
0.0
 11
1.125
 21
-2.1875
 31
0.0
  0
LINE
  5
259
330
12B
100
AcDbEntity
  8
AM_4
100
AcDbLine
 10
0.0000000000000005
 20
-1.559055100000001
 30
0.0
 11
0.0000000000000003
 21
-1.7291664375
 31
0.0
  0
LINE
  5
25A
330
12B
100
AcDbEntity
  8
AM_4
100
AcDbLine
 10
0.71875
 20
-1.5
 30
0.0
 11
0.71875
 21
-1.7291664375
 31
0.0
  0
LINE
  5
25B
330
12B
100
AcDbEntity
  8
AM_4
100
AcDbLine
 10
-1.125
 20
-1.5
 30
0.0
 11
1.125
 21
-1.500000000000002
 31
0.0
  0
LWPOLYLINE
  5
25C
330
12B
100
AcDbEntity
  8
AM_4
100
AcDbPolyline
 90
        9
 70
     0
 43
0.0
 10
0.0000000000000005
 20
-1.559055100000001
 10
0.0010227175181396
 20
-1.558761947067371
 10
0.0438330099840476
 20
-1.546555145834739
 10
0.0865964070777937
 20
-1.534745032180116
 10
0.129900452006471
 20
-1.523584060547561
 10
0.1730297808087136
 20
-1.513780253949305
 10
0.2292209356425839
 20
-1.504062209728534
 10
0.2574380545299945
 20
-1.501098760873782
 10
0.2853142152329468
 20
-1.5
  0
ENDBLK
  5
12E
330
12B
100
AcDbEntity
  8
0
100
AcDbBlockEnd
  0
ENDSEC
  0
SECTION
  2
ENTITIES
  0
INSERT
  5
6F
330
1F
100
AcDbEntity
  8
0
100
AcDbBlockReference
  2
1_129198_2
 10
0.0
 20
0.0
 30
0.0
  0
POINT
  5
25E
330
1F
100
AcDbEntity
  8
ConnectionPoints
100
AcDbPoint
 10
0.0
 20
0.0
 30
0.0
  0
POINT
  5
25F
330
1F
100
AcDbEntity
  8
ConnectionPoints
100
AcDbPoint
 10
0.65625
 20
0.0
 30
0.0
  0
POINT
  5
260
330
1F
100
AcDbEntity
  8
ConnectionPoints
100
AcDbPoint
 10
0.0
 20
0.0
 30
0.0
  0
POINT
  5
261
330
1F
100
AcDbEntity
  8
ConnectionPoints
100
AcDbPoint
 10
0.0
 20
0.0
 30
0.0
  0
ENDSEC
  0
SECTION
  2
OBJECTS
  0
DICTIONARY
  5
C
330
0
100
AcDbDictionary
281
     1
  3
ACAD_DETAILVIEWSTYLE
350
269
  3
ACAD_GROUP
350
D
  3
ACAD_LAYOUT
350
1A
  3
ACAD_MATERIAL
350
43
  3
ACAD_MLEADERSTYLE
350
6B
  3
ACAD_MLINESTYLE
350
17
  3
ACAD_PLOTSETTINGS
350
19
  3
ACAD_PLOTSTYLENAME
350
E
  3
ACAD_SCALELIST
350
47
  3
ACAD_SECTIONVIEWSTYLE
350
26A
  3
ACAD_TABLESTYLE
350
69
  3
ACAD_VISUALSTYLE
350
2A
  3
ACDB_RECOMPOSE_DATA
350
266
  3
AcDbVariableDictionary
350
262
  0
SUN
  5
6D
330
29
100
AcDbSun
 90
        1
290
     0
 63
     7
421
 16777215
 40
1.0
291
     1
 91
  2455826
 92
 54000000
292
     0
 70
     2
 71
   256
280
     1
  0
DICTIONARY
  5
269
102
{ACAD_REACTORS
330
C
102
}
330
C
100
AcDbDictionary
281
     1
  0
DICTIONARY
  5
D
102
{ACAD_REACTORS
330
C
102
}
330
C
100
AcDbDictionary
281
     1
  0
DICTIONARY
  5
1A
102
{ACAD_REACTORS
330
C
102
}
330
C
100
AcDbDictionary
281
     1
  3
Layout1
350
1E
  3
Layout2
350
26
  3
Model
350
22
  0
DICTIONARY
  5
43
102
{ACAD_REACTORS
330
C
102
}
330
C
100
AcDbDictionary
281
     1
  3
ByBlock
350
45
  3
ByLayer
350
44
  3
Global
350
46
  0
DICTIONARY
  5
6B
102
{ACAD_REACTORS
330
C
102
}
330
C
100
AcDbDictionary
281
     1
  3
Standard
350
6C
  0
DICTIONARY
  5
17
102
{ACAD_REACTORS
330
C
102
}
330
C
100
AcDbDictionary
281
     1
  3
Standard
350
18
  0
DICTIONARY
  5
19
102
{ACAD_REACTORS
330
C
102
}
330
C
100
AcDbDictionary
281
     1
  0
ACDBDICTIONARYWDFLT
  5
E
102
{ACAD_REACTORS
330
C
102
}
330
C
100
AcDbDictionary
281
     1
  3
Normal
350
F
100
AcDbDictionaryWithDefault
340
F
  0
DICTIONARY
  5
47
102
{ACAD_REACTORS
330
C
102
}
330
C
100
AcDbDictionary
281
     1
  3
A0
350
48
  3
A1
350
49
  3
A2
350
4A
  3
A3
350
4B
  3
A4
350
4C
  3
A5
350
4D
  3
A6
350
4E
  3
A7
350
4F
  3
A8
350
50
  3
A9
350
51
  3
B0
350
52
  3
B1
350
53
  3
B2
350
54
  3
B3
350
55
  3
B4
350
56
  3
B5
350
57
  3
B6
350
58
  3
B7
350
59
  3
B8
350
5A
  3
B9
350
5B
  3
C0
350
5C
  3
C1
350
5D
  3
C2
350
5E
  3
C3
350
5F
  3
C4
350
60
  3
C5
350
61
  3
C6
350
62
  3
C7
350
63
  3
C8
350
64
  3
C9
350
65
  3
D0
350
66
  3
D1
350
67
  3
D2
350
68
  0
DICTIONARY
  5
26A
102
{ACAD_REACTORS
330
C
102
}
330
C
100
AcDbDictionary
281
     1
  0
DICTIONARY
  5
69
102
{ACAD_REACTORS
330
C
102
}
330
C
100
AcDbDictionary
281
     1
  3
Standard
350
6A
  0
DICTIONARY
  5
2A
102
{ACAD_REACTORS
330
C
102
}
330
C
100
AcDbDictionary
281
     1
  3
2dWireframe
350
2F
  3
Basic
350
32
  3
Brighten
350
36
  3
ColorChange
350
3A
  3
Conceptual
350
34
  3
Dim
350
35
  3
EdgeColorOff
350
3D
  3
Facepattern
350
39
  3
Flat
350
2B
  3
FlatWithEdges
350
2C
  3
Gouraud
350
2D
  3
GouraudWithEdges
350
2E
  3
Hidden
350
31
  3
JitterOff
350
3B
  3
Linepattern
350
38
  3
OverhangOff
350
3C
  3
Realistic
350
33
  3
Shaded
350
42
  3
Shaded with edges
350
41
  3
Shades of Gray
350
3E
  3
Sketchy
350
3F
  3
Thicken
350
37
  3
Wireframe
350
30
  3
X-Ray
350
40
  0
XRECORD
  5
266
102
{ACAD_REACTORS
330
C
102
}
330
C
100
AcDbXrecord
280
     1
 90
        1
330
6A
  0
DICTIONARY
  5
262
102
{ACAD_REACTORS
330
C
102
}
330
C
100
AcDbDictionary
281
     1
  3
CANNOSCALE
350
263
  3
CMLEADERSTYLE
350
268
  3
CTABLESTYLE
350
267
  0
LAYOUT
  5
1E
102
{ACAD_REACTORS
330
1A
102
}
330
1A
100
AcDbPlotSettings
  1

  2
none_device
  4

  6

 40
0.0
 41
0.0
 42
0.0
 43
0.0
 44
0.0
 45
0.0
 46
0.0
 47
0.0
 48
0.0
 49
0.0
140
0.0
141
0.0
142
1.0
143
1.0
 70
   688
 72
     0
 73
     0
 74
     5
  7

 75
    16
 76
     0
 77
     2
 78
   300
147
1.0
148
0.0
149
0.0
100
AcDbLayout
  1
Layout1
 70
     1
 71
     1
 10
0.0
 20
0.0
 11
12.0
 21
9.0
 12
0.0
 22
0.0
 32
0.0
 14
1.000000000000000E+20
 24
1.000000000000000E+20
 34
1.000000000000000E+20
 15
-1.000000000000000E+20
 25
-1.000000000000000E+20
 35
-1.000000000000000E+20
146
0.0
 13
0.0
 23
0.0
 33
0.0
 16
1.0
 26
0.0
 36
0.0
 17
0.0
 27
1.0
 37
0.0
 76
     0
330
1B
  0
LAYOUT
  5
26
102
{ACAD_REACTORS
330
1A
102
}
330
1A
100
AcDbPlotSettings
  1

  2
none_device
  4

  6

 40
0.0
 41
0.0
 42
0.0
 43
0.0
 44
0.0
 45
0.0
 46
0.0
 47
0.0
 48
0.0
 49
0.0
140
0.0
141
0.0
142
1.0
143
1.0
 70
   688
 72
     0
 73
     0
 74
     5
  7

 75
    16
 76
     0
 77
     2
 78
   300
147
1.0
148
0.0
149
0.0
100
AcDbLayout
  1
Layout2
 70
     1
 71
     2
 10
0.0
 20
0.0
 11
0.0
 21
0.0
 12
0.0
 22
0.0
 32
0.0
 14
0.0
 24
0.0
 34
0.0
 15
0.0
 25
0.0
 35
0.0
146
0.0
 13
0.0
 23
0.0
 33
0.0
 16
1.0
 26
0.0
 36
0.0
 17
0.0
 27
1.0
 37
0.0
 76
     0
330
23
  0
LAYOUT
  5
22
102
{ACAD_REACTORS
330
1A
102
}
330
1A
100
AcDbPlotSettings
  1

  2
none_device
  4
Letter_(8.50_x_11.00_Inches)
  6

 40
6.35
 41
6.35
 42
6.35000508
 43
6.35000508
 44
215.9
 45
279.4
 46
0.0
 47
0.0
 48
0.0
 49
0.0
140
0.0
141
0.0
142
1.0
143
1.0
 70
  1712
 72
     0
 73
     0
 74
     0
  7

 75
     0
 76
     0
 77
     2
 78
   300
147
1.0
148
0.0
149
0.0
100
AcDbLayout
  1
Model
 70
     1
 71
     0
 10
0.0
 20
0.0
 11
12.0
 21
9.0
 12
0.0
 22
0.0
 32
0.0
 14
1.000000000000000E+20
 24
1.000000000000000E+20
 34
1.000000000000000E+20
 15
-1.000000000000000E+20
 25
-1.000000000000000E+20
 35
-1.000000000000000E+20
146
0.0
 13
0.0
 23
0.0
 33
0.0
 16
1.0
 26
0.0
 36
0.0
 17
0.0
 27
1.0
 37
0.0
 76
     0
330
1F
331
29
  0
MATERIAL
  5
45
102
{ACAD_REACTORS
330
43
102
}
330
43
100
AcDbMaterial
  1
ByBlock
 72
     1
 94
      127
  0
MATERIAL
  5
44
102
{ACAD_REACTORS
330
43
102
}
330
43
100
AcDbMaterial
  1
ByLayer
 72
     1
 94
      127
  0
MATERIAL
  5
46
102
{ACAD_REACTORS
330
43
102
}
330
43
100
AcDbMaterial
  1
Global
 72
     1
 94
      127
  0
MLEADERSTYLE
  5
6C
102
{ACAD_REACTORS
330
6B
102
}
330
6B
100
AcDbMLeaderStyle
179
     2
170
     2
171
     1
172
     0
 90
        2
 40
0.0
 41
0.0
173
     1
 91
-1056964608
340
14
 92
       -2
290
     1
 42
0.09
291
     1
 43
0.36
  3
Standard
341
0
 44
0.18
300

342
11
174
     1
178
     6
175
     1
176
     0
 93
-1056964608
 45
0.18
292
     0
297
     0
 46
0.18
343
0
 94
-1056964608
 47
1.0
 49
1.0
140
1.0
293
     1
141
0.0
294
     1
177
     0
142
1.0
295
     0
296
     0
143
0.125
271
     0
272
     9
273
     9
298
     0
  0
MLINESTYLE
  5
18
102
{ACAD_REACTORS
330
17
102
}
330
17
100
AcDbMlineStyle
  2
Standard
 70
     0
  3

 62
   256
 51
90.0
 52
90.0
 71
     2
 49
0.5
 62
   256
  6
BYLAYER
 49
-0.5
 62
   256
  6
BYLAYER
  0
ACDBPLACEHOLDER
  5
F
102
{ACAD_REACTORS
330
E
102
}
330
E
  0
SCALE
  5
48
102
{ACAD_REACTORS
330
47
102
}
330
47
100
AcDbScale
 70
     0
300
1:1
140
1.0
141
1.0
290
     1
  0
SCALE
  5
49
102
{ACAD_REACTORS
330
47
102
}
330
47
100
AcDbScale
 70
     0
300
1:2
140
1.0
141
2.0
290
     0
  0
SCALE
  5
4A
102
{ACAD_REACTORS
330
47
102
}
330
47
100
AcDbScale
 70
     0
300
1:4
140
1.0
141
4.0
290
     0
  0
SCALE
  5
4B
102
{ACAD_REACTORS
330
47
102
}
330
47
100
AcDbScale
 70
     0
300
1:5
140
1.0
141
5.0
290
     0
  0
SCALE
  5
4C
102
{ACAD_REACTORS
330
47
102
}
330
47
100
AcDbScale
 70
     0
300
1:8
140
1.0
141
8.0
290
     0
  0
SCALE
  5
4D
102
{ACAD_REACTORS
330
47
102
}
330
47
100
AcDbScale
 70
     0
300
1:10
140
1.0
141
10.0
290
     0
  0
SCALE
  5
4E
102
{ACAD_REACTORS
330
47
102
}
330
47
100
AcDbScale
 70
     0
300
1:16
140
1.0
141
16.0
290
     0
  0
SCALE
  5
4F
102
{ACAD_REACTORS
330
47
102
}
330
47
100
AcDbScale
 70
     0
300
1:20
140
1.0
141
20.0
290
     0
  0
SCALE
  5
50
102
{ACAD_REACTORS
330
47
102
}
330
47
100
AcDbScale
 70
     0
300
1:30
140
1.0
141
30.0
290
     0
  0
SCALE
  5
51
102
{ACAD_REACTORS
330
47
102
}
330
47
100
AcDbScale
 70
     0
300
1:40
140
1.0
141
40.0
290
     0
  0
SCALE
  5
52
102
{ACAD_REACTORS
330
47
102
}
330
47
100
AcDbScale
 70
     0
300
1:50
140
1.0
141
50.0
290
     0
  0
SCALE
  5
53
102
{ACAD_REACTORS
330
47
102
}
330
47
100
AcDbScale
 70
     0
300
1:100
140
1.0
141
100.0
290
     0
  0
SCALE
  5
54
102
{ACAD_REACTORS
330
47
102
}
330
47
100
AcDbScale
 70
     0
300
2:1
140
2.0
141
1.0
290
     0
  0
SCALE
  5
55
102
{ACAD_REACTORS
330
47
102
}
330
47
100
AcDbScale
 70
     0
300
4:1
140
4.0
141
1.0
290
     0
  0
SCALE
  5
56
102
{ACAD_REACTORS
330
47
102
}
330
47
100
AcDbScale
 70
     0
300
8:1
140
8.0
141
1.0
290
     0
  0
SCALE
  5
57
102
{ACAD_REACTORS
330
47
102
}
330
47
100
AcDbScale
 70
     0
300
10:1
140
10.0
141
1.0
290
     0
  0
SCALE
  5
58
102
{ACAD_REACTORS
330
47
102
}
330
47
100
AcDbScale
 70
     0
300
100:1
140
100.0
141
1.0
290
     0
  0
SCALE
  5
59
102
{ACAD_REACTORS
330
47
102
}
330
47
100
AcDbScale
 70
     0
300
1/128" = 1'-0"
140
0.0078125
141
12.0
290
     0
  0
SCALE
  5
5A
102
{ACAD_REACTORS
330
47
102
}
330
47
100
AcDbScale
 70
     0
300
1/64" = 1'-0"
140
0.015625
141
12.0
290
     0
  0
SCALE
  5
5B
102
{ACAD_REACTORS
330
47
102
}
330
47
100
AcDbScale
 70
     0
300
1/32" = 1'-0"
140
0.03125
141
12.0
290
     0
  0
SCALE
  5
5C
102
{ACAD_REACTORS
330
47
102
}
330
47
100
AcDbScale
 70
     0
300
1/16" = 1'-0"
140
0.0625
141
12.0
290
     0
  0
SCALE
  5
5D
102
{ACAD_REACTORS
330
47
102
}
330
47
100
AcDbScale
 70
     0
300
3/32" = 1'-0"
140
0.09375
141
12.0
290
     0
  0
SCALE
  5
5E
102
{ACAD_REACTORS
330
47
102
}
330
47
100
AcDbScale
 70
     0
300
1/8" = 1'-0"
140
0.125
141
12.0
290
     0
  0
SCALE
  5
5F
102
{ACAD_REACTORS
330
47
102
}
330
47
100
AcDbScale
 70
     0
300
3/16" = 1'-0"
140
0.1875
141
12.0
290
     0
  0
SCALE
  5
60
102
{ACAD_REACTORS
330
47
102
}
330
47
100
AcDbScale
 70
     0
300
1/4" = 1'-0"
140
0.25
141
12.0
290
     0
  0
SCALE
  5
61
102
{ACAD_REACTORS
330
47
102
}
330
47
100
AcDbScale
 70
     0
300
3/8" = 1'-0"
140
0.375
141
12.0
290
     0
  0
SCALE
  5
62
102
{ACAD_REACTORS
330
47
102
}
330
47
100
AcDbScale
 70
     0
300
1/2" = 1'-0"
140
0.5
141
12.0
290
     0
  0
SCALE
  5
63
102
{ACAD_REACTORS
330
47
102
}
330
47
100
AcDbScale
 70
     0
300
3/4" = 1'-0"
140
0.75
141
12.0
290
     0
  0
SCALE
  5
64
102
{ACAD_REACTORS
330
47
102
}
330
47
100
AcDbScale
 70
     0
300
1" = 1'-0"
140
1.0
141
12.0
290
     0
  0
SCALE
  5
65
102
{ACAD_REACTORS
330
47
102
}
330
47
100
AcDbScale
 70
     0
300
1-1/2" = 1'-0"
140
1.5
141
12.0
290
     0
  0
SCALE
  5
66
102
{ACAD_REACTORS
330
47
102
}
330
47
100
AcDbScale
 70
     0
300
3" = 1'-0"
140
3.0
141
12.0
290
     0
  0
SCALE
  5
67
102
{ACAD_REACTORS
330
47
102
}
330
47
100
AcDbScale
 70
     0
300
6" = 1'-0"
140
6.0
141
12.0
290
     0
  0
SCALE
  5
68
102
{ACAD_REACTORS
330
47
102
}
330
47
100
AcDbScale
 70
     0
300
1'-0" = 1'-0"
140
12.0
141
12.0
290
     0
  0
TABLESTYLE
  5
6A
102
{ACAD_REACTORS
330
69
102
}
102
{ACAD_XDICTIONARY
360
264
102
}
330
69
100
AcDbTableStyle
  3
Standard
 70
     0
 71
     0
 40
0.06
 41
0.06
280
     0
281
     0
  7
Standard
140
0.18
170
     2
 62
     0
 63
   257
283
     0
 90
        4
 91
        0
  1

274
    -2
284
     1
 64
     0
275
    -2
285
     1
 65
     0
276
    -2
286
     1
 66
     0
277
    -2
287
     1
 67
     0
278
    -2
288
     1
 68
     0
279
    -2
289
     1
 69
     0
  7
Standard
140
0.25
170
     5
 62
     0
 63
   257
283
     0
 90
        4
 91
        0
  1

274
    -2
284
     1
 64
     0
275
    -2
285
     1
 65
     0
276
    -2
286
     1
 66
     0
277
    -2
287
     1
 67
     0
278
    -2
288
     1
 68
     0
279
    -2
289
     1
 69
     0
  7
Standard
140
0.18
170
     5
 62
     0
 63
   257
283
     0
 90
        4
 91
        0
  1

274
    -2
284
     1
 64
     0
275
    -2
285
     1
 65
     0
276
    -2
286
     1
 66
     0
277
    -2
287
     1
 67
     0
278
    -2
288
     1
 68
     0
279
    -2
289
     1
 69
     0
  0
VISUALSTYLE
  5
2F
102
{ACAD_REACTORS
330
2A
102
}
330
2A
100
AcDbVisualStyle
  2
2dWireframe
 70
     4
177
     3
291
     0
 70
    58
 90
        0
176
     1
 90
        2
176
     1
 90
        0
176
     1
 90
        0
176
     1
 40
0.6
176
     1
 40
30.0
176
     1
 62
     7
420
 16777215
176
     1
 90
        1
176
     1
 90
        4
176
     1
 62
     7
176
     1
 62
   257
176
     1
 90
        1
176
     1
 90
        1
176
     1
 40
1.0
176
     1
 90
        0
176
     1
 62
   257
176
     1
 40
1.0
176
     1
 90
        1
176
     1
 90
        6
176
     1
 90
        2
176
     1
 62
     7
176
     1
 90
        5
176
     1
 90
        0
176
     1
 90
        0
176
     1
290
     0
176
     1
 90
        1
176
     1
 40
0.0
176
     1
 90
        0
176
     1
290
     1
176
     1
290
     1
176
     1
290
     0
176
     1
290
     0
176
     1
290
     0
176
     1
290
     0
176
     1
290
     0
176
     1
290
     0
176
     1
290
     0
176
     1
 90
       50
176
     1
 40
0.0
176
     1
 40
1.0
176
     1
 90
        0
176
     1
 62
    18
420
        0
176
     1
 90
       50
176
     1
 90
        3
176
     1
 62
     5
420
      255
176
     1
290
     0
176
     1
 90
       50
176
     1
 90
       50
176
     1
 90
       50
176
     1
290
     0
176
     1
 90
       50
176
     1
 62
   256
176
     0
 40
1.0
176
     0
 90
        2
176
     1
  1
strokes_ogs.tif
176
     1
290
     0
176
     1
 40
1.0
176
     1
 40
1.0
176
     1
  0
VISUALSTYLE
  5
32
102
{ACAD_REACTORS
330
2A
102
}
330
2A
100
AcDbVisualStyle
  2
Basic
 70
     7
177
     3
291
     1
 70
    58
 90
        1
176
     1
 90
        0
176
     1
 90
        1
176
     1
 90
        0
176
     1
 40
0.6
176
     1
 40
30.0
176
     1
 62
     7
420
 16777215
176
     1
 90
        0
176
     1
 90
        4
176
     1
 62
     7
176
     1
 62
   257
176
     1
 90
        1
176
     1
 90
        1
176
     1
 40
1.0
176
     1
 90
        8
176
     1
 62
     7
176
     1
 40
1.0
176
     1
 90
        1
176
     1
 90
        6
176
     1
 90
        2
176
     1
 62
     7
176
     1
 90
        5
176
     1
 90
        0
176
     1
 90
        0
176
     1
290
     0
176
     1
 90
        1
176
     1
 40
0.0
176
     1
 90
        0
176
     1
290
     0
176
     1
290
     1
176
     1
290
     1
176
     1
290
     0
176
     1
290
     0
176
     1
290
     0
176
     1
290
     0
176
     1
290
     0
176
     1
290
     0
176
     1
 90
       50
176
     1
 40
0.0
176
     1
 40
1.0
176
     1
 90
        0
176
     1
 62
    18
420
        0
176
     1
 90
       50
176
     1
 90
        3
176
     1
 62
     5
420
      255
176
     1
290
     0
176
     1
 90
       50
176
     1
 90
       50
176
     1
 90
       50
176
     1
290
     0
176
     1
 90
       50
176
     1
 62
   256
176
     0
 40
1.0
176
     0
 90
        2
176
     1
  1
strokes_ogs.tif
176
     1
290
     0
176
     1
 40
1.0
176
     1
 40
1.0
176
     1
  0
VISUALSTYLE
  5
36
102
{ACAD_REACTORS
330
2A
102
}
330
2A
100
AcDbVisualStyle
  2
Brighten
 70
    12
177
     3
291
     1
 70
    58
 90
        2
176
     1
 90
        2
176
     1
 90
        0
176
     1
 90
        0
176
     1
 40
0.6
176
     1
 40
30.0
176
     1
 62
     7
420
 16777215
176
     1
 90
        1
176
     1
 90
        4
176
     1
 62
     7
176
     1
 62
   257
176
     1
 90
        1
176
     1
 90
        1
176
     1
 40
1.0
176
     1
 90
        8
176
     1
 62
     7
176
     1
 40
1.0
176
     1
 90
        1
176
     1
 90
        6
176
     1
 90
        2
176
     1
 62
     7
176
     1
 90
        5
176
     1
 90
        0
176
     1
 90
        0
176
     1
290
     0
176
     1
 90
        1
176
     1
 40
50.0
176
     1
 90
        0
176
     1
290
     0
176
     1
290
     1
176
     1
290
     1
176
     1
290
     0
176
     1
290
     0
176
     1
290
     0
176
     1
290
     0
176
     1
290
     0
176
     1
290
     0
176
     1
 90
       50
176
     1
 40
0.0
176
     1
 40
1.0
176
     1
 90
        0
176
     1
 62
    18
420
        0
176
     1
 90
       50
176
     1
 90
        3
176
     1
 62
     5
420
      255
176
     1
290
     0
176
     1
 90
       50
176
     1
 90
       50
176
     1
 90
       50
176
     1
290
     0
176
     1
 90
       50
176
     1
 62
   256
176
     0
 40
1.0
176
     0
 90
        2
176
     1
  1
strokes_ogs.tif
176
     1
290
     0
176
     1
 40
1.0
176
     1
 40
1.0
176
     1
  0
VISUALSTYLE
  5
3A
102
{ACAD_REACTORS
330
2A
102
}
330
2A
100
AcDbVisualStyle
  2
ColorChange
 70
    16
177
     3
291
     1
 70
    58
 90
        2
176
     1
 90
        2
176
     1
 90
        3
176
     1
 90
        0
176
     1
 40
0.6
176
     1
 40
30.0
176
     1
 62
     8
420
  8421504
176
     1
 90
        1
176
     1
 90
        4
176
     1
 62
     7
176
     1
 62
   257
176
     1
 90
        1
176
     1
 90
        1
176
     1
 40
1.0
176
     1
 90
        8
176
     1
 62
     8
420
  8421504
176
     1
 40
1.0
176
     1
 90
        1
176
     1
 90
        6
176
     1
 90
        2
176
     1
 62
     7
176
     1
 90
        5
176
     1
 90
        0
176
     1
 90
        0
176
     1
290
     0
176
     1
 90
        1
176
     1
 40
0.0
176
     1
 90
        0
176
     1
290
     0
176
     1
290
     1
176
     1
290
     1
176
     1
290
     0
176
     1
290
     0
176
     1
290
     0
176
     1
290
     0
176
     1
290
     0
176
     1
290
     0
176
     1
 90
       50
176
     1
 40
0.0
176
     1
 40
1.0
176
     1
 90
        0
176
     1
 62
    18
420
        0
176
     1
 90
       50
176
     1
 90
        3
176
     1
 62
     5
420
      255
176
     1
290
     0
176
     1
 90
       50
176
     1
 90
       50
176
     1
 90
       50
176
     1
290
     0
176
     1
 90
       50
176
     1
 62
   256
176
     0
 40
1.0
176
     0
 90
        2
176
     1
  1
strokes_ogs.tif
176
     1
290
     0
176
     1
 40
1.0
176
     1
 40
1.0
176
     1
  0
VISUALSTYLE
  5
34
102
{ACAD_REACTORS
330
2A
102
}
330
2A
100
AcDbVisualStyle
  2
Conceptual
 70
     9
177
     3
291
     0
 70
    58
 90
        3
176
     1
 90
        2
176
     1
 90
        0
176
     1
 90
        0
176
     1
 40
0.6
176
     1
 40
30.0
176
     1
 62
     7
420
 16777215
176
     1
 90
        2
176
     1
 90
        2
176
     1
 62
     7
176
     1
 62
   257
176
     1
 90
        1
176
     1
 90
        1
176
     1
 40
179.0
176
     1
 90
        8
176
     1
 62
     7
176
     1
 40
1.0
176
     1
 90
        1
176
     1
 90
        6
176
     1
 90
        2
176
     1
 62
     7
176
     1
 90
        3
176
     1
 90
        0
176
     1
 90
        0
176
     1
290
     0
176
     1
 90
        1
176
     1
 40
0.0
176
     1
 90
        0
176
     1
290
     0
176
     1
290
     1
176
     1
290
     1
176
     1
290
     0
176
     1
290
     0
176
     1
290
     0
176
     1
290
     0
176
     1
290
     0
176
     1
290
     0
176
     1
 90
       50
176
     1
 40
0.0
176
     1
 40
1.0
176
     1
 90
        0
176
     1
 62
    18
420
        0
176
     1
 90
       50
176
     1
 90
        3
176
     1
 62
     5
420
      255
176
     1
290
     0
176
     1
 90
       50
176
     1
 90
       50
176
     1
 90
       50
176
     1
290
     0
176
     1
 90
       50
176
     1
 62
   256
176
     0
 40
1.0
176
     0
 90
        2
176
     1
  1
strokes_ogs.tif
176
     1
290
     0
176
     1
 40
1.0
176
     1
 40
1.0
176
     1
  0
VISUALSTYLE
  5
35
102
{ACAD_REACTORS
330
2A
102
}
330
2A
100
AcDbVisualStyle
  2
Dim
 70
    11
177
     3
291
     1
 70
    58
 90
        2
176
     1
 90
        2
176
     1
 90
        0
176
     1
 90
        0
176
     1
 40
0.6
176
     1
 40
30.0
176
     1
 62
     7
420
 16777215
176
     1
 90
        1
176
     1
 90
        4
176
     1
 62
     7
176
     1
 62
   257
176
     1
 90
        1
176
     1
 90
        1
176
     1
 40
1.0
176
     1
 90
        8
176
     1
 62
     7
176
     1
 40
1.0
176
     1
 90
        1
176
     1
 90
        6
176
     1
 90
        2
176
     1
 62
     7
176
     1
 90
        5
176
     1
 90
        0
176
     1
 90
        0
176
     1
290
     0
176
     1
 90
        1
176
     1
 40
-50.0
176
     1
 90
        0
176
     1
290
     0
176
     1
290
     1
176
     1
290
     1
176
     1
290
     0
176
     1
290
     0
176
     1
290
     0
176
     1
290
     0
176
     1
290
     0
176
     1
290
     0
176
     1
 90
       50
176
     1
 40
0.0
176
     1
 40
1.0
176
     1
 90
        0
176
     1
 62
    18
420
        0
176
     1
 90
       50
176
     1
 90
        3
176
     1
 62
     5
420
      255
176
     1
290
     0
176
     1
 90
       50
176
     1
 90
       50
176
     1
 90
       50
176
     1
290
     0
176
     1
 90
       50
176
     1
 62
   256
176
     0
 40
1.0
176
     0
 90
        2
176
     1
  1
strokes_ogs.tif
176
     1
290
     0
176
     1
 40
1.0
176
     1
 40
1.0
176
     1
  0
VISUALSTYLE
  5
3D
102
{ACAD_REACTORS
330
2A
102
}
330
2A
100
AcDbVisualStyle
  2
EdgeColorOff
 70
    22
177
     3
291
     1
 70
    58
 90
        2
176
     0
 90
        2
176
     0
 90
        0
176
     0
 90
        0
176
     0
 40
0.6
176
     0
 40
30.0
176
     0
 62
     7
420
 16777215
176
     0
 90
        1
176
     0
 90
        4
176
     0
 62
     7
176
     0
 62
   257
176
     0
 90
        1
176
     0
 90
        1
176
     0
 40
1.0
176
     0
 90
        8
176
     2
 62
     7
176
     0
 40
1.0
176
     0
 90
        1
176
     0
 90
        6
176
     0
 90
        2
176
     0
 62
     7
176
     0
 90
        5
176
     0
 90
        0
176
     0
 90
        0
176
     0
290
     0
176
     0
 90
        1
176
     0
 40
0.0
176
     0
 90
        0
176
     0
290
     0
176
     0
290
     1
176
     0
290
     1
176
     0
290
     0
176
     0
290
     0
176
     0
290
     0
176
     0
290
     0
176
     0
290
     0
176
     0
290
     0
176
     0
 90
       50
176
     0
 40
0.0
176
     0
 40
1.0
176
     0
 90
        0
176
     0
 62
    18
420
        0
176
     0
 90
       50
176
     0
 90
        3
176
     0
 62
     5
420
      255
176
     0
290
     0
176
     0
 90
       50
176
     0
 90
       50
176
     0
 90
       50
176
     0
290
     0
176
     0
 90
       50
176
     0
 62
   256
176
     0
 40
1.0
176
     0
 90
        2
176
     0
  1
strokes_ogs.tif
176
     0
290
     0
176
     0
 40
1.0
176
     0
 40
1.0
176
     0
  0
VISUALSTYLE
  5
39
102
{ACAD_REACTORS
330
2A
102
}
330
2A
100
AcDbVisualStyle
  2
Facepattern
 70
    15
177
     3
291
     1
 70
    58
 90
        2
176
     1
 90
        2
176
     1
 90
        0
176
     1
 90
        0
176
     1
 40
0.6
176
     1
 40
30.0
176
     1
 62
     7
420
 16777215
176
     1
 90
        1
176
     1
 90
        4
176
     1
 62
     7
176
     1
 62
   257
176
     1
 90
        1
176
     1
 90
        1
176
     1
 40
1.0
176
     1
 90
        8
176
     1
 62
     7
176
     1
 40
1.0
176
     1
 90
        1
176
     1
 90
        6
176
     1
 90
        2
176
     1
 62
     7
176
     1
 90
        5
176
     1
 90
        0
176
     1
 90
        0
176
     1
290
     0
176
     1
 90
        1
176
     1
 40
0.0
176
     1
 90
        0
176
     1
290
     0
176
     1
290
     1
176
     1
290
     1
176
     1
290
     0
176
     1
290
     0
176
     1
290
     0
176
     1
290
     0
176
     1
290
     0
176
     1
290
     0
176
     1
 90
       50
176
     1
 40
0.0
176
     1
 40
1.0
176
     1
 90
        0
176
     1
 62
    18
420
        0
176
     1
 90
       50
176
     1
 90
        3
176
     1
 62
     5
420
      255
176
     1
290
     0
176
     1
 90
       50
176
     1
 90
       50
176
     1
 90
       50
176
     1
290
     0
176
     1
 90
       50
176
     1
 62
   256
176
     0
 40
1.0
176
     0
 90
        2
176
     1
  1
strokes_ogs.tif
176
     1
290
     0
176
     1
 40
1.0
176
     1
 40
1.0
176
     1
  0
VISUALSTYLE
  5
2B
102
{ACAD_REACTORS
330
2A
102
}
330
2A
100
AcDbVisualStyle
  2
Flat
 70
     0
177
     3
291
     1
 70
    58
 90
        2
176
     1
 90
        1
176
     1
 90
        1
176
     1
 90
        2
176
     1
 40
0.6
176
     1
 40
30.0
176
     1
 62
     7
420
 16777215
176
     1
 90
        0
176
     1
 90
        0
176
     1
 62
     7
176
     1
 62
   257
176
     1
 90
        1
176
     1
 90
        1
176
     1
 40
1.0
176
     1
 90
        8
176
     1
 62
     7
176
     1
 40
1.0
176
     1
 90
        1
176
     1
 90
        6
176
     1
 90
        2
176
     1
 62
     7
176
     1
 90
        5
176
     1
 90
        0
176
     1
 90
        0
176
     1
290
     0
176
     1
 90
       13
176
     1
 40
0.0
176
     1
 90
        0
176
     1
290
     0
176
     1
290
     1
176
     1
290
     1
176
     1
290
     0
176
     1
290
     0
176
     1
290
     0
176
     1
290
     0
176
     1
290
     0
176
     1
290
     0
176
     1
 90
       50
176
     1
 40
0.0
176
     1
 40
1.0
176
     1
 90
        0
176
     1
 62
    18
420
        0
176
     1
 90
       50
176
     1
 90
        3
176
     1
 62
     5
420
      255
176
     1
290
     0
176
     1
 90
       50
176
     1
 90
       50
176
     1
 90
       50
176
     1
290
     0
176
     1
 90
       50
176
     1
 62
   256
176
     0
 40
1.0
176
     0
 90
        2
176
     1
  1
strokes_ogs.tif
176
     1
290
     0
176
     1
 40
1.0
176
     1
 40
1.0
176
     1
  0
VISUALSTYLE
  5
2C
102
{ACAD_REACTORS
330
2A
102
}
330
2A
100
AcDbVisualStyle
  2
FlatWithEdges
 70
     1
177
     3
291
     1
 70
    58
 90
        2
176
     1
 90
        1
176
     1
 90
        1
176
     1
 90
        2
176
     1
 40
0.6
176
     1
 40
30.0
176
     1
 62
     7
420
 16777215
176
     1
 90
        1
176
     1
 90
        0
176
     1
 62
     7
176
     1
 62
   257
176
     1
 90
        1
176
     1
 90
        1
176
     1
 40
1.0
176
     1
 90
        0
176
     1
 62
   257
176
     1
 40
1.0
176
     1
 90
        1
176
     1
 90
        6
176
     1
 90
        2
176
     1
 62
     7
176
     1
 90
        5
176
     1
 90
        0
176
     1
 90
        0
176
     1
290
     0
176
     1
 90
       13
176
     1
 40
0.0
176
     1
 90
        0
176
     1
290
     0
176
     1
290
     1
176
     1
290
     1
176
     1
290
     0
176
     1
290
     0
176
     1
290
     0
176
     1
290
     0
176
     1
290
     0
176
     1
290
     0
176
     1
 90
       50
176
     1
 40
0.0
176
     1
 40
1.0
176
     1
 90
        0
176
     1
 62
    18
420
        0
176
     1
 90
       50
176
     1
 90
        3
176
     1
 62
     5
420
      255
176
     1
290
     0
176
     1
 90
       50
176
     1
 90
       50
176
     1
 90
       50
176
     1
290
     0
176
     1
 90
       50
176
     1
 62
   256
176
     0
 40
1.0
176
     0
 90
        2
176
     1
  1
strokes_ogs.tif
176
     1
290
     0
176
     1
 40
1.0
176
     1
 40
1.0
176
     1
  0
VISUALSTYLE
  5
2D
102
{ACAD_REACTORS
330
2A
102
}
330
2A
100
AcDbVisualStyle
  2
Gouraud
 70
     2
177
     3
291
     1
 70
    58
 90
        2
176
     1
 90
        2
176
     1
 90
        1
176
     1
 90
        2
176
     1
 40
0.6
176
     1
 40
30.0
176
     1
 62
     7
420
 16777215
176
     1
 90
        0
176
     1
 90
        0
176
     1
 62
     7
176
     1
 62
   257
176
     1
 90
        1
176
     1
 90
        1
176
     1
 40
1.0
176
     1
 90
        0
176
     1
 62
     7
176
     1
 40
1.0
176
     1
 90
        1
176
     1
 90
        6
176
     1
 90
        2
176
     1
 62
     7
176
     1
 90
        5
176
     1
 90
        0
176
     1
 90
        0
176
     1
290
     0
176
     1
 90
       13
176
     1
 40
0.0
176
     1
 90
        0
176
     1
290
     0
176
     1
290
     1
176
     1
290
     1
176
     1
290
     0
176
     1
290
     0
176
     1
290
     0
176
     1
290
     0
176
     1
290
     0
176
     1
290
     0
176
     1
 90
       50
176
     1
 40
0.0
176
     1
 40
1.0
176
     1
 90
        0
176
     1
 62
    18
420
        0
176
     1
 90
       50
176
     1
 90
        3
176
     1
 62
     5
420
      255
176
     1
290
     0
176
     1
 90
       50
176
     1
 90
       50
176
     1
 90
       50
176
     1
290
     0
176
     1
 90
       50
176
     1
 62
   256
176
     0
 40
1.0
176
     0
 90
        2
176
     1
  1
strokes_ogs.tif
176
     1
290
     0
176
     1
 40
1.0
176
     1
 40
1.0
176
     1
  0
VISUALSTYLE
  5
2E
102
{ACAD_REACTORS
330
2A
102
}
330
2A
100
AcDbVisualStyle
  2
GouraudWithEdges
 70
     3
177
     3
291
     1
 70
    58
 90
        2
176
     1
 90
        2
176
     1
 90
        1
176
     1
 90
        2
176
     1
 40
0.6
176
     1
 40
30.0
176
     1
 62
     7
420
 16777215
176
     1
 90
        1
176
     1
 90
        0
176
     1
 62
     7
176
     1
 62
   257
176
     1
 90
        1
176
     1
 90
        1
176
     1
 40
1.0
176
     1
 90
        0
176
     1
 62
   257
176
     1
 40
1.0
176
     1
 90
        1
176
     1
 90
        6
176
     1
 90
        2
176
     1
 62
     7
176
     1
 90
        5
176
     1
 90
        0
176
     1
 90
        0
176
     1
290
     0
176
     1
 90
       13
176
     1
 40
0.0
176
     1
 90
        0
176
     1
290
     0
176
     1
290
     1
176
     1
290
     1
176
     1
290
     0
176
     1
290
     0
176
     1
290
     0
176
     1
290
     0
176
     1
290
     0
176
     1
290
     0
176
     1
 90
       50
176
     1
 40
0.0
176
     1
 40
1.0
176
     1
 90
        0
176
     1
 62
    18
420
        0
176
     1
 90
       50
176
     1
 90
        3
176
     1
 62
     5
420
      255
176
     1
290
     0
176
     1
 90
       50
176
     1
 90
       50
176
     1
 90
       50
176
     1
290
     0
176
     1
 90
       50
176
     1
 62
   256
176
     0
 40
1.0
176
     0
 90
        2
176
     1
  1
strokes_ogs.tif
176
     1
290
     0
176
     1
 40
1.0
176
     1
 40
1.0
176
     1
  0
VISUALSTYLE
  5
31
102
{ACAD_REACTORS
330
2A
102
}
330
2A
100
AcDbVisualStyle
  2
Hidden
 70
     6
177
     3
291
     0
 70
    58
 90
        1
176
     1
 90
        2
176
     1
 90
        2
176
     1
 90
        0
176
     1
 40
0.6
176
     1
 40
30.0
176
     1
 62
     7
420
 16777215
176
     1
 90
        2
176
     1
 90
        2
176
     1
 62
     7
176
     1
 62
   257
176
     1
 90
        2
176
     1
 90
        1
176
     1
 40
40.0
176
     1
 90
        0
176
     1
 62
   257
176
     1
 40
1.0
176
     1
 90
        1
176
     1
 90
        6
176
     1
 90
        2
176
     1
 62
     7
176
     1
 90
        3
176
     1
 90
        0
176
     1
 90
        0
176
     1
290
     0
176
     1
 90
        1
176
     1
 40
0.0
176
     1
 90
        0
176
     1
290
     0
176
     1
290
     1
176
     1
290
     1
176
     1
290
     0
176
     1
290
     0
176
     1
290
     0
176
     1
290
     0
176
     1
290
     0
176
     1
290
     0
176
     1
 90
       50
176
     1
 40
0.0
176
     1
 40
1.0
176
     1
 90
        0
176
     1
 62
    18
420
        0
176
     1
 90
       50
176
     1
 90
        3
176
     1
 62
     5
420
      255
176
     1
290
     0
176
     1
 90
       50
176
     1
 90
       50
176
     1
 90
       50
176
     1
290
     0
176
     1
 90
       50
176
     1
 62
   256
176
     0
 40
1.0
176
     0
 90
        2
176
     1
  1
strokes_ogs.tif
176
     1
290
     0
176
     1
 40
1.0
176
     1
 40
1.0
176
     1
  0
VISUALSTYLE
  5
3B
102
{ACAD_REACTORS
330
2A
102
}
330
2A
100
AcDbVisualStyle
  2
JitterOff
 70
    20
177
     3
291
     1
 70
    58
 90
        2
176
     0
 90
        2
176
     0
 90
        0
176
     0
 90
        0
176
     0
 40
0.6
176
     0
 40
30.0
176
     0
 62
     7
420
 16777215
176
     0
 90
        1
176
     0
 90
        4
176
     0
 62
     7
176
     0
 62
   257
176
     0
 90
        1
176
     0
 90
        1
176
     0
 40
1.0
176
     0
 90
       10
176
     2
 62
     7
176
     0
 40
1.0
176
     0
 90
        1
176
     0
 90
        6
176
     0
 90
        2
176
     0
 62
     7
176
     0
 90
        5
176
     0
 90
        0
176
     0
 90
        0
176
     0
290
     0
176
     0
 90
        1
176
     0
 40
0.0
176
     0
 90
        0
176
     0
290
     0
176
     0
290
     1
176
     0
290
     1
176
     0
290
     0
176
     0
290
     0
176
     0
290
     0
176
     0
290
     0
176
     0
290
     0
176
     0
290
     0
176
     0
 90
       50
176
     0
 40
0.0
176
     0
 40
1.0
176
     0
 90
        0
176
     0
 62
    18
420
        0
176
     0
 90
       50
176
     0
 90
        3
176
     0
 62
     5
420
      255
176
     0
290
     0
176
     0
 90
       50
176
     0
 90
       50
176
     0
 90
       50
176
     0
290
     0
176
     0
 90
       50
176
     0
 62
   256
176
     0
 40
1.0
176
     0
 90
        2
176
     0
  1
strokes_ogs.tif
176
     0
290
     0
176
     0
 40
1.0
176
     0
 40
1.0
176
     0
  0
VISUALSTYLE
  5
38
102
{ACAD_REACTORS
330
2A
102
}
330
2A
100
AcDbVisualStyle
  2
Linepattern
 70
    14
177
     3
291
     1
 70
    58
 90
        2
176
     1
 90
        2
176
     1
 90
        0
176
     1
 90
        0
176
     1
 40
0.6
176
     1
 40
30.0
176
     1
 62
     7
420
 16777215
176
     1
 90
        1
176
     1
 90
        4
176
     1
 62
     7
176
     1
 62
   257
176
     1
 90
        7
176
     1
 90
        7
176
     1
 40
1.0
176
     1
 90
        8
176
     1
 62
     7
176
     1
 40
1.0
176
     1
 90
        1
176
     1
 90
        6
176
     1
 90
        2
176
     1
 62
     7
176
     1
 90
        5
176
     1
 90
        0
176
     1
 90
        0
176
     1
290
     0
176
     1
 90
        1
176
     1
 40
0.0
176
     1
 90
        0
176
     1
290
     0
176
     1
290
     1
176
     1
290
     1
176
     1
290
     0
176
     1
290
     0
176
     1
290
     0
176
     1
290
     0
176
     1
290
     0
176
     1
290
     0
176
     1
 90
       50
176
     1
 40
0.0
176
     1
 40
1.0
176
     1
 90
        0
176
     1
 62
    18
420
        0
176
     1
 90
       50
176
     1
 90
        3
176
     1
 62
     5
420
      255
176
     1
290
     0
176
     1
 90
       50
176
     1
 90
       50
176
     1
 90
       50
176
     1
290
     0
176
     1
 90
       50
176
     1
 62
   256
176
     0
 40
1.0
176
     0
 90
        2
176
     1
  1
strokes_ogs.tif
176
     1
290
     0
176
     1
 40
1.0
176
     1
 40
1.0
176
     1
  0
VISUALSTYLE
  5
3C
102
{ACAD_REACTORS
330
2A
102
}
330
2A
100
AcDbVisualStyle
  2
OverhangOff
 70
    21
177
     3
291
     1
 70
    58
 90
        2
176
     0
 90
        2
176
     0
 90
        0
176
     0
 90
        0
176
     0
 40
0.6
176
     0
 40
30.0
176
     0
 62
     7
420
 16777215
176
     0
 90
        1
176
     0
 90
        4
176
     0
 62
     7
176
     0
 62
   257
176
     0
 90
        1
176
     0
 90
        1
176
     0
 40
1.0
176
     0
 90
        9
176
     2
 62
     7
176
     0
 40
1.0
176
     0
 90
        1
176
     0
 90
        6
176
     0
 90
        2
176
     0
 62
     7
176
     0
 90
        5
176
     0
 90
        0
176
     0
 90
        0
176
     0
290
     0
176
     0
 90
        1
176
     0
 40
0.0
176
     0
 90
        0
176
     0
290
     0
176
     0
290
     1
176
     0
290
     1
176
     0
290
     0
176
     0
290
     0
176
     0
290
     0
176
     0
290
     0
176
     0
290
     0
176
     0
290
     0
176
     0
 90
       50
176
     0
 40
0.0
176
     0
 40
1.0
176
     0
 90
        0
176
     0
 62
    18
420
        0
176
     0
 90
       50
176
     0
 90
        3
176
     0
 62
     5
420
      255
176
     0
290
     0
176
     0
 90
       50
176
     0
 90
       50
176
     0
 90
       50
176
     0
290
     0
176
     0
 90
       50
176
     0
 62
   256
176
     0
 40
1.0
176
     0
 90
        2
176
     0
  1
strokes_ogs.tif
176
     0
290
     0
176
     0
 40
1.0
176
     0
 40
1.0
176
     0
  0
VISUALSTYLE
  5
33
102
{ACAD_REACTORS
330
2A
102
}
330
2A
100
AcDbVisualStyle
  2
Realistic
 70
     8
177
     3
291
     0
 70
    58
 90
        2
176
     1
 90
        3
176
     1
 90
        0
176
     1
 90
        2
176
     1
 40
0.6
176
     1
 40
30.0
176
     1
 62
     7
420
 16777215
176
     1
 90
        0
176
     1
 90
        0
176
     1
 62
     7
176
     1
 62
   257
176
     1
 90
        1
176
     1
 90
        1
176
     1
 40
1.0
176
     1
 90
        8
176
     1
 62
   257
176
     1
 40
1.0
176
     1
 90
        1
176
     1
 90
        6
176
     1
 90
        2
176
     1
 62
     7
176
     1
 90
        3
176
     1
 90
        0
176
     1
 90
        0
176
     1
290
     0
176
     1
 90
       13
176
     1
 40
0.0
176
     1
 90
        0
176
     1
290
     0
176
     1
290
     1
176
     1
290
     1
176
     1
290
     0
176
     1
290
     0
176
     1
290
     0
176
     1
290
     0
176
     1
290
     0
176
     1
290
     0
176
     1
 90
       50
176
     1
 40
0.0
176
     1
 40
1.0
176
     1
 90
        0
176
     1
 62
    18
420
        0
176
     1
 90
       50
176
     1
 90
        3
176
     1
 62
     5
420
      255
176
     1
290
     0
176
     1
 90
       50
176
     1
 90
       50
176
     1
 90
       50
176
     1
290
     0
176
     1
 90
       50
176
     1
 62
   256
176
     0
 40
1.0
176
     0
 90
        2
176
     1
  1
strokes_ogs.tif
176
     1
290
     0
176
     1
 40
1.0
176
     1
 40
1.0
176
     1
  0
VISUALSTYLE
  5
42
102
{ACAD_REACTORS
330
2A
102
}
330
2A
100
AcDbVisualStyle
  2
Shaded
 70
    27
177
     3
291
     0
 70
    58
 90
        2
176
     1
 90
        2
176
     1
 90
        1
176
     1
 90
        2
176
     1
 40
0.6
176
     1
 40
30.0
176
     1
 62
     7
420
 16777215
176
     1
 90
        0
176
     1
 90
        4
176
     1
 62
     7
176
     1
 62
   257
176
     1
 90
        1
176
     1
 90
        1
176
     1
 40
1.0
176
     1
 90
        8
176
     1
 62
   257
176
     1
 40
1.0
176
     1
 90
        1
176
     1
 90
        6
176
     1
 90
        2
176
     1
 62
     8
420
  7895160
176
     1
 90
        3
176
     1
 90
        0
176
     1
 90
        0
176
     1
290
     0
176
     1
 90
        5
176
     1
 40
0.0
176
     1
 90
        0
176
     1
290
     0
176
     1
290
     1
176
     1
290
     1
176
     1
290
     0
176
     1
290
     0
176
     1
290
     0
176
     1
290
     0
176
     1
290
     0
176
     1
290
     0
176
     1
 90
       50
176
     1
 40
0.0
176
     1
 40
1.0
176
     1
 90
        0
176
     1
 62
    18
420
        0
176
     1
 90
       50
176
     1
 90
        3
176
     1
 62
     5
420
      255
176
     1
290
     0
176
     1
 90
       50
176
     1
 90
       50
176
     1
 90
       50
176
     1
290
     0
176
     1
 90
       50
176
     1
 62
   256
176
     0
 40
1.0
176
     0
 90
        2
176
     1
  1
strokes_ogs.tif
176
     1
290
     0
176
     1
 40
1.0
176
     1
 40
1.0
176
     1
  0
VISUALSTYLE
  5
41
102
{ACAD_REACTORS
330
2A
102
}
330
2A
100
AcDbVisualStyle
  2
Shaded with edges
 70
    26
177
     3
291
     0
 70
    58
 90
        2
176
     1
 90
        2
176
     1
 90
        1
176
     1
 90
        2
176
     1
 40
0.6
176
     1
 40
30.0
176
     1
 62
     7
420
 16777215
176
     1
 90
        1
176
     1
 90
       10
176
     1
 62
     7
176
     1
 62
   257
176
     1
 90
        2
176
     1
 90
        1
176
     1
 40
1.0
176
     1
 90
        8
176
     1
 62
   257
176
     1
 40
1.0
176
     1
 90
        1
176
     1
 90
        6
176
     1
 90
        2
176
     1
 62
     7
176
     1
 90
        3
176
     1
 90
        0
176
     1
 90
        0
176
     1
290
     0
176
     1
 90
        5
176
     1
 40
0.0
176
     1
 90
        0
176
     1
290
     0
176
     1
290
     1
176
     1
290
     1
176
     1
290
     0
176
     1
290
     0
176
     1
290
     0
176
     1
290
     0
176
     1
290
     0
176
     1
290
     0
176
     1
 90
       50
176
     1
 40
0.0
176
     1
 40
1.0
176
     1
 90
        0
176
     1
 62
    18
420
        0
176
     1
 90
       50
176
     1
 90
        3
176
     1
 62
     5
420
      255
176
     1
290
     0
176
     1
 90
       50
176
     1
 90
       50
176
     1
 90
       50
176
     1
290
     0
176
     1
 90
       50
176
     1
 62
   256
176
     0
 40
1.0
176
     0
 90
        2
176
     1
  1
strokes_ogs.tif
176
     1
290
     0
176
     1
 40
1.0
176
     1
 40
1.0
176
     1
  0
VISUALSTYLE
  5
3E
102
{ACAD_REACTORS
330
2A
102
}
330
2A
100
AcDbVisualStyle
  2
Shades of Gray
 70
    23
177
     3
291
     0
 70
    58
 90
        2
176
     1
 90
        2
176
     1
 90
        3
176
     1
 90
        0
176
     1
 40
0.6
176
     1
 40
30.0
176
     1
 62
     7
420
 16777215
176
     1
 90
        2
176
     1
 90
        2
176
     1
 62
     7
176
     1
 62
     7
176
     1
 90
        1
176
     1
 90
        1
176
     1
 40
40.0
176
     1
 90
        8
176
     1
 62
     7
176
     1
 40
1.0
176
     1
 90
        1
176
     1
 90
        6
176
     1
 90
        2
176
     1
 62
     7
176
     1
 90
        3
176
     1
 90
        0
176
     1
 90
        0
176
     1
290
     0
176
     1
 90
        1
176
     1
 40
0.0
176
     1
 90
        0
176
     1
290
     0
176
     1
290
     1
176
     1
290
     1
176
     1
290
     0
176
     1
290
     0
176
     1
290
     0
176
     1
290
     0
176
     1
290
     0
176
     1
290
     0
176
     1
 90
       50
176
     1
 40
0.0
176
     1
 40
1.0
176
     1
 90
        0
176
     1
 62
    18
420
        0
176
     1
 90
       50
176
     1
 90
        3
176
     1
 62
     5
420
      255
176
     1
290
     0
176
     1
 90
       50
176
     1
 90
       50
176
     1
 90
       50
176
     1
290
     0
176
     1
 90
       50
176
     1
 62
   256
176
     0
 40
1.0
176
     0
 90
        2
176
     1
  1
strokes_ogs.tif
176
     1
290
     0
176
     1
 40
1.0
176
     1
 40
1.0
176
     1
  0
VISUALSTYLE
  5
3F
102
{ACAD_REACTORS
330
2A
102
}
330
2A
100
AcDbVisualStyle
  2
Sketchy
 70
    24
177
     3
291
     0
 70
    58
 90
        1
176
     1
 90
        2
176
     1
 90
        2
176
     1
 90
        0
176
     1
 40
0.6
176
     1
 40
30.0
176
     1
 62
     7
420
 16777215
176
     1
 90
        2
176
     1
 90
        2
176
     1
 62
     7
176
     1
 62
     7
176
     1
 90
        1
176
     1
 90
        1
176
     1
 40
40.0
176
     1
 90
       11
176
     1
 62
     7
176
     1
 40
1.0
176
     1
 90
        1
176
     1
 90
        6
176
     1
 90
        2
176
     1
 62
     7
176
     1
 90
        6
176
     1
 90
        0
176
     1
 90
        0
176
     1
290
     0
176
     1
 90
        1
176
     1
 40
0.0
176
     1
 90
        0
176
     1
290
     0
176
     1
290
     1
176
     1
290
     1
176
     1
290
     0
176
     1
290
     0
176
     1
290
     0
176
     1
290
     0
176
     1
290
     0
176
     1
290
     0
176
     1
 90
       50
176
     1
 40
0.0
176
     1
 40
1.0
176
     1
 90
        0
176
     1
 62
    18
420
        0
176
     1
 90
       50
176
     1
 90
        3
176
     1
 62
     5
420
      255
176
     1
290
     0
176
     1
 90
       50
176
     1
 90
       50
176
     1
 90
       50
176
     1
290
     0
176
     1
 90
       50
176
     1
 62
   256
176
     0
 40
1.0
176
     0
 90
        2
176
     1
  1
strokes_ogs.tif
176
     1
290
     0
176
     1
 40
1.0
176
     1
 40
1.0
176
     1
  0
VISUALSTYLE
  5
37
102
{ACAD_REACTORS
330
2A
102
}
330
2A
100
AcDbVisualStyle
  2
Thicken
 70
    13
177
     3
291
     1
 70
    58
 90
        2
176
     1
 90
        2
176
     1
 90
        0
176
     1
 90
        0
176
     1
 40
0.6
176
     1
 40
30.0
176
     1
 62
     7
420
 16777215
176
     1
 90
        1
176
     1
 90
        4
176
     1
 62
     7
176
     1
 62
   257
176
     1
 90
        1
176
     1
 90
        1
176
     1
 40
1.0
176
     1
 90
       12
176
     1
 62
     7
176
     1
 40
1.0
176
     1
 90
        1
176
     1
 90
        6
176
     1
 90
        2
176
     1
 62
     7
176
     1
 90
        5
176
     1
 90
        0
176
     1
 90
        0
176
     1
290
     0
176
     1
 90
        1
176
     1
 40
0.0
176
     1
 90
        0
176
     1
290
     0
176
     1
290
     1
176
     1
290
     1
176
     1
290
     0
176
     1
290
     0
176
     1
290
     0
176
     1
290
     0
176
     1
290
     0
176
     1
290
     0
176
     1
 90
       50
176
     1
 40
0.0
176
     1
 40
1.0
176
     1
 90
        0
176
     1
 62
    18
420
        0
176
     1
 90
       50
176
     1
 90
        3
176
     1
 62
     5
420
      255
176
     1
290
     0
176
     1
 90
       50
176
     1
 90
       50
176
     1
 90
       50
176
     1
290
     0
176
     1
 90
       50
176
     1
 62
   256
176
     0
 40
1.0
176
     0
 90
        2
176
     1
  1
strokes_ogs.tif
176
     1
290
     0
176
     1
 40
1.0
176
     1
 40
1.0
176
     1
  0
VISUALSTYLE
  5
30
102
{ACAD_REACTORS
330
2A
102
}
330
2A
100
AcDbVisualStyle
  2
Wireframe
 70
     5
177
     3
291
     0
 70
    58
 90
        0
176
     1
 90
        2
176
     1
 90
        0
176
     1
 90
        0
176
     1
 40
0.6
176
     1
 40
30.0
176
     1
 62
     7
420
 16777215
176
     1
 90
        1
176
     1
 90
        4
176
     1
 62
     7
176
     1
 62
   257
176
     1
 90
        1
176
     1
 90
        1
176
     1
 40
1.0
176
     1
 90
        0
176
     1
 62
   257
176
     1
 40
1.0
176
     1
 90
        1
176
     1
 90
        6
176
     1
 90
        2
176
     1
 62
     7
176
     1
 90
        3
176
     1
 90
        0
176
     1
 90
        0
176
     1
290
     0
176
     1
 90
        1
176
     1
 40
0.0
176
     1
 90
        0
176
     1
290
     0
176
     1
290
     1
176
     1
290
     1
176
     1
290
     0
176
     1
290
     0
176
     1
290
     0
176
     1
290
     0
176
     1
290
     0
176
     1
290
     0
176
     1
 90
       50
176
     1
 40
0.0
176
     1
 40
1.0
176
     1
 90
        0
176
     1
 62
    18
420
        0
176
     1
 90
       50
176
     1
 90
        3
176
     1
 62
     5
420
      255
176
     1
290
     0
176
     1
 90
       50
176
     1
 90
       50
176
     1
 90
       50
176
     1
290
     0
176
     1
 90
       50
176
     1
 62
   256
176
     0
 40
1.0
176
     0
 90
        2
176
     1
  1
strokes_ogs.tif
176
     1
290
     0
176
     1
 40
1.0
176
     1
 40
1.0
176
     1
  0
VISUALSTYLE
  5
40
102
{ACAD_REACTORS
330
2A
102
}
330
2A
100
AcDbVisualStyle
  2
X-Ray
 70
    25
177
     3
291
     0
 70
    58
 90
        2
176
     1
 90
        2
176
     1
 90
        1
176
     1
 90
        1
176
     1
 40
0.5
176
     1
 40
30.0
176
     1
 62
     7
420
 16777215
176
     1
 90
        1
176
     1
 90
        0
176
     1
 62
     7
176
     1
 62
   257
176
     1
 90
        1
176
     1
 90
        1
176
     1
 40
1.0
176
     1
 90
        8
176
     1
 62
     7
176
     1
 40
1.0
176
     1
 90
        1
176
     1
 90
        6
176
     1
 90
        2
176
     1
 62
     7
176
     1
 90
        3
176
     1
 90
        0
176
     1
 90
        0
176
     1
290
     0
176
     1
 90
       13
176
     1
 40
0.0
176
     1
 90
        0
176
     1
290
     0
176
     1
290
     1
176
     1
290
     1
176
     1
290
     0
176
     1
290
     0
176
     1
290
     0
176
     1
290
     0
176
     1
290
     0
176
     1
290
     0
176
     1
 90
       50
176
     1
 40
0.0
176
     1
 40
1.0
176
     1
 90
        0
176
     1
 62
    18
420
        0
176
     1
 90
       50
176
     1
 90
        3
176
     1
 62
     5
420
      255
176
     1
290
     0
176
     1
 90
       50
176
     1
 90
       50
176
     1
 90
       50
176
     1
290
     0
176
     1
 90
       50
176
     1
 62
   256
176
     0
 40
1.0
176
     0
 90
        2
176
     1
  1
strokes_ogs.tif
176
     1
290
     0
176
     1
 40
1.0
176
     1
 40
1.0
176
     1
  0
DICTIONARYVAR
  5
263
102
{ACAD_REACTORS
330
262
102
}
330
262
100
DictionaryVariables
280
     0
  1
1:1
  0
DICTIONARYVAR
  5
268
102
{ACAD_REACTORS
330
262
102
}
330
262
100
DictionaryVariables
280
     0
  1
Standard
  0
DICTIONARYVAR
  5
267
102
{ACAD_REACTORS
330
262
102
}
330
262
100
DictionaryVariables
280
     0
  1
Standard
  0
DICTIONARY
  5
264
330
6A
100
AcDbDictionary
280
     1
281
     1
  3
ACAD_ROUNDTRIP_2008_TABLESTYLE_CELLSTYLEMAP
360
265
  0
CELLSTYLEMAP
  5
265
102
{ACAD_REACTORS
330
264
102
}
330
264
100
AcDbCellStyleMap
 90
        3
300
CELLSTYLE
  1
TABLEFORMAT_BEGIN
 90
        5
170
     1
 91
        0
 92
    32768
 62
   257
 93
        1
300
CONTENTFORMAT
  1
CONTENTFORMAT_BEGIN
 90
        0
 91
        0
 92
        4
 93
        0
300

 40
0.0
140
1.0
 94
        5
 62
     0
340
11
144
0.25
309
CONTENTFORMAT_END
171
     1
301
MARGIN
  1
CELLMARGIN_BEGIN
 40
0.06
 40
0.06
 40
0.06
 40
0.06
 40
0.06
 40
0.06
309
CELLMARGIN_END
 94
        6
 95
        1
302
GRIDFORMAT
  1
GRIDFORMAT_BEGIN
 90
        0
 91
        1
 62
     0
 92
       -2
340
14
 93
        0
 40
0.045
309
GRIDFORMAT_END
 95
        2
302
GRIDFORMAT
  1
GRIDFORMAT_BEGIN
 90
        0
 91
        1
 62
     0
 92
       -2
340
14
 93
        0
 40
0.045
309
GRIDFORMAT_END
 95
        4
302
GRIDFORMAT
  1
GRIDFORMAT_BEGIN
 90
        0
 91
        1
 62
     0
 92
       -2
340
14
 93
        0
 40
0.045
309
GRIDFORMAT_END
 95
        8
302
GRIDFORMAT
  1
GRIDFORMAT_BEGIN
 90
        0
 91
        1
 62
     0
 92
       -2
340
14
 93
        0
 40
0.045
309
GRIDFORMAT_END
 95
       16
302
GRIDFORMAT
  1
GRIDFORMAT_BEGIN
 90
        0
 91
        1
 62
     0
 92
       -2
340
14
 93
        0
 40
0.045
309
GRIDFORMAT_END
 95
       32
302
GRIDFORMAT
  1
GRIDFORMAT_BEGIN
 90
        0
 91
        1
 62
     0
 92
       -2
340
14
 93
        0
 40
0.045
309
GRIDFORMAT_END
309
TABLEFORMAT_END
  1
CELLSTYLE_BEGIN
 90
        1
 91
        1
300
_TITLE
309
CELLSTYLE_END
300
CELLSTYLE
  1
TABLEFORMAT_BEGIN
 90
        5
170
     1
 91
        0
 92
        0
 62
   257
 93
        1
300
CONTENTFORMAT
  1
CONTENTFORMAT_BEGIN
 90
        0
 91
        0
 92
        4
 93
        0
300

 40
0.0
140
1.0
 94
        5
 62
     0
340
11
144
0.18
309
CONTENTFORMAT_END
171
     1
301
MARGIN
  1
CELLMARGIN_BEGIN
 40
0.06
 40
0.06
 40
0.06
 40
0.06
 40
0.06
 40
0.06
309
CELLMARGIN_END
 94
        6
 95
        1
302
GRIDFORMAT
  1
GRIDFORMAT_BEGIN
 90
        0
 91
        1
 62
     0
 92
       -2
340
14
 93
        0
 40
0.045
309
GRIDFORMAT_END
 95
        2
302
GRIDFORMAT
  1
GRIDFORMAT_BEGIN
 90
        0
 91
        1
 62
     0
 92
       -2
340
14
 93
        0
 40
0.045
309
GRIDFORMAT_END
 95
        4
302
GRIDFORMAT
  1
GRIDFORMAT_BEGIN
 90
        0
 91
        1
 62
     0
 92
       -2
340
14
 93
        0
 40
0.045
309
GRIDFORMAT_END
 95
        8
302
GRIDFORMAT
  1
GRIDFORMAT_BEGIN
 90
        0
 91
        1
 62
     0
 92
       -2
340
14
 93
        0
 40
0.045
309
GRIDFORMAT_END
 95
       16
302
GRIDFORMAT
  1
GRIDFORMAT_BEGIN
 90
        0
 91
        1
 62
     0
 92
       -2
340
14
 93
        0
 40
0.045
309
GRIDFORMAT_END
 95
       32
302
GRIDFORMAT
  1
GRIDFORMAT_BEGIN
 90
        0
 91
        1
 62
     0
 92
       -2
340
14
 93
        0
 40
0.045
309
GRIDFORMAT_END
309
TABLEFORMAT_END
  1
CELLSTYLE_BEGIN
 90
        2
 91
        1
300
_HEADER
309
CELLSTYLE_END
300
CELLSTYLE
  1
TABLEFORMAT_BEGIN
 90
        5
170
     1
 91
        0
 92
        0
 62
   257
 93
        1
300
CONTENTFORMAT
  1
CONTENTFORMAT_BEGIN
 90
        0
 91
        0
 92
        4
 93
        0
300

 40
0.0
140
1.0
 94
        2
 62
     0
340
11
144
0.18
309
CONTENTFORMAT_END
171
     1
301
MARGIN
  1
CELLMARGIN_BEGIN
 40
0.06
 40
0.06
 40
0.06
 40
0.06
 40
0.06
 40
0.06
309
CELLMARGIN_END
 94
        6
 95
        1
302
GRIDFORMAT
  1
GRIDFORMAT_BEGIN
 90
        0
 91
        1
 62
     0
 92
       -2
340
14
 93
        0
 40
0.045
309
GRIDFORMAT_END
 95
        2
302
GRIDFORMAT
  1
GRIDFORMAT_BEGIN
 90
        0
 91
        1
 62
     0
 92
       -2
340
14
 93
        0
 40
0.045
309
GRIDFORMAT_END
 95
        4
302
GRIDFORMAT
  1
GRIDFORMAT_BEGIN
 90
        0
 91
        1
 62
     0
 92
       -2
340
14
 93
        0
 40
0.045
309
GRIDFORMAT_END
 95
        8
302
GRIDFORMAT
  1
GRIDFORMAT_BEGIN
 90
        0
 91
        1
 62
     0
 92
       -2
340
14
 93
        0
 40
0.045
309
GRIDFORMAT_END
 95
       16
302
GRIDFORMAT
  1
GRIDFORMAT_BEGIN
 90
        0
 91
        1
 62
     0
 92
       -2
340
14
 93
        0
 40
0.045
309
GRIDFORMAT_END
 95
       32
302
GRIDFORMAT
  1
GRIDFORMAT_BEGIN
 90
        0
 91
        1
 62
     0
 92
       -2
340
14
 93
        0
 40
0.045
309
GRIDFORMAT_END
309
TABLEFORMAT_END
  1
CELLSTYLE_BEGIN
 90
        3
 91
        2
300
_DATA
309
CELLSTYLE_END
  0
ENDSEC
  0
EOF