0
SECTION
  2
HEADER
  9
$ACADVER
  1
AC1027
  9
$ACADMAINTVER
 70
     8
  9
$DWGCODEPAGE
  3
ANSI_1252
  9
$REQUIREDVERSIONS
160
                 0
  9
$COMMENTS
  1
File was created by Cadenas
  9
$CUSTOMPROPERTYTAG
  1
NN
  9
$CUSTOMPROPERTY
  1
Grip Tight Low Backing Height Two-Bolt Pillow Block Inch Bore
  9
$CUSTOMPROPERTYTAG
  1
NT
  9
$CUSTOMPROPERTY
  1
GTB Normal Duty Pillow Blocks
  9
$CUSTOMPROPERTYTAG
  1
NB
  9
$CUSTOMPROPERTY
  1
129196
  9
$CUSTOMPROPERTYTAG
  1
NBSYN
  9
$CUSTOMPROPERTY
  1
$PN.$LUBE.
  9
$CUSTOMPROPERTYTAG
  1
LINA
  9
$CUSTOMPROPERTY
  1
129196
  9
$CUSTOMPROPERTYTAG
  1
SERIES
  9
$CUSTOMPROPERTY
  1
209
  9
$CUSTOMPROPERTYTAG
  1
SS
  9
$CUSTOMPROPERTY
  1
1-3/4
  9
$CUSTOMPROPERTYTAG
  1
PN
  9
$CUSTOMPROPERTY
  1
129196
  9
$CUSTOMPROPERTYTAG
  1
DESCRIPTION
  9
$CUSTOMPROPERTY
  1
P2B-GTB-112
  9
$CUSTOMPROPERTYTAG
  1
A
  9
$CUSTOMPROPERTY
  1
1-27/32
  9
$CUSTOMPROPERTYTAG
  1
B
  9
$CUSTOMPROPERTY
  1
7-7/16
  9
$CUSTOMPROPERTYTAG
  1
C
  9
$CUSTOMPROPERTY
  1
2
  9
$CUSTOMPROPERTYTAG
  1
DMIN
  9
$CUSTOMPROPERTY
  1
5-1/2
  9
$CUSTOMPROPERTYTAG
  1
DMAX
  9
$CUSTOMPROPERTY
  1
6-3/16
  9
$CUSTOMPROPERTYTAG
  1
F
  9
$CUSTOMPROPERTY
  1
1/2
  9
$CUSTOMPROPERTYTAG
  1
G
  9
$CUSTOMPROPERTY
  1
29/32
  9
$CUSTOMPROPERTYTAG
  1
H
  9
$CUSTOMPROPERTY
  1
11/16
  9
$CUSTOMPROPERTYTAG
  1
J
  9
$CUSTOMPROPERTY
  1
4-7/32
  9
$CUSTOMPROPERTYTAG
  1
L
  9
$CUSTOMPROPERTY
  1
2-43/64
  9
$CUSTOMPROPERTYTAG
  1
M
  9
$CUSTOMPROPERTY
  1
2-1/16
  9
$CUSTOMPROPERTYTAG
  1
R
  9
$CUSTOMPROPERTY
  1
21/32
  9
$CUSTOMPROPERTYTAG
  1
S
  9
$CUSTOMPROPERTY
  1
1-3/16
  9
$CUSTOMPROPERTYTAG
  1
U
  9
$CUSTOMPROPERTY
  1
3-3/8
  9
$CUSTOMPROPERTYTAG
  1
V
  9
$CUSTOMPROPERTY
  1
6-3/4
  9
$CUSTOMPROPERTYTAG
  1
W
  9
$CUSTOMPROPERTY
  1
11/16
  9
$CUSTOMPROPERTYTAG
  1
X
  9
$CUSTOMPROPERTY
  1
3/16
  9
$CUSTOMPROPERTYTAG
  1
Z
  9
$CUSTOMPROPERTY
  1
1-5/32
  9
$CUSTOMPROPERTYTAG
  1
COMPANY
  9
$CUSTOMPROPERTY
  1
baldor
  9
$INSBASE
 10
0.0
 20
0.0
 30
0.0
  9
$EXTMIN
 10
1.000000000000000E+20
 20
1.000000000000000E+20
 30
1.000000000000000E+20
  9
$EXTMAX
 10
-1.000000000000000E+20
 20
-1.000000000000000E+20
 30
-1.000000000000000E+20
  9
$LIMMIN
 10
0.0
 20
0.0
  9
$LIMMAX
 10
12.0
 20
9.0
  9
$ORTHOMODE
 70
     0
  9
$REGENMODE
 70
     1
  9
$FILLMODE
 70
     1
  9
$QTEXTMODE
 70
     0
  9
$MIRRTEXT
 70
     1
  9
$LTSCALE
 40
1.0
  9
$ATTMODE
 70
     1
  9
$TEXTSIZE
 40
0.2
  9
$TRACEWID
 40
0.05
  9
$TEXTSTYLE
  7
Standard
  9
$CLAYER
  8
0
  9
$CELTYPE
  6
ByLayer
  9
$CECOLOR
 62
   256
  9
$CELTSCALE
 40
1.0
  9
$DISPSILH
 70
     0
  9
$DIMSCALE
 40
1.0
  9
$DIMASZ
 40
0.18
  9
$DIMEXO
 40
0.0625
  9
$DIMDLI
 40
0.38
  9
$DIMRND
 40
0.0
  9
$DIMDLE
 40
0.0
  9
$DIMEXE
 40
0.18
  9
$DIMTP
 40
0.0
  9
$DIMTM
 40
0.0
  9
$DIMTXT
 40
0.18
  9
$DIMCEN
 40
0.09
  9
$DIMTSZ
 40
0.0
  9
$DIMTOL
 70
     0
  9
$DIMLIM
 70
     0
  9
$DIMTIH
 70
     1
  9
$DIMTOH
 70
     1
  9
$DIMSE1
 70
     0
  9
$DIMSE2
 70
     0
  9
$DIMTAD
 70
     0
  9
$DIMZIN
 70
     0
  9
$DIMBLK
  1

  9
$DIMASO
 70
     1
  9
$DIMSHO
 70
     1
  9
$DIMPOST
  1

  9
$DIMAPOST
  1

  9
$DIMALT
 70
     0
  9
$DIMALTD
 70
     2
  9
$DIMALTF
 40
25.4
  9
$DIMLFAC
 40
1.0
  9
$DIMTOFL
 70
     0
  9
$DIMTVP
 40
0.0
  9
$DIMTIX
 70
     0
  9
$DIMSOXD
 70
     0
  9
$DIMSAH
 70
     0
  9
$DIMBLK1
  1

  9
$DIMBLK2
  1

  9
$DIMSTYLE
  2
Standard
  9
$DIMCLRD
 70
     0
  9
$DIMCLRE
 70
     0
  9
$DIMCLRT
 70
     0
  9
$DIMTFAC
 40
1.0
  9
$DIMGAP
 40
0.09
  9
$DIMJUST
 70
     0
  9
$DIMSD1
 70
     0
  9
$DIMSD2
 70
     0
  9
$DIMTOLJ
 70
     1
  9
$DIMTZIN
 70
     0
  9
$DIMALTZ
 70
     0
  9
$DIMALTTZ
 70
     0
  9
$DIMUPT
 70
     0
  9
$DIMDEC
 70
     4
  9
$DIMTDEC
 70
     4
  9
$DIMALTU
 70
     2
  9
$DIMALTTD
 70
     2
  9
$DIMTXSTY
  7
Standard
  9
$DIMAUNIT
 70
     0
  9
$DIMADEC
 70
     0
  9
$DIMALTRND
 40
0.0
  9
$DIMAZIN
 70
     0
  9
$DIMDSEP
 70
    46
  9
$DIMATFIT
 70
     3
  9
$DIMFRAC
 70
     0
  9
$DIMLDRBLK
  1

  9
$DIMLUNIT
 70
     2
  9
$DIMLWD
 70
    -2
  9
$DIMLWE
 70
    -2
  9
$DIMTMOVE
 70
     0
  9
$DIMFXL
 40
1.0
  9
$DIMFXLON
 70
     0
  9
$DIMJOGANG
 40
0.7853981633974483
  9
$DIMTFILL
 70
     0
  9
$DIMTFILLCLR
 70
     0
  9
$DIMARCSYM
 70
     0
  9
$DIMLTYPE
  6

  9
$DIMLTEX1
  6

  9
$DIMLTEX2
  6

  9
$DIMTXTDIRECTION
 70
     0
  9
$LUNITS
 70
     2
  9
$LUPREC
 70
     4
  9
$SKETCHINC
 40
0.1
  9
$FILLETRAD
 40
0.5
  9
$AUNITS
 70
     0
  9
$AUPREC
 70
     0
  9
$MENU
  1
.
  9
$ELEVATION
 40
0.0
  9
$PELEVATION
 40
0.0
  9
$THICKNESS
 40
0.0
  9
$LIMCHECK
 70
     0
  9
$CHAMFERA
 40
0.0
  9
$CHAMFERB
 40
0.0
  9
$CHAMFERC
 40
0.0
  9
$CHAMFERD
 40
0.0
  9
$SKPOLY
 70
     0
  9
$TDCREATE
 40
2458168.994531644
  9
$TDUCREATE
 40
2458168.952864977
  9
$TDUPDATE
 40
2458168.994531817
  9
$TDUUPDATE
 40
2458168.95286515
  9
$TDINDWG
 40
0.0000000116
  9
$TDUSRTIMER
 40
0.0000000116
  9
$USRTIMER
 70
     1
  9
$ANGBASE
 50
0.0
  9
$ANGDIR
 70
     0
  9
$PDMODE
 70
     0
  9
$PDSIZE
 40
0.0
  9
$PLINEWID
 40
0.0
  9
$SPLFRAME
 70
     0
  9
$SPLINETYPE
 70
     6
  9
$SPLINESEGS
 70
     8
  9
$HANDSEED
  5
27F
  9
$SURFTAB1
 70
     6
  9
$SURFTAB2
 70
     6
  9
$SURFTYPE
 70
     6
  9
$SURFU
 70
     6
  9
$SURFV
 70
     6
  9
$UCSBASE
  2

  9
$UCSNAME
  2

  9
$UCSORG
 10
0.0
 20
0.0
 30
0.0
  9
$UCSXDIR
 10
1.0
 20
0.0
 30
0.0
  9
$UCSYDIR
 10
0.0
 20
1.0
 30
0.0
  9
$UCSORTHOREF
  2

  9
$UCSORTHOVIEW
 70
     0
  9
$UCSORGTOP
 10
0.0
 20
0.0
 30
0.0
  9
$UCSORGBOTTOM
 10
0.0
 20
0.0
 30
0.0
  9
$UCSORGLEFT
 10
0.0
 20
0.0
 30
0.0
  9
$UCSORGRIGHT
 10
0.0
 20
0.0
 30
0.0
  9
$UCSORGFRONT
 10
0.0
 20
0.0
 30
0.0
  9
$UCSORGBACK
 10
0.0
 20
0.0
 30
0.0
  9
$PUCSBASE
  2

  9
$PUCSNAME
  2

  9
$PUCSORG
 10
0.0
 20
0.0
 30
0.0
  9
$PUCSXDIR
 10
1.0
 20
0.0
 30
0.0
  9
$PUCSYDIR
 10
0.0
 20
1.0
 30
0.0
  9
$PUCSORTHOREF
  2

  9
$PUCSORTHOVIEW
 70
     0
  9
$PUCSORGTOP
 10
0.0
 20
0.0
 30
0.0
  9
$PUCSORGBOTTOM
 10
0.0
 20
0.0
 30
0.0
  9
$PUCSORGLEFT
 10
0.0
 20
0.0
 30
0.0
  9
$PUCSORGRIGHT
 10
0.0
 20
0.0
 30
0.0
  9
$PUCSORGFRONT
 10
0.0
 20
0.0
 30
0.0
  9
$PUCSORGBACK
 10
0.0
 20
0.0
 30
0.0
  9
$USERI1
 70
     0
  9
$USERI2
 70
     0
  9
$USERI3
 70
     0
  9
$USERI4
 70
     0
  9
$USERI5
 70
     0
  9
$USERR1
 40
0.0
  9
$USERR2
 40
0.0
  9
$USERR3
 40
0.0
  9
$USERR4
 40
0.0
  9
$USERR5
 40
0.0
  9
$WORLDVIEW
 70
     1
  9
$SHADEDGE
 70
     3
  9
$SHADEDIF
 70
    70
  9
$TILEMODE
 70
     1
  9
$MAXACTVP
 70
    64
  9
$PINSBASE
 10
0.0
 20
0.0
 30
0.0
  9
$PLIMCHECK
 70
     0
  9
$PEXTMIN
 10
1.000000000000000E+20
 20
1.000000000000000E+20
 30
1.000000000000000E+20
  9
$PEXTMAX
 10
-1.000000000000000E+20
 20
-1.000000000000000E+20
 30
-1.000000000000000E+20
  9
$PLIMMIN
 10
0.0
 20
0.0
  9
$PLIMMAX
 10
12.0
 20
9.0
  9
$UNITMODE
 70
     0
  9
$VISRETAIN
 70
     1
  9
$PLINEGEN
 70
     0
  9
$PSLTSCALE
 70
     1
  9
$TREEDEPTH
 70
  3020
  9
$CMLSTYLE
  2
Standard
  9
$CMLJUST
 70
     0
  9
$CMLSCALE
 40
1.0
  9
$PROXYGRAPHICS
 70
     1
  9
$MEASUREMENT
 70
     0
  9
$CELWEIGHT
370
    -1
  9
$ENDCAPS
280
     0
  9
$JOINSTYLE
280
     0
  9
$LWDISPLAY
290
     0
  9
$INSUNITS
 70
     1
  9
$HYPERLINKBASE
  1

  9
$STYLESHEET
  1

  9
$XEDIT
290
     1
  9
$CEPSNTYPE
380
     0
  9
$PSTYLEMODE
290
     1
  9
$FINGERPRINTGUID
  2
{C69404DB-AEB3-4966-BB2B-E7A969DE3A34}
  9
$VERSIONGUID
  2
{FAEB1C32-E019-11D5-929B-00C0DF256EC4}
  9
$EXTNAMES
290
     1
  9
$PSVPSCALE
 40
0.0
  9
$OLESTARTUP
290
     0
  9
$SORTENTS
280
   127
  9
$INDEXCTL
280
     0
  9
$HIDETEXT
280
     1
  9
$XCLIPFRAME
280
     2
  9
$HALOGAP
280
     0
  9
$OBSCOLOR
 70
   257
  9
$OBSLTYPE
280
     0
  9
$INTERSECTIONDISPLAY
280
     0
  9
$INTERSECTIONCOLOR
 70
   257
  9
$DIMASSOC
280
     2
  9
$PROJECTNAME
  1

  9
$CAMERADISPLAY
290
     0
  9
$LENSLENGTH
 40
50.0
  9
$CAMERAHEIGHT
 40
0.0
  9
$STEPSPERSEC
 40
2.0
  9
$STEPSIZE
 40
6.0
  9
$3DDWFPREC
 40
2.0
  9
$PSOLWIDTH
 40
0.25
  9
$PSOLHEIGHT
 40
4.0
  9
$LOFTANG1
 40
1.570796326794897
  9
$LOFTANG2
 40
1.570796326794897
  9
$LOFTMAG1
 40
0.0
  9
$LOFTMAG2
 40
0.0
  9
$LOFTPARAM
 70
     7
  9
$LOFTNORMALS
280
     1
  9
$LATITUDE
 40
37.795
  9
$LONGITUDE
 40
-122.394
  9
$NORTHDIRECTION
 40
0.0
  9
$TIMEZONE
 70
 -8000
  9
$LIGHTGLYPHDISPLAY
280
     1
  9
$TILEMODELIGHTSYNCH
280
     1
  9
$CMATERIAL
347
44
  9
$SOLIDHIST
280
     0
  9
$SHOWHIST
280
     1
  9
$DWFFRAME
280
     2
  9
$DGNFRAME
280
     2
  9
$REALWORLDSCALE
290
     1
  9
$INTERFERECOLOR
 62
   256
  9
$CSHADOW
280
     0
  9
$SHADOWPLANELOCATION
 40
0.0
  0
ENDSEC
  0
SECTION
  2
CLASSES
  0
CLASS
  1
ACDBDICTIONARYWDFLT
  2
AcDbDictionaryWithDefault
  3
ObjectDBX Classes
 90
        0
 91
        4
280
     0
281
     0
  0
CLASS
  1
VISUALSTYLE
  2
AcDbVisualStyle
  3
ObjectDBX Classes
 90
     4095
 91
        4
280
     0
281
     0
  0
CLASS
  1
MATERIAL
  2
AcDbMaterial
  3
ObjectDBX Classes
 90
     1153
 91
        4
280
     0
281
     0
  0
CLASS
  1
SCALE
  2
AcDbScale
  3
ObjectDBX Classes
 90
     1153
 91
        4
280
     0
281
     0
  0
CLASS
  1
TABLESTYLE
  2
AcDbTableStyle
  3
ObjectDBX Classes
 90
     4095
 91
        4
280
     0
281
     0
  0
CLASS
  1
MLEADERSTYLE
  2
AcDbMLeaderStyle
  3
ACDB_MLEADERSTYLE_CLASS
 90
     4095
 91
        4
280
     0
281
     0
  0
CLASS
  1
SUN
  2
AcDbSun
  3
SCENEOE
 90
     1153
 91
        4
280
     0
281
     0
  0
CLASS
  1
DICTIONARYVAR
  2
AcDbDictionaryVar
  3
ObjectDBX Classes
 90
        0
 91
        4
280
     0
281
     0
  0
CLASS
  1
CELLSTYLEMAP
  2
AcDbCellStyleMap
  3
ObjectDBX Classes
 90
     1152
 91
        4
280
     0
281
     0
  0
ENDSEC
  0
SECTION
  2
TABLES
  0
TABLE
  2
VPORT
  5
8
330
0
100
AcDbSymbolTable
 70
     1
  0
VPORT
  5
29
330
8
100
AcDbSymbolTableRecord
100
AcDbViewportTableRecord
  2
*Active
 70
     0
 10
0.0
 20
0.0
 11
1.0
 21
1.0
 12
0.0
 22
-0.08984375
 13
0.0
 23
0.0
 14
0.5
 24
0.5
 15
0.5
 25
0.5
 16
0.0
 26
0.0
 36
1.0
 17
0.0
 27
0.0
 37
0.0
 40
2.427281249999999
 41
3.125410374261327
 42
50.0
 43
0.0
 44
0.0
 50
0.0
 51
0.0
 71
     0
 72
   100
 73
     1
 74
     3
 75
     0
 76
     0
 77
     0
 78
     0
281
     0
 65
     1
110
0.0
120
0.0
130
0.0
111
1.0
121
0.0
131
0.0
112
0.0
122
1.0
132
0.0
 79
     0
146
0.0
348
2F
 60
     3
 61
     5
292
     1
282
     1
141
0.0
142
0.0
 63
   250
361
6D
  0
ENDTAB
  0
TABLE
  2
LTYPE
  5
5
330
0
100
AcDbSymbolTable
 70
     3
  0
LTYPE
  5
14
330
5
100
AcDbSymbolTableRecord
100
AcDbLinetypeTableRecord
  2
ByBlock
 70
     0
  3

 72
    65
 73
     0
 40
0.0
  0
LTYPE
  5
15
330
5
100
AcDbSymbolTableRecord
100
AcDbLinetypeTableRecord
  2
ByLayer
 70
     0
  3

 72
    65
 73
     0
 40
0.0
  0
LTYPE
  5
16
330
5
100
AcDbSymbolTableRecord
100
AcDbLinetypeTableRecord
  2
Continuous
 70
     0
  3
Solid line
 72
    65
 73
     0
 40
0.0
  0
LTYPE
  5
A5
330
5
100
AcDbSymbolTableRecord
100
AcDbLinetypeTableRecord
  2
Dashed
 70
     0
  3

 72
    65
 73
     2
 40
2.0
 49
1.0
 74
     0
 49
-1.0
 74
     0
  0
LTYPE
  5
11B
330
5
100
AcDbSymbolTableRecord
100
AcDbLinetypeTableRecord
  2
Center
 70
     0
  3

 72
    65
 73
     4
 40
1.5
 49
0.45
 74
     0
 49
-0.5
 74
     0
 49
0.05
 74
     0
 49
-0.5
 74
     0
  0
ENDTAB
  0
TABLE
  2
LAYER
  5
2
330
0
100
AcDbSymbolTable
 70
     7
  0
LAYER
  5
10
330
2
100
AcDbSymbolTableRecord
100
AcDbLayerTableRecord
  2
0
 70
     0
 62
     7
  6
Continuous
370
    -3
390
F
347
46
348
0
  0
LAYER
  5
72
330
2
100
AcDbSymbolTableRecord
100
AcDbLayerTableRecord
  2
AM_6
 70
     0
 62
    -2
  6
Continuous
370
    35
390
F
347
46
348
0
  0
LAYER
  5
A6
330
2
100
AcDbSymbolTableRecord
100
AcDbLayerTableRecord
  2
AM_9
 70
     0
 62
     6
  6
Dashed
370
    25
390
F
347
46
348
0
  0
LAYER
  5
D6
330
2
100
AcDbSymbolTableRecord
100
AcDbLayerTableRecord
  2
AM_4
 70
     0
 62
     7
  6
Continuous
370
    50
390
F
347
46
348
0
  0
LAYER
  5
118
330
2
100
AcDbSymbolTableRecord
100
AcDbLayerTableRecord
  2
AM_5
 70
     0
 62
     3
  6
Continuous
370
    25
390
F
347
46
348
0
  0
LAYER
  5
11C
330
2
100
AcDbSymbolTableRecord
100
AcDbLayerTableRecord
  2
AM_7
 70
     0
 62
     7
  6
Center
370
    25
390
F
347
46
348
0
  0
LAYER
  5
271
330
2
100
AcDbSymbolTableRecord
100
AcDbLayerTableRecord
  2
ConnectionPoints
 70
     0
 62
     7
  6
Continuous
370
    50
390
F
347
46
348
0
  0
ENDTAB
  0
TABLE
  2
STYLE
  5
3
330
0
100
AcDbSymbolTable
 70
     1
  0
STYLE
  5
11
330
3
100
AcDbSymbolTableRecord
100
AcDbTextStyleTableRecord
  2
Standard
 70
     0
 40
0.0
 41
1.0
 50
0.0
 71
     0
 42
0.2
  3
txt
  4

  0
ENDTAB
  0
TABLE
  2
VIEW
  5
6
330
0
100
AcDbSymbolTable
 70
     0
  0
ENDTAB
  0
TABLE
  2
UCS
  5
7
330
0
100
AcDbSymbolTable
 70
     0
  0
ENDTAB
  0
TABLE
  2
APPID
  5
9
330
0
100
AcDbSymbolTable
 70
     1
  0
APPID
  5
12
330
9
100
AcDbSymbolTableRecord
100
AcDbRegAppTableRecord
  2
ACAD
 70
     0
  0
ENDTAB
  0
TABLE
  2
DIMSTYLE
  5
A
330
0
100
AcDbSymbolTable
 70
     1
100
AcDbDimStyleTable
  0
DIMSTYLE
105
27
330
A
100
AcDbSymbolTableRecord
100
AcDbDimStyleTableRecord
  2
Standard
 70
     0
178
     0
340
11
  0
ENDTAB
  0
TABLE
  2
BLOCK_RECORD
  5
1
330
0
100
AcDbSymbolTable
 70
     5
  0
BLOCK_RECORD
  5
1F
330
1
100
AcDbSymbolTableRecord
100
AcDbBlockTableRecord
  2
*Model_Space
340
22
 70
     0
280
     1
281
     0
  0
BLOCK_RECORD
  5
1B
330
1
100
AcDbSymbolTableRecord
100
AcDbBlockTableRecord
  2
*Paper_Space
340
1E
 70
     0
280
     1
281
     0
  0
BLOCK_RECORD
  5
23
330
1
100
AcDbSymbolTableRecord
100
AcDbBlockTableRecord
  2
*Paper_Space0
340
26
 70
     0
280
     1
281
     0
  0
BLOCK_RECORD
  5
6E
330
1
100
AcDbSymbolTableRecord
100
AcDbBlockTableRecord
  2
1_129196_4
340
0
102
{BLKREFS
331
6F
102
}
 70
     0
280
     1
281
     0
  0
BLOCK_RECORD
  5
8F
330
1
100
AcDbSymbolTableRecord
100
AcDbBlockTableRecord
  2
2_129522I_0_in_129196_4
340
0
102
{BLKREFS
331
90
102
}
 70
     0
280
     1
281
     0
  0
BLOCK_RECORD
  5
D9
330
1
100
AcDbSymbolTableRecord
100
AcDbBlockTableRecord
  2
3_129917_0_in_129196_4
340
0
102
{BLKREFS
331
DA
102
}
 70
     0
280
     1
281
     0
  0
BLOCK_RECORD
  5
132
330
1
100
AcDbSymbolTableRecord
100
AcDbBlockTableRecord
  2
4_129438I_0_in_129196_4
340
0
102
{BLKREFS
331
133
102
}
 70
     0
280
     1
281
     0
  0
ENDTAB
  0
ENDSEC
  0
SECTION
  2
BLOCKS
  0
BLOCK
  5
20
330
1F
100
AcDbEntity
  8
0
100
AcDbBlockBegin
  2
*Model_Space
 70
     0
 10
0.0
 20
0.0
 30
0.0
  3
*Model_Space
  1

  0
ENDBLK
  5
21
330
1F
100
AcDbEntity
  8
0
100
AcDbBlockEnd
  0
BLOCK
  5
1C
330
1B
100
AcDbEntity
 67
     1
  8
0
100
AcDbBlockBegin
  2
*Paper_Space
 70
     0
 10
0.0
 20
0.0
 30
0.0
  3
*Paper_Space
  1

  0
ENDBLK
  5
1D
330
1B
100
AcDbEntity
 67
     1
  8
0
100
AcDbBlockEnd
  0
BLOCK
  5
24
330
23
100
AcDbEntity
  8
0
100
AcDbBlockBegin
  2
*Paper_Space0
 70
     0
 10
0.0
 20
0.0
 30
0.0
  3
*Paper_Space0
  1

  0
ENDBLK
  5
25
330
23
100
AcDbEntity
  8
0
100
AcDbBlockEnd
  0
BLOCK
  5
70
330
6E
100
AcDbEntity
  8
0
100
AcDbBlockBegin
  2
1_129196_4
 70
     2
 10
0.0
 20
0.0
 30
0.0
  3
1_129196_4
  1

  0
ATTDEF
  5
73
330
6E
100
AcDbEntity
  8
AM_6
100
AcDbText
 10
8.71875
 20
1.1
 30
0.0
 40
0.5
  1
Grip Tight Low Backing Height Two-Bolt Pillow Block Inch Bore
100
AcDbAttributeDefinition
  3

  2
NN
 70
     8
280
     0
  0
ATTDEF
  5
74
330
6E
100
AcDbEntity
  8
AM_6
100
AcDbText
 10
8.71875
 20
0.6000000000000001
 30
0.0
 40
0.5
  1
GTB Normal Duty Pillow Blocks
100
AcDbAttributeDefinition
  3

  2
NT
 70
     8
280
     0
  0
ATTDEF
  5
75
330
6E
100
AcDbEntity
  8
AM_6
100
AcDbText
 10
8.71875
 20
0.1000000000000001
 30
0.0
 40
0.5
  1
129196
100
AcDbAttributeDefinition
  3

  2
NB
 70
     8
280
     0
  0
ATTDEF
  5
76
330
6E
100
AcDbEntity
  8
AM_6
100
AcDbText
 10
8.71875
 20
-0.3999999999999999
 30
0.0
 40
0.5
  1
$PN.$LUBE.
100
AcDbAttributeDefinition
  3

  2
NBSYN
 70
     8
280
     0
  0
ATTDEF
  5
77
330
6E
100
AcDbEntity
  8
AM_6
100
AcDbText
 10
8.71875
 20
-0.8999999999999999
 30
0.0
 40
0.5
  1
129196
100
AcDbAttributeDefinition
  3

  2
LINA
 70
     8
280
     0
  0
ATTDEF
  5
78
330
6E
100
AcDbEntity
  8
AM_6
100
AcDbText
 10
8.71875
 20
-1.4
 30
0.0
 40
0.5
  1
209
100
AcDbAttributeDefinition
  3

  2
SERIES
 70
     8
280
     0
  0
ATTDEF
  5
79
330
6E
100
AcDbEntity
  8
AM_6
100
AcDbText
 10
8.71875
 20
-1.9
 30
0.0
 40
0.5
  1
1-3/4
100
AcDbAttributeDefinition
  3

  2
SS
 70
     8
280
     0
  0
ATTDEF
  5
7A
330
6E
100
AcDbEntity
  8
AM_6
100
AcDbText
 10
8.71875
 20
-2.4
 30
0.0
 40
0.5
  1
129196
100
AcDbAttributeDefinition
  3

  2
PN
 70
     8
280
     0
  0
ATTDEF
  5
7B
330
6E
100
AcDbEntity
  8
AM_6
100
AcDbText
 10
8.71875
 20
-2.9
 30
0.0
 40
0.5
  1
P2B-GTB-112
100
AcDbAttributeDefinition
  3

  2
DESCRIPTION
 70
     8
280
     0
  0
ATTDEF
  5
7C
330
6E
100
AcDbEntity
  8
AM_6
100
AcDbText
 10
8.71875
 20
-3.4
 30
0.0
 40
0.5
  1
1-27/32
100
AcDbAttributeDefinition
  3

  2
A
 70
     8
280
     0
  0
ATTDEF
  5
7D
330
6E
100
AcDbEntity
  8
AM_6
100
AcDbText
 10
8.71875
 20
-3.9
 30
0.0
 40
0.5
  1
7-7/16
100
AcDbAttributeDefinition
  3

  2
B
 70
     8
280
     0
  0
ATTDEF
  5
7E
330
6E
100
AcDbEntity
  8
AM_6
100
AcDbText
 10
8.71875
 20
-4.4
 30
0.0
 40
0.5
  1
2
100
AcDbAttributeDefinition
  3

  2
C
 70
     8
280
     0
  0
ATTDEF
  5
7F
330
6E
100
AcDbEntity
  8
AM_6
100
AcDbText
 10
8.71875
 20
-4.9
 30
0.0
 40
0.5
  1
5-1/2
100
AcDbAttributeDefinition
  3

  2
DMIN
 70
     8
280
     0
  0
ATTDEF
  5
80
330
6E
100
AcDbEntity
  8
AM_6
100
AcDbText
 10
8.71875
 20
-5.4
 30
0.0
 40
0.5
  1
6-3/16
100
AcDbAttributeDefinition
  3

  2
DMAX
 70
     8
280
     0
  0
ATTDEF
  5
81
330
6E
100
AcDbEntity
  8
AM_6
100
AcDbText
 10
8.71875
 20
-5.9
 30
0.0
 40
0.5
  1
1/2
100
AcDbAttributeDefinition
  3

  2
F
 70
     8
280
     0
  0
ATTDEF
  5
82
330
6E
100
AcDbEntity
  8
AM_6
100
AcDbText
 10
8.71875
 20
-6.4
 30
0.0
 40
0.5
  1
29/32
100
AcDbAttributeDefinition
  3

  2
G
 70
     8
280
     0
  0
ATTDEF
  5
83
330
6E
100
AcDbEntity
  8
AM_6
100
AcDbText
 10
8.71875
 20
-6.9
 30
0.0
 40
0.5
  1
11/16
100
AcDbAttributeDefinition
  3

  2
H
 70
     8
280
     0
  0
ATTDEF
  5
84
330
6E
100
AcDbEntity
  8
AM_6
100
AcDbText
 10
8.71875
 20
-7.4
 30
0.0
 40
0.5
  1
4-7/32
100
AcDbAttributeDefinition
  3

  2
J
 70
     8
280
     0
  0
ATTDEF
  5
85
330
6E
100
AcDbEntity
  8
AM_6
100
AcDbText
 10
8.71875
 20
-7.9
 30
0.0
 40
0.5
  1
2-43/64
100
AcDbAttributeDefinition
  3

  2
L
 70
     8
280
     0
  0
ATTDEF
  5
86
330
6E
100
AcDbEntity
  8
AM_6
100
AcDbText
 10
8.71875
 20
-8.4
 30
0.0
 40
0.5
  1
2-1/16
100
AcDbAttributeDefinition
  3

  2
M
 70
     8
280
     0
  0
ATTDEF
  5
87
330
6E
100
AcDbEntity
  8
AM_6
100
AcDbText
 10
8.71875
 20
-8.9
 30
0.0
 40
0.5
  1
21/32
100
AcDbAttributeDefinition
  3

  2
R
 70
     8
280
     0
  0
ATTDEF
  5
88
330
6E
100
AcDbEntity
  8
AM_6
100
AcDbText
 10
8.71875
 20
-9.4
 30
0.0
 40
0.5
  1
1-3/16
100
AcDbAttributeDefinition
  3

  2
S
 70
     8
280
     0
  0
ATTDEF
  5
89
330
6E
100
AcDbEntity
  8
AM_6
100
AcDbText
 10
8.71875
 20
-9.9
 30
0.0
 40
0.5
  1
3-3/8
100
AcDbAttributeDefinition
  3

  2
U
 70
     8
280
     0
  0
ATTDEF
  5
8A
330
6E
100
AcDbEntity
  8
AM_6
100
AcDbText
 10
8.71875
 20
-10.4
 30
0.0
 40
0.5
  1
6-3/4
100
AcDbAttributeDefinition
  3

  2
V
 70
     8
280
     0
  0
ATTDEF
  5
8B
330
6E
100
AcDbEntity
  8
AM_6
100
AcDbText
 10
8.71875
 20
-10.9
 30
0.0
 40
0.5
  1
11/16
100
AcDbAttributeDefinition
  3

  2
W
 70
     8
280
     0
  0
ATTDEF
  5
8C
330
6E
100
AcDbEntity
  8
AM_6
100
AcDbText
 10
8.71875
 20
-11.4
 30
0.0
 40
0.5
  1
3/16
100
AcDbAttributeDefinition
  3

  2
X
 70
     8
280
     0
  0
ATTDEF
  5
8D
330
6E
100
AcDbEntity
  8
AM_6
100
AcDbText
 10
8.71875
 20
-11.9
 30
0.0
 40
0.5
  1
1-5/32
100
AcDbAttributeDefinition
  3

  2
Z
 70
     8
280
     0
  0
ATTDEF
  5
8E
330
6E
100
AcDbEntity
  8
AM_6
100
AcDbText
 10
8.71875
 20
-12.4
 30
0.0
 40
0.5
  1
baldor
100
AcDbAttributeDefinition
  3

  2
COMPANY
 70
     8
280
     0
  0
INSERT
  5
90
330
6E
100
AcDbEntity
  8
0
100
AcDbBlockReference
  2
2_129522I_0_in_129196_4
 10
0.0
 20
0.0
 30
0.0
  0
INSERT
  5
DA
330
6E
100
AcDbEntity
  8
0
100
AcDbBlockReference
  2
3_129917_0_in_129196_4
 10
0.0
 20
0.0
 30
0.0
  0
INSERT
  5
133
330
6E
100
AcDbEntity
  8
0
100
AcDbBlockReference
  2
4_129438I_0_in_129196_4
 10
0.0
 20
0.0
 30
0.0
  0
ENDBLK
  5
71
330
6E
100
AcDbEntity
  8
0
100
AcDbBlockEnd
  0
BLOCK
  5
91
330
8F
100
AcDbEntity
  8
0
100
AcDbBlockBegin
  2
2_129522I_0_in_129196_4
 70
     2
 10
0.0
 20
0.0
 30
0.0
  3
2_129522I_0_in_129196_4
  1

  0
ATTDEF
  5
93
330
8F
100
AcDbEntity
  8
AM_6
100
AcDbText
 10
6.673112852363566
 20
0.5579999999999999
 30
0.0
 40
0.5
  1
INS-GT B
100
AcDbAttributeDefinition
  3

  2
NN
 70
     8
280
     0
  0
ATTDEF
  5
94
330
8F
100
AcDbEntity
  8
AM_6
100
AcDbText
 10
6.673112852363566
 20
0.0579999999999999
 30
0.0
 40
0.5
  1
GT Normal Duty Bearing Inserts
100
AcDbAttributeDefinition
  3

  2
NT
 70
     8
280
     0
  0
ATTDEF
  5
95
330
8F
100
AcDbEntity
  8
AM_6
100
AcDbText
 10
6.673112852363566
 20
-0.4420000000000001
 30
0.0
 40
0.5
  1
129522I
100
AcDbAttributeDefinition
  3

  2
NB
 70
     8
280
     0
  0
ATTDEF
  5
96
330
8F
100
AcDbEntity
  8
AM_6
100
AcDbText
 10
6.673112852363566
 20
-0.9420000000000001
 30
0.0
 40
0.5
  1
$PN.I
100
AcDbAttributeDefinition
  3

  2
NBSYN
 70
     8
280
     0
  0
ATTDEF
  5
97
330
8F
100
AcDbEntity
  8
AM_6
100
AcDbText
 10
6.673112852363566
 20
-1.442
 30
0.0
 40
0.5
  1
129522
100
AcDbAttributeDefinition
  3

  2
LINA
 70
     8
280
     0
  0
ATTDEF
  5
98
330
8F
100
AcDbEntity
  8
AM_6
100
AcDbText
 10
6.673112852363566
 20
-1.942
 30
0.0
 40
0.5
  1
209
100
AcDbAttributeDefinition
  3

  2
SERIES
 70
     8
280
     0
  0
ATTDEF
  5
99
330
8F
100
AcDbEntity
  8
AM_6
100
AcDbText
 10
6.673112852363566
 20
-2.442
 30
0.0
 40
0.5
  1
129522
100
AcDbAttributeDefinition
  3

  2
PN
 70
     8
280
     0
  0
ATTDEF
  5
9A
330
8F
100
AcDbEntity
  8
AM_6
100
AcDbText
 10
6.673112852363566
 20
-2.942
 30
0.0
 40
0.5
  1
INS-GT-09
100
AcDbAttributeDefinition
  3

  2
DESCRIPTION
 70
     8
280
     0
  0
ATTDEF
  5
9B
330
8F
100
AcDbEntity
  8
AM_6
100
AcDbText
 10
6.673112852363566
 20
-3.442
 30
0.0
 40
0.5
  1
1.85
100
AcDbAttributeDefinition
  3

  2
A
 70
     8
280
     0
  0
ATTDEF
  5
9C
330
8F
100
AcDbEntity
  8
AM_6
100
AcDbText
 10
6.673112852363566
 20
-3.942
 30
0.0
 40
0.5
  1
0.87
100
AcDbAttributeDefinition
  3

  2
C
 70
     8
280
     0
  0
ATTDEF
  5
9D
330
8F
100
AcDbEntity
  8
AM_6
100
AcDbText
 10
6.673112852363566
 20
-4.442
 30
0.0
 40
0.5
  1
3.3465
100
AcDbAttributeDefinition
  3

  2
D
 70
     8
280
     0
  0
ATTDEF
  5
9E
330
8F
100
AcDbEntity
  8
AM_6
100
AcDbText
 10
6.673112852363566
 20
-4.942
 30
0.0
 40
0.5
  1
0.25
100
AcDbAttributeDefinition
  3

  2
J
 70
     8
280
     0
  0
ATTDEF
  5
9F
330
8F
100
AcDbEntity
  8
AM_6
100
AcDbText
 10
6.673112852363566
 20
-5.442
 30
0.0
 40
0.5
  1
2.86
100
AcDbAttributeDefinition
  3

  2
L
 70
     8
280
     0
  0
ATTDEF
  5
A0
330
8F
100
AcDbEntity
  8
AM_6
100
AcDbText
 10
6.673112852363566
 20
-5.942
 30
0.0
 40
0.5
  1
#10 - 32 x 1/4
100
AcDbAttributeDefinition
  3

  2
N
 70
     8
280
     0
  0
ATTDEF
  5
A1
330
8F
100
AcDbEntity
  8
AM_6
100
AcDbText
 10
6.673112852363566
 20
-6.442
 30
0.0
 40
0.5
  1
0.62000
100
AcDbAttributeDefinition
  3

  2
W
 70
     8
280
     0
  0
ATTDEF
  5
A2
330
8F
100
AcDbEntity
  8
AM_6
100
AcDbText
 10
6.673112852363566
 20
-6.942
 30
0.0
 40
0.5
  1
1.26
100
AcDbAttributeDefinition
  3

  2
X
 70
     8
280
     0
  0
ATTDEF
  5
A3
330
8F
100
AcDbEntity
  8
AM_6
100
AcDbText
 10
6.673112852363566
 20
-7.442
 30
0.0
 40
0.5
  1
1.23
100
AcDbAttributeDefinition
  3

  2
Y
 70
     8
280
     0
  0
ATTDEF
  5
A4
330
8F
100
AcDbEntity
  8
AM_6
100
AcDbText
 10
6.673112852363566
 20
-7.942
 30
0.0
 40
0.5
  1
baldor
100
AcDbAttributeDefinition
  3

  2
COMPANY
 70
     8
280
     0
  0
LINE
  5
A7
330
8F
100
AcDbEntity
  8
AM_9
100
AcDbLine
 10
1.066825315111111
 20
-0.9449991998984
 30
0.0
 11
1.066825315111111
 21
-0.4724991998984002
 31
0.0
  0
LINE
  5
A8
330
8F
100
AcDbEntity
  8
AM_9
100
AcDbLine
 10
-1.066825315111111
 20
-0.4724991998984002
 30
0.0
 11
-1.066825315111111
 21
-0.9449991998984
 31
0.0
  0
LINE
  5
A9
330
8F
100
AcDbEntity
  8
AM_9
100
AcDbLine
 10
-1.066825315111111
 20
-0.4724991998984002
 30
0.0
 11
1.066825315111111
 21
-0.4724991998984002
 31
0.0
  0
LINE
  5
AA
330
8F
100
AcDbEntity
  8
AM_9
100
AcDbLine
 10
1.066825315111111
 20
-0.4724991998984002
 30
0.0
 11
1.102811140132194
 21
0.5579999999999999
 31
0.0
  0
LINE
  5
AB
330
8F
100
AcDbEntity
  8
AM_9
100
AcDbLine
 10
-1.102811140132194
 20
0.5579999999999999
 30
0.0
 11
-1.066825315111111
 21
-0.4724991998984002
 31
0.0
  0
LINE
  5
AC
330
8F
100
AcDbEntity
  8
AM_9
100
AcDbLine
 10
1.168968213111111
 20
-0.7874991998984
 30
0.0
 11
1.168968213111111
 21
-0.6299991998983999
 31
0.0
  0
LINE
  5
AD
330
8F
100
AcDbEntity
  8
AM_9
100
AcDbLine
 10
-1.168968213111111
 20
-0.6299991998983999
 30
0.0
 11
-1.168968213111111
 21
-0.7874991998984
 31
0.0
  0
LINE
  5
AE
330
8F
100
AcDbEntity
  8
AM_9
100
AcDbLine
 10
1.271111111111111
 20
0.435
 30
0.0
 11
1.271111111111111
 21
0.5231999999999999
 31
0.0
  0
LINE
  5
AF
330
8F
100
AcDbEntity
  8
AM_9
100
AcDbLine
 10
-1.271111111111111
 20
0.5231999999999999
 30
0.0
 11
-1.271111111111111
 21
0.435
 31
0.0
  0
LINE
  5
B0
330
8F
100
AcDbEntity
  8
AM_9
100
AcDbLine
 10
-0.5576979955899622
 20
-0.7874991998983999
 30
0.0
 11
1.271111111111111
 21
-0.7874991998984
 31
0.0
  0
LINE
  5
B1
330
8F
100
AcDbEntity
  8
AM_9
100
AcDbLine
 10
1.271111111111111
 20
-0.9101991998983998
 30
0.0
 11
1.271111111111111
 21
-0.7874991998984
 31
0.0
  0
LINE
  5
B2
330
8F
100
AcDbEntity
  8
AM_9
100
AcDbLine
 10
-1.271111111111111
 20
-0.7874991998984
 30
0.0
 11
-1.271111111111111
 21
-0.9101991998983998
 31
0.0
  0
LINE
  5
B3
330
8F
100
AcDbEntity
  8
AM_9
100
AcDbLine
 10
-1.271111111111111
 20
-0.7874991998984
 30
0.0
 11
-0.7399113505529603
 21
-0.7874991998984
 31
0.0
  0
LINE
  5
B4
330
8F
100
AcDbEntity
  8
AM_9
100
AcDbLine
 10
-0.5576979955899629
 20
-0.9101991998983997
 30
0.0
 11
1.271111111111111
 21
-0.9101991998983998
 31
0.0
  0
LINE
  5
B5
330
8F
100
AcDbEntity
  8
AM_9
100
AcDbLine
 10
1.236311111111111
 20
-0.9449991998984
 30
0.0
 11
1.271111111111111
 21
-0.9101991998983998
 31
0.0
  0
LINE
  5
B6
330
8F
100
AcDbEntity
  8
AM_9
100
AcDbLine
 10
-1.271111111111111
 20
-0.9101991998983998
 30
0.0
 11
-1.236311111111111
 21
-0.9449991998984
 31
0.0
  0
LINE
  5
B7
330
8F
100
AcDbEntity
  8
AM_9
100
AcDbLine
 10
-1.236311111111111
 20
-0.9449991998984
 30
0.0
 11
1.236311111111111
 21
-0.9449991998984
 31
0.0
  0
LINE
  5
B8
330
8F
100
AcDbEntity
  8
AM_9
100
AcDbLine
 10
-1.271111111111111
 20
-0.9101991998983998
 30
0.0
 11
-0.7399113505529603
 21
-0.9101991998983998
 31
0.0
  0
LINE
  5
B9
330
8F
100
AcDbEntity
  8
AM_9
100
AcDbLine
 10
-1.271111111111111
 20
0.5231999999999999
 30
0.0
 11
1.271111111111111
 21
0.5231999999999999
 31
0.0
  0
LINE
  5
BA
330
8F
100
AcDbEntity
  8
AM_9
100
AcDbLine
 10
-1.236311111111111
 20
0.5579999999999999
 30
0.0
 11
1.236311111111111
 21
0.5579999999999999
 31
0.0
  0
LINE
  5
BB
330
8F
100
AcDbEntity
  8
AM_9
100
AcDbLine
 10
-1.236311111111111
 20
0.5579999999999999
 30
0.0
 11
-1.271111111111111
 21
0.5231999999999999
 31
0.0
  0
LINE
  5
BC
330
8F
100
AcDbEntity
  8
AM_9
100
AcDbLine
 10
1.271111111111111
 20
0.5231999999999999
 30
0.0
 11
1.236311111111111
 21
0.5579999999999999
 31
0.0
  0
LINE
  5
BD
330
8F
100
AcDbEntity
  8
AM_9
100
AcDbLine
 10
1.271111111111111
 20
-0.6299991998984001
 30
0.0
 11
1.271111111111111
 21
-0.4350000000000001
 31
0.0
  0
LINE
  5
BE
330
8F
100
AcDbEntity
  8
AM_9
100
AcDbLine
 10
-1.271111111111111
 20
-0.4350000000000001
 30
0.0
 11
-1.271111111111111
 21
-0.6299991998984001
 31
0.0
  0
LINE
  5
BF
330
8F
100
AcDbEntity
  8
AM_9
100
AcDbLine
 10
-1.271111111111111
 20
-0.6299991998984001
 30
0.0
 11
1.271111111111111
 21
-0.6299991998984001
 31
0.0
  0
LINE
  5
C0
330
8F
100
AcDbEntity
  8
AM_9
100
AcDbLine
 10
1.58625
 20
-0.3
 30
0.0
 11
1.58625
 21
-0.2
 31
0.0
  0
LINE
  5
C1
330
8F
100
AcDbEntity
  8
AM_9
100
AcDbLine
 10
-1.58625
 20
-0.2
 30
0.0
 11
-1.58625
 21
-0.3
 31
0.0
  0
LINE
  5
C2
330
8F
100
AcDbEntity
  8
AM_9
100
AcDbLine
 10
-1.562786330102177
 20
-0.4350000000000001
 30
0.0
 11
1.562786330102177
 21
-0.4350000000000001
 31
0.0
  0
ARC
  5
C3
330
8F
100
AcDbEntity
  8
AM_9
100
AcDbCircle
 10
1.562786329583616
 20
-0.4002000000000007
 30
0.0
 40
0.0347999999999993
100
AcDbArc
 50
270.0
 51
338.5875329531167
  0
ARC
  5
C4
330
8F
100
AcDbEntity
  8
AM_9
100
AcDbCircle
 10
-1.562786329583616
 20
-0.4002000000000003
 30
0.0
 40
0.0347999999999997
100
AcDbArc
 50
201.4124670468839
 51
270.0
  0
LINE
  5
C5
330
8F
100
AcDbEntity
  8
AM_9
100
AcDbLine
 10
-1.562786329583617
 20
0.435
 30
0.0
 11
1.562786329583617
 21
0.435
 31
0.0
  0
ARC
  5
C6
330
8F
100
AcDbEntity
  8
AM_9
100
AcDbCircle
 10
1.562786329583616
 20
0.4002000000000004
 30
0.0
 40
0.0347999999999994
100
AcDbArc
 50
21.41246168013124
 51
90.0
  0
ARC
  5
C7
330
8F
100
AcDbEntity
  8
AM_9
100
AcDbCircle
 10
-1.562786329583616
 20
0.4002000000000004
 30
0.0
 40
0.0347999999999996
100
AcDbArc
 50
90.0
 51
158.5875383198688
  0
LINE
  5
C8
330
8F
100
AcDbEntity
  8
AM_9
100
AcDbLine
 10
-1.595184308300556
 20
-0.4129047619047621
 30
0.0
 11
1.595184308300556
 21
-0.4129047619047621
 31
0.0
  0
ARC
  5
C9
330
8F
100
AcDbEntity
  8
AM_9
100
AcDbCircle
 10
0.5422499999992649
 20
0.0000000000002506
 30
0.0
 40
1.131000000000776
100
AcDbArc
 50
338.5875329531177
 51
344.0344016750354
  0
ARC
  5
CA
330
8F
100
AcDbEntity
  8
AM_9
100
AcDbCircle
 10
-0.5422499999993791
 20
0.0000000000002121
 30
0.0
 40
1.131000000000655
100
AcDbArc
 50
195.9655983249643
 51
201.4124670468826
  0
LINE
  5
CB
330
8F
100
AcDbEntity
  8
AM_9
100
AcDbLine
 10
-1.629623961347176
 20
-0.3110930217541848
 30
0.0
 11
1.629623961347176
 21
-0.3110930217541848
 31
0.0
  0
LINE
  5
CC
330
8F
100
AcDbEntity
  8
AM_9
100
AcDbLine
 10
-1.621259545833585
 20
-0.3
 30
0.0
 11
1.621259545833585
 21
-0.3
 31
0.0
  0
ARC
  5
CD
330
8F
100
AcDbEntity
  8
AM_9
100
AcDbCircle
 10
1.621259545833585
 20
-0.3087000000000004
 30
0.0
 40
0.0087000000000004
100
AcDbArc
 50
344.0344118819932
 51
90.0
  0
ARC
  5
CE
330
8F
100
AcDbEntity
  8
AM_9
100
AcDbCircle
 10
-1.621259545833585
 20
-0.3087000000000004
 30
0.0
 40
0.0087000000000004
100
AcDbArc
 50
90.0
 51
195.9655881180067
  0
LINE
  5
CF
330
8F
100
AcDbEntity
  8
AM_9
100
AcDbLine
 10
-1.648125942409455
 20
-0.2
 30
0.0
 11
1.648125942409455
 21
-0.2
 31
0.0
  0
ARC
  5
D0
330
8F
100
AcDbEntity
  8
AM_9
100
AcDbCircle
 10
1.648125942409455
 20
-0.1913000000000004
 30
0.0
 40
0.0086999999999996
100
AcDbArc
 50
270.0
 51
350.185810542431
  0
ARC
  5
D1
330
8F
100
AcDbEntity
  8
AM_9
100
AcDbCircle
 10
-1.648125942409455
 20
-0.1913000000000004
 30
0.0
 40
0.0086999999999997
100
AcDbArc
 50
189.814189457569
 51
270.0
  0
LINE
  5
D2
330
8F
100
AcDbEntity
  8
AM_9
100
AcDbLine
 10
-1.656698624133559
 20
-0.1927829457364342
 30
0.0
 11
1.656698624133559
 21
-0.1927829457364342
 31
0.0
  0
LINE
  5
D3
330
8F
100
AcDbEntity
  8
AM_9
100
AcDbLine
 10
-1.595184309490579
 20
0.4129047588701241
 30
0.0
 11
1.595184309490579
 21
0.4129047588701241
 31
0.0
  0
ARC
  5
D4
330
8F
100
AcDbEntity
  8
AM_9
100
AcDbCircle
 10
0.5422500000000057
 20
-0.0000000000000009
 30
0.0
 40
1.130999999999994
100
AcDbArc
 50
350.1858105424294
 51
21.41246688175336
  0
ARC
  5
D5
330
8F
100
AcDbEntity
  8
AM_9
100
AcDbCircle
 10
-0.5422500000000079
 20
-0.0000000000000007
 30
0.0
 40
1.130999999999992
100
AcDbArc
 50
158.5875331182466
 51
189.8141894575707
  0
LINE
  5
D7
330
8F
100
AcDbEntity
  8
AM_4
100
AcDbLine
 10
-0.7399113505529603
 20
-0.7874991998984
 30
0.0
 11
-0.5576979955899622
 21
-0.7874991998983999
 31
0.0
  0
LINE
  5
D8
330
8F
100
AcDbEntity
  8
AM_4
100
AcDbLine
 10
-0.7399113505529603
 20
-0.9101991998983998
 30
0.0
 11
-0.5576979955899629
 21
-0.9101991998983997
 31
0.0
  0
ENDBLK
  5
92
330
8F
100
AcDbEntity
  8
0
100
AcDbBlockEnd
  0
BLOCK
  5
DB
330
D9
100
AcDbEntity
  8
0
100
AcDbBlockBegin
  2
3_129917_0_in_129196_4
 70
     2
 10
0.0
 20
0.0
 30
0.0
  3
3_129917_0_in_129196_4
  1

  0
ATTDEF
  5
DD
330
D9
100
AcDbEntity
  8
AM_6
100
AcDbText
 10
6.330170291318465
 20
0.65625
 30
0.0
 40
0.5
  1
Grip Tight Normal Duty Adapter and Nut Inch Bore
100
AcDbAttributeDefinition
  3

  2
NN
 70
     8
280
     0
  0
ATTDEF
  5
DE
330
D9
100
AcDbEntity
  8
AM_6
100
AcDbText
 10
6.330170291318465
 20
0.15625
 30
0.0
 40
0.5
  1
GT and GTM Adapter & Lock Nut Assemblies
100
AcDbAttributeDefinition
  3

  2
NT
 70
     8
280
     0
  0
ATTDEF
  5
DF
330
D9
100
AcDbEntity
  8
AM_6
100
AcDbText
 10
6.330170291318465
 20
-0.34375
 30
0.0
 40
0.5
  1
129917
100
AcDbAttributeDefinition
  3

  2
NB
 70
     8
280
     0
  0
ATTDEF
  5
E0
330
D9
100
AcDbEntity
  8
AM_6
100
AcDbText
 10
6.330170291318465
 20
-0.84375
 30
0.0
 40
0.5
  1
$PN.
100
AcDbAttributeDefinition
  3

  2
NBSYN
 70
     8
280
     0
  0
ATTDEF
  5
E1
330
D9
100
AcDbEntity
  8
AM_6
100
AcDbText
 10
6.330170291318465
 20
-1.34375
 30
0.0
 40
0.5
  1
129917
100
AcDbAttributeDefinition
  3

  2
LINA
 70
     8
280
     0
  0
ATTDEF
  5
E2
330
D9
100
AcDbEntity
  8
AM_6
100
AcDbText
 10
6.330170291318465
 20
-1.84375
 30
0.0
 40
0.5
  1
209
100
AcDbAttributeDefinition
  3

  2
SERIES
 70
     8
280
     0
  0
ATTDEF
  5
E3
330
D9
100
AcDbEntity
  8
AM_6
100
AcDbText
 10
6.330170291318465
 20
-2.34375
 30
0.0
 40
0.5
  1
1-3/4
100
AcDbAttributeDefinition
  3

  2
SS
 70
     8
280
     0
  0
ATTDEF
  5
E4
330
D9
100
AcDbEntity
  8
AM_6
100
AcDbText
 10
6.330170291318465
 20
-2.84375
 30
0.0
 40
0.5
  1
129917
100
AcDbAttributeDefinition
  3

  2
PN
 70
     8
280
     0
  0
ATTDEF
  5
E5
330
D9
100
AcDbEntity
  8
AM_6
100
AcDbText
 10
6.330170291318465
 20
-3.34375
 30
0.0
 40
0.5
  1
AN-GT-09-112
100
AcDbAttributeDefinition
  3

  2
DESCRIPTION
 70
     8
280
     0
  0
ATTDEF
  5
E6
330
D9
100
AcDbEntity
  8
AM_6
100
AcDbText
 10
6.330170291318465
 20
-3.84375
 30
0.0
 40
0.5
  1
1-27/32
100
AcDbAttributeDefinition
  3

  2
A
 70
     8
280
     0
  0
ATTDEF
  5
E7
330
D9
100
AcDbEntity
  8
AM_6
100
AcDbText
 10
6.330170291318465
 20
-4.34375
 30
0.0
 40
0.5
  1
0.8661
100
AcDbAttributeDefinition
  3

  2
C
 70
     8
280
     0
  0
ATTDEF
  5
E8
330
D9
100
AcDbEntity
  8
AM_6
100
AcDbText
 10
6.330170291318465
 20
-4.84375
 30
0.0
 40
0.5
  1
3.3465
100
AcDbAttributeDefinition
  3

  2
D
 70
     8
280
     0
  0
ATTDEF
  5
E9
330
D9
100
AcDbEntity
  8
AM_6
100
AcDbText
 10
6.330170291318465
 20
-5.34375
 30
0.0
 40
0.5
  1
0.248
100
AcDbAttributeDefinition
  3

  2
J
 70
     8
280
     0
  0
ATTDEF
  5
EA
330
D9
100
AcDbEntity
  8
AM_6
100
AcDbText
 10
6.330170291318465
 20
-5.84375
 30
0.0
 40
0.5
  1
2-43/64
100
AcDbAttributeDefinition
  3

  2
L
 70
     8
280
     0
  0
ATTDEF
  5
EB
330
D9
100
AcDbEntity
  8
AM_6
100
AcDbText
 10
6.330170291318465
 20
-6.34375
 30
0.0
 40
0.5
  1
10 - 32 x 1/4
100
AcDbAttributeDefinition
  3

  2
N
 70
     8
280
     0
  0
ATTDEF
  5
EC
330
D9
100
AcDbEntity
  8
AM_6
100
AcDbText
 10
6.330170291318465
 20
-6.84375
 30
0.0
 40
0.5
  1
21/32
100
AcDbAttributeDefinition
  3

  2
W
 70
     8
280
     0
  0
ATTDEF
  5
ED
330
D9
100
AcDbEntity
  8
AM_6
100
AcDbText
 10
6.330170291318465
 20
-7.34375
 30
0.0
 40
0.5
  1
1-5/32
100
AcDbAttributeDefinition
  3

  2
X
 70
     8
280
     0
  0
ATTDEF
  5
EE
330
D9
100
AcDbEntity
  8
AM_6
100
AcDbText
 10
6.330170291318465
 20
-7.84375
 30
0.0
 40
0.5
  1
1-3/16
100
AcDbAttributeDefinition
  3

  2
Y
 70
     8
280
     0
  0
ATTDEF
  5
EF
330
D9
100
AcDbEntity
  8
AM_6
100
AcDbText
 10
6.330170291318465
 20
-8.34375
 30
0.0
 40
0.5
  1
baldor
100
AcDbAttributeDefinition
  3

  2
COMPANY
 70
     8
280
     0
  0
LINE
  5
F0
330
D9
100
AcDbEntity
  8
AM_9
100
AcDbLine
 10
-1.3133875
 20
-1.112262683324867
 30
0.0
 11
-1.024503125
 21
-1.112262683324867
 31
0.0
  0
LINE
  5
F1
330
D9
100
AcDbEntity
  8
AM_9
100
AcDbLine
 10
-1.024503125
 20
-0.9673626833248669
 30
0.0
 11
-1.3133875
 21
-0.9673626833248669
 31
0.0
  0
LINE
  5
F2
330
D9
100
AcDbEntity
  8
AM_9
100
AcDbLine
 10
-1.024503125
 20
-1.112262683324867
 30
0.0
 11
-1.001953125
 21
-1.134812683324867
 31
0.0
  0
LINE
  5
F3
330
D9
100
AcDbEntity
  8
AM_9
100
AcDbLine
 10
-1.001953125
 20
-0.9448126833248668
 30
0.0
 11
-1.024503125
 21
-0.9673626833248669
 31
0.0
  0
LINE
  5
F4
330
D9
100
AcDbEntity
  8
AM_9
100
AcDbLine
 10
-1.001953125
 20
-0.9448126833248668
 30
0.0
 11
-1.001953125
 21
-1.134812683324867
 31
0.0
  0
LINE
  5
F5
330
D9
100
AcDbEntity
  8
AM_9
100
AcDbLine
 10
-1.024503125
 20
-0.9673626833248669
 30
0.0
 11
-1.024503125
 21
-1.112262683324867
 31
0.0
  0
LINE
  5
F6
330
D9
100
AcDbEntity
  8
AM_9
100
AcDbLine
 10
-1.3133875
 20
-0.9673626833248669
 30
0.0
 11
-1.335894827172468
 21
-0.9448553561523992
 31
0.0
  0
LINE
  5
F7
330
D9
100
AcDbEntity
  8
AM_9
100
AcDbLine
 10
-1.329327770637651
 20
-1.128202953962518
 30
0.0
 11
-1.3133875
 21
-1.112262683324867
 31
0.0
  0
LINE
  5
F8
330
D9
100
AcDbEntity
  8
AM_9
100
AcDbLine
 10
-1.3133875
 20
-0.9673626833248669
 30
0.0
 11
-1.3133875
 21
-1.112262683324867
 31
0.0
  0
LINE
  5
F9
330
D9
100
AcDbEntity
  8
AM_9
100
AcDbLine
 10
1.246874773780797
 20
-0.578125
 30
0.0
 11
1.246874773780797
 21
-1.15625
 31
0.0
  0
LINE
  5
FA
330
D9
100
AcDbEntity
  8
AM_9
100
AcDbLine
 10
0.8750000000000001
 20
-1.1875
 30
0.0
 11
0.8750000000000001
 21
0.6562499999999998
 31
0.0
  0
LINE
  5
FB
330
D9
100
AcDbEntity
  8
AM_9
100
AcDbLine
 10
-0.8750000000000001
 20
0.6562499999999998
 30
0.0
 11
-0.8750000000000001
 21
-1.1875
 31
0.0
  0
LINE
  5
FC
330
D9
100
AcDbEntity
  8
AM_9
100
AcDbLine
 10
0.9966517857142857
 20
-0.8671874999999999
 30
0.0
 11
0.9966517857142857
 21
-0.4335937500000008
 31
0.0
  0
LINE
  5
FD
330
D9
100
AcDbEntity
  8
AM_9
100
AcDbLine
 10
-0.9966517857142857
 20
-0.4335937500000008
 30
0.0
 11
-0.9966517857142857
 21
-0.8671874999999999
 31
0.0
  0
LINE
  5
FE
330
D9
100
AcDbEntity
  8
AM_9
100
AcDbLine
 10
-0.05
 20
0.65625
 30
0.0
 11
-0.05
 21
-1.15625
 31
0.0
  0
LINE
  5
FF
330
D9
100
AcDbEntity
  8
AM_9
100
AcDbLine
 10
0.05
 20
0.65625
 30
0.0
 11
0.05
 21
-1.15625
 31
0.0
  0
LINE
  5
100
330
D9
100
AcDbEntity
  8
AM_9
100
AcDbLine
 10
-0.9966517857142857
 20
-0.4335937500000008
 30
0.0
 11
0.9966517857142857
 21
-0.4335937500000008
 31
0.0
  0
LINE
  5
101
330
D9
100
AcDbEntity
  8
AM_9
100
AcDbLine
 10
0.9966517857142857
 20
-0.4335937500000008
 30
0.0
 11
1.034709968090058
 21
0.65625
 31
0.0
  0
LINE
  5
102
330
D9
100
AcDbEntity
  8
AM_9
100
AcDbLine
 10
-1.034709968090058
 20
0.65625
 30
0.0
 11
-0.9966517857142857
 21
-0.4335937500000008
 31
0.0
  0
LINE
  5
103
330
D9
100
AcDbEntity
  8
AM_9
100
AcDbLine
 10
-1.034709968090058
 20
0.65625
 30
0.0
 11
1.034709968090058
 21
0.65625
 31
0.0
  0
LINE
  5
104
330
D9
100
AcDbEntity
  8
AM_9
100
AcDbLine
 10
-1.301293500000001
 20
-0.5781249999999999
 30
0.0
 11
-1.335937500000001
 21
-0.6127689999999999
 31
0.0
  0
LINE
  5
105
330
D9
100
AcDbEntity
  8
AM_9
100
AcDbLine
 10
-1.3359375
 20
-0.6127689999999999
 30
0.0
 11
-1.3359375
 21
-0.7751037175199517
 31
0.0
  0
LINE
  5
106
330
D9
100
AcDbEntity
  8
AM_9
100
AcDbLine
 10
-1.3359375
 20
-0.6127689999999999
 30
0.0
 11
-0.7724722957285033
 21
-0.6127690000000001
 31
0.0
  0
LINE
  5
107
330
D9
100
AcDbEntity
  8
AM_9
100
AcDbLine
 10
-0.7550731799368007
 20
-0.5781249999999997
 30
0.0
 11
-0.7724722957285033
 21
-0.6127690000000001
 31
0.0
  0
LINE
  5
108
330
D9
100
AcDbEntity
  8
AM_9
100
AcDbLine
 10
-0.7724722957285033
 20
-0.6127690000000001
 30
0.0
 11
-0.7724722957285033
 21
-0.7300980363837761
 31
0.0
  0
LINE
  5
109
330
D9
100
AcDbEntity
  8
AM_9
100
AcDbLine
 10
1.092075892857143
 20
-0.7226562500000001
 30
0.0
 11
1.092075892857143
 21
-0.5781249999999999
 31
0.0
  0
LINE
  5
10A
330
D9
100
AcDbEntity
  8
AM_9
100
AcDbLine
 10
-1.092075892857143
 20
-0.5781249999999999
 30
0.0
 11
-1.092075892857143
 21
-0.7226562500000001
 31
0.0
  0
LINE
  5
10B
330
D9
100
AcDbEntity
  8
AM_9
100
AcDbLine
 10
-0.5160502368211286
 20
-0.5781249999999999
 30
0.0
 11
-0.5160502368211286
 21
-1.15625
 31
0.0
  0
LINE
  5
10C
330
D9
100
AcDbEntity
  8
AM_9
100
AcDbLine
 10
-0.7308245369596694
 20
-0.7874991998984
 30
0.0
 11
-0.7308245369596694
 21
-0.9282848916779979
 31
0.0
  0
LINE
  5
10D
330
D9
100
AcDbEntity
  8
AM_9
100
AcDbLine
 10
-0.7308245369596694
 20
-0.5781249999999999
 30
0.0
 11
-0.7308245369596694
 21
-0.7281211034086377
 31
0.0
  0
LINE
  5
10E
330
D9
100
AcDbEntity
  8
AM_9
100
AcDbLine
 10
-1.1875
 20
-0.8671874999999999
 30
0.0
 11
1.1875
 21
-0.8671874999999999
 31
0.0
  0
LINE
  5
10F
330
D9
100
AcDbEntity
  8
AM_9
100
AcDbLine
 10
-1.1875
 20
-0.7226562500000001
 30
0.0
 11
1.1875
 21
-0.7226562500000001
 31
0.0
  0
LINE
  5
110
330
D9
100
AcDbEntity
  8
AM_9
100
AcDbLine
 10
1.1875
 20
-0.8671874999999999
 30
0.0
 11
1.1875
 21
-0.7226562500000001
 31
0.0
  0
LINE
  5
111
330
D9
100
AcDbEntity
  8
AM_9
100
AcDbLine
 10
-1.1875
 20
-0.7226562500000001
 30
0.0
 11
-1.1875
 21
-0.8671874999999999
 31
0.0
  0
LINE
  5
112
330
D9
100
AcDbEntity
  8
AM_9
100
AcDbLine
 10
1.29537205973506
 20
-0.5781249999999999
 30
0.0
 11
1.330170291318465
 21
-0.6127690000000002
 31
0.0
  0
LINE
  5
113
330
D9
100
AcDbEntity
  8
AM_9
100
AcDbLine
 10
-1.301293500000001
 20
-0.5781249999999999
 30
0.0
 11
1.29537205973506
 21
-0.5781249999999999
 31
0.0
  0
LINE
  5
114
330
D9
100
AcDbEntity
  8
AM_9
100
AcDbLine
 10
-0.5576979955899629
 20
-0.6127690000000001
 30
0.0
 11
-0.5402988797982603
 21
-0.5781249999999997
 31
0.0
  0
LINE
  5
115
330
D9
100
AcDbEntity
  8
AM_9
100
AcDbLine
 10
1.330170291318465
 20
-0.6127690000000002
 30
0.0
 11
1.330170291318465
 21
-0.7743861079055192
 31
0.0
  0
LINE
  5
116
330
D9
100
AcDbEntity
  8
AM_9
100
AcDbLine
 10
-0.5576979955899629
 20
-0.6127690000000001
 30
0.0
 11
1.330170291318465
 21
-0.6127690000000002
 31
0.0
  0
LINE
  5
117
330
D9
100
AcDbEntity
  8
AM_9
100
AcDbLine
 10
-0.5576979955899629
 20
-0.7212904288523319
 30
0.0
 11
-0.5576979955899629
 21
-0.6127690000000001
 31
0.0
  0
LINE
  5
119
330
D9
100
AcDbEntity
  8
AM_5
100
AcDbLine
 10
-1.322730816675133
 20
-1.134812683324867
 30
0.0
 11
-1.001953125
 21
-1.134812683324867
 31
0.0
  0
LINE
  5
11A
330
D9
100
AcDbEntity
  8
AM_5
100
AcDbLine
 10
-1.236497627684644
 20
-0.9448126833248667
 30
0.0
 11
-1.066825315111111
 21
-0.9448126833248667
 31
0.0
  0
LINE
  5
11D
330
D9
100
AcDbEntity
  8
AM_7
100
AcDbLine
 10
-0.98525390625
 20
-1.039812683324867
 30
0.0
 11
-1.35263671875
 21
-1.039812683324867
 31
0.0
  0
LINE
  5
11E
330
D9
100
AcDbEntity
  8
AM_4
100
AcDbLine
 10
-0.05
 20
-1.1875
 30
0.0
 11
-0.05
 21
-1.15625
 31
0.0
  0
LINE
  5
11F
330
D9
100
AcDbEntity
  8
AM_4
100
AcDbLine
 10
0.05
 20
-1.1875
 30
0.0
 11
0.05
 21
-1.15625
 31
0.0
  0
LINE
  5
120
330
D9
100
AcDbEntity
  8
AM_4
100
AcDbLine
 10
0.9966517857142855
 20
-1.1875
 30
0.0
 11
0.9966517857142855
 21
-1.15625
 31
0.0
  0
LINE
  5
121
330
D9
100
AcDbEntity
  8
AM_4
100
AcDbLine
 10
-0.9966517857142855
 20
-1.15625
 30
0.0
 11
-0.9966517857142855
 21
-1.1875
 31
0.0
  0
LINE
  5
122
330
D9
100
AcDbEntity
  8
AM_4
100
AcDbLine
 10
-0.9966517857142855
 20
-1.1875
 30
0.0
 11
0.9966517857142855
 21
-1.1875
 31
0.0
  0
LINE
  5
123
330
D9
100
AcDbEntity
  8
AM_4
100
AcDbLine
 10
-1.335121186890074
 20
-1.121606
 30
0.0
 11
-1.329334158337574
 21
-1.128209341662425
 31
0.0
  0
LINE
  5
124
330
D9
100
AcDbEntity
  8
AM_4
100
AcDbLine
 10
-1.329431093694227
 20
-1.128112406305773
 30
0.0
 11
-1.3012935
 21
-1.15625
 31
0.0
  0
LINE
  5
125
330
D9
100
AcDbEntity
  8
AM_4
100
AcDbLine
 10
-1.335121186890075
 20
-1.121606
 30
0.0
 11
-0.7724722957285031
 21
-1.121606
 31
0.0
  0
LINE
  5
126
330
D9
100
AcDbEntity
  8
AM_4
100
AcDbLine
 10
-1.3359375
 20
-0.7751037175199517
 30
0.0
 11
-1.3359375
 21
-0.9448929421230036
 31
0.0
  0
LWPOLYLINE
  5
127
330
D9
100
AcDbEntity
  8
AM_4
100
AcDbPolyline
 90
       16
 70
     0
 43
0.0
 10
-1.3359375
 20
-0.9448126833248705
 10
-1.335860601754623
 20
-0.9459780486706422
 10
-1.335631173101708
 20
-0.9495435392041541
 10
-1.335262164034195
 20
-0.9555916346482158
 10
-1.334807107641641
 20
-0.9637041165062175
 10
-1.334294849093667
 20
-0.9740150006799855
 10
-1.333790696068006
 20
-0.9860508657275289
 10
-1.333337727654533
 20
-0.9998340121199388
 10
-1.332997496988857
 20
-1.014745451369665
 10
-1.332805783030466
 20
-1.030755487281414
 10
-1.332794716817185
 20
-1.046919127650222
 10
-1.332971248543184
 20
-1.063340462808545
 10
-1.333308290157163
 20
-1.078727405087027
 10
-1.333785158115844
 20
-1.093427342900908
 10
-1.334615256627334
 20
-1.112230916490877
 10
-1.335121186890075
 20
-1.121606000000001
  0
LINE
  5
128
330
D9
100
AcDbEntity
  8
AM_4
100
AcDbLine
 10
-0.7724722957285033
 20
-0.7300980363837761
 30
0.0
 11
-0.7724722957285031
 21
-1.121606
 31
0.0
  0
LINE
  5
129
330
D9
100
AcDbEntity
  8
AM_4
100
AcDbLine
 10
-0.7724722957285031
 20
-1.121606
 30
0.0
 11
-0.7550731799368003
 21
-1.15625
 31
0.0
  0
LINE
  5
12A
330
D9
100
AcDbEntity
  8
AM_4
100
AcDbLine
 10
-0.7308245369596694
 20
-0.9282848916779979
 30
0.0
 11
-0.7308245369596694
 21
-1.15625
 31
0.0
  0
LINE
  5
12B
330
D9
100
AcDbEntity
  8
AM_4
100
AcDbLine
 10
-0.7308245369596694
 20
-0.7281211034086377
 30
0.0
 11
-0.7308245369596694
 21
-0.7874991998984
 31
0.0
  0
LINE
  5
12C
330
D9
100
AcDbEntity
  8
AM_4
100
AcDbLine
 10
1.330170291318465
 20
-1.121606
 30
0.0
 11
1.295372059735059
 21
-1.15625
 31
0.0
  0
LINE
  5
12D
330
D9
100
AcDbEntity
  8
AM_4
100
AcDbLine
 10
-0.5402988797982597
 20
-1.15625
 30
0.0
 11
-0.5576979955899627
 21
-1.121606
 31
0.0
  0
LINE
  5
12E
330
D9
100
AcDbEntity
  8
AM_4
100
AcDbLine
 10
-1.3012935
 20
-1.15625
 30
0.0
 11
1.295372059735059
 21
-1.15625
 31
0.0
  0
LINE
  5
12F
330
D9
100
AcDbEntity
  8
AM_4
100
AcDbLine
 10
1.330170291318465
 20
-0.7743861079055192
 30
0.0
 11
1.330170291318465
 21
-1.121606
 31
0.0
  0
LINE
  5
130
330
D9
100
AcDbEntity
  8
AM_4
100
AcDbLine
 10
-0.5576979955899627
 20
-1.121606
 30
0.0
 11
-0.5576979955899629
 21
-0.7212904288523319
 31
0.0
  0
LINE
  5
131
330
D9
100
AcDbEntity
  8
AM_4
100
AcDbLine
 10
-0.5576979955899627
 20
-1.121606
 30
0.0
 11
1.330170291318465
 21
-1.121606
 31
0.0
  0
ENDBLK
  5
DC
330
D9
100
AcDbEntity
  8
0
100
AcDbBlockEnd
  0
BLOCK
  5
134
330
132
100
AcDbEntity
  8
0
100
AcDbBlockBegin
  2
4_129438I_0_in_129196_4
 70
     2
 10
0.0
 20
0.0
 30
0.0
  3
4_129438I_0_in_129196_4
  1

  0
ATTDEF
  5
136
330
132
100
AcDbEntity
  8
AM_6
100
AcDbText
 10
8.71875
 20
1.1
 30
0.0
 40
0.5
  1
GTB-I
100
AcDbAttributeDefinition
  3

  2
NN
 70
     8
280
     0
  0
ATTDEF
  5
137
330
132
100
AcDbEntity
  8
AM_6
100
AcDbText
 10
8.71875
 20
0.6000000000000001
 30
0.0
 40
0.5
  1
GTB Normal Duty Pillow Blocks
100
AcDbAttributeDefinition
  3

  2
NT
 70
     8
280
     0
  0
ATTDEF
  5
138
330
132
100
AcDbEntity
  8
AM_6
100
AcDbText
 10
8.71875
 20
0.1000000000000001
 30
0.0
 40
0.5
  1
129438I
100
AcDbAttributeDefinition
  3

  2
NB
 70
     8
280
     0
  0
ATTDEF
  5
139
330
132
100
AcDbEntity
  8
AM_6
100
AcDbText
 10
8.71875
 20
-0.3999999999999999
 30
0.0
 40
0.5
  1
$PN.$LUBE.I
100
AcDbAttributeDefinition
  3

  2
NBSYN
 70
     8
280
     0
  0
ATTDEF
  5
13A
330
132
100
AcDbEntity
  8
AM_6
100
AcDbText
 10
8.71875
 20
-0.8999999999999999
 30
0.0
 40
0.5
  1
129438
100
AcDbAttributeDefinition
  3

  2
LINA
 70
     8
280
     0
  0
ATTDEF
  5
13B
330
132
100
AcDbEntity
  8
AM_6
100
AcDbText
 10
8.71875
 20
-1.4
 30
0.0
 40
0.5
  1
209
100
AcDbAttributeDefinition
  3

  2
SERIES
 70
     8
280
     0
  0
ATTDEF
  5
13C
330
132
100
AcDbEntity
  8
AM_6
100
AcDbText
 10
8.71875
 20
-1.9
 30
0.0
 40
0.5
  1
129438
100
AcDbAttributeDefinition
  3

  2
PN
 70
     8
280
     0
  0
ATTDEF
  5
13D
330
132
100
AcDbEntity
  8
AM_6
100
AcDbText
 10
8.71875
 20
-2.4
 30
0.0
 40
0.5
  1
P2B-GTB-09
100
AcDbAttributeDefinition
  3

  2
DESCRIPTION
 70
     8
280
     0
  0
ATTDEF
  5
13E
330
132
100
AcDbEntity
  8
AM_6
100
AcDbText
 10
8.71875
 20
-2.9
 30
0.0
 40
0.5
  1
1-27/32
100
AcDbAttributeDefinition
  3

  2
A
 70
     8
280
     0
  0
ATTDEF
  5
13F
330
132
100
AcDbEntity
  8
AM_6
100
AcDbText
 10
8.71875
 20
-3.4
 30
0.0
 40
0.5
  1
7-7/16
100
AcDbAttributeDefinition
  3

  2
B
 70
     8
280
     0
  0
ATTDEF
  5
140
330
132
100
AcDbEntity
  8
AM_6
100
AcDbText
 10
8.71875
 20
-3.9
 30
0.0
 40
0.5
  1
2
100
AcDbAttributeDefinition
  3

  2
C
 70
     8
280
     0
  0
ATTDEF
  5
141
330
132
100
AcDbEntity
  8
AM_6
100
AcDbText
 10
8.71875
 20
-4.4
 30
0.0
 40
0.5
  1
5-1/2
100
AcDbAttributeDefinition
  3

  2
DMIN
 70
     8
280
     0
  0
ATTDEF
  5
142
330
132
100
AcDbEntity
  8
AM_6
100
AcDbText
 10
8.71875
 20
-4.9
 30
0.0
 40
0.5
  1
6-3/16
100
AcDbAttributeDefinition
  3

  2
DMAX
 70
     8
280
     0
  0
ATTDEF
  5
143
330
132
100
AcDbEntity
  8
AM_6
100
AcDbText
 10
8.71875
 20
-5.4
 30
0.0
 40
0.5
  1
1/2
100
AcDbAttributeDefinition
  3

  2
F
 70
     8
280
     0
  0
ATTDEF
  5
144
330
132
100
AcDbEntity
  8
AM_6
100
AcDbText
 10
8.71875
 20
-5.9
 30
0.0
 40
0.5
  1
29/32
100
AcDbAttributeDefinition
  3

  2
G
 70
     8
280
     0
  0
ATTDEF
  5
145
330
132
100
AcDbEntity
  8
AM_6
100
AcDbText
 10
8.71875
 20
-6.4
 30
0.0
 40
0.5
  1
11/16
100
AcDbAttributeDefinition
  3

  2
H
 70
     8
280
     0
  0
ATTDEF
  5
146
330
132
100
AcDbEntity
  8
AM_6
100
AcDbText
 10
8.71875
 20
-6.9
 30
0.0
 40
0.5
  1
4-7/32
100
AcDbAttributeDefinition
  3

  2
J
 70
     8
280
     0
  0
ATTDEF
  5
147
330
132
100
AcDbEntity
  8
AM_6
100
AcDbText
 10
8.71875
 20
-7.4
 30
0.0
 40
0.5
  1
2-43/64
100
AcDbAttributeDefinition
  3

  2
L
 70
     8
280
     0
  0
ATTDEF
  5
148
330
132
100
AcDbEntity
  8
AM_6
100
AcDbText
 10
8.71875
 20
-7.9
 30
0.0
 40
0.5
  1
2-1/16
100
AcDbAttributeDefinition
  3

  2
M
 70
     8
280
     0
  0
ATTDEF
  5
149
330
132
100
AcDbEntity
  8
AM_6
100
AcDbText
 10
8.71875
 20
-8.4
 30
0.0
 40
0.5
  1
21/32
100
AcDbAttributeDefinition
  3

  2
R
 70
     8
280
     0
  0
ATTDEF
  5
14A
330
132
100
AcDbEntity
  8
AM_6
100
AcDbText
 10
8.71875
 20
-8.9
 30
0.0
 40
0.5
  1
1-3/16
100
AcDbAttributeDefinition
  3

  2
S
 70
     8
280
     0
  0
ATTDEF
  5
14B
330
132
100
AcDbEntity
  8
AM_6
100
AcDbText
 10
8.71875
 20
-9.4
 30
0.0
 40
0.5
  1
3-3/8
100
AcDbAttributeDefinition
  3

  2
U
 70
     8
280
     0
  0
ATTDEF
  5
14C
330
132
100
AcDbEntity
  8
AM_6
100
AcDbText
 10
8.71875
 20
-9.9
 30
0.0
 40
0.5
  1
6-3/4
100
AcDbAttributeDefinition
  3

  2
V
 70
     8
280
     0
  0
ATTDEF
  5
14D
330
132
100
AcDbEntity
  8
AM_6
100
AcDbText
 10
8.71875
 20
-10.4
 30
0.0
 40
0.5
  1
11/16
100
AcDbAttributeDefinition
  3

  2
W
 70
     8
280
     0
  0
ATTDEF
  5
14E
330
132
100
AcDbEntity
  8
AM_6
100
AcDbText
 10
8.71875
 20
-10.9
 30
0.0
 40
0.5
  1
3/16
100
AcDbAttributeDefinition
  3

  2
X
 70
     8
280
     0
  0
ATTDEF
  5
14F
330
132
100
AcDbEntity
  8
AM_6
100
AcDbText
 10
8.71875
 20
-11.4
 30
0.0
 40
0.5
  1
1-5/32
100
AcDbAttributeDefinition
  3

  2
Z
 70
     8
280
     0
  0
ATTDEF
  5
150
330
132
100
AcDbEntity
  8
AM_6
100
AcDbText
 10
8.71875
 20
-11.9
 30
0.0
 40
0.5
  1
baldor
100
AcDbAttributeDefinition
  3

  2
COMPANY
 70
     8
280
     0
  0
LINE
  5
151
330
132
100
AcDbEntity
  8
AM_9
100
AcDbLine
 10
1.4358824
 20
-0.8533334
 30
0.0
 11
1.4358824
 21
0.8533334
 31
0.0
  0
LINE
  5
152
330
132
100
AcDbEntity
  8
AM_9
100
AcDbLine
 10
1.4949375
 20
-1.0
 30
0.0
 11
1.4949375
 21
0.9999999999999999
 31
0.0
  0
LINE
  5
153
330
132
100
AcDbEntity
  8
AM_9
100
AcDbLine
 10
-1.4358824
 20
-0.8533334000000002
 30
0.0
 11
-1.4358824
 21
0.8533333999999997
 31
0.0
  0
LINE
  5
154
330
132
100
AcDbEntity
  8
AM_9
100
AcDbLine
 10
-1.4949375
 20
-1.0
 30
0.0
 11
-1.4949375
 21
0.9999999999999999
 31
0.0
  0
LWPOLYLINE
  5
155
330
132
100
AcDbEntity
  8
AM_9
100
AcDbPolyline
 90
        5
 70
     0
 43
0.0
 10
1.654589949991652
 20
-0.0909214090671168
 10
1.651226121335272
 20
-0.0460980447457687
 10
1.649974513486631
 20
-0.0008744807129145
 10
1.651169416671771
 20
0.0450211226067941
 10
1.654589949991652
 20
0.090921409067117
  0
LINE
  5
156
330
132
100
AcDbEntity
  8
AM_9
100
AcDbLine
 10
1.654589949991652
 20
0.090921409067117
 30
0.0
 11
1.742794453491006
 21
0.090921409067117
 31
0.0
  0
LINE
  5
157
330
132
100
AcDbEntity
  8
AM_9
100
AcDbLine
 10
1.654589949991652
 20
-0.0909214090671168
 30
0.0
 11
1.742794453491006
 21
-0.0909214090671168
 31
0.0
  0
LINE
  5
158
330
132
100
AcDbEntity
  8
AM_9
100
AcDbLine
 10
1.53861842927649
 20
0.1102360000000004
 30
0.0
 11
1.524686260512818
 21
0.1102360000000004
 31
0.0
  0
LINE
  5
159
330
132
100
AcDbEntity
  8
AM_9
100
AcDbLine
 10
1.524696207898163
 20
-0.1102360000000002
 30
0.0
 11
1.53861842927649
 21
-0.1102360000000002
 31
0.0
  0
LWPOLYLINE
  5
15A
330
132
100
AcDbEntity
  8
AM_9
100
AcDbPolyline
 90
       20
 70
     0
 43
0.0
 10
1.524706479881361
 20
0.1102359994920467
 10
1.515696038382961
 20
0.1095025998294131
 10
1.502711820542671
 20
0.1058131384527139
 10
1.490249336996245
 20
0.0991493051441558
 10
1.478683808988591
 20
0.0896550270340482
 10
1.468358643487599
 20
0.0776392846234606
 10
1.459603671659185
 20
0.0633914109668844
 10
1.452683467990629
 20
0.047355216516262
 10
1.447847362749418
 20
0.0299624024650592
 10
1.445221122385
 20
0.0117228652954306
 10
1.444922723912047
 20
-0.006831747980428
 10
1.446923749335503
 20
-0.0251936169721374
 10
1.451189411712597
 20
-0.042825747815717
 10
1.457550462316144
 20
-0.0592523632586305
 10
1.465840395410204
 20
-0.0740014556329862
 10
1.475767221578752
 20
-0.0866669122374028
 10
1.487053890390052
 20
-0.0968669027185255
 10
1.499330344939102
 20
-0.1043351368627186
 10
1.512231351850646
 20
-0.1088172181453261
 10
1.524703164145294
 20
-0.1102359998424691
  0
LWPOLYLINE
  5
15B
330
132
100
AcDbEntity
  8
AM_9
100
AcDbPolyline
 90
       11
 70
     0
 43
0.0
 10
1.524703164145294
 20
-0.1102359998424691
 10
1.52537802790943
 20
-0.1102318153662916
 10
1.538376718301917
 20
-0.1084985341867731
 10
1.550884478731067
 20
-0.1037137640826776
 10
1.562550018997566
 20
-0.0959720325258277
 10
1.57307968604142
 20
-0.0855326745828567
 10
1.582193326540829
 20
-0.0726395434475758
 10
1.589669905945023
 20
-0.0576993195376385
 10
1.59530293367416
 20
-0.0410999959789986
 10
1.598976123227434
 20
-0.0233394108871199
 10
1.600653795973608
 20
0.0000000000000001
  0
LWPOLYLINE
  5
15C
330
132
100
AcDbEntity
  8
AM_9
100
AcDbPolyline
 90
        5
 70
     0
 43
0.0
 10
1.543234420537004
 20
-0.1818428181342336
 10
1.567319184666168
 20
-0.1594311359735598
 10
1.59376124087517
 20
-0.1368193539571325
 10
1.623061346452929
 20
-0.1138715522972782
 10
1.654589949991652
 20
-0.0909214090671168
  0
LWPOLYLINE
  5
15D
330
132
100
AcDbEntity
  8
AM_9
100
AcDbPolyline
 90
        5
 70
     0
 43
0.0
 10
1.654589949991652
 20
0.090921409067117
 10
1.623777528549728
 20
0.113333091227791
 10
1.594832256643443
 20
0.1359448732442181
 10
1.567921957435966
 20
0.1588926749040724
 10
1.543234420537004
 20
0.1818428181342338
  0
ELLIPSE
  5
15E
330
132
100
AcDbEntity
  8
AM_9
100
AcDbEllipse
 10
1.53861842927649
 20
0.0000000000000001
 30
0.0
 11
-2.892860668945892E-17
 21
-0.1574800000000008
 31
0.0
210
0.0
220
0.0
230
1.0
 40
0.7071067811865476
 41
0.0
 42
6.283185307179586
  0
LINE
  5
15F
330
132
100
AcDbEntity
  8
AM_9
100
AcDbLine
 10
1.330170291318465
 20
-0.8533334
 30
0.0
 11
-1.3359375
 21
-0.8533334000000001
 31
0.0
  0
LINE
  5
160
330
132
100
AcDbEntity
  8
AM_9
100
AcDbLine
 10
1.67325
 20
-0.8702062300884955
 30
0.0
 11
1.67325
 21
0.8702062300884955
 31
0.0
  0
LINE
  5
161
330
132
100
AcDbEntity
  8
AM_9
100
AcDbLine
 10
-1.67325
 20
0.8702062300884955
 30
0.0
 11
-1.67325
 21
-0.8702062300884955
 31
0.0
  0
ELLIPSE
  5
162
330
132
100
AcDbEntity
  8
AM_9
100
AcDbEllipse
 10
1.636054915296872
 20
0.0000000000000003
 30
0.0
 11
6.750008227540352E-18
 21
0.1102359999999995
 31
0.0
210
0.0
220
0.0
230
1.0
 40
0.7071067811865495
 41
3.141592653589793
 42
6.283185307179586
  0
ELLIPSE
  5
163
330
132
100
AcDbEntity
  8
AM_9
100
AcDbEllipse
 10
1.649974312284535
 20
-0.0000000000000017
 30
0.0
 11
6.750008227540536E-18
 21
0.1102360000000025
 31
0.0
210
0.0
220
0.0
230
1.0
 40
0.7071067811865
 41
5.339580861439678
 42
5.68580771331029
  0
LINE
  5
164
330
132
100
AcDbEntity
  8
AM_9
100
AcDbLine
 10
1.742794453491006
 20
-0.0909214090671168
 30
0.0
 11
1.727376410758993
 21
-0.1054687799392022
 31
0.0
  0
LWPOLYLINE
  5
165
330
132
100
AcDbEntity
  8
AM_9
100
AcDbPolyline
 90
        5
 70
     0
 43
0.0
 10
1.742794453491006
 20
0.090921409067117
 10
1.746158282147385
 20
0.0460980447457688
 10
1.747409889996026
 20
0.0008744807129147
 10
1.746214986810886
 20
-0.0450211226067939
 10
1.742794453491006
 20
-0.0909214090671168
  0
LINE
  5
166
330
132
100
AcDbEntity
  8
AM_9
100
AcDbLine
 10
1.727284163841785
 20
0.1055536882887802
 30
0.0
 11
1.742794453491006
 21
0.090921409067117
 31
0.0
  0
ELLIPSE
  5
167
330
132
100
AcDbEntity
  8
AM_9
100
AcDbEllipse
 10
1.636054915296875
 20
0.0000000000000016
 30
0.0
 11
9.642868896485983E-18
 21
0.1574799999999955
 31
0.0
210
0.0
220
0.0
230
1.0
 40
0.7071067811865434
 41
3.98692122104395
 42
5.437027172619509
  0
ELLIPSE
  5
168
330
132
100
AcDbEntity
  8
AM_9
100
AcDbEllipse
 10
1.649974312284523
 20
0.0000000000000037
 30
0.0
 11
6.750008227540654E-18
 21
0.1102360000000045
 31
0.0
210
0.0
220
0.0
230
1.0
 40
0.7071067811865742
 41
3.737397006016172
 42
4.076487690785959
  0
LWPOLYLINE
  5
169
330
132
100
AcDbEntity
  8
AM_9
100
AcDbPolyline
 90
        3
 70
     0
 43
0.0
 10
1.674868388125701
 20
-0.0706485787982875
 10
1.673156263044723
 20
-0.0680771735072561
 10
1.67256702780636
 20
-0.0671385925225411
  0
LWPOLYLINE
  5
16A
330
132
100
AcDbEntity
  8
AM_9
100
AcDbPolyline
 90
       21
 70
     0
 43
0.0
 10
1.727917724126972
 20
0.0000000000000001
 10
1.727817160022837
 20
-0.0055805069004856
 10
1.726975364796351
 20
-0.0170238105708086
 10
1.72530997214601
 20
-0.0281228492811819
 10
1.72289196438418
 20
-0.0386384794150085
 10
1.719827479600761
 20
-0.0483579522266557
 10
1.716255859135523
 20
-0.0570964071293683
 10
1.712345834349349
 20
-0.0647061817563197
 10
1.708289649496684
 20
-0.0710860438861935
 10
1.704298019200426
 20
-0.0761858444608611
 10
1.700592248806717
 20
-0.0800140610380492
 10
1.697376490883204
 20
-0.0826574459270543
 10
1.694824484686412
 20
-0.0842716703363171
 10
1.693054995185755
 20
-0.0850770446292768
 10
1.692084596409861
 20
-0.0853495350926769
 10
1.691678398396675
 20
-0.0853841061508924
 10
1.691084700569113
 20
-0.0852857491822022
 10
1.689770987974647
 20
-0.0848227490557808
 10
1.687655138270359
 20
-0.0837041759232831
 10
1.68486689469968
 20
-0.0817290126168939
 10
1.683718263166213
 20
-0.0807708995935084
  0
LWPOLYLINE
  5
16B
330
132
100
AcDbEntity
  8
AM_9
100
AcDbPolyline
 90
       21
 70
     0
 43
0.0
 10
1.683821794209628
 20
0.0808605749599097
 10
1.684566192270106
 20
0.0814860402126625
 10
1.687466448570901
 20
0.0835871636496501
 10
1.689634175467513
 20
0.0847624621257917
 10
1.690993274644178
 20
0.0852619934993251
 10
1.691620000984483
 20
0.0853807940433187
 10
1.692094795436245
 20
0.0853477249658101
 10
1.69312475092403
 20
0.0850516452325654
 10
1.694965687935753
 20
0.084195002055915
 10
1.697529503629557
 20
0.0825463764896684
 10
1.701047887597232
 20
0.0795883403179633
 10
1.704941360599653
 20
0.0754348361919242
 10
1.709009795175777
 20
0.070048313856195
 10
1.713063501442914
 20
0.0634299343321723
 10
1.716917082450141
 20
0.0556299824498143
 10
1.720391750538696
 20
0.04676062815163
 10
1.723336822586908
 20
0.0369602453360043
 10
1.725625692040254
 20
0.0264006402366666
 10
1.727159393687399
 20
0.0152829722605555
 10
1.727870368927509
 20
0.0038302798543565
 10
1.727917724126972
 20
0.0000000000000001
  0
LWPOLYLINE
  5
16C
330
132
100
AcDbEntity
  8
AM_9
100
AcDbPolyline
 90
        3
 70
     0
 43
0.0
 10
1.672575047787683
 20
0.0671515601252768
 10
1.673157253685244
 20
0.0680787275898105
 10
1.674053726485148
 20
0.0694531612745044
  0
ELLIPSE
  5
16D
330
132
100
AcDbEntity
  8
AM_9
100
AcDbEllipse
 10
1.727056509888571
 20
0.0000000000000226
 30
0.0
 11
6.258279876478338E-18
 21
0.1022054666020537
 31
0.0
210
0.0
220
0.0
230
1.0
 40
0.7071067811848822
 41
0.7905492558209559
 42
0.8523596914349661
  0
ELLIPSE
  5
16E
330
132
100
AcDbEntity
  8
AM_9
100
AcDbEllipse
 10
1.727056509888668
 20
0.0000000000002418
 30
0.0
 11
6.258279876502096E-18
 21
0.1022054666024417
 31
0.0
210
0.0
220
0.0
230
1.0
 40
0.7071067811841293
 41
2.289022479825999
 42
7.055813653649743
  0
ELLIPSE
  5
16F
330
132
100
AcDbEntity
  8
AM_9
100
AcDbEllipse
 10
1.741945674175673
 20
-0.0000000000000004
 30
0.0
 11
6.365617546288416E-18
 21
0.1039584237793363
 31
0.0
210
0.0
220
0.0
230
1.0
 40
0.707106781186557
 41
3.694304707716624
 42
4.71238898038469
  0
ELLIPSE
  5
170
330
132
100
AcDbEntity
  8
AM_9
100
AcDbEllipse
 10
1.786188588765669
 20
0.0000000000000006
 30
0.0
 11
4.354225479598942E-18
 21
0.07110989850511223
 31
0.0
210
0.0
220
0.0
230
1.0
 40
0.7071067811865616
 41
3.790387896100603
 42
5.63456239279164
  0
LWPOLYLINE
  5
171
330
132
100
AcDbEntity
  8
AM_9
100
AcDbPolyline
 90
        3
 70
     0
 43
0.0
 10
1.533594593904301
 20
0.1095115621627119
 10
1.528838613129567
 20
0.1100687932243071
 10
1.524706479881361
 20
0.1102359994920467
  0
LWPOLYLINE
  5
172
330
132
100
AcDbEntity
  8
AM_9
100
AcDbPolyline
 90
       10
 70
     0
 43
0.0
 10
1.600653795973608
 20
0.0000000000000001
 10
1.599598215351191
 20
0.0184916428872848
 10
1.596484693248578
 20
0.0364617142684857
 10
1.591361508674306
 20
0.0533887275112583
 10
1.584379200209025
 20
0.0688123109192741
 10
1.575677423565832
 20
0.0822825816845887
 10
1.565501503072931
 20
0.0934348231202842
 10
1.554086390489436
 20
0.1019219767715674
 10
1.541754081047533
 20
0.1075342915466121
 10
1.533594593904301
 20
0.1095115621627119
  0
ELLIPSE
  5
173
330
132
100
AcDbEntity
  8
AM_9
100
AcDbEllipse
 10
1.53861842927649
 20
0.0
 30
0.0
 11
6.750008227540393E-18
 21
0.1102360000000002
 31
0.0
210
0.0
220
0.0
230
1.0
 40
0.7071067811865471
 41
0.0
 42
6.283185307179586
  0
LINE
  5
174
330
132
100
AcDbEntity
  8
AM_7
100
AcDbLine
 10
-3.4734375
 20
-0.6875000000000003
 30
0.0
 11
-3.2765625
 21
-0.6875000000000003
 31
0.0
  0
LINE
  5
175
330
132
100
AcDbEntity
  8
AM_7
100
AcDbLine
 10
-3.375
 20
-0.7859375000000003
 30
0.0
 11
-3.375
 21
-0.5890625000000004
 31
0.0
  0
LINE
  5
176
330
132
100
AcDbEntity
  8
AM_7
100
AcDbLine
 10
3.2765625
 20
-0.6874999999999999
 30
0.0
 11
3.4734375
 21
-0.6874999999999999
 31
0.0
  0
LINE
  5
177
330
132
100
AcDbEntity
  8
AM_7
100
AcDbLine
 10
3.375
 20
-0.7859374999999998
 30
0.0
 11
3.375
 21
-0.5890624999999999
 31
0.0
  0
LINE
  5
178
330
132
100
AcDbEntity
  8
AM_7
100
AcDbLine
 10
0.0
 20
1.1
 30
0.0
 11
0.0
 21
-1.2796875
 31
0.0
  0
LINE
  5
179
330
132
100
AcDbEntity
  8
AM_7
100
AcDbLine
 10
-3.389062500000001
 20
0.0000000000000001
 30
0.0
 11
-2.454687499999999
 21
0.0000000000000001
 31
0.0
  0
LINE
  5
17A
330
132
100
AcDbEntity
  8
AM_7
100
AcDbLine
 10
-3.09375
 20
-0.2953125
 30
0.0
 11
-3.09375
 21
0.2953125000000001
 31
0.0
  0
LINE
  5
17B
330
132
100
AcDbEntity
  8
AM_7
100
AcDbLine
 10
2.454687499999999
 20
0.0000000000000001
 30
0.0
 11
3.389062500000001
 21
0.0
 31
0.0
  0
LINE
  5
17C
330
132
100
AcDbEntity
  8
AM_7
100
AcDbLine
 10
2.75
 20
-0.2953125
 30
0.0
 11
2.75
 21
0.2953125000000001
 31
0.0
  0
LINE
  5
17D
330
132
100
AcDbEntity
  8
AM_7
100
AcDbLine
 10
3.09375
 20
-0.2953125
 30
0.0
 11
3.09375
 21
0.2953125000000001
 31
0.0
  0
LINE
  5
17E
330
132
100
AcDbEntity
  8
AM_7
100
AcDbLine
 10
-2.75
 20
-0.2953125
 30
0.0
 11
-2.75
 21
0.2953125000000001
 31
0.0
  0
LINE
  5
17F
330
132
100
AcDbEntity
  8
AM_4
100
AcDbLine
 10
3.513125
 20
0.9999999999999999
 30
0.0
 11
1.4875
 21
0.9999999999999999
 31
0.0
  0
LINE
  5
180
330
132
100
AcDbEntity
  8
AM_4
100
AcDbLine
 10
3.71875
 20
-0.794375
 30
0.0
 11
3.71875
 21
0.794375
 31
0.0
  0
LINE
  5
181
330
132
100
AcDbEntity
  8
AM_4
100
AcDbLine
 10
3.71875
 20
0.794375
 30
0.0
 11
3.513125
 21
0.9999999999999999
 31
0.0
  0
LINE
  5
182
330
132
100
AcDbEntity
  8
AM_4
100
AcDbLine
 10
-1.4875
 20
0.9999999999999999
 30
0.0
 11
-3.513125
 21
0.9999999999999999
 31
0.0
  0
LINE
  5
183
330
132
100
AcDbEntity
  8
AM_4
100
AcDbLine
 10
-3.71875
 20
0.7943749999999997
 30
0.0
 11
-3.71875
 21
-0.7943750000000006
 31
0.0
  0
LINE
  5
184
330
132
100
AcDbEntity
  8
AM_4
100
AcDbLine
 10
-3.513125
 20
0.9999999999999999
 30
0.0
 11
-3.71875
 21
0.7943749999999997
 31
0.0
  0
ARC
  5
185
330
132
100
AcDbEntity
  8
AM_4
100
AcDbCircle
 10
-2.608740200000001
 20
0.7037402000000004
 30
0.0
 40
0.0787402000000005
100
AcDbArc
 50
270.0
 51
0.0
  0
ARC
  5
186
330
132
100
AcDbEntity
  8
AM_4
100
AcDbCircle
 10
-3.09375
 20
0.0000000000000001
 30
0.0
 40
0.28125
100
AcDbArc
 50
90.0
 51
270.0
  0
LINE
  5
187
330
132
100
AcDbEntity
  8
AM_4
100
AcDbLine
 10
-1.4875
 20
-1.000000000000002
 30
0.0
 11
-3.513125
 21
-1.0
 31
0.0
  0
LINE
  5
188
330
132
100
AcDbEntity
  8
AM_4
100
AcDbLine
 10
-3.09375
 20
0.6249999999999998
 30
0.0
 11
-2.6087402
 21
0.6249999999999999
 31
0.0
  0
CIRCLE
  5
189
330
132
100
AcDbEntity
  8
AM_4
100
AcDbCircle
 10
-3.375
 20
-0.6875000000000003
 30
0.0
 40
0.09375
  0
LINE
  5
18A
330
132
100
AcDbEntity
  8
AM_4
100
AcDbLine
 10
-3.71875
 20
-0.7943750000000006
 30
0.0
 11
-3.513125
 21
-1.0
 31
0.0
  0
ARC
  5
18B
330
132
100
AcDbEntity
  8
AM_4
100
AcDbCircle
 10
-2.75
 20
0.0
 30
0.0
 40
0.28125
100
AcDbArc
 50
270.0
 51
90.0
  0
LINE
  5
18C
330
132
100
AcDbEntity
  8
AM_4
100
AcDbLine
 10
-2.75
 20
0.28125
 30
0.0
 11
-3.09375
 21
0.2812500000000001
 31
0.0
  0
LINE
  5
18D
330
132
100
AcDbEntity
  8
AM_4
100
AcDbLine
 10
-3.09375
 20
-0.2812499999999999
 30
0.0
 11
-2.75
 21
-0.2812499999999999
 31
0.0
  0
ARC
  5
18E
330
132
100
AcDbEntity
  8
AM_4
100
AcDbCircle
 10
-3.09375
 20
0.0000000000000001
 30
0.0
 40
0.6249999999999997
100
AcDbArc
 50
90.0
 51
154.8923077609761
  0
LINE
  5
18F
330
132
100
AcDbEntity
  8
AM_4
100
AcDbLine
 10
-3.659694899999999
 20
-0.8534301000000006
 30
0.0
 11
-3.659694899999999
 21
0.2652006224803977
 31
0.0
  0
LWPOLYLINE
  5
190
330
132
100
AcDbEntity
  8
AM_4
100
AcDbPolyline
 90
       10
 70
     0
 43
0.0
 10
-3.659694899999999
 20
0.2652006224803976
 10
-3.671517327747527
 20
0.2383483060302337
 10
-3.68208844713506
 20
0.2109096290421706
 10
-3.691440509779597
 20
0.1827321934400319
 10
-3.699417668622903
 20
0.1542455029649083
 10
-3.707796718917391
 20
0.116497326092867
 10
-3.713810795447818
 20
0.0784194487905854
 10
-3.717482889125568
 20
0.039777921301557
 10
-3.718749280574764
 20
0.0009483042905778
 10
-3.71875
 20
0.0000000000000004
  0
ARC
  5
191
330
132
100
AcDbEntity
  8
AM_4
100
AcDbCircle
 10
3.093750000000001
 20
0.0000000000000018
 30
0.0
 40
0.6249999999999982
100
AcDbArc
 50
25.10769223902391
 51
90.0
  0
LINE
  5
192
330
132
100
AcDbEntity
  8
AM_4
100
AcDbLine
 10
3.513124999999999
 20
-1.0
 30
0.0
 11
3.71875
 21
-0.794375
 31
0.0
  0
CIRCLE
  5
193
330
132
100
AcDbEntity
  8
AM_4
100
AcDbCircle
 10
3.375
 20
-0.6874999999999999
 30
0.0
 40
0.09375
  0
LINE
  5
194
330
132
100
AcDbEntity
  8
AM_4
100
AcDbLine
 10
3.09375
 20
0.28125
 30
0.0
 11
2.75
 21
0.2812500000000001
 31
0.0
  0
ARC
  5
195
330
132
100
AcDbEntity
  8
AM_4
100
AcDbCircle
 10
3.09375
 20
0.0
 30
0.0
 40
0.2812499999999999
100
AcDbArc
 50
270.0
 51
90.0
  0
LINE
  5
196
330
132
100
AcDbEntity
  8
AM_4
100
AcDbLine
 10
2.75
 20
-0.2812499999999999
 30
0.0
 11
3.09375
 21
-0.2812499999999999
 31
0.0
  0
ARC
  5
197
330
132
100
AcDbEntity
  8
AM_4
100
AcDbCircle
 10
2.75
 20
0.0000000000000001
 30
0.0
 40
0.28125
100
AcDbArc
 50
90.0
 51
270.0
  0
ARC
  5
198
330
132
100
AcDbEntity
  8
AM_4
100
AcDbCircle
 10
2.608740199999999
 20
0.7037401999999993
 30
0.0
 40
0.078740199999999
100
AcDbArc
 50
180.0
 51
270.0
  0
LINE
  5
199
330
132
100
AcDbEntity
  8
AM_4
100
AcDbLine
 10
3.513124999999999
 20
-1.0
 30
0.0
 11
1.4875
 21
-1.0
 31
0.0
  0
LINE
  5
19A
330
132
100
AcDbEntity
  8
AM_4
100
AcDbLine
 10
2.608740199999999
 20
0.625
 30
0.0
 11
3.09375
 21
0.6249999999999999
 31
0.0
  0
LWPOLYLINE
  5
19B
330
132
100
AcDbEntity
  8
AM_4
100
AcDbPolyline
 90
       10
 70
     0
 43
0.0
 10
3.718749999999999
 20
0.0000000000000002
 10
3.718749280574763
 20
0.0009483042905652
 10
3.717529972251691
 20
0.0390326301660385
 10
3.713963054115399
 20
0.0772060069220536
 10
3.707943660309174
 20
0.115720126322168
 10
3.699417668622902
 20
0.1542455029649082
 10
3.691650613381956
 20
0.1820435566491742
 10
3.682500718361447
 20
0.2097560288260606
 10
3.671831226754635
 20
0.2375859744889347
 10
3.659694899999999
 20
0.2652006224803995
  0
LINE
  5
19C
330
132
100
AcDbEntity
  8
AM_4
100
AcDbLine
 10
3.659694899999999
 20
-0.8534301000000013
 30
0.0
 11
3.659694899999999
 21
0.2652006224803995
 31
0.0
  0
LWPOLYLINE
  5
19D
330
132
100
AcDbEntity
  8
AM_4
100
AcDbPolyline
 90
       29
 70
     0
 43
0.0
 10
-2.53
 20
-0.5850000000000004
 10
-2.479851056912436
 20
-0.5635996349791869
 10
-2.43175811040216
 20
-0.5379099364254174
 10
-2.386087176831431
 20
-0.5081264184565509
 10
-2.343185839581584
 20
-0.4744757516281098
 10
-2.303380603733628
 20
-0.437214037833487
 10
-2.266974411167423
 20
-0.3966248612138973
 10
-2.23424433499106
 20
-0.3530171299118309
 10
-2.2054394708472
 20
-0.3067227250935644
 10
-2.180779041144829
 20
-0.2580939751330908
 10
-2.160450726644359
 20
-0.2075009741804514
 10
-2.14460923809371
 20
-0.1553287655217848
 10
-2.133375138786104
 20
-0.1019744111674247
 10
-2.126833927000606
 20
-0.0478439699702474
 10
-2.125035385308596
 20
0.0066505927273824
 10
-2.12799320169834
 20
0.061094540398619
 10
-2.135684865401133
 20
0.1150735217275301
 10
-2.148051838211844
 20
0.1681767240728026
 10
-2.165
 20
0.2199999999999985
 10
-2.186400365020813
 20
0.2701489430875626
 10
-2.212090063574582
 20
0.3182418895978386
 10
-2.241873581543449
 20
0.3639128231685682
 10
-2.275524248371889
 20
0.4068141604184146
 10
-2.312785962166512
 20
0.4466193962663708
 10
-2.353375138786101
 20
0.4830255888325752
 10
-2.396982870088169
 20
0.5157556650089389
 10
-2.443277274906435
 20
0.5445605291527995
 10
-2.491906024866908
 20
0.5692209588551697
 10
-2.53
 20
0.5849999999999997
  0
LINE
  5
19E
330
132
100
AcDbEntity
  8
AM_4
100
AcDbLine
 10
-2.529999999999999
 20
-1.0
 30
0.0
 11
-2.53
 21
-0.5850000000000003
 31
0.0
  0
LINE
  5
19F
330
132
100
AcDbEntity
  8
AM_4
100
AcDbLine
 10
-2.53
 20
0.5849999999999999
 30
0.0
 11
-2.529999999999999
 21
0.9999999999999999
 31
0.0
  0
LWPOLYLINE
  5
1A0
330
132
100
AcDbEntity
  8
AM_4
100
AcDbPolyline
 90
       29
 70
     0
 43
0.0
 10
2.53
 20
0.5850000000000001
 10
2.479851056912436
 20
0.5635996349791864
 10
2.43175811040216
 20
0.5379099364254173
 10
2.38608717683143
 20
0.5081264184565506
 10
2.343185839581584
 20
0.4744757516281096
 10
2.303380603733628
 20
0.4372140378334867
 10
2.266974411167423
 20
0.3966248612138971
 10
2.23424433499106
 20
0.3530171299118305
 10
2.205439470847199
 20
0.3067227250935641
 10
2.180779041144829
 20
0.2580939751330905
 10
2.160450726644359
 20
0.2075009741804511
 10
2.14460923809371
 20
0.1553287655217846
 10
2.133375138786103
 20
0.1019744111674244
 10
2.126833927000606
 20
0.0478439699702472
 10
2.125035385308596
 20
-0.0066505927273826
 10
2.12799320169834
 20
-0.0610945403986193
 10
2.135684865401133
 20
-0.1150735217275304
 10
2.148051838211844
 20
-0.1681767240728028
 10
2.165
 20
-0.2199999999999988
 10
2.186400365020813
 20
-0.2701489430875628
 10
2.212090063574582
 20
-0.3182418895978388
 10
2.241873581543449
 20
-0.3639128231685684
 10
2.27552424837189
 20
-0.4068141604184149
 10
2.312785962166513
 20
-0.446619396266371
 10
2.353375138786102
 20
-0.4830255888325756
 10
2.396982870088169
 20
-0.5157556650089392
 10
2.443277274906435
 20
-0.5445605291528
 10
2.491906024866909
 20
-0.5692209588551701
 10
2.53
 20
-0.585
  0
LINE
  5
1A1
330
132
100
AcDbEntity
  8
AM_4
100
AcDbLine
 10
2.53
 20
0.5850000000000002
 30
0.0
 11
2.53
 21
0.9999999999999999
 31
0.0
  0
LINE
  5
1A2
330
132
100
AcDbEntity
  8
AM_4
100
AcDbLine
 10
2.529999999999999
 20
-1.0
 30
0.0
 11
2.53
 21
-0.5850000000000001
 31
0.0
  0
LINE
  5
1A3
330
132
100
AcDbEntity
  8
AM_4
100
AcDbLine
 10
-1.4875
 20
0.9999999999999999
 30
0.0
 11
-1.487500000000001
 21
0.8533334
 31
0.0
  0
LINE
  5
1A4
330
132
100
AcDbEntity
  8
AM_4
100
AcDbLine
 10
1.4875
 20
0.8533334000000001
 30
0.0
 11
1.4875
 21
0.9999999999999999
 31
0.0
  0
LINE
  5
1A5
330
132
100
AcDbEntity
  8
AM_4
100
AcDbLine
 10
-1.487500000000001
 20
0.8533334
 30
0.0
 11
1.4875
 21
0.8533334000000001
 31
0.0
  0
LINE
  5
1A6
330
132
100
AcDbEntity
  8
AM_4
100
AcDbLine
 10
1.4875
 20
-1.0
 30
0.0
 11
1.487500000000001
 21
-0.8533333999999999
 31
0.0
  0
LINE
  5
1A7
330
132
100
AcDbEntity
  8
AM_4
100
AcDbLine
 10
-1.4875
 20
-0.8533334000000001
 30
0.0
 11
-1.4875
 21
-1.000000000000002
 31
0.0
  0
LINE
  5
1A8
330
132
100
AcDbEntity
  8
AM_4
100
AcDbLine
 10
-1.3359375
 20
-0.8533334000000001
 30
0.0
 11
-1.4875
 21
-0.8533334000000001
 31
0.0
  0
LINE
  5
1A9
330
132
100
AcDbEntity
  8
AM_4
100
AcDbLine
 10
1.487500000000001
 20
-0.8533333999999999
 30
0.0
 11
1.330170291318465
 21
-0.8533334
 31
0.0
  0
LWPOLYLINE
  5
1AA
330
132
100
AcDbEntity
  8
AM_4
100
AcDbPolyline
 90
       37
 70
     0
 43
0.0
 10
-1.67325
 20
0.8702062300884955
 10
-1.666882778582013
 20
0.8564402229409593
 10
-1.647829572727677
 20
0.8427789834199582
 10
-1.616235388838184
 20
0.8293264818071291
 10
-1.572340677730021
 20
0.816185099762588
 10
-1.516479504659075
 20
0.8034548511386772
 10
-1.449077006882312
 20
0.7912326208141595
 10
-1.370646158106556
 20
0.7796114273417883
 10
-1.281783864448831
 20
0.768679715020957
 10
-1.183166421620392
 20
0.7585206807831757
 10
-1.075544367908003
 20
0.7492116410131864
 10
-0.9597367721243896
 20
0.7408234431245905
 10
-0.836625000000002
 20
0.7334199263682526
 10
-0.7071460064576275
 20
0.7270574359770543
 10
-0.5722852048196776
 20
0.721784394344649
 10
-0.4330689672177954
 20
0.7176409325018092
 10
-0.290556813281194
 20
0.7146585846950494
 10
-0.1458333465525221
 20
0.7128600483919699
 10
-0.0000000000000032
 20
0.7122590115398231
 10
0.1458333465525157
 20
0.7128600483919698
 10
0.2905568132811877
 20
0.7146585846950492
 10
0.4330689672177893
 20
0.7176409325018089
 10
0.5722852048196716
 20
0.7217843943446487
 10
0.7071460064576216
 20
0.7270574359770541
 10
0.8366249999999963
 20
0.7334199263682523
 10
0.9597367721243842
 20
0.7408234431245901
 10
1.075544367907999
 20
0.7492116410131859
 10
1.183166421620387
 20
0.7585206807831754
 10
1.281783864448827
 20
0.7686797150209566
 10
1.370646158106552
 20
0.7796114273417878
 10
1.449077006882309
 20
0.7912326208141589
 10
1.516479504659072
 20
0.8034548511386768
 10
1.572340677730019
 20
0.8161850997625874
 10
1.616235388838182
 20
0.8293264818071285
 10
1.647829572727676
 20
0.8427789834199576
 10
1.666882778582013
 20
0.8564402229409587
 10
1.67325
 20
0.870206230088495
  0
LWPOLYLINE
  5
1AB
330
132
100
AcDbEntity
  8
AM_4
100
AcDbPolyline
 90
        7
 70
     0
 43
0.0
 10
1.67325
 20
0.8702062300884955
 10
1.666882778582013
 20
0.8839722372360317
 10
1.647829572727677
 20
0.8976334767570328
 10
1.616235388838184
 20
0.911085978369862
 10
1.572340677730021
 20
0.924227360414403
 10
1.516479504659075
 20
0.9369576090383137
 10
1.487500000000006
 20
0.942534925733658
  0
LWPOLYLINE
  5
1AC
330
132
100
AcDbEntity
  8
AM_4
100
AcDbPolyline
 90
       37
 70
     0
 43
0.0
 10
1.67325
 20
-0.8702062300884955
 10
1.666882778582013
 20
-0.8564402229409593
 10
1.647829572727677
 20
-0.8427789834199582
 10
1.616235388838184
 20
-0.8293264818071291
 10
1.572340677730021
 20
-0.8161850997625879
 10
1.516479504659075
 20
-0.8034548511386772
 10
1.449077006882312
 20
-0.7912326208141593
 10
1.370646158106557
 20
-0.7796114273417882
 10
1.281783864448831
 20
-0.768679715020957
 10
1.183166421620392
 20
-0.7585206807831756
 10
1.075544367908003
 20
-0.7492116410131863
 10
0.9597367721243897
 20
-0.7408234431245903
 10
0.8366250000000021
 20
-0.7334199263682525
 10
0.7071460064576277
 20
-0.7270574359770541
 10
0.5722852048196778
 20
-0.7217843943446487
 10
0.4330689672177956
 20
-0.7176409325018089
 10
0.2905568132811942
 20
-0.7146585846950491
 10
0.1458333465525222
 20
-0.7128600483919697
 10
0.0000000000000034
 20
-0.7122590115398229
 10
-0.1458333465525155
 20
-0.7128600483919697
 10
-0.2905568132811875
 20
-0.7146585846950491
 10
-0.4330689672177891
 20
-0.7176409325018088
 10
-0.5722852048196714
 20
-0.7217843943446486
 10
-0.7071460064576215
 20
-0.7270574359770537
 10
-0.8366249999999962
 20
-0.7334199263682522
 10
-0.959736772124384
 20
-0.7408234431245899
 10
-1.075544367907998
 20
-0.7492116410131858
 10
-1.183166421620387
 20
-0.7585206807831751
 10
-1.281783864448827
 20
-0.7686797150209564
 10
-1.370646158106552
 20
-0.7796114273417877
 10
-1.449077006882309
 20
-0.7912326208141588
 10
-1.516479504659072
 20
-0.8034548511386768
 10
-1.572340677730019
 20
-0.8161850997625874
 10
-1.616235388838182
 20
-0.8293264818071284
 10
-1.647829572727676
 20
-0.8427789834199576
 10
-1.666882778582013
 20
-0.8564402229409587
 10
-1.67325
 20
-0.870206230088495
  0
LWPOLYLINE
  5
1AD
330
132
100
AcDbEntity
  8
AM_4
100
AcDbPolyline
 90
        7
 70
     0
 43
0.0
 10
-1.67325
 20
-0.8702062300884955
 10
-1.666882778582013
 20
-0.8839722372360318
 10
-1.647829572727677
 20
-0.8976334767570329
 10
-1.616235388838184
 20
-0.9110859783698622
 10
-1.572340677730021
 20
-0.9242273604144032
 10
-1.516479504659075
 20
-0.9369576090383138
 10
-1.4875
 20
-0.9425349257336593
  0
LINE
  5
1AE
330
132
100
AcDbEntity
  8
AM_4
100
AcDbLine
 10
1.649974312284529
 20
0.1102359999999999
 30
0.0
 11
1.636054915296871
 21
0.1102359999999999
 31
0.0
  0
LINE
  5
1AF
330
132
100
AcDbEntity
  8
AM_4
100
AcDbLine
 10
1.636054915296871
 20
-0.1102359999999997
 30
0.0
 11
1.649974312284529
 21
-0.1102359999999997
 31
0.0
  0
ELLIPSE
  5
1B0
330
132
100
AcDbEntity
  8
AM_4
100
AcDbEllipse
 10
1.636054915296871
 20
0.0000000000000001
 30
0.0
 11
6.750008227540371E-18
 21
0.1102359999999998
 31
0.0
210
0.0
220
0.0
230
1.0
 40
0.7071067811865475
 41
0.0
 42
3.141592653589793
  0
ELLIPSE
  5
1B1
330
132
100
AcDbEntity
  8
AM_4
100
AcDbEllipse
 10
1.649974312284529
 20
0.0000000000000001
 30
0.0
 11
6.750008227540362E-18
 21
0.1102359999999997
 31
0.0
210
0.0
220
0.0
230
1.0
 40
0.7071067811865485
 41
5.685807713310249
 42
10.02058231319573
  0
LWPOLYLINE
  5
1B2
330
132
100
AcDbEntity
  8
AM_4
100
AcDbPolyline
 90
        5
 70
     0
 43
0.0
 10
1.431878891082356
 20
-0.0909214090671168
 10
1.45596365521152
 20
-0.1133330912277909
 10
1.482405711420522
 20
-0.1359448732442178
 10
1.51170581699828
 20
-0.1588926749040721
 10
1.543234420537004
 20
-0.1818428181342336
  0
LINE
  5
1B3
330
132
100
AcDbEntity
  8
AM_4
100
AcDbLine
 10
1.543234420537004
 20
-0.1818428181342336
 30
0.0
 11
1.631438924036357
 21
-0.1818428181342336
 31
0.0
  0
LINE
  5
1B4
330
132
100
AcDbEntity
  8
AM_4
100
AcDbLine
 10
1.543234420537004
 20
0.1818428181342338
 30
0.0
 11
1.631438924036357
 21
0.1818428181342338
 31
0.0
  0
LWPOLYLINE
  5
1B5
330
132
100
AcDbEntity
  8
AM_4
100
AcDbPolyline
 90
        5
 70
     0
 43
0.0
 10
1.543234420537004
 20
0.1818428181342338
 10
1.51242199909508
 20
0.1594311359735597
 10
1.483476727188795
 20
0.1368193539571326
 10
1.456566427981318
 20
0.1138715522972784
 10
1.431878891082356
 20
0.090921409067117
  0
LINE
  5
1B6
330
132
100
AcDbEntity
  8
AM_4
100
AcDbLine
 10
1.431878891082356
 20
0.090921409067117
 30
0.0
 11
1.520083394581709
 21
0.090921409067117
 31
0.0
  0
LWPOLYLINE
  5
1B7
330
132
100
AcDbEntity
  8
AM_4
100
AcDbPolyline
 90
        5
 70
     0
 43
0.0
 10
1.431878891082356
 20
0.090921409067117
 10
1.428515062425976
 20
0.0460980447457687
 10
1.427263454577335
 20
0.0008744807129146
 10
1.428458357762475
 20
-0.045021122606794
 10
1.431878891082356
 20
-0.0909214090671168
  0
LINE
  5
1B8
330
132
100
AcDbEntity
  8
AM_4
100
AcDbLine
 10
1.431878891082356
 20
-0.0909214090671168
 30
0.0
 11
1.520083394581709
 21
-0.0909214090671167
 31
0.0
  0
LWPOLYLINE
  5
1B9
330
132
100
AcDbEntity
  8
AM_4
100
AcDbPolyline
 90
        5
 70
     0
 43
0.0
 10
1.727376410758993
 20
-0.1054687799392022
 10
1.718709689361841
 20
-0.1133330912277908
 10
1.692267633152839
 20
-0.135944873244218
 10
1.66296752757508
 20
-0.1588926749040722
 10
1.631438924036357
 20
-0.1818428181342336
  0
LWPOLYLINE
  5
1BA
330
132
100
AcDbEntity
  8
AM_4
100
AcDbPolyline
 90
        5
 70
     0
 43
0.0
 10
1.631438924036357
 20
0.1818428181342338
 10
1.662251345478281
 20
0.1594311359735597
 10
1.691196617384566
 20
0.1368193539571327
 10
1.718106916592044
 20
0.1138715522972783
 10
1.727284163841785
 20
0.1055536882887802
  0
LWPOLYLINE
  5
1BB
330
132
100
AcDbEntity
  8
AM_4
100
AcDbPolyline
 90
        5
 70
     0
 43
0.0
 10
1.520083394581709
 20
0.090921409067117
 10
1.550895816023633
 20
0.113333091227791
 10
1.579841087929918
 20
0.135944873244218
 10
1.606751387137396
 20
0.1588926749040725
 10
1.631438924036357
 20
0.1818428181342338
  0
LWPOLYLINE
  5
1BC
330
132
100
AcDbEntity
  8
AM_4
100
AcDbPolyline
 90
        5
 70
     0
 43
0.0
 10
1.520083394581709
 20
-0.0909214090671167
 10
1.523447223238089
 20
-0.0460980447457687
 10
1.52469883108673
 20
-0.0008744807129145
 10
1.52350392790159
 20
0.0450211226067941
 10
1.520083394581709
 20
0.090921409067117
  0
LWPOLYLINE
  5
1BD
330
132
100
AcDbEntity
  8
AM_4
100
AcDbPolyline
 90
        5
 70
     0
 43
0.0
 10
1.631438924036357
 20
-0.1818428181342336
 10
1.607354159907193
 20
-0.1594311359735595
 10
1.580912103698191
 20
-0.1368193539571323
 10
1.551611998120432
 20
-0.1138715522972779
 10
1.520083394581709
 20
-0.0909214090671167
  0
ELLIPSE
  5
1BE
330
132
100
AcDbEntity
  8
AM_4
100
AcDbEllipse
 10
1.636054915296871
 20
-0.0000000000000002
 30
0.0
 11
9.642868896486232E-18
 21
0.1574799999999996
 31
0.0
210
0.0
220
0.0
230
1.0
 40
0.7071067811865476
 41
5.4370271726195
 42
10.27010652822356
  0
ELLIPSE
  5
1BF
330
132
100
AcDbEntity
  8
AM_4
100
AcDbEllipse
 10
1.727056509888894
 20
0.000000000000133
 30
0.0
 11
6.258279876493543E-18
 21
0.102205466602302
 31
0.0
210
0.0
220
0.0
230
1.0
 40
0.7071067811861862
 41
-4.092077860450687
 42
-3.994162827354999
  0
LINE
  5
1C0
330
132
100
AcDbEntity
  8
AM_4
100
AcDbLine
 10
1.668247195527135
 20
0.0594280908632645
 30
0.0
 11
1.667717903655476
 21
0.0583731883619927
 31
0.0
  0
LWPOLYLINE
  5
1C1
330
132
100
AcDbEntity
  8
AM_4
100
AcDbPolyline
 90
       15
 70
     0
 43
0.0
 10
1.775760661060804
 20
0.0923364801678787
 10
1.774942875642138
 20
0.0929376032960283
 10
1.765660517107584
 20
0.0986845019003825
 10
1.755928640134207
 20
0.1028322263451247
 10
1.745947728129162
 20
0.1053392851925047
 10
1.73590099289179
 20
0.1062129093127212
 10
1.725943796447265
 20
0.1054899807516168
 10
1.716215687386313
 20
0.1032215070497011
 10
1.706835970279402
 20
0.0994638761477447
 10
1.697900241343644
 20
0.0942663363771433
 10
1.689508167835432
 20
0.0876783968172636
 10
1.681770948735516
 20
0.0797652614331922
 10
1.674808801566632
 20
0.0706231837582417
 10
1.668739792428219
 20
0.0603857024166236
 10
1.668247195527135
 20
0.0594280908632645
  0
LINE
  5
1C2
330
132
100
AcDbEntity
  8
AM_4
100
AcDbLine
 10
1.780315904006246
 20
0.0886725248181278
 30
0.0
 11
1.776523543788258
 21
0.0917606864716324
 31
0.0
  0
LWPOLYLINE
  5
1C3
330
132
100
AcDbEntity
  8
AM_4
100
AcDbPolyline
 90
       15
 70
     0
 43
0.0
 10
1.668106814055082
 20
-0.059150979790309
 10
1.669798858362238
 20
-0.0623707817509928
 10
1.676203077642482
 20
-0.0726424343203882
 10
1.683597529134338
 20
-0.0818197400684197
 10
1.691871686615783
 20
-0.0897221022740943
 10
1.700874891197329
 20
-0.0961874240789502
 10
1.710421522311634
 20
-0.1010927392057807
 10
1.720310063453788
 20
-0.1043698748119783
 10
1.730347102275594
 20
-0.10600521940647
 10
1.740363740783231
 20
-0.1060243649662853
 10
1.750219522848687
 20
-0.1044718856607575
 10
1.759774434349417
 20
-0.1014047143089413
 10
1.768929855027507
 20
-0.0968752583264331
 10
1.777589455432143
 20
-0.0909313260350586
 10
1.778799626667929
 20
-0.0899536351893106
  0
ELLIPSE
  5
1C4
330
132
100
AcDbEntity
  8
AM_4
100
AcDbEllipse
 10
1.727056509888823
 20
-0.0000000000000001
 30
0.0
 11
6.258279876480461E-18
 21
0.1022054666020884
 31
0.0
210
0.0
220
0.0
230
1.0
 40
0.7071067811865563
 41
0.9595799131265847
 42
2.191107446728658
  0
ELLIPSE
  5
1C5
330
132
100
AcDbEntity
  8
AM_4
100
AcDbEllipse
 10
1.727056509888768
 20
0.0000000000000179
 30
0.0
 11
6.258279876478766E-18
 21
0.1022054666020607
 31
0.0
210
0.0
220
0.0
230
1.0
 40
0.7071067811862439
 41
0.8523596914357778
 42
0.959579913126504
  0
LINE
  5
1C6
330
132
100
AcDbEntity
  8
AM_4
100
AcDbLine
 10
1.812586660863082
 20
0.0605219071451577
 30
0.0
 11
1.780538078661569
 21
0.0884794128974551
 31
0.0
  0
LINE
  5
1C7
330
132
100
AcDbEntity
  8
AM_4
100
AcDbLine
 10
1.780538078661569
 20
-0.0884794128974548
 30
0.0
 11
1.812586660863082
 21
-0.0605219071451575
 31
0.0
  0
ELLIPSE
  5
1C8
330
132
100
AcDbEntity
  8
AM_4
100
AcDbEllipse
 10
1.741945674175674
 20
0.0000000000000001
 30
0.0
 11
6.365617546288464E-18
 21
0.1039584237793371
 31
0.0
210
0.0
220
0.0
230
1.0
 40
0.7071067811865475
 41
5.730473253052759
 42
9.977490014896206
  0
ELLIPSE
  5
1C9
330
132
100
AcDbEntity
  8
AM_4
100
AcDbEllipse
 10
1.786188588765669
 20
0.0000000000000001
 30
0.0
 11
4.354225479598991E-18
 21
0.07110989850511303
 31
0.0
210
0.0
220
0.0
230
1.0
 40
0.7071067811865475
 41
5.730473253052759
 42
9.977490014896206
  0
ELLIPSE
  5
1CA
330
132
100
AcDbEntity
  8
AM_4
100
AcDbEllipse
 10
1.786188588765724
 20
0.0000000000000163
 30
0.0
 11
4.354225479597828E-18
 21
0.07110989850509403
 31
0.0
210
0.0
220
0.0
230
1.0
 40
0.7071067811861774
 41
-0.6486229143874533
 42
-0.5527120541262507
  0
ELLIPSE
  5
1CB
330
132
100
AcDbEntity
  8
AM_4
100
AcDbEllipse
 10
1.789168282161101
 20
0.0000000000000001
 30
0.0
 11
-1.178200542891330E-17
 21
-0.0641382502400768
 31
0.0
210
0.0
220
0.0
230
1.0
 40
0.7071067811865481
 41
0.0
 42
6.283185307179586
  0
LWPOLYLINE
  5
1CC
330
132
100
AcDbEntity
  8
AM_4
100
AcDbPolyline
 90
        8
 70
     0
 43
0.0
 10
1.8368271209021
 20
0.0000000000000001
 10
1.836660220693867
 20
0.0057316922649271
 10
1.835459713117424
 20
0.0163097395446271
 10
1.833117229460973
 20
0.0265527384746762
 10
1.829670131580917
 20
0.0362352244569342
 10
1.825173364718791
 20
0.0451455530636334
 10
1.81970285667121
 20
0.0530775711076499
 10
1.816734658717625
 20
0.0565060080657241
  0
LWPOLYLINE
  5
1CD
330
132
100
AcDbEntity
  8
AM_4
100
AcDbPolyline
 90
        8
 70
     0
 43
0.0
 10
1.816741845734532
 20
-0.0564983099908015
 10
1.819796864710085
 20
-0.0529602724109141
 10
1.825162235515765
 20
-0.0451643725324423
 10
1.829620079677461
 20
-0.0363522387889671
 10
1.833065657890183
 20
-0.026729711981728
 10
1.835423531907662
 20
-0.0165211586389809
 10
1.836647054917765
 20
-0.0059530890522779
 10
1.8368271209021
 20
0.0000000000000001
  0
ELLIPSE
  5
1CE
330
132
100
AcDbEntity
  8
AM_4
100
AcDbEllipse
 10
1.786188588765662
 20
0.000000000000014
 30
0.0
 11
4.354225479600037E-18
 21
0.07110989850513011
 31
0.0
210
0.0
220
0.0
230
1.0
 40
0.7071067811865743
 41
3.694304707716627
 42
3.790387896100586
  0
LINE
  5
1CF
330
132
100
AcDbEntity
  8
AM_4
100
AcDbLine
 10
-0.2464009204579999
 20
0.0335046999999997
 30
0.0
 11
-0.2433398951829998
 21
0.0218508999999995
 31
0.0
  0
LINE
  5
1D0
330
132
100
AcDbEntity
  8
AM_4
100
AcDbLine
 10
-0.243339895183
 20
-0.0218508779411998
 30
0.0
 11
-0.2464009204580001
 21
-0.0335047031318999
 31
0.0
  0
LINE
  5
1D1
330
132
100
AcDbEntity
  8
AM_4
100
AcDbLine
 10
-0.243339895183
 20
0.0218509000000001
 30
0.0
 11
-0.243339895183
 21
-0.0218508779411999
 31
0.0
  0
LINE
  5
1D2
330
132
100
AcDbEntity
  8
AM_4
100
AcDbLine
 10
-0.3290446658729999
 20
-0.0509854606029999
 30
0.0
 11
-0.3290446658729999
 21
0.0509854000000001
 31
0.0
  0
LINE
  5
1D3
330
132
100
AcDbEntity
  8
AM_4
100
AcDbLine
 10
-0.273948573129
 20
-0.0509854606029999
 30
0.0
 11
-0.3290446658729999
 21
-0.0509854606029999
 31
0.0
  0
LINE
  5
1D4
330
132
100
AcDbEntity
  8
AM_4
100
AcDbLine
 10
-0.2617052594310001
 20
-0.0480720732029999
 30
0.0
 11
-0.2739485731290001
 21
-0.0509854606029999
 31
0.0
  0
LINE
  5
1D5
330
132
100
AcDbEntity
  8
AM_4
100
AcDbLine
 10
-0.2525225773070001
 20
-0.0422449047020001
 30
0.0
 11
-0.2617052594310001
 21
-0.048072073203
 31
0.0
  0
LINE
  5
1D6
330
132
100
AcDbEntity
  8
AM_4
100
AcDbLine
 10
-0.2464009204580001
 20
-0.0335047031319
 30
0.0
 11
-0.2525225773070001
 21
-0.0422449047020001
 31
0.0
  0
LINE
  5
1D7
330
132
100
AcDbEntity
  8
AM_4
100
AcDbLine
 10
-0.2525225773069998
 20
0.0422448999999999
 30
0.0
 11
-0.2464009204579998
 21
0.0335046999999998
 31
0.0
  0
LINE
  5
1D8
330
132
100
AcDbEntity
  8
AM_4
100
AcDbLine
 10
-0.2617052594309999
 20
0.0480720000000001
 30
0.0
 11
-0.2525225773069999
 21
0.0422449000000002
 31
0.0
  0
LINE
  5
1D9
330
132
100
AcDbEntity
  8
AM_4
100
AcDbLine
 10
-0.2739485731290002
 20
0.0509854000000001
 30
0.0
 11
-0.2617052594309998
 21
0.048072
 31
0.0
  0
LINE
  5
1DA
330
132
100
AcDbEntity
  8
AM_4
100
AcDbLine
 10
-0.3290446658729999
 20
0.0509854000000001
 30
0.0
 11
-0.273948573129
 21
0.0509854000000001
 31
0.0
  0
LINE
  5
1DB
330
132
100
AcDbEntity
  8
AM_4
100
AcDbLine
 10
-0.1821221455899995
 20
0.0218509000000016
 30
0.0
 11
-0.179061514016001
 21
0.033504699999996
 31
0.0
  0
LINE
  5
1DC
330
132
100
AcDbEntity
  8
AM_4
100
AcDbLine
 10
-0.18212214559
 20
-0.0218508779411998
 30
0.0
 11
-0.18212214559
 21
0.0218509000000001
 31
0.0
  0
LINE
  5
1DD
330
132
100
AcDbEntity
  8
AM_4
100
AcDbLine
 10
-0.1790615140160002
 20
-0.0335047031318989
 30
0.0
 11
-0.1821221455899987
 21
-0.0218508779412045
 31
0.0
  0
LINE
  5
1DE
330
132
100
AcDbEntity
  8
AM_4
100
AcDbLine
 10
-0.1729394634659993
 20
-0.042244904702001
 30
0.0
 11
-0.1790615140160002
 21
-0.0335047031318996
 31
0.0
  0
LINE
  5
1DF
330
132
100
AcDbEntity
  8
AM_4
100
AcDbLine
 10
-0.1637571750429995
 20
-0.0480720732030001
 30
0.0
 11
-0.1729394634659993
 21
-0.0422449047020002
 31
0.0
  0
LINE
  5
1E0
330
132
100
AcDbEntity
  8
AM_4
100
AcDbLine
 10
-0.1515134676439996
 20
-0.0509854606029999
 30
0.0
 11
-0.1637571750429995
 21
-0.048072073203
 31
0.0
  0
LINE
  5
1E1
330
132
100
AcDbEntity
  8
AM_4
100
AcDbLine
 10
-0.127026446547
 20
-0.0509854606029999
 30
0.0
 11
-0.151513467644
 21
-0.0509854606029999
 31
0.0
  0
LINE
  5
1E2
330
132
100
AcDbEntity
  8
AM_4
100
AcDbLine
 10
-0.1147831328490001
 20
-0.048072073203
 30
0.0
 11
-0.1270264465469998
 21
-0.0509854606029999
 31
0.0
  0
LINE
  5
1E3
330
132
100
AcDbEntity
  8
AM_4
100
AcDbLine
 10
-0.1056004507249999
 20
-0.0422449047019998
 30
0.0
 11
-0.114783132849
 21
-0.0480720732029999
 31
0.0
  0
LINE
  5
1E4
330
132
100
AcDbEntity
  8
AM_4
100
AcDbLine
 10
-0.0994784001750001
 20
-0.0335047031319001
 30
0.0
 11
-0.1056004507249999
 21
-0.0422449047019998
 31
0.0
  0
LINE
  5
1E5
330
132
100
AcDbEntity
  8
AM_4
100
AcDbLine
 10
-0.096417768601
 20
-0.0218508779411998
 30
0.0
 11
-0.0994784001750001
 21
-0.0335047031319004
 31
0.0
  0
LINE
  5
1E6
330
132
100
AcDbEntity
  8
AM_4
100
AcDbLine
 10
-0.096417768601
 20
0.0218509000000001
 30
0.0
 11
-0.096417768601
 21
-0.0218508779411999
 31
0.0
  0
LINE
  5
1E7
330
132
100
AcDbEntity
  8
AM_4
100
AcDbLine
 10
-0.099478400175
 20
0.0335046999999999
 30
0.0
 11
-0.0964177686010002
 21
0.021850900000001
 31
0.0
  0
LINE
  5
1E8
330
132
100
AcDbEntity
  8
AM_4
100
AcDbLine
 10
-0.1056004507250002
 20
0.0422449000000002
 30
0.0
 11
-0.0994784001749999
 21
0.0335046999999999
 31
0.0
  0
LINE
  5
1E9
330
132
100
AcDbEntity
  8
AM_4
100
AcDbLine
 10
-0.1147831328489999
 20
0.0480720000000002
 30
0.0
 11
-0.1056004507250002
 21
0.0422449000000004
 31
0.0
  0
LINE
  5
1EA
330
132
100
AcDbEntity
  8
AM_4
100
AcDbLine
 10
-0.1270264465470001
 20
0.0509854000000001
 30
0.0
 11
-0.1147831328489999
 21
0.0480720000000001
 31
0.0
  0
LINE
  5
1EB
330
132
100
AcDbEntity
  8
AM_4
100
AcDbLine
 10
-0.151513467644
 20
0.0509854000000001
 30
0.0
 11
-0.127026446547
 21
0.0509854000000001
 31
0.0
  0
LINE
  5
1EC
330
132
100
AcDbEntity
  8
AM_4
100
AcDbLine
 10
-0.1637571750430003
 20
0.0480719999999999
 30
0.0
 11
-0.1515134676440004
 21
0.0509853999999999
 31
0.0
  0
LINE
  5
1ED
330
132
100
AcDbEntity
  8
AM_4
100
AcDbLine
 10
-0.1729394634660001
 20
0.0422449
 30
0.0
 11
-0.1637571750430002
 21
0.0480719999999999
 31
0.0
  0
LINE
  5
1EE
330
132
100
AcDbEntity
  8
AM_4
100
AcDbLine
 10
-0.179061514016001
 20
0.0335046999999987
 30
0.0
 11
-0.1729394634660001
 21
0.0422449
 31
0.0
  0
LINE
  5
1EF
330
132
100
AcDbEntity
  8
AM_4
100
AcDbLine
 10
2.529999999999999
 20
-1.0
 30
0.0
 11
2.101087423318159
 21
-0.8244613538484016
 31
0.0
  0
LINE
  5
1F0
330
132
100
AcDbEntity
  8
AM_4
100
AcDbLine
 10
-2.10108742331816
 20
-0.8244613538484017
 30
0.0
 11
-2.529999999999999
 21
-1.0
 31
0.0
  0
LWPOLYLINE
  5
1F1
330
132
100
AcDbEntity
  8
AM_4
100
AcDbPolyline
 90
        7
 70
     0
 43
0.0
 10
1.4875
 20
-0.9425349257336593
 10
1.548621009340026
 20
-0.9300218712277534
 10
1.597956077716043
 20
-0.9170535835751061
 10
1.63512973546838
 20
-0.9037287592752203
 10
1.659859068615475
 20
-0.8901488082867669
 10
1.671955872000098
 20
-0.8764170822365669
 10
1.67325
 20
-0.8702062300884955
  0
LINE
  5
1F2
330
132
100
AcDbEntity
  8
AM_4
100
AcDbLine
 10
0.0198957
 20
-0.0684661787039999
 30
0.0
 11
-0.053565383256
 21
-0.0684661787039999
 31
0.0
  0
LINE
  5
1F3
330
132
100
AcDbEntity
  8
AM_4
100
AcDbLine
 10
0.347409
 20
-0.0684661787039999
 30
0.0
 11
0.237218
 21
-0.0684661787039999
 31
0.0
  0
LINE
  5
1F4
330
132
100
AcDbEntity
  8
AM_4
100
AcDbLine
 10
0.237218
 20
-0.0684661787039999
 30
0.0
 11
0.237218
 21
0.0684661000000001
 31
0.0
  0
LINE
  5
1F5
330
132
100
AcDbEntity
  8
AM_4
100
AcDbLine
 10
0.237218
 20
0.0684661000000001
 30
0.0
 11
0.347409
 21
0.0684661000000001
 31
0.0
  0
LINE
  5
1F6
330
132
100
AcDbEntity
  8
AM_4
100
AcDbLine
 10
0.347409
 20
0.0684661000000001
 30
0.0
 11
0.347409
 21
0.0509854000000001
 31
0.0
  0
LINE
  5
1F7
330
132
100
AcDbEntity
  8
AM_4
100
AcDbLine
 10
0.347409
 20
0.0509854000000001
 30
0.0
 11
0.255583
 21
0.0509854000000001
 31
0.0
  0
LINE
  5
1F8
330
132
100
AcDbEntity
  8
AM_4
100
AcDbLine
 10
0.255583
 20
0.0509854000000001
 30
0.0
 11
0.255583
 21
0.0131105000000001
 31
0.0
  0
LINE
  5
1F9
330
132
100
AcDbEntity
  8
AM_4
100
AcDbLine
 10
0.255583
 20
0.0131105000000001
 30
0.0
 11
0.335166
 21
0.0131105000000001
 31
0.0
  0
LINE
  5
1FA
330
132
100
AcDbEntity
  8
AM_4
100
AcDbLine
 10
0.335166
 20
0.0131105000000001
 30
0.0
 11
0.335166
 21
-0.0043701598401999
 31
0.0
  0
LINE
  5
1FB
330
132
100
AcDbEntity
  8
AM_4
100
AcDbLine
 10
0.335166
 20
-0.0043701598401999
 30
0.0
 11
0.255583
 21
-0.0043701598401998
 31
0.0
  0
LINE
  5
1FC
330
132
100
AcDbEntity
  8
AM_4
100
AcDbLine
 10
0.255583
 20
-0.0043701598401998
 30
0.0
 11
0.255583
 21
-0.0509854606029999
 31
0.0
  0
LINE
  5
1FD
330
132
100
AcDbEntity
  8
AM_4
100
AcDbLine
 10
0.255583
 20
-0.0509854606029999
 30
0.0
 11
0.347409
 21
-0.0509854606029999
 31
0.0
  0
LINE
  5
1FE
330
132
100
AcDbEntity
  8
AM_4
100
AcDbLine
 10
0.347409
 20
-0.0509854606029999
 30
0.0
 11
0.347409
 21
-0.0684661787039999
 31
0.0
  0
LINE
  5
1FF
330
132
100
AcDbEntity
  8
AM_4
100
AcDbLine
 10
0.0933567
 20
-0.0218508779411999
 30
0.0
 11
0.0933567
 21
0.0218509000000001
 31
0.0
  0
LINE
  5
200
330
132
100
AcDbEntity
  8
AM_4
100
AcDbLine
 10
0.0933566999999999
 20
0.0218508999999999
 30
0.0
 11
0.0964177000000002
 21
0.0364181000000013
 31
0.0
  0
LINE
  5
201
330
132
100
AcDbEntity
  8
AM_4
100
AcDbLine
 10
0.0964177000000003
 20
0.0364181000000006
 30
0.0
 11
0.1025389999999985
 21
0.0480719999999972
 31
0.0
  0
LINE
  5
202
330
132
100
AcDbEntity
  8
AM_4
100
AcDbLine
 10
0.1025389999999985
 20
0.0480719999999989
 30
0.0
 11
0.114783
 21
0.0597256000000003
 31
0.0
  0
LINE
  5
203
330
132
100
AcDbEntity
  8
AM_4
100
AcDbLine
 10
0.114783
 20
0.0597256000000001
 30
0.0
 11
0.1270259999999993
 21
0.0655527999999998
 31
0.0
  0
LINE
  5
204
330
132
100
AcDbEntity
  8
AM_4
100
AcDbLine
 10
0.1270259999999992
 20
0.0655528
 30
0.0
 11
0.1423309999999992
 21
0.0684660999999999
 31
0.0
  0
LINE
  5
205
330
132
100
AcDbEntity
  8
AM_4
100
AcDbLine
 10
0.142331
 20
0.0684661000000001
 30
0.0
 11
0.169879
 21
0.0684661000000001
 31
0.0
  0
LINE
  5
206
330
132
100
AcDbEntity
  8
AM_4
100
AcDbLine
 10
0.1698789999999998
 20
0.0684661
 30
0.0
 11
0.1851829999999998
 21
0.0655528
 31
0.0
  0
LINE
  5
207
330
132
100
AcDbEntity
  8
AM_4
100
AcDbLine
 10
0.1851830000000002
 20
0.0655528
 30
0.0
 11
0.1974269999999998
 21
0.0597256000000003
 31
0.0
  0
LINE
  5
208
330
132
100
AcDbEntity
  8
AM_4
100
AcDbLine
 10
0.1974270000000002
 20
0.0597256
 30
0.0
 11
0.2096700000000003
 21
0.048072
 31
0.0
  0
LINE
  5
209
330
132
100
AcDbEntity
  8
AM_4
100
AcDbLine
 10
0.2096699999999998
 20
0.0480720000000011
 30
0.0
 11
0.2127310000000001
 21
0.0335047000000002
 31
0.0
  0
LINE
  5
20A
330
132
100
AcDbEntity
  8
AM_4
100
AcDbLine
 10
0.212731
 20
0.0335047000000001
 30
0.0
 11
0.194366
 21
0.0335047000000001
 31
0.0
  0
LINE
  5
20B
330
132
100
AcDbEntity
  8
AM_4
100
AcDbLine
 10
0.1943660000000004
 20
0.0335046999999991
 30
0.0
 11
0.1913050000000009
 21
0.0422448999999979
 31
0.0
  0
LINE
  5
20C
330
132
100
AcDbEntity
  8
AM_4
100
AcDbLine
 10
0.1913050000000009
 20
0.0422448999999995
 30
0.0
 11
0.1821220000000006
 21
0.0480719999999997
 31
0.0
  0
LINE
  5
20D
330
132
100
AcDbEntity
  8
AM_4
100
AcDbLine
 10
0.1821220000000006
 20
0.048072
 30
0.0
 11
0.1698790000000008
 21
0.0509853999999999
 31
0.0
  0
LINE
  5
20E
330
132
100
AcDbEntity
  8
AM_4
100
AcDbLine
 10
0.169879
 20
0.0509854000000001
 30
0.0
 11
0.142331
 21
0.0509854000000001
 31
0.0
  0
LINE
  5
20F
330
132
100
AcDbEntity
  8
AM_4
100
AcDbLine
 10
0.1423310000000002
 20
0.0509854000000001
 30
0.0
 11
0.130087
 21
0.048072
 31
0.0
  0
LINE
  5
210
330
132
100
AcDbEntity
  8
AM_4
100
AcDbLine
 10
0.130087
 20
0.0480720000000003
 30
0.0
 11
0.1209050000000001
 21
0.0422449000000003
 31
0.0
  0
LINE
  5
211
330
132
100
AcDbEntity
  8
AM_4
100
AcDbLine
 10
0.1209050000000001
 20
0.0422449000000002
 30
0.0
 11
0.1147830000000001
 21
0.0335047000000001
 31
0.0
  0
LINE
  5
212
330
132
100
AcDbEntity
  8
AM_4
100
AcDbLine
 10
0.1147830000000001
 20
0.0335047000000005
 30
0.0
 11
0.1117220000000002
 21
0.0218509000000008
 31
0.0
  0
LINE
  5
213
330
132
100
AcDbEntity
  8
AM_4
100
AcDbLine
 10
0.111722
 20
0.0218509000000001
 30
0.0
 11
0.111722
 21
-0.0218508779411999
 31
0.0
  0
LINE
  5
214
330
132
100
AcDbEntity
  8
AM_4
100
AcDbLine
 10
0.1117219999999999
 20
-0.0218508779411996
 30
0.0
 11
0.1147829999999998
 21
-0.0335047031318993
 31
0.0
  0
LINE
  5
215
330
132
100
AcDbEntity
  8
AM_4
100
AcDbLine
 10
0.1147829999999998
 20
-0.0335047031318997
 30
0.0
 11
0.1209049999999998
 21
-0.0422449047019998
 31
0.0
  0
LINE
  5
216
330
132
100
AcDbEntity
  8
AM_4
100
AcDbLine
 10
0.1209049999999998
 20
-0.0422449047019997
 30
0.0
 11
0.1300870000000003
 21
-0.048072073203
 31
0.0
  0
LINE
  5
217
330
132
100
AcDbEntity
  8
AM_4
100
AcDbLine
 10
0.1300869999999998
 20
-0.0480720732029999
 30
0.0
 11
0.1423309999999999
 21
-0.0509854606029999
 31
0.0
  0
LINE
  5
218
330
132
100
AcDbEntity
  8
AM_4
100
AcDbLine
 10
0.142331
 20
-0.0509854606029999
 30
0.0
 11
0.169879
 21
-0.0509854606029999
 31
0.0
  0
LINE
  5
219
330
132
100
AcDbEntity
  8
AM_4
100
AcDbLine
 10
0.169879
 20
-0.0509854606029998
 30
0.0
 11
0.1821219999999999
 21
-0.0480720732029999
 31
0.0
  0
LINE
  5
21A
330
132
100
AcDbEntity
  8
AM_4
100
AcDbLine
 10
0.1821219999999999
 20
-0.048072073203
 30
0.0
 11
0.1913050000000001
 21
-0.0422449047019999
 31
0.0
  0
LINE
  5
21B
330
132
100
AcDbEntity
  8
AM_4
100
AcDbLine
 10
0.1913050000000001
 20
-0.0422449047019998
 30
0.0
 11
0.1943659999999997
 21
-0.0335047031319009
 31
0.0
  0
LINE
  5
21C
330
132
100
AcDbEntity
  8
AM_4
100
AcDbLine
 10
0.194366
 20
-0.0335047031318999
 30
0.0
 11
0.194366
 21
-0.0101970921205999
 31
0.0
  0
LINE
  5
21D
330
132
100
AcDbEntity
  8
AM_4
100
AcDbLine
 10
0.194366
 20
-0.0101970921205999
 30
0.0
 11
0.166818
 21
-0.0101970921205999
 31
0.0
  0
LINE
  5
21E
330
132
100
AcDbEntity
  8
AM_4
100
AcDbLine
 10
0.166818
 20
-0.0101970921205999
 30
0.0
 11
0.166818
 21
0.0072836200000001
 31
0.0
  0
LINE
  5
21F
330
132
100
AcDbEntity
  8
AM_4
100
AcDbLine
 10
0.166818
 20
0.0072836200000001
 30
0.0
 11
0.212731
 21
0.0072836200000002
 31
0.0
  0
LINE
  5
220
330
132
100
AcDbEntity
  8
AM_4
100
AcDbLine
 10
0.212731
 20
0.0072836200000002
 30
0.0
 11
0.212731
 21
-0.0364181299019999
 31
0.0
  0
LINE
  5
221
330
132
100
AcDbEntity
  8
AM_4
100
AcDbLine
 10
0.2127310000000003
 20
-0.0364181299019989
 30
0.0
 11
0.20967
 21
-0.0480720732029996
 31
0.0
  0
LINE
  5
222
330
132
100
AcDbEntity
  8
AM_4
100
AcDbLine
 10
0.2096700000000001
 20
-0.0480720732029998
 30
0.0
 11
0.197427
 21
-0.0597256228029998
 31
0.0
  0
LINE
  5
223
330
132
100
AcDbEntity
  8
AM_4
100
AcDbLine
 10
0.197427
 20
-0.0597256228029999
 30
0.0
 11
0.1851830000000001
 21
-0.0655527913039999
 31
0.0
  0
LINE
  5
224
330
132
100
AcDbEntity
  8
AM_4
100
AcDbLine
 10
0.1851830000000001
 20
-0.065552791304
 30
0.0
 11
0.1698790000000001
 21
-0.068466178704
 31
0.0
  0
LINE
  5
225
330
132
100
AcDbEntity
  8
AM_4
100
AcDbLine
 10
0.169879
 20
-0.0684661787039999
 30
0.0
 11
0.142331
 21
-0.0684661787039999
 31
0.0
  0
LINE
  5
226
330
132
100
AcDbEntity
  8
AM_4
100
AcDbLine
 10
0.142331
 20
-0.0684661787039999
 30
0.0
 11
0.1270260000000001
 21
-0.0655527913039999
 31
0.0
  0
LINE
  5
227
330
132
100
AcDbEntity
  8
AM_4
100
AcDbLine
 10
0.127026
 20
-0.0655527913039998
 30
0.0
 11
0.1147830000000008
 21
-0.0597256228030001
 31
0.0
  0
LINE
  5
228
330
132
100
AcDbEntity
  8
AM_4
100
AcDbLine
 10
0.1147830000000008
 20
-0.0597256228030006
 30
0.0
 11
0.1025390000000012
 21
-0.048072073203001
 31
0.0
  0
LINE
  5
229
330
132
100
AcDbEntity
  8
AM_4
100
AcDbLine
 10
0.1025390000000012
 20
-0.0480720732030021
 30
0.0
 11
0.096417700000001
 21
-0.0364181299020018
 31
0.0
  0
LINE
  5
22A
330
132
100
AcDbEntity
  8
AM_4
100
AcDbLine
 10
0.096417700000001
 20
-0.0364181299020046
 30
0.0
 11
0.0933567000000008
 21
-0.0218508779412032
 31
0.0
  0
LINE
  5
22B
330
132
100
AcDbEntity
  8
AM_4
100
AcDbLine
 10
-0.053565383256
 20
-0.0684661787039999
 30
0.0
 11
-0.053565383256
 21
0.0684661000000001
 31
0.0
  0
LINE
  5
22C
330
132
100
AcDbEntity
  8
AM_4
100
AcDbLine
 10
-0.053565383256
 20
0.0684661000000001
 30
0.0
 11
0.0198957
 21
0.0684661000000001
 31
0.0
  0
LINE
  5
22D
330
132
100
AcDbEntity
  8
AM_4
100
AcDbLine
 10
0.0198957000000002
 20
0.0684660999999999
 30
0.0
 11
0.0352000999999998
 21
0.0655528
 31
0.0
  0
LINE
  5
22E
330
132
100
AcDbEntity
  8
AM_4
100
AcDbLine
 10
0.0352000999999998
 20
0.0655528000000002
 30
0.0
 11
0.0474436999999998
 21
0.0597256000000002
 31
0.0
  0
LINE
  5
22F
330
132
100
AcDbEntity
  8
AM_4
100
AcDbLine
 10
0.0474437000000003
 20
0.0597256
 30
0.0
 11
0.0596870000000002
 21
0.0480720000000001
 31
0.0
  0
LINE
  5
230
330
132
100
AcDbEntity
  8
AM_4
100
AcDbLine
 10
0.0596870000000002
 20
0.0480719999999997
 30
0.0
 11
0.0658090999999999
 21
0.0364181000000003
 31
0.0
  0
LINE
  5
231
330
132
100
AcDbEntity
  8
AM_4
100
AcDbLine
 10
0.0658090999999999
 20
0.0364181000000006
 30
0.0
 11
0.0688697000000001
 21
0.0218508999999994
 31
0.0
  0
LINE
  5
232
330
132
100
AcDbEntity
  8
AM_4
100
AcDbLine
 10
0.0688697
 20
0.0218509000000001
 30
0.0
 11
0.0688697
 21
-0.0218508779411999
 31
0.0
  0
LINE
  5
233
330
132
100
AcDbEntity
  8
AM_4
100
AcDbLine
 10
0.0688696999999999
 20
-0.0218508779412002
 30
0.0
 11
0.0658091000000001
 21
-0.0364181299019991
 31
0.0
  0
LINE
  5
234
330
132
100
AcDbEntity
  8
AM_4
100
AcDbLine
 10
0.0658091000000002
 20
-0.0364181299019996
 30
0.0
 11
0.059687
 21
-0.0480720732029999
 31
0.0
  0
LINE
  5
235
330
132
100
AcDbEntity
  8
AM_4
100
AcDbLine
 10
0.059687
 20
-0.0480720732029998
 30
0.0
 11
0.0474437000000001
 21
-0.0597256228029997
 31
0.0
  0
LINE
  5
236
330
132
100
AcDbEntity
  8
AM_4
100
AcDbLine
 10
0.0474437000000001
 20
-0.0597256228029998
 30
0.0
 11
0.0352001000000001
 21
-0.0655527913039998
 31
0.0
  0
LINE
  5
237
330
132
100
AcDbEntity
  8
AM_4
100
AcDbLine
 10
0.0352001000000001
 20
-0.065552791304
 30
0.0
 11
0.0198956999999999
 21
-0.068466178704
 31
0.0
  0
LINE
  5
238
330
132
100
AcDbEntity
  8
AM_4
100
AcDbLine
 10
-0.200487509838
 20
-0.0218508779411999
 30
0.0
 11
-0.200487509838
 21
0.0218509000000001
 31
0.0
  0
LINE
  5
239
330
132
100
AcDbEntity
  8
AM_4
100
AcDbLine
 10
-0.2004875098380006
 20
0.0218508999999975
 30
0.0
 11
-0.1974268782640011
 21
0.0364180999999949
 31
0.0
  0
LINE
  5
23A
330
132
100
AcDbEntity
  8
AM_4
100
AcDbLine
 10
-0.1974268782639993
 20
0.0364181000000011
 30
0.0
 11
-0.1913048277140011
 21
0.0480719999999976
 31
0.0
  0
LINE
  5
23B
330
132
100
AcDbEntity
  8
AM_4
100
AcDbLine
 10
-0.1913048277140011
 20
0.0480719999999991
 30
0.0
 11
-0.1790615140160011
 21
0.0597255999999992
 31
0.0
  0
LINE
  5
23C
330
132
100
AcDbEntity
  8
AM_4
100
AcDbLine
 10
-0.179061514016001
 20
0.0597255999999995
 30
0.0
 11
-0.166817806617
 21
0.0655528
 31
0.0
  0
LINE
  5
23D
330
132
100
AcDbEntity
  8
AM_4
100
AcDbLine
 10
-0.166817806617
 20
0.0655528000000002
 30
0.0
 11
-0.1515134676440004
 21
0.0684661000000001
 31
0.0
  0
LINE
  5
23E
330
132
100
AcDbEntity
  8
AM_4
100
AcDbLine
 10
-0.151513467644
 20
0.0684661000000001
 30
0.0
 11
-0.127026446547
 21
0.0684661000000001
 31
0.0
  0
LINE
  5
23F
330
132
100
AcDbEntity
  8
AM_4
100
AcDbLine
 10
-0.1270264465470002
 20
0.0684661000000001
 30
0.0
 11
-0.1117221075739998
 21
0.0655528
 31
0.0
  0
LINE
  5
240
330
132
100
AcDbEntity
  8
AM_4
100
AcDbLine
 10
-0.1117221075739998
 20
0.0655528000000001
 30
0.0
 11
-0.0994784001749999
 21
0.0597256000000001
 31
0.0
  0
LINE
  5
241
330
132
100
AcDbEntity
  8
AM_4
100
AcDbLine
 10
-0.0994784001749999
 20
0.0597256
 30
0.0
 11
-0.0872350864770002
 21
0.0480720000000003
 31
0.0
  0
LINE
  5
242
330
132
100
AcDbEntity
  8
AM_4
100
AcDbLine
 10
-0.0872350864770002
 20
0.0480720000000006
 30
0.0
 11
-0.0811134296280002
 21
0.0364181000000006
 31
0.0
  0
LINE
  5
243
330
132
100
AcDbEntity
  8
AM_4
100
AcDbLine
 10
-0.0811134296280002
 20
0.0364181000000011
 30
0.0
 11
-0.0780524043529999
 21
0.0218508999999994
 31
0.0
  0
LINE
  5
244
330
132
100
AcDbEntity
  8
AM_4
100
AcDbLine
 10
-0.078052404353
 20
0.0218509000000001
 30
0.0
 11
-0.078052404353
 21
-0.0218508779411999
 31
0.0
  0
LINE
  5
245
330
132
100
AcDbEntity
  8
AM_4
100
AcDbLine
 10
-0.0780524043530001
 20
-0.0218508779412002
 30
0.0
 11
-0.081113429628
 21
-0.0364181299019997
 31
0.0
  0
LINE
  5
246
330
132
100
AcDbEntity
  8
AM_4
100
AcDbLine
 10
-0.081113429628
 20
-0.0364181299019998
 30
0.0
 11
-0.087235086477
 21
-0.0480720732029998
 31
0.0
  0
LINE
  5
247
330
132
100
AcDbEntity
  8
AM_4
100
AcDbLine
 10
-0.087235086477
 20
-0.0480720732029998
 30
0.0
 11
-0.0994784001750001
 21
-0.059725622803
 31
0.0
  0
LINE
  5
248
330
132
100
AcDbEntity
  8
AM_4
100
AcDbLine
 10
-0.0994784001750001
 20
-0.0597256228029999
 30
0.0
 11
-0.111722107574
 21
-0.0655527913039999
 31
0.0
  0
LINE
  5
249
330
132
100
AcDbEntity
  8
AM_4
100
AcDbLine
 10
-0.1117221075740001
 20
-0.065552791304
 30
0.0
 11
-0.1270264465469998
 21
-0.068466178704
 31
0.0
  0
LINE
  5
24A
330
132
100
AcDbEntity
  8
AM_4
100
AcDbLine
 10
-0.127026446547
 20
-0.0684661787039999
 30
0.0
 11
-0.151513467644
 21
-0.0684661787039999
 31
0.0
  0
LINE
  5
24B
330
132
100
AcDbEntity
  8
AM_4
100
AcDbLine
 10
-0.1515134676439996
 20
-0.068466178704
 30
0.0
 11
-0.1668178066169993
 21
-0.0655527913040001
 31
0.0
  0
LINE
  5
24C
330
132
100
AcDbEntity
  8
AM_4
100
AcDbLine
 10
-0.1668178066169992
 20
-0.0655527913040002
 30
0.0
 11
-0.1790615140160002
 21
-0.0597256228029997
 31
0.0
  0
LINE
  5
24D
330
132
100
AcDbEntity
  8
AM_4
100
AcDbLine
 10
-0.1790615140160003
 20
-0.0597256228029995
 30
0.0
 11
-0.1913048277140004
 21
-0.0480720732029994
 31
0.0
  0
LINE
  5
24E
330
132
100
AcDbEntity
  8
AM_4
100
AcDbLine
 10
-0.1913048277140004
 20
-0.0480720732029992
 30
0.0
 11
-0.1974268782639985
 21
-0.0364181299020027
 31
0.0
  0
LINE
  5
24F
330
132
100
AcDbEntity
  8
AM_4
100
AcDbLine
 10
-0.1974268782639985
 20
-0.0364181299020065
 30
0.0
 11
-0.200487509838
 21
-0.0218508779412001
 31
0.0
  0
LINE
  5
250
330
132
100
AcDbEntity
  8
AM_4
100
AcDbLine
 10
-0.3474096364199999
 20
-0.0684661787039999
 30
0.0
 11
-0.3474096364199999
 21
0.0684661000000001
 31
0.0
  0
LINE
  5
251
330
132
100
AcDbEntity
  8
AM_4
100
AcDbLine
 10
-0.3474096364199999
 20
0.0684661000000001
 30
0.0
 11
-0.273948573129
 21
0.0684661000000001
 31
0.0
  0
LINE
  5
252
330
132
100
AcDbEntity
  8
AM_4
100
AcDbLine
 10
-0.2739485731290002
 20
0.0684661000000001
 30
0.0
 11
-0.2586442341559997
 21
0.0655528
 31
0.0
  0
LINE
  5
253
330
132
100
AcDbEntity
  8
AM_4
100
AcDbLine
 10
-0.2586442341559998
 20
0.0655528000000001
 30
0.0
 11
-0.2464009204579999
 21
0.0597256000000001
 31
0.0
  0
LINE
  5
254
330
132
100
AcDbEntity
  8
AM_4
100
AcDbLine
 10
-0.2464009204579998
 20
0.0597255999999999
 30
0.0
 11
-0.2341572130589998
 21
0.048072
 31
0.0
  0
LINE
  5
255
330
132
100
AcDbEntity
  8
AM_4
100
AcDbLine
 10
-0.2341572130589999
 20
0.0480720000000002
 30
0.0
 11
-0.22803555621
 21
0.0364181000000003
 31
0.0
  0
LINE
  5
256
330
132
100
AcDbEntity
  8
AM_4
100
AcDbLine
 10
-0.2280355562099999
 20
0.0364180999999998
 30
0.0
 11
-0.224974530935
 21
0.0218509000000001
 31
0.0
  0
LINE
  5
257
330
132
100
AcDbEntity
  8
AM_4
100
AcDbLine
 10
-0.224974530935
 20
0.0218509000000001
 30
0.0
 11
-0.224974530935
 21
-0.0218508779411999
 31
0.0
  0
LINE
  5
258
330
132
100
AcDbEntity
  8
AM_4
100
AcDbLine
 10
-0.2249745309350003
 20
-0.0218508779412012
 30
0.0
 11
-0.2280355562100002
 21
-0.0364181299020009
 31
0.0
  0
LINE
  5
259
330
132
100
AcDbEntity
  8
AM_4
100
AcDbLine
 10
-0.2280355562099997
 20
-0.0364181299019996
 30
0.0
 11
-0.2341572130589997
 21
-0.0480720732029995
 31
0.0
  0
LINE
  5
25A
330
132
100
AcDbEntity
  8
AM_4
100
AcDbLine
 10
-0.2341572130590001
 20
-0.048072073203
 30
0.0
 11
-0.2464009204580001
 21
-0.0597256228029999
 31
0.0
  0
LINE
  5
25B
330
132
100
AcDbEntity
  8
AM_4
100
AcDbLine
 10
-0.2464009204580001
 20
-0.059725622803
 30
0.0
 11
-0.258644234156
 21
-0.065552791304
 31
0.0
  0
LINE
  5
25C
330
132
100
AcDbEntity
  8
AM_4
100
AcDbLine
 10
-0.258644234156
 20
-0.0655527913039999
 30
0.0
 11
-0.273948573129
 21
-0.0684661787039999
 31
0.0
  0
LINE
  5
25D
330
132
100
AcDbEntity
  8
AM_4
100
AcDbLine
 10
-0.273948573129
 20
-0.0684661787039999
 30
0.0
 11
-0.3474096364199999
 21
-0.0684661787039999
 31
0.0
  0
LWPOLYLINE
  5
25E
330
132
100
AcDbEntity
  8
AM_4
100
AcDbPolyline
 90
       32
 70
     0
 43
0.0
 10
2.10108742331816
 20
-0.8244613538484017
 10
2.050855710258426
 20
-0.8073495554134774
 10
1.985015746903091
 20
-0.7907161342267277
 10
1.904068615128544
 20
-0.7746876806669184
 10
1.808630371484805
 20
-0.7593861809438841
 10
1.699427358633191
 20
-0.7449280887098159
 10
1.577290677440082
 20
-0.7314234387766491
 10
1.443149861797505
 20
-0.718975009684706
 10
1.298025804308936
 20
-0.7076775414959433
 10
1.143022986680168
 20
-0.6976170147648754
 10
0.9793210739466137
 20
-0.6888699961746376
 10
0.8081659365100938
 20
-0.6815030558182961
 10
0.6308601683127978
 20
-0.6755722605602427
 10
0.4487531733108566
 20
-0.6711227473335031
 10
0.2632308956954456
 20
-0.6681883796204227
 10
0.0757052720206317
 20
-0.6667914897311176
 10
-0.1123965144863522
 20
-0.6669427088411104
 10
-0.2996428956512241
 20
-0.6686408860816655
 10
-0.4846088134508629
 20
-0.6718730972985951
 10
-0.6658865655653388
 20
-0.6766147434128758
 10
-0.8420965188425611
 20
-0.6828297376344933
 10
-1.011897609139611
 20
-0.6904707801047054
 10
-1.173997547630627
 20
-0.6994797178765262
 10
-1.327162655905074
 20
-0.7097879874937666
 10
-1.47022725500536
 20
-0.7213171368003359
 10
-1.602102536947568
 20
-0.7339794220085208
 10
-1.721784851207644
 20
-0.74767847548219
 10
-1.828363343107912
 20
-0.7623100391526942
 10
-1.921026885971158
 20
-0.7777627579857213
 10
-1.999070254284415
 20
-0.7939190274603449
 10
-2.061899490890946
 20
-0.8106558886104412
 10
-2.101087423318159
 20
-0.8244613538484016
  0
LINE
  5
25F
330
132
100
AcDbEntity
  8
AM_4
100
AcDbLine
 10
2.101087423318159
 20
-0.8244613538484016
 30
0.0
 11
2.101087423318159
 21
0.8244613538484017
 31
0.0
  0
LINE
  5
260
330
132
100
AcDbEntity
  8
AM_4
100
AcDbLine
 10
-2.10108742331816
 20
-0.8244613538484017
 30
0.0
 11
-2.101087423318159
 21
0.8244613538484018
 31
0.0
  0
LINE
  5
261
330
132
100
AcDbEntity
  8
AM_4
100
AcDbLine
 10
0.0198957
 20
-0.0509854606029999
 30
0.0
 11
-0.0352000977482
 21
-0.0509854606029999
 31
0.0
  0
LINE
  5
262
330
132
100
AcDbEntity
  8
AM_4
100
AcDbLine
 10
0.0321392
 20
-0.048072073203
 30
0.0
 11
0.0198956999999999
 21
-0.050985460603
 31
0.0
  0
LINE
  5
263
330
132
100
AcDbEntity
  8
AM_4
100
AcDbLine
 10
0.0413217000000001
 20
-0.0422449047019999
 30
0.0
 11
0.0321392
 21
-0.0480720732029999
 31
0.0
  0
LINE
  5
264
330
132
100
AcDbEntity
  8
AM_4
100
AcDbLine
 10
0.0474437000000001
 20
-0.0335047031318996
 30
0.0
 11
0.0413217000000001
 21
-0.0422449047019996
 31
0.0
  0
LINE
  5
265
330
132
100
AcDbEntity
  8
AM_4
100
AcDbLine
 10
0.0505043000000002
 20
-0.0218508779411993
 30
0.0
 11
0.0474437000000001
 21
-0.0335047031318995
 31
0.0
  0
LINE
  5
266
330
132
100
AcDbEntity
  8
AM_4
100
AcDbLine
 10
0.0505043
 20
0.0218509000000001
 30
0.0
 11
0.0505043
 21
-0.0218508779411999
 31
0.0
  0
LINE
  5
267
330
132
100
AcDbEntity
  8
AM_4
100
AcDbLine
 10
0.0474436999999998
 20
0.0335047000000009
 30
0.0
 11
0.0505042999999999
 21
0.0218509000000006
 31
0.0
  0
LINE
  5
268
330
132
100
AcDbEntity
  8
AM_4
100
AcDbLine
 10
0.0413216999999998
 20
0.0422449000000003
 30
0.0
 11
0.0474436999999998
 21
0.0335047000000002
 31
0.0
  0
LINE
  5
269
330
132
100
AcDbEntity
  8
AM_4
100
AcDbLine
 10
0.0321392000000002
 20
0.048072
 30
0.0
 11
0.0413216999999998
 21
0.0422449000000002
 31
0.0
  0
LINE
  5
26A
330
132
100
AcDbEntity
  8
AM_4
100
AcDbLine
 10
0.0198957000000001
 20
0.0509854000000002
 30
0.0
 11
0.0321392000000002
 21
0.0480720000000002
 31
0.0
  0
LINE
  5
26B
330
132
100
AcDbEntity
  8
AM_4
100
AcDbLine
 10
-0.0352000977482
 20
0.0509854000000001
 30
0.0
 11
0.0198957
 21
0.0509854000000001
 31
0.0
  0
LINE
  5
26C
330
132
100
AcDbEntity
  8
AM_4
100
AcDbLine
 10
-0.0352000977482
 20
-0.0509854606029999
 30
0.0
 11
-0.0352000977482
 21
0.0509854000000001
 31
0.0
  0
LINE
  5
26D
330
132
100
AcDbEntity
  8
AM_4
100
AcDbLine
 10
2.101087423318159
 20
0.8244613538484017
 30
0.0
 11
2.53
 21
0.9999999999999999
 31
0.0
  0
LWPOLYLINE
  5
26E
330
132
100
AcDbEntity
  8
AM_4
100
AcDbPolyline
 90
        7
 70
     0
 43
0.0
 10
-1.48750000000001
 20
0.9425349257336574
 10
-1.548621009340034
 20
0.9300218712277514
 10
-1.597956077716049
 20
0.9170535835751041
 10
-1.635129735468385
 20
0.9037287592752182
 10
-1.659859068615478
 20
0.8901488082867648
 10
-1.671955872000099
 20
0.8764170822365647
 10
-1.67325
 20
0.8702062300884955
  0
LINE
  5
26F
330
132
100
AcDbEntity
  8
AM_4
100
AcDbLine
 10
-2.529999999999999
 20
0.9999999999999999
 30
0.0
 11
-2.101087423318159
 21
0.8244613538484018
 31
0.0
  0
LWPOLYLINE
  5
270
330
132
100
AcDbEntity
  8
AM_4
100
AcDbPolyline
 90
       32
 70
     0
 43
0.0
 10
-2.10108742331816
 20
0.8244613538484017
 10
-2.050855710258426
 20
0.8073495554134774
 10
-1.98501574690309
 20
0.7907161342267277
 10
-1.904068615128544
 20
0.7746876806669184
 10
-1.808630371484805
 20
0.7593861809438843
 10
-1.69942735863319
 20
0.744928088709816
 10
-1.577290677440082
 20
0.7314234387766492
 10
-1.443149861797504
 20
0.7189750096847062
 10
-1.298025804308936
 20
0.7076775414959435
 10
-1.143022986680168
 20
0.6976170147648756
 10
-0.9793210739466132
 20
0.6888699961746378
 10
-0.8081659365100933
 20
0.6815030558182963
 10
-0.6308601683127972
 20
0.6755722605602428
 10
-0.4487531733108562
 20
0.6711227473335033
 10
-0.2632308956954451
 20
0.6681883796204229
 10
-0.0757052720206312
 20
0.6667914897311178
 10
0.1123965144863528
 20
0.6669427088411106
 10
0.2996428956512246
 20
0.6686408860816657
 10
0.4846088134508634
 20
0.6718730972985953
 10
0.6658865655653393
 20
0.676614743412876
 10
0.8420965188425614
 20
0.6828297376344936
 10
1.011897609139612
 20
0.6904707801047056
 10
1.173997547630628
 20
0.6994797178765264
 10
1.327162655905074
 20
0.7097879874937667
 10
1.470227255005361
 20
0.7213171368003362
 10
1.602102536947569
 20
0.7339794220085211
 10
1.721784851207645
 20
0.7476784754821902
 10
1.828363343107912
 20
0.7623100391526944
 10
1.921026885971158
 20
0.7777627579857214
 10
1.999070254284415
 20
0.793919027460345
 10
2.061899490890946
 20
0.8106558886104414
 10
2.101087423318159
 20
0.8244613538484016
  0
ENDBLK
  5
135
330
132
100
AcDbEntity
  8
0
100
AcDbBlockEnd
  0
ENDSEC
  0
SECTION
  2
ENTITIES
  0
INSERT
  5
6F
330
1F
100
AcDbEntity
  8
0
100
AcDbBlockReference
  2
1_129196_4
 10
0.0
 20
0.0
 30
0.0
  0
POINT
  5
272
330
1F
100
AcDbEntity
  8
ConnectionPoints
100
AcDbPoint
 10
0.0
 20
0.0
 30
0.0
  0
POINT
  5
273
330
1F
100
AcDbEntity
  8
ConnectionPoints
100
AcDbPoint
 10
0.0
 20
0.65625
 30
0.0
  0
POINT
  5
274
330
1F
100
AcDbEntity
  8
ConnectionPoints
100
AcDbPoint
 10
0.0
 20
0.0
 30
0.0
  0
POINT
  5
275
330
1F
100
AcDbEntity
  8
ConnectionPoints
100
AcDbPoint
 10
0.0
 20
0.0
 30
0.0
  0
ENDSEC
  0
SECTION
  2
OBJECTS
  0
DICTIONARY
  5
C
330
0
100
AcDbDictionary
281
     1
  3
ACAD_DETAILVIEWSTYLE
350
27D
  3
ACAD_GROUP
350
D
  3
ACAD_LAYOUT
350
1A
  3
ACAD_MATERIAL
350
43
  3
ACAD_MLEADERSTYLE
350
6B
  3
ACAD_MLINESTYLE
350
17
  3
ACAD_PLOTSETTINGS
350
19
  3
ACAD_PLOTSTYLENAME
350
E
  3
ACAD_SCALELIST
350
47
  3
ACAD_SECTIONVIEWSTYLE
350
27E
  3
ACAD_TABLESTYLE
350
69
  3
ACAD_VISUALSTYLE
350
2A
  3
ACDB_RECOMPOSE_DATA
350
27A
  3
AcDbVariableDictionary
350
276
  0
SUN
  5
6D
330
29
100
AcDbSun
 90
        1
290
     0
 63
     7
421
 16777215
 40
1.0
291
     1
 91
  2455826
 92
 54000000
292
     0
 70
     2
 71
   256
280
     1
  0
DICTIONARY
  5
27D
102
{ACAD_REACTORS
330
C
102
}
330
C
100
AcDbDictionary
281
     1
  0
DICTIONARY
  5
D
102
{ACAD_REACTORS
330
C
102
}
330
C
100
AcDbDictionary
281
     1
  0
DICTIONARY
  5
1A
102
{ACAD_REACTORS
330
C
102
}
330
C
100
AcDbDictionary
281
     1
  3
Layout1
350
1E
  3
Layout2
350
26
  3
Model
350
22
  0
DICTIONARY
  5
43
102
{ACAD_REACTORS
330
C
102
}
330
C
100
AcDbDictionary
281
     1
  3
ByBlock
350
45
  3
ByLayer
350
44
  3
Global
350
46
  0
DICTIONARY
  5
6B
102
{ACAD_REACTORS
330
C
102
}
330
C
100
AcDbDictionary
281
     1
  3
Standard
350
6C
  0
DICTIONARY
  5
17
102
{ACAD_REACTORS
330
C
102
}
330
C
100
AcDbDictionary
281
     1
  3
Standard
350
18
  0
DICTIONARY
  5
19
102
{ACAD_REACTORS
330
C
102
}
330
C
100
AcDbDictionary
281
     1
  0
ACDBDICTIONARYWDFLT
  5
E
102
{ACAD_REACTORS
330
C
102
}
330
C
100
AcDbDictionary
281
     1
  3
Normal
350
F
100
AcDbDictionaryWithDefault
340
F
  0
DICTIONARY
  5
47
102
{ACAD_REACTORS
330
C
102
}
330
C
100
AcDbDictionary
281
     1
  3
A0
350
48
  3
A1
350
49
  3
A2
350
4A
  3
A3
350
4B
  3
A4
350
4C
  3
A5
350
4D
  3
A6
350
4E
  3
A7
350
4F
  3
A8
350
50
  3
A9
350
51
  3
B0
350
52
  3
B1
350
53
  3
B2
350
54
  3
B3
350
55
  3
B4
350
56
  3
B5
350
57
  3
B6
350
58
  3
B7
350
59
  3
B8
350
5A
  3
B9
350
5B
  3
C0
350
5C
  3
C1
350
5D
  3
C2
350
5E
  3
C3
350
5F
  3
C4
350
60
  3
C5
350
61
  3
C6
350
62
  3
C7
350
63
  3
C8
350
64
  3
C9
350
65
  3
D0
350
66
  3
D1
350
67
  3
D2
350
68
  0
DICTIONARY
  5
27E
102
{ACAD_REACTORS
330
C
102
}
330
C
100
AcDbDictionary
281
     1
  0
DICTIONARY
  5
69
102
{ACAD_REACTORS
330
C
102
}
330
C
100
AcDbDictionary
281
     1
  3
Standard
350
6A
  0
DICTIONARY
  5
2A
102
{ACAD_REACTORS
330
C
102
}
330
C
100
AcDbDictionary
281
     1
  3
2dWireframe
350
2F
  3
Basic
350
32
  3
Brighten
350
36
  3
ColorChange
350
3A
  3
Conceptual
350
34
  3
Dim
350
35
  3
EdgeColorOff
350
3D
  3
Facepattern
350
39
  3
Flat
350
2B
  3
FlatWithEdges
350
2C
  3
Gouraud
350
2D
  3
GouraudWithEdges
350
2E
  3
Hidden
350
31
  3
JitterOff
350
3B
  3
Linepattern
350
38
  3
OverhangOff
350
3C
  3
Realistic
350
33
  3
Shaded
350
42
  3
Shaded with edges
350
41
  3
Shades of Gray
350
3E
  3
Sketchy
350
3F
  3
Thicken
350
37
  3
Wireframe
350
30
  3
X-Ray
350
40
  0
XRECORD
  5
27A
102
{ACAD_REACTORS
330
C
102
}
330
C
100
AcDbXrecord
280
     1
 90
        1
330
6A
  0
DICTIONARY
  5
276
102
{ACAD_REACTORS
330
C
102
}
330
C
100
AcDbDictionary
281
     1
  3
CANNOSCALE
350
277
  3
CMLEADERSTYLE
350
27C
  3
CTABLESTYLE
350
27B
  0
LAYOUT
  5
1E
102
{ACAD_REACTORS
330
1A
102
}
330
1A
100
AcDbPlotSettings
  1

  2
none_device
  4

  6

 40
0.0
 41
0.0
 42
0.0
 43
0.0
 44
0.0
 45
0.0
 46
0.0
 47
0.0
 48
0.0
 49
0.0
140
0.0
141
0.0
142
1.0
143
1.0
 70
   688
 72
     0
 73
     0
 74
     5
  7

 75
    16
 76
     0
 77
     2
 78
   300
147
1.0
148
0.0
149
0.0
100
AcDbLayout
  1
Layout1
 70
     1
 71
     1
 10
0.0
 20
0.0
 11
12.0
 21
9.0
 12
0.0
 22
0.0
 32
0.0
 14
1.000000000000000E+20
 24
1.000000000000000E+20
 34
1.000000000000000E+20
 15
-1.000000000000000E+20
 25
-1.000000000000000E+20
 35
-1.000000000000000E+20
146
0.0
 13
0.0
 23
0.0
 33
0.0
 16
1.0
 26
0.0
 36
0.0
 17
0.0
 27
1.0
 37
0.0
 76
     0
330
1B
  0
LAYOUT
  5
26
102
{ACAD_REACTORS
330
1A
102
}
330
1A
100
AcDbPlotSettings
  1

  2
none_device
  4

  6

 40
0.0
 41
0.0
 42
0.0
 43
0.0
 44
0.0
 45
0.0
 46
0.0
 47
0.0
 48
0.0
 49
0.0
140
0.0
141
0.0
142
1.0
143
1.0
 70
   688
 72
     0
 73
     0
 74
     5
  7

 75
    16
 76
     0
 77
     2
 78
   300
147
1.0
148
0.0
149
0.0
100
AcDbLayout
  1
Layout2
 70
     1
 71
     2
 10
0.0
 20
0.0
 11
0.0
 21
0.0
 12
0.0
 22
0.0
 32
0.0
 14
0.0
 24
0.0
 34
0.0
 15
0.0
 25
0.0
 35
0.0
146
0.0
 13
0.0
 23
0.0
 33
0.0
 16
1.0
 26
0.0
 36
0.0
 17
0.0
 27
1.0
 37
0.0
 76
     0
330
23
  0
LAYOUT
  5
22
102
{ACAD_REACTORS
330
1A
102
}
330
1A
100
AcDbPlotSettings
  1

  2
none_device
  4
Letter_(8.50_x_11.00_Inches)
  6

 40
6.35
 41
6.35
 42
6.35000508
 43
6.35000508
 44
215.9
 45
279.4
 46
0.0
 47
0.0
 48
0.0
 49
0.0
140
0.0
141
0.0
142
1.0
143
1.0
 70
  1712
 72
     0
 73
     0
 74
     0
  7

 75
     0
 76
     0
 77
     2
 78
   300
147
1.0
148
0.0
149
0.0
100
AcDbLayout
  1
Model
 70
     1
 71
     0
 10
0.0
 20
0.0
 11
12.0
 21
9.0
 12
0.0
 22
0.0
 32
0.0
 14
1.000000000000000E+20
 24
1.000000000000000E+20
 34
1.000000000000000E+20
 15
-1.000000000000000E+20
 25
-1.000000000000000E+20
 35
-1.000000000000000E+20
146
0.0
 13
0.0
 23
0.0
 33
0.0
 16
1.0
 26
0.0
 36
0.0
 17
0.0
 27
1.0
 37
0.0
 76
     0
330
1F
331
29
  0
MATERIAL
  5
45
102
{ACAD_REACTORS
330
43
102
}
330
43
100
AcDbMaterial
  1
ByBlock
 72
     1
 94
      127
  0
MATERIAL
  5
44
102
{ACAD_REACTORS
330
43
102
}
330
43
100
AcDbMaterial
  1
ByLayer
 72
     1
 94
      127
  0
MATERIAL
  5
46
102
{ACAD_REACTORS
330
43
102
}
330
43
100
AcDbMaterial
  1
Global
 72
     1
 94
      127
  0
MLEADERSTYLE
  5
6C
102
{ACAD_REACTORS
330
6B
102
}
330
6B
100
AcDbMLeaderStyle
179
     2
170
     2
171
     1
172
     0
 90
        2
 40
0.0
 41
0.0
173
     1
 91
-1056964608
340
14
 92
       -2
290
     1
 42
0.09
291
     1
 43
0.36
  3
Standard
341
0
 44
0.18
300

342
11
174
     1
178
     6
175
     1
176
     0
 93
-1056964608
 45
0.18
292
     0
297
     0
 46
0.18
343
0
 94
-1056964608
 47
1.0
 49
1.0
140
1.0
293
     1
141
0.0
294
     1
177
     0
142
1.0
295
     0
296
     0
143
0.125
271
     0
272
     9
273
     9
298
     0
  0
MLINESTYLE
  5
18
102
{ACAD_REACTORS
330
17
102
}
330
17
100
AcDbMlineStyle
  2
Standard
 70
     0
  3

 62
   256
 51
90.0
 52
90.0
 71
     2
 49
0.5
 62
   256
  6
BYLAYER
 49
-0.5
 62
   256
  6
BYLAYER
  0
ACDBPLACEHOLDER
  5
F
102
{ACAD_REACTORS
330
E
102
}
330
E
  0
SCALE
  5
48
102
{ACAD_REACTORS
330
47
102
}
330
47
100
AcDbScale
 70
     0
300
1:1
140
1.0
141
1.0
290
     1
  0
SCALE
  5
49
102
{ACAD_REACTORS
330
47
102
}
330
47
100
AcDbScale
 70
     0
300
1:2
140
1.0
141
2.0
290
     0
  0
SCALE
  5
4A
102
{ACAD_REACTORS
330
47
102
}
330
47
100
AcDbScale
 70
     0
300
1:4
140
1.0
141
4.0
290
     0
  0
SCALE
  5
4B
102
{ACAD_REACTORS
330
47
102
}
330
47
100
AcDbScale
 70
     0
300
1:5
140
1.0
141
5.0
290
     0
  0
SCALE
  5
4C
102
{ACAD_REACTORS
330
47
102
}
330
47
100
AcDbScale
 70
     0
300
1:8
140
1.0
141
8.0
290
     0
  0
SCALE
  5
4D
102
{ACAD_REACTORS
330
47
102
}
330
47
100
AcDbScale
 70
     0
300
1:10
140
1.0
141
10.0
290
     0
  0
SCALE
  5
4E
102
{ACAD_REACTORS
330
47
102
}
330
47
100
AcDbScale
 70
     0
300
1:16
140
1.0
141
16.0
290
     0
  0
SCALE
  5
4F
102
{ACAD_REACTORS
330
47
102
}
330
47
100
AcDbScale
 70
     0
300
1:20
140
1.0
141
20.0
290
     0
  0
SCALE
  5
50
102
{ACAD_REACTORS
330
47
102
}
330
47
100
AcDbScale
 70
     0
300
1:30
140
1.0
141
30.0
290
     0
  0
SCALE
  5
51
102
{ACAD_REACTORS
330
47
102
}
330
47
100
AcDbScale
 70
     0
300
1:40
140
1.0
141
40.0
290
     0
  0
SCALE
  5
52
102
{ACAD_REACTORS
330
47
102
}
330
47
100
AcDbScale
 70
     0
300
1:50
140
1.0
141
50.0
290
     0
  0
SCALE
  5
53
102
{ACAD_REACTORS
330
47
102
}
330
47
100
AcDbScale
 70
     0
300
1:100
140
1.0
141
100.0
290
     0
  0
SCALE
  5
54
102
{ACAD_REACTORS
330
47
102
}
330
47
100
AcDbScale
 70
     0
300
2:1
140
2.0
141
1.0
290
     0
  0
SCALE
  5
55
102
{ACAD_REACTORS
330
47
102
}
330
47
100
AcDbScale
 70
     0
300
4:1
140
4.0
141
1.0
290
     0
  0
SCALE
  5
56
102
{ACAD_REACTORS
330
47
102
}
330
47
100
AcDbScale
 70
     0
300
8:1
140
8.0
141
1.0
290
     0
  0
SCALE
  5
57
102
{ACAD_REACTORS
330
47
102
}
330
47
100
AcDbScale
 70
     0
300
10:1
140
10.0
141
1.0
290
     0
  0
SCALE
  5
58
102
{ACAD_REACTORS
330
47
102
}
330
47
100
AcDbScale
 70
     0
300
100:1
140
100.0
141
1.0
290
     0
  0
SCALE
  5
59
102
{ACAD_REACTORS
330
47
102
}
330
47
100
AcDbScale
 70
     0
300
1/128" = 1'-0"
140
0.0078125
141
12.0
290
     0
  0
SCALE
  5
5A
102
{ACAD_REACTORS
330
47
102
}
330
47
100
AcDbScale
 70
     0
300
1/64" = 1'-0"
140
0.015625
141
12.0
290
     0
  0
SCALE
  5
5B
102
{ACAD_REACTORS
330
47
102
}
330
47
100
AcDbScale
 70
     0
300
1/32" = 1'-0"
140
0.03125
141
12.0
290
     0
  0
SCALE
  5
5C
102
{ACAD_REACTORS
330
47
102
}
330
47
100
AcDbScale
 70
     0
300
1/16" = 1'-0"
140
0.0625
141
12.0
290
     0
  0
SCALE
  5
5D
102
{ACAD_REACTORS
330
47
102
}
330
47
100
AcDbScale
 70
     0
300
3/32" = 1'-0"
140
0.09375
141
12.0
290
     0
  0
SCALE
  5
5E
102
{ACAD_REACTORS
330
47
102
}
330
47
100
AcDbScale
 70
     0
300
1/8" = 1'-0"
140
0.125
141
12.0
290
     0
  0
SCALE
  5
5F
102
{ACAD_REACTORS
330
47
102
}
330
47
100
AcDbScale
 70
     0
300
3/16" = 1'-0"
140
0.1875
141
12.0
290
     0
  0
SCALE
  5
60
102
{ACAD_REACTORS
330
47
102
}
330
47
100
AcDbScale
 70
     0
300
1/4" = 1'-0"
140
0.25
141
12.0
290
     0
  0
SCALE
  5
61
102
{ACAD_REACTORS
330
47
102
}
330
47
100
AcDbScale
 70
     0
300
3/8" = 1'-0"
140
0.375
141
12.0
290
     0
  0
SCALE
  5
62
102
{ACAD_REACTORS
330
47
102
}
330
47
100
AcDbScale
 70
     0
300
1/2" = 1'-0"
140
0.5
141
12.0
290
     0
  0
SCALE
  5
63
102
{ACAD_REACTORS
330
47
102
}
330
47
100
AcDbScale
 70
     0
300
3/4" = 1'-0"
140
0.75
141
12.0
290
     0
  0
SCALE
  5
64
102
{ACAD_REACTORS
330
47
102
}
330
47
100
AcDbScale
 70
     0
300
1" = 1'-0"
140
1.0
141
12.0
290
     0
  0
SCALE
  5
65
102
{ACAD_REACTORS
330
47
102
}
330
47
100
AcDbScale
 70
     0
300
1-1/2" = 1'-0"
140
1.5
141
12.0
290
     0
  0
SCALE
  5
66
102
{ACAD_REACTORS
330
47
102
}
330
47
100
AcDbScale
 70
     0
300
3" = 1'-0"
140
3.0
141
12.0
290
     0
  0
SCALE
  5
67
102
{ACAD_REACTORS
330
47
102
}
330
47
100
AcDbScale
 70
     0
300
6" = 1'-0"
140
6.0
141
12.0
290
     0
  0
SCALE
  5
68
102
{ACAD_REACTORS
330
47
102
}
330
47
100
AcDbScale
 70
     0
300
1'-0" = 1'-0"
140
12.0
141
12.0
290
     0
  0
TABLESTYLE
  5
6A
102
{ACAD_REACTORS
330
69
102
}
102
{ACAD_XDICTIONARY
360
278
102
}
330
69
100
AcDbTableStyle
  3
Standard
 70
     0
 71
     0
 40
0.06
 41
0.06
280
     0
281
     0
  7
Standard
140
0.18
170
     2
 62
     0
 63
   257
283
     0
 90
        4
 91
        0
  1

274
    -2
284
     1
 64
     0
275
    -2
285
     1
 65
     0
276
    -2
286
     1
 66
     0
277
    -2
287
     1
 67
     0
278
    -2
288
     1
 68
     0
279
    -2
289
     1
 69
     0
  7
Standard
140
0.25
170
     5
 62
     0
 63
   257
283
     0
 90
        4
 91
        0
  1

274
    -2
284
     1
 64
     0
275
    -2
285
     1
 65
     0
276
    -2
286
     1
 66
     0
277
    -2
287
     1
 67
     0
278
    -2
288
     1
 68
     0
279
    -2
289
     1
 69
     0
  7
Standard
140
0.18
170
     5
 62
     0
 63
   257
283
     0
 90
        4
 91
        0
  1

274
    -2
284
     1
 64
     0
275
    -2
285
     1
 65
     0
276
    -2
286
     1
 66
     0
277
    -2
287
     1
 67
     0
278
    -2
288
     1
 68
     0
279
    -2
289
     1
 69
     0
  0
VISUALSTYLE
  5
2F
102
{ACAD_REACTORS
330
2A
102
}
330
2A
100
AcDbVisualStyle
  2
2dWireframe
 70
     4
177
     3
291
     0
 70
    58
 90
        0
176
     1
 90
        2
176
     1
 90
        0
176
     1
 90
        0
176
     1
 40
0.6
176
     1
 40
30.0
176
     1
 62
     7
420
 16777215
176
     1
 90
        1
176
     1
 90
        4
176
     1
 62
     7
176
     1
 62
   257
176
     1
 90
        1
176
     1
 90
        1
176
     1
 40
1.0
176
     1
 90
        0
176
     1
 62
   257
176
     1
 40
1.0
176
     1
 90
        1
176
     1
 90
        6
176
     1
 90
        2
176
     1
 62
     7
176
     1
 90
        5
176
     1
 90
        0
176
     1
 90
        0
176
     1
290
     0
176
     1
 90
        1
176
     1
 40
0.0
176
     1
 90
        0
176
     1
290
     1
176
     1
290
     1
176
     1
290
     0
176
     1
290
     0
176
     1
290
     0
176
     1
290
     0
176
     1
290
     0
176
     1
290
     0
176
     1
290
     0
176
     1
 90
       50
176
     1
 40
0.0
176
     1
 40
1.0
176
     1
 90
        0
176
     1
 62
    18
420
        0
176
     1
 90
       50
176
     1
 90
        3
176
     1
 62
     5
420
      255
176
     1
290
     0
176
     1
 90
       50
176
     1
 90
       50
176
     1
 90
       50
176
     1
290
     0
176
     1
 90
       50
176
     1
 62
   256
176
     0
 40
1.0
176
     0
 90
        2
176
     1
  1
strokes_ogs.tif
176
     1
290
     0
176
     1
 40
1.0
176
     1
 40
1.0
176
     1
  0
VISUALSTYLE
  5
32
102
{ACAD_REACTORS
330
2A
102
}
330
2A
100
AcDbVisualStyle
  2
Basic
 70
     7
177
     3
291
     1
 70
    58
 90
        1
176
     1
 90
        0
176
     1
 90
        1
176
     1
 90
        0
176
     1
 40
0.6
176
     1
 40
30.0
176
     1
 62
     7
420
 16777215
176
     1
 90
        0
176
     1
 90
        4
176
     1
 62
     7
176
     1
 62
   257
176
     1
 90
        1
176
     1
 90
        1
176
     1
 40
1.0
176
     1
 90
        8
176
     1
 62
     7
176
     1
 40
1.0
176
     1
 90
        1
176
     1
 90
        6
176
     1
 90
        2
176
     1
 62
     7
176
     1
 90
        5
176
     1
 90
        0
176
     1
 90
        0
176
     1
290
     0
176
     1
 90
        1
176
     1
 40
0.0
176
     1
 90
        0
176
     1
290
     0
176
     1
290
     1
176
     1
290
     1
176
     1
290
     0
176
     1
290
     0
176
     1
290
     0
176
     1
290
     0
176
     1
290
     0
176
     1
290
     0
176
     1
 90
       50
176
     1
 40
0.0
176
     1
 40
1.0
176
     1
 90
        0
176
     1
 62
    18
420
        0
176
     1
 90
       50
176
     1
 90
        3
176
     1
 62
     5
420
      255
176
     1
290
     0
176
     1
 90
       50
176
     1
 90
       50
176
     1
 90
       50
176
     1
290
     0
176
     1
 90
       50
176
     1
 62
   256
176
     0
 40
1.0
176
     0
 90
        2
176
     1
  1
strokes_ogs.tif
176
     1
290
     0
176
     1
 40
1.0
176
     1
 40
1.0
176
     1
  0
VISUALSTYLE
  5
36
102
{ACAD_REACTORS
330
2A
102
}
330
2A
100
AcDbVisualStyle
  2
Brighten
 70
    12
177
     3
291
     1
 70
    58
 90
        2
176
     1
 90
        2
176
     1
 90
        0
176
     1
 90
        0
176
     1
 40
0.6
176
     1
 40
30.0
176
     1
 62
     7
420
 16777215
176
     1
 90
        1
176
     1
 90
        4
176
     1
 62
     7
176
     1
 62
   257
176
     1
 90
        1
176
     1
 90
        1
176
     1
 40
1.0
176
     1
 90
        8
176
     1
 62
     7
176
     1
 40
1.0
176
     1
 90
        1
176
     1
 90
        6
176
     1
 90
        2
176
     1
 62
     7
176
     1
 90
        5
176
     1
 90
        0
176
     1
 90
        0
176
     1
290
     0
176
     1
 90
        1
176
     1
 40
50.0
176
     1
 90
        0
176
     1
290
     0
176
     1
290
     1
176
     1
290
     1
176
     1
290
     0
176
     1
290
     0
176
     1
290
     0
176
     1
290
     0
176
     1
290
     0
176
     1
290
     0
176
     1
 90
       50
176
     1
 40
0.0
176
     1
 40
1.0
176
     1
 90
        0
176
     1
 62
    18
420
        0
176
     1
 90
       50
176
     1
 90
        3
176
     1
 62
     5
420
      255
176
     1
290
     0
176
     1
 90
       50
176
     1
 90
       50
176
     1
 90
       50
176
     1
290
     0
176
     1
 90
       50
176
     1
 62
   256
176
     0
 40
1.0
176
     0
 90
        2
176
     1
  1
strokes_ogs.tif
176
     1
290
     0
176
     1
 40
1.0
176
     1
 40
1.0
176
     1
  0
VISUALSTYLE
  5
3A
102
{ACAD_REACTORS
330
2A
102
}
330
2A
100
AcDbVisualStyle
  2
ColorChange
 70
    16
177
     3
291
     1
 70
    58
 90
        2
176
     1
 90
        2
176
     1
 90
        3
176
     1
 90
        0
176
     1
 40
0.6
176
     1
 40
30.0
176
     1
 62
     8
420
  8421504
176
     1
 90
        1
176
     1
 90
        4
176
     1
 62
     7
176
     1
 62
   257
176
     1
 90
        1
176
     1
 90
        1
176
     1
 40
1.0
176
     1
 90
        8
176
     1
 62
     8
420
  8421504
176
     1
 40
1.0
176
     1
 90
        1
176
     1
 90
        6
176
     1
 90
        2
176
     1
 62
     7
176
     1
 90
        5
176
     1
 90
        0
176
     1
 90
        0
176
     1
290
     0
176
     1
 90
        1
176
     1
 40
0.0
176
     1
 90
        0
176
     1
290
     0
176
     1
290
     1
176
     1
290
     1
176
     1
290
     0
176
     1
290
     0
176
     1
290
     0
176
     1
290
     0
176
     1
290
     0
176
     1
290
     0
176
     1
 90
       50
176
     1
 40
0.0
176
     1
 40
1.0
176
     1
 90
        0
176
     1
 62
    18
420
        0
176
     1
 90
       50
176
     1
 90
        3
176
     1
 62
     5
420
      255
176
     1
290
     0
176
     1
 90
       50
176
     1
 90
       50
176
     1
 90
       50
176
     1
290
     0
176
     1
 90
       50
176
     1
 62
   256
176
     0
 40
1.0
176
     0
 90
        2
176
     1
  1
strokes_ogs.tif
176
     1
290
     0
176
     1
 40
1.0
176
     1
 40
1.0
176
     1
  0
VISUALSTYLE
  5
34
102
{ACAD_REACTORS
330
2A
102
}
330
2A
100
AcDbVisualStyle
  2
Conceptual
 70
     9
177
     3
291
     0
 70
    58
 90
        3
176
     1
 90
        2
176
     1
 90
        0
176
     1
 90
        0
176
     1
 40
0.6
176
     1
 40
30.0
176
     1
 62
     7
420
 16777215
176
     1
 90
        2
176
     1
 90
        2
176
     1
 62
     7
176
     1
 62
   257
176
     1
 90
        1
176
     1
 90
        1
176
     1
 40
179.0
176
     1
 90
        8
176
     1
 62
     7
176
     1
 40
1.0
176
     1
 90
        1
176
     1
 90
        6
176
     1
 90
        2
176
     1
 62
     7
176
     1
 90
        3
176
     1
 90
        0
176
     1
 90
        0
176
     1
290
     0
176
     1
 90
        1
176
     1
 40
0.0
176
     1
 90
        0
176
     1
290
     0
176
     1
290
     1
176
     1
290
     1
176
     1
290
     0
176
     1
290
     0
176
     1
290
     0
176
     1
290
     0
176
     1
290
     0
176
     1
290
     0
176
     1
 90
       50
176
     1
 40
0.0
176
     1
 40
1.0
176
     1
 90
        0
176
     1
 62
    18
420
        0
176
     1
 90
       50
176
     1
 90
        3
176
     1
 62
     5
420
      255
176
     1
290
     0
176
     1
 90
       50
176
     1
 90
       50
176
     1
 90
       50
176
     1
290
     0
176
     1
 90
       50
176
     1
 62
   256
176
     0
 40
1.0
176
     0
 90
        2
176
     1
  1
strokes_ogs.tif
176
     1
290
     0
176
     1
 40
1.0
176
     1
 40
1.0
176
     1
  0
VISUALSTYLE
  5
35
102
{ACAD_REACTORS
330
2A
102
}
330
2A
100
AcDbVisualStyle
  2
Dim
 70
    11
177
     3
291
     1
 70
    58
 90
        2
176
     1
 90
        2
176
     1
 90
        0
176
     1
 90
        0
176
     1
 40
0.6
176
     1
 40
30.0
176
     1
 62
     7
420
 16777215
176
     1
 90
        1
176
     1
 90
        4
176
     1
 62
     7
176
     1
 62
   257
176
     1
 90
        1
176
     1
 90
        1
176
     1
 40
1.0
176
     1
 90
        8
176
     1
 62
     7
176
     1
 40
1.0
176
     1
 90
        1
176
     1
 90
        6
176
     1
 90
        2
176
     1
 62
     7
176
     1
 90
        5
176
     1
 90
        0
176
     1
 90
        0
176
     1
290
     0
176
     1
 90
        1
176
     1
 40
-50.0
176
     1
 90
        0
176
     1
290
     0
176
     1
290
     1
176
     1
290
     1
176
     1
290
     0
176
     1
290
     0
176
     1
290
     0
176
     1
290
     0
176
     1
290
     0
176
     1
290
     0
176
     1
 90
       50
176
     1
 40
0.0
176
     1
 40
1.0
176
     1
 90
        0
176
     1
 62
    18
420
        0
176
     1
 90
       50
176
     1
 90
        3
176
     1
 62
     5
420
      255
176
     1
290
     0
176
     1
 90
       50
176
     1
 90
       50
176
     1
 90
       50
176
     1
290
     0
176
     1
 90
       50
176
     1
 62
   256
176
     0
 40
1.0
176
     0
 90
        2
176
     1
  1
strokes_ogs.tif
176
     1
290
     0
176
     1
 40
1.0
176
     1
 40
1.0
176
     1
  0
VISUALSTYLE
  5
3D
102
{ACAD_REACTORS
330
2A
102
}
330
2A
100
AcDbVisualStyle
  2
EdgeColorOff
 70
    22
177
     3
291
     1
 70
    58
 90
        2
176
     0
 90
        2
176
     0
 90
        0
176
     0
 90
        0
176
     0
 40
0.6
176
     0
 40
30.0
176
     0
 62
     7
420
 16777215
176
     0
 90
        1
176
     0
 90
        4
176
     0
 62
     7
176
     0
 62
   257
176
     0
 90
        1
176
     0
 90
        1
176
     0
 40
1.0
176
     0
 90
        8
176
     2
 62
     7
176
     0
 40
1.0
176
     0
 90
        1
176
     0
 90
        6
176
     0
 90
        2
176
     0
 62
     7
176
     0
 90
        5
176
     0
 90
        0
176
     0
 90
        0
176
     0
290
     0
176
     0
 90
        1
176
     0
 40
0.0
176
     0
 90
        0
176
     0
290
     0
176
     0
290
     1
176
     0
290
     1
176
     0
290
     0
176
     0
290
     0
176
     0
290
     0
176
     0
290
     0
176
     0
290
     0
176
     0
290
     0
176
     0
 90
       50
176
     0
 40
0.0
176
     0
 40
1.0
176
     0
 90
        0
176
     0
 62
    18
420
        0
176
     0
 90
       50
176
     0
 90
        3
176
     0
 62
     5
420
      255
176
     0
290
     0
176
     0
 90
       50
176
     0
 90
       50
176
     0
 90
       50
176
     0
290
     0
176
     0
 90
       50
176
     0
 62
   256
176
     0
 40
1.0
176
     0
 90
        2
176
     0
  1
strokes_ogs.tif
176
     0
290
     0
176
     0
 40
1.0
176
     0
 40
1.0
176
     0
  0
VISUALSTYLE
  5
39
102
{ACAD_REACTORS
330
2A
102
}
330
2A
100
AcDbVisualStyle
  2
Facepattern
 70
    15
177
     3
291
     1
 70
    58
 90
        2
176
     1
 90
        2
176
     1
 90
        0
176
     1
 90
        0
176
     1
 40
0.6
176
     1
 40
30.0
176
     1
 62
     7
420
 16777215
176
     1
 90
        1
176
     1
 90
        4
176
     1
 62
     7
176
     1
 62
   257
176
     1
 90
        1
176
     1
 90
        1
176
     1
 40
1.0
176
     1
 90
        8
176
     1
 62
     7
176
     1
 40
1.0
176
     1
 90
        1
176
     1
 90
        6
176
     1
 90
        2
176
     1
 62
     7
176
     1
 90
        5
176
     1
 90
        0
176
     1
 90
        0
176
     1
290
     0
176
     1
 90
        1
176
     1
 40
0.0
176
     1
 90
        0
176
     1
290
     0
176
     1
290
     1
176
     1
290
     1
176
     1
290
     0
176
     1
290
     0
176
     1
290
     0
176
     1
290
     0
176
     1
290
     0
176
     1
290
     0
176
     1
 90
       50
176
     1
 40
0.0
176
     1
 40
1.0
176
     1
 90
        0
176
     1
 62
    18
420
        0
176
     1
 90
       50
176
     1
 90
        3
176
     1
 62
     5
420
      255
176
     1
290
     0
176
     1
 90
       50
176
     1
 90
       50
176
     1
 90
       50
176
     1
290
     0
176
     1
 90
       50
176
     1
 62
   256
176
     0
 40
1.0
176
     0
 90
        2
176
     1
  1
strokes_ogs.tif
176
     1
290
     0
176
     1
 40
1.0
176
     1
 40
1.0
176
     1
  0
VISUALSTYLE
  5
2B
102
{ACAD_REACTORS
330
2A
102
}
330
2A
100
AcDbVisualStyle
  2
Flat
 70
     0
177
     3
291
     1
 70
    58
 90
        2
176
     1
 90
        1
176
     1
 90
        1
176
     1
 90
        2
176
     1
 40
0.6
176
     1
 40
30.0
176
     1
 62
     7
420
 16777215
176
     1
 90
        0
176
     1
 90
        0
176
     1
 62
     7
176
     1
 62
   257
176
     1
 90
        1
176
     1
 90
        1
176
     1
 40
1.0
176
     1
 90
        8
176
     1
 62
     7
176
     1
 40
1.0
176
     1
 90
        1
176
     1
 90
        6
176
     1
 90
        2
176
     1
 62
     7
176
     1
 90
        5
176
     1
 90
        0
176
     1
 90
        0
176
     1
290
     0
176
     1
 90
       13
176
     1
 40
0.0
176
     1
 90
        0
176
     1
290
     0
176
     1
290
     1
176
     1
290
     1
176
     1
290
     0
176
     1
290
     0
176
     1
290
     0
176
     1
290
     0
176
     1
290
     0
176
     1
290
     0
176
     1
 90
       50
176
     1
 40
0.0
176
     1
 40
1.0
176
     1
 90
        0
176
     1
 62
    18
420
        0
176
     1
 90
       50
176
     1
 90
        3
176
     1
 62
     5
420
      255
176
     1
290
     0
176
     1
 90
       50
176
     1
 90
       50
176
     1
 90
       50
176
     1
290
     0
176
     1
 90
       50
176
     1
 62
   256
176
     0
 40
1.0
176
     0
 90
        2
176
     1
  1
strokes_ogs.tif
176
     1
290
     0
176
     1
 40
1.0
176
     1
 40
1.0
176
     1
  0
VISUALSTYLE
  5
2C
102
{ACAD_REACTORS
330
2A
102
}
330
2A
100
AcDbVisualStyle
  2
FlatWithEdges
 70
     1
177
     3
291
     1
 70
    58
 90
        2
176
     1
 90
        1
176
     1
 90
        1
176
     1
 90
        2
176
     1
 40
0.6
176
     1
 40
30.0
176
     1
 62
     7
420
 16777215
176
     1
 90
        1
176
     1
 90
        0
176
     1
 62
     7
176
     1
 62
   257
176
     1
 90
        1
176
     1
 90
        1
176
     1
 40
1.0
176
     1
 90
        0
176
     1
 62
   257
176
     1
 40
1.0
176
     1
 90
        1
176
     1
 90
        6
176
     1
 90
        2
176
     1
 62
     7
176
     1
 90
        5
176
     1
 90
        0
176
     1
 90
        0
176
     1
290
     0
176
     1
 90
       13
176
     1
 40
0.0
176
     1
 90
        0
176
     1
290
     0
176
     1
290
     1
176
     1
290
     1
176
     1
290
     0
176
     1
290
     0
176
     1
290
     0
176
     1
290
     0
176
     1
290
     0
176
     1
290
     0
176
     1
 90
       50
176
     1
 40
0.0
176
     1
 40
1.0
176
     1
 90
        0
176
     1
 62
    18
420
        0
176
     1
 90
       50
176
     1
 90
        3
176
     1
 62
     5
420
      255
176
     1
290
     0
176
     1
 90
       50
176
     1
 90
       50
176
     1
 90
       50
176
     1
290
     0
176
     1
 90
       50
176
     1
 62
   256
176
     0
 40
1.0
176
     0
 90
        2
176
     1
  1
strokes_ogs.tif
176
     1
290
     0
176
     1
 40
1.0
176
     1
 40
1.0
176
     1
  0
VISUALSTYLE
  5
2D
102
{ACAD_REACTORS
330
2A
102
}
330
2A
100
AcDbVisualStyle
  2
Gouraud
 70
     2
177
     3
291
     1
 70
    58
 90
        2
176
     1
 90
        2
176
     1
 90
        1
176
     1
 90
        2
176
     1
 40
0.6
176
     1
 40
30.0
176
     1
 62
     7
420
 16777215
176
     1
 90
        0
176
     1
 90
        0
176
     1
 62
     7
176
     1
 62
   257
176
     1
 90
        1
176
     1
 90
        1
176
     1
 40
1.0
176
     1
 90
        0
176
     1
 62
     7
176
     1
 40
1.0
176
     1
 90
        1
176
     1
 90
        6
176
     1
 90
        2
176
     1
 62
     7
176
     1
 90
        5
176
     1
 90
        0
176
     1
 90
        0
176
     1
290
     0
176
     1
 90
       13
176
     1
 40
0.0
176
     1
 90
        0
176
     1
290
     0
176
     1
290
     1
176
     1
290
     1
176
     1
290
     0
176
     1
290
     0
176
     1
290
     0
176
     1
290
     0
176
     1
290
     0
176
     1
290
     0
176
     1
 90
       50
176
     1
 40
0.0
176
     1
 40
1.0
176
     1
 90
        0
176
     1
 62
    18
420
        0
176
     1
 90
       50
176
     1
 90
        3
176
     1
 62
     5
420
      255
176
     1
290
     0
176
     1
 90
       50
176
     1
 90
       50
176
     1
 90
       50
176
     1
290
     0
176
     1
 90
       50
176
     1
 62
   256
176
     0
 40
1.0
176
     0
 90
        2
176
     1
  1
strokes_ogs.tif
176
     1
290
     0
176
     1
 40
1.0
176
     1
 40
1.0
176
     1
  0
VISUALSTYLE
  5
2E
102
{ACAD_REACTORS
330
2A
102
}
330
2A
100
AcDbVisualStyle
  2
GouraudWithEdges
 70
     3
177
     3
291
     1
 70
    58
 90
        2
176
     1
 90
        2
176
     1
 90
        1
176
     1
 90
        2
176
     1
 40
0.6
176
     1
 40
30.0
176
     1
 62
     7
420
 16777215
176
     1
 90
        1
176
     1
 90
        0
176
     1
 62
     7
176
     1
 62
   257
176
     1
 90
        1
176
     1
 90
        1
176
     1
 40
1.0
176
     1
 90
        0
176
     1
 62
   257
176
     1
 40
1.0
176
     1
 90
        1
176
     1
 90
        6
176
     1
 90
        2
176
     1
 62
     7
176
     1
 90
        5
176
     1
 90
        0
176
     1
 90
        0
176
     1
290
     0
176
     1
 90
       13
176
     1
 40
0.0
176
     1
 90
        0
176
     1
290
     0
176
     1
290
     1
176
     1
290
     1
176
     1
290
     0
176
     1
290
     0
176
     1
290
     0
176
     1
290
     0
176
     1
290
     0
176
     1
290
     0
176
     1
 90
       50
176
     1
 40
0.0
176
     1
 40
1.0
176
     1
 90
        0
176
     1
 62
    18
420
        0
176
     1
 90
       50
176
     1
 90
        3
176
     1
 62
     5
420
      255
176
     1
290
     0
176
     1
 90
       50
176
     1
 90
       50
176
     1
 90
       50
176
     1
290
     0
176
     1
 90
       50
176
     1
 62
   256
176
     0
 40
1.0
176
     0
 90
        2
176
     1
  1
strokes_ogs.tif
176
     1
290
     0
176
     1
 40
1.0
176
     1
 40
1.0
176
     1
  0
VISUALSTYLE
  5
31
102
{ACAD_REACTORS
330
2A
102
}
330
2A
100
AcDbVisualStyle
  2
Hidden
 70
     6
177
     3
291
     0
 70
    58
 90
        1
176
     1
 90
        2
176
     1
 90
        2
176
     1
 90
        0
176
     1
 40
0.6
176
     1
 40
30.0
176
     1
 62
     7
420
 16777215
176
     1
 90
        2
176
     1
 90
        2
176
     1
 62
     7
176
     1
 62
   257
176
     1
 90
        2
176
     1
 90
        1
176
     1
 40
40.0
176
     1
 90
        0
176
     1
 62
   257
176
     1
 40
1.0
176
     1
 90
        1
176
     1
 90
        6
176
     1
 90
        2
176
     1
 62
     7
176
     1
 90
        3
176
     1
 90
        0
176
     1
 90
        0
176
     1
290
     0
176
     1
 90
        1
176
     1
 40
0.0
176
     1
 90
        0
176
     1
290
     0
176
     1
290
     1
176
     1
290
     1
176
     1
290
     0
176
     1
290
     0
176
     1
290
     0
176
     1
290
     0
176
     1
290
     0
176
     1
290
     0
176
     1
 90
       50
176
     1
 40
0.0
176
     1
 40
1.0
176
     1
 90
        0
176
     1
 62
    18
420
        0
176
     1
 90
       50
176
     1
 90
        3
176
     1
 62
     5
420
      255
176
     1
290
     0
176
     1
 90
       50
176
     1
 90
       50
176
     1
 90
       50
176
     1
290
     0
176
     1
 90
       50
176
     1
 62
   256
176
     0
 40
1.0
176
     0
 90
        2
176
     1
  1
strokes_ogs.tif
176
     1
290
     0
176
     1
 40
1.0
176
     1
 40
1.0
176
     1
  0
VISUALSTYLE
  5
3B
102
{ACAD_REACTORS
330
2A
102
}
330
2A
100
AcDbVisualStyle
  2
JitterOff
 70
    20
177
     3
291
     1
 70
    58
 90
        2
176
     0
 90
        2
176
     0
 90
        0
176
     0
 90
        0
176
     0
 40
0.6
176
     0
 40
30.0
176
     0
 62
     7
420
 16777215
176
     0
 90
        1
176
     0
 90
        4
176
     0
 62
     7
176
     0
 62
   257
176
     0
 90
        1
176
     0
 90
        1
176
     0
 40
1.0
176
     0
 90
       10
176
     2
 62
     7
176
     0
 40
1.0
176
     0
 90
        1
176
     0
 90
        6
176
     0
 90
        2
176
     0
 62
     7
176
     0
 90
        5
176
     0
 90
        0
176
     0
 90
        0
176
     0
290
     0
176
     0
 90
        1
176
     0
 40
0.0
176
     0
 90
        0
176
     0
290
     0
176
     0
290
     1
176
     0
290
     1
176
     0
290
     0
176
     0
290
     0
176
     0
290
     0
176
     0
290
     0
176
     0
290
     0
176
     0
290
     0
176
     0
 90
       50
176
     0
 40
0.0
176
     0
 40
1.0
176
     0
 90
        0
176
     0
 62
    18
420
        0
176
     0
 90
       50
176
     0
 90
        3
176
     0
 62
     5
420
      255
176
     0
290
     0
176
     0
 90
       50
176
     0
 90
       50
176
     0
 90
       50
176
     0
290
     0
176
     0
 90
       50
176
     0
 62
   256
176
     0
 40
1.0
176
     0
 90
        2
176
     0
  1
strokes_ogs.tif
176
     0
290
     0
176
     0
 40
1.0
176
     0
 40
1.0
176
     0
  0
VISUALSTYLE
  5
38
102
{ACAD_REACTORS
330
2A
102
}
330
2A
100
AcDbVisualStyle
  2
Linepattern
 70
    14
177
     3
291
     1
 70
    58
 90
        2
176
     1
 90
        2
176
     1
 90
        0
176
     1
 90
        0
176
     1
 40
0.6
176
     1
 40
30.0
176
     1
 62
     7
420
 16777215
176
     1
 90
        1
176
     1
 90
        4
176
     1
 62
     7
176
     1
 62
   257
176
     1
 90
        7
176
     1
 90
        7
176
     1
 40
1.0
176
     1
 90
        8
176
     1
 62
     7
176
     1
 40
1.0
176
     1
 90
        1
176
     1
 90
        6
176
     1
 90
        2
176
     1
 62
     7
176
     1
 90
        5
176
     1
 90
        0
176
     1
 90
        0
176
     1
290
     0
176
     1
 90
        1
176
     1
 40
0.0
176
     1
 90
        0
176
     1
290
     0
176
     1
290
     1
176
     1
290
     1
176
     1
290
     0
176
     1
290
     0
176
     1
290
     0
176
     1
290
     0
176
     1
290
     0
176
     1
290
     0
176
     1
 90
       50
176
     1
 40
0.0
176
     1
 40
1.0
176
     1
 90
        0
176
     1
 62
    18
420
        0
176
     1
 90
       50
176
     1
 90
        3
176
     1
 62
     5
420
      255
176
     1
290
     0
176
     1
 90
       50
176
     1
 90
       50
176
     1
 90
       50
176
     1
290
     0
176
     1
 90
       50
176
     1
 62
   256
176
     0
 40
1.0
176
     0
 90
        2
176
     1
  1
strokes_ogs.tif
176
     1
290
     0
176
     1
 40
1.0
176
     1
 40
1.0
176
     1
  0
VISUALSTYLE
  5
3C
102
{ACAD_REACTORS
330
2A
102
}
330
2A
100
AcDbVisualStyle
  2
OverhangOff
 70
    21
177
     3
291
     1
 70
    58
 90
        2
176
     0
 90
        2
176
     0
 90
        0
176
     0
 90
        0
176
     0
 40
0.6
176
     0
 40
30.0
176
     0
 62
     7
420
 16777215
176
     0
 90
        1
176
     0
 90
        4
176
     0
 62
     7
176
     0
 62
   257
176
     0
 90
        1
176
     0
 90
        1
176
     0
 40
1.0
176
     0
 90
        9
176
     2
 62
     7
176
     0
 40
1.0
176
     0
 90
        1
176
     0
 90
        6
176
     0
 90
        2
176
     0
 62
     7
176
     0
 90
        5
176
     0
 90
        0
176
     0
 90
        0
176
     0
290
     0
176
     0
 90
        1
176
     0
 40
0.0
176
     0
 90
        0
176
     0
290
     0
176
     0
290
     1
176
     0
290
     1
176
     0
290
     0
176
     0
290
     0
176
     0
290
     0
176
     0
290
     0
176
     0
290
     0
176
     0
290
     0
176
     0
 90
       50
176
     0
 40
0.0
176
     0
 40
1.0
176
     0
 90
        0
176
     0
 62
    18
420
        0
176
     0
 90
       50
176
     0
 90
        3
176
     0
 62
     5
420
      255
176
     0
290
     0
176
     0
 90
       50
176
     0
 90
       50
176
     0
 90
       50
176
     0
290
     0
176
     0
 90
       50
176
     0
 62
   256
176
     0
 40
1.0
176
     0
 90
        2
176
     0
  1
strokes_ogs.tif
176
     0
290
     0
176
     0
 40
1.0
176
     0
 40
1.0
176
     0
  0
VISUALSTYLE
  5
33
102
{ACAD_REACTORS
330
2A
102
}
330
2A
100
AcDbVisualStyle
  2
Realistic
 70
     8
177
     3
291
     0
 70
    58
 90
        2
176
     1
 90
        3
176
     1
 90
        0
176
     1
 90
        2
176
     1
 40
0.6
176
     1
 40
30.0
176
     1
 62
     7
420
 16777215
176
     1
 90
        0
176
     1
 90
        0
176
     1
 62
     7
176
     1
 62
   257
176
     1
 90
        1
176
     1
 90
        1
176
     1
 40
1.0
176
     1
 90
        8
176
     1
 62
   257
176
     1
 40
1.0
176
     1
 90
        1
176
     1
 90
        6
176
     1
 90
        2
176
     1
 62
     7
176
     1
 90
        3
176
     1
 90
        0
176
     1
 90
        0
176
     1
290
     0
176
     1
 90
       13
176
     1
 40
0.0
176
     1
 90
        0
176
     1
290
     0
176
     1
290
     1
176
     1
290
     1
176
     1
290
     0
176
     1
290
     0
176
     1
290
     0
176
     1
290
     0
176
     1
290
     0
176
     1
290
     0
176
     1
 90
       50
176
     1
 40
0.0
176
     1
 40
1.0
176
     1
 90
        0
176
     1
 62
    18
420
        0
176
     1
 90
       50
176
     1
 90
        3
176
     1
 62
     5
420
      255
176
     1
290
     0
176
     1
 90
       50
176
     1
 90
       50
176
     1
 90
       50
176
     1
290
     0
176
     1
 90
       50
176
     1
 62
   256
176
     0
 40
1.0
176
     0
 90
        2
176
     1
  1
strokes_ogs.tif
176
     1
290
     0
176
     1
 40
1.0
176
     1
 40
1.0
176
     1
  0
VISUALSTYLE
  5
42
102
{ACAD_REACTORS
330
2A
102
}
330
2A
100
AcDbVisualStyle
  2
Shaded
 70
    27
177
     3
291
     0
 70
    58
 90
        2
176
     1
 90
        2
176
     1
 90
        1
176
     1
 90
        2
176
     1
 40
0.6
176
     1
 40
30.0
176
     1
 62
     7
420
 16777215
176
     1
 90
        0
176
     1
 90
        4
176
     1
 62
     7
176
     1
 62
   257
176
     1
 90
        1
176
     1
 90
        1
176
     1
 40
1.0
176
     1
 90
        8
176
     1
 62
   257
176
     1
 40
1.0
176
     1
 90
        1
176
     1
 90
        6
176
     1
 90
        2
176
     1
 62
     8
420
  7895160
176
     1
 90
        3
176
     1
 90
        0
176
     1
 90
        0
176
     1
290
     0
176
     1
 90
        5
176
     1
 40
0.0
176
     1
 90
        0
176
     1
290
     0
176
     1
290
     1
176
     1
290
     1
176
     1
290
     0
176
     1
290
     0
176
     1
290
     0
176
     1
290
     0
176
     1
290
     0
176
     1
290
     0
176
     1
 90
       50
176
     1
 40
0.0
176
     1
 40
1.0
176
     1
 90
        0
176
     1
 62
    18
420
        0
176
     1
 90
       50
176
     1
 90
        3
176
     1
 62
     5
420
      255
176
     1
290
     0
176
     1
 90
       50
176
     1
 90
       50
176
     1
 90
       50
176
     1
290
     0
176
     1
 90
       50
176
     1
 62
   256
176
     0
 40
1.0
176
     0
 90
        2
176
     1
  1
strokes_ogs.tif
176
     1
290
     0
176
     1
 40
1.0
176
     1
 40
1.0
176
     1
  0
VISUALSTYLE
  5
41
102
{ACAD_REACTORS
330
2A
102
}
330
2A
100
AcDbVisualStyle
  2
Shaded with edges
 70
    26
177
     3
291
     0
 70
    58
 90
        2
176
     1
 90
        2
176
     1
 90
        1
176
     1
 90
        2
176
     1
 40
0.6
176
     1
 40
30.0
176
     1
 62
     7
420
 16777215
176
     1
 90
        1
176
     1
 90
       10
176
     1
 62
     7
176
     1
 62
   257
176
     1
 90
        2
176
     1
 90
        1
176
     1
 40
1.0
176
     1
 90
        8
176
     1
 62
   257
176
     1
 40
1.0
176
     1
 90
        1
176
     1
 90
        6
176
     1
 90
        2
176
     1
 62
     7
176
     1
 90
        3
176
     1
 90
        0
176
     1
 90
        0
176
     1
290
     0
176
     1
 90
        5
176
     1
 40
0.0
176
     1
 90
        0
176
     1
290
     0
176
     1
290
     1
176
     1
290
     1
176
     1
290
     0
176
     1
290
     0
176
     1
290
     0
176
     1
290
     0
176
     1
290
     0
176
     1
290
     0
176
     1
 90
       50
176
     1
 40
0.0
176
     1
 40
1.0
176
     1
 90
        0
176
     1
 62
    18
420
        0
176
     1
 90
       50
176
     1
 90
        3
176
     1
 62
     5
420
      255
176
     1
290
     0
176
     1
 90
       50
176
     1
 90
       50
176
     1
 90
       50
176
     1
290
     0
176
     1
 90
       50
176
     1
 62
   256
176
     0
 40
1.0
176
     0
 90
        2
176
     1
  1
strokes_ogs.tif
176
     1
290
     0
176
     1
 40
1.0
176
     1
 40
1.0
176
     1
  0
VISUALSTYLE
  5
3E
102
{ACAD_REACTORS
330
2A
102
}
330
2A
100
AcDbVisualStyle
  2
Shades of Gray
 70
    23
177
     3
291
     0
 70
    58
 90
        2
176
     1
 90
        2
176
     1
 90
        3
176
     1
 90
        0
176
     1
 40
0.6
176
     1
 40
30.0
176
     1
 62
     7
420
 16777215
176
     1
 90
        2
176
     1
 90
        2
176
     1
 62
     7
176
     1
 62
     7
176
     1
 90
        1
176
     1
 90
        1
176
     1
 40
40.0
176
     1
 90
        8
176
     1
 62
     7
176
     1
 40
1.0
176
     1
 90
        1
176
     1
 90
        6
176
     1
 90
        2
176
     1
 62
     7
176
     1
 90
        3
176
     1
 90
        0
176
     1
 90
        0
176
     1
290
     0
176
     1
 90
        1
176
     1
 40
0.0
176
     1
 90
        0
176
     1
290
     0
176
     1
290
     1
176
     1
290
     1
176
     1
290
     0
176
     1
290
     0
176
     1
290
     0
176
     1
290
     0
176
     1
290
     0
176
     1
290
     0
176
     1
 90
       50
176
     1
 40
0.0
176
     1
 40
1.0
176
     1
 90
        0
176
     1
 62
    18
420
        0
176
     1
 90
       50
176
     1
 90
        3
176
     1
 62
     5
420
      255
176
     1
290
     0
176
     1
 90
       50
176
     1
 90
       50
176
     1
 90
       50
176
     1
290
     0
176
     1
 90
       50
176
     1
 62
   256
176
     0
 40
1.0
176
     0
 90
        2
176
     1
  1
strokes_ogs.tif
176
     1
290
     0
176
     1
 40
1.0
176
     1
 40
1.0
176
     1
  0
VISUALSTYLE
  5
3F
102
{ACAD_REACTORS
330
2A
102
}
330
2A
100
AcDbVisualStyle
  2
Sketchy
 70
    24
177
     3
291
     0
 70
    58
 90
        1
176
     1
 90
        2
176
     1
 90
        2
176
     1
 90
        0
176
     1
 40
0.6
176
     1
 40
30.0
176
     1
 62
     7
420
 16777215
176
     1
 90
        2
176
     1
 90
        2
176
     1
 62
     7
176
     1
 62
     7
176
     1
 90
        1
176
     1
 90
        1
176
     1
 40
40.0
176
     1
 90
       11
176
     1
 62
     7
176
     1
 40
1.0
176
     1
 90
        1
176
     1
 90
        6
176
     1
 90
        2
176
     1
 62
     7
176
     1
 90
        6
176
     1
 90
        0
176
     1
 90
        0
176
     1
290
     0
176
     1
 90
        1
176
     1
 40
0.0
176
     1
 90
        0
176
     1
290
     0
176
     1
290
     1
176
     1
290
     1
176
     1
290
     0
176
     1
290
     0
176
     1
290
     0
176
     1
290
     0
176
     1
290
     0
176
     1
290
     0
176
     1
 90
       50
176
     1
 40
0.0
176
     1
 40
1.0
176
     1
 90
        0
176
     1
 62
    18
420
        0
176
     1
 90
       50
176
     1
 90
        3
176
     1
 62
     5
420
      255
176
     1
290
     0
176
     1
 90
       50
176
     1
 90
       50
176
     1
 90
       50
176
     1
290
     0
176
     1
 90
       50
176
     1
 62
   256
176
     0
 40
1.0
176
     0
 90
        2
176
     1
  1
strokes_ogs.tif
176
     1
290
     0
176
     1
 40
1.0
176
     1
 40
1.0
176
     1
  0
VISUALSTYLE
  5
37
102
{ACAD_REACTORS
330
2A
102
}
330
2A
100
AcDbVisualStyle
  2
Thicken
 70
    13
177
     3
291
     1
 70
    58
 90
        2
176
     1
 90
        2
176
     1
 90
        0
176
     1
 90
        0
176
     1
 40
0.6
176
     1
 40
30.0
176
     1
 62
     7
420
 16777215
176
     1
 90
        1
176
     1
 90
        4
176
     1
 62
     7
176
     1
 62
   257
176
     1
 90
        1
176
     1
 90
        1
176
     1
 40
1.0
176
     1
 90
       12
176
     1
 62
     7
176
     1
 40
1.0
176
     1
 90
        1
176
     1
 90
        6
176
     1
 90
        2
176
     1
 62
     7
176
     1
 90
        5
176
     1
 90
        0
176
     1
 90
        0
176
     1
290
     0
176
     1
 90
        1
176
     1
 40
0.0
176
     1
 90
        0
176
     1
290
     0
176
     1
290
     1
176
     1
290
     1
176
     1
290
     0
176
     1
290
     0
176
     1
290
     0
176
     1
290
     0
176
     1
290
     0
176
     1
290
     0
176
     1
 90
       50
176
     1
 40
0.0
176
     1
 40
1.0
176
     1
 90
        0
176
     1
 62
    18
420
        0
176
     1
 90
       50
176
     1
 90
        3
176
     1
 62
     5
420
      255
176
     1
290
     0
176
     1
 90
       50
176
     1
 90
       50
176
     1
 90
       50
176
     1
290
     0
176
     1
 90
       50
176
     1
 62
   256
176
     0
 40
1.0
176
     0
 90
        2
176
     1
  1
strokes_ogs.tif
176
     1
290
     0
176
     1
 40
1.0
176
     1
 40
1.0
176
     1
  0
VISUALSTYLE
  5
30
102
{ACAD_REACTORS
330
2A
102
}
330
2A
100
AcDbVisualStyle
  2
Wireframe
 70
     5
177
     3
291
     0
 70
    58
 90
        0
176
     1
 90
        2
176
     1
 90
        0
176
     1
 90
        0
176
     1
 40
0.6
176
     1
 40
30.0
176
     1
 62
     7
420
 16777215
176
     1
 90
        1
176
     1
 90
        4
176
     1
 62
     7
176
     1
 62
   257
176
     1
 90
        1
176
     1
 90
        1
176
     1
 40
1.0
176
     1
 90
        0
176
     1
 62
   257
176
     1
 40
1.0
176
     1
 90
        1
176
     1
 90
        6
176
     1
 90
        2
176
     1
 62
     7
176
     1
 90
        3
176
     1
 90
        0
176
     1
 90
        0
176
     1
290
     0
176
     1
 90
        1
176
     1
 40
0.0
176
     1
 90
        0
176
     1
290
     0
176
     1
290
     1
176
     1
290
     1
176
     1
290
     0
176
     1
290
     0
176
     1
290
     0
176
     1
290
     0
176
     1
290
     0
176
     1
290
     0
176
     1
 90
       50
176
     1
 40
0.0
176
     1
 40
1.0
176
     1
 90
        0
176
     1
 62
    18
420
        0
176
     1
 90
       50
176
     1
 90
        3
176
     1
 62
     5
420
      255
176
     1
290
     0
176
     1
 90
       50
176
     1
 90
       50
176
     1
 90
       50
176
     1
290
     0
176
     1
 90
       50
176
     1
 62
   256
176
     0
 40
1.0
176
     0
 90
        2
176
     1
  1
strokes_ogs.tif
176
     1
290
     0
176
     1
 40
1.0
176
     1
 40
1.0
176
     1
  0
VISUALSTYLE
  5
40
102
{ACAD_REACTORS
330
2A
102
}
330
2A
100
AcDbVisualStyle
  2
X-Ray
 70
    25
177
     3
291
     0
 70
    58
 90
        2
176
     1
 90
        2
176
     1
 90
        1
176
     1
 90
        1
176
     1
 40
0.5
176
     1
 40
30.0
176
     1
 62
     7
420
 16777215
176
     1
 90
        1
176
     1
 90
        0
176
     1
 62
     7
176
     1
 62
   257
176
     1
 90
        1
176
     1
 90
        1
176
     1
 40
1.0
176
     1
 90
        8
176
     1
 62
     7
176
     1
 40
1.0
176
     1
 90
        1
176
     1
 90
        6
176
     1
 90
        2
176
     1
 62
     7
176
     1
 90
        3
176
     1
 90
        0
176
     1
 90
        0
176
     1
290
     0
176
     1
 90
       13
176
     1
 40
0.0
176
     1
 90
        0
176
     1
290
     0
176
     1
290
     1
176
     1
290
     1
176
     1
290
     0
176
     1
290
     0
176
     1
290
     0
176
     1
290
     0
176
     1
290
     0
176
     1
290
     0
176
     1
 90
       50
176
     1
 40
0.0
176
     1
 40
1.0
176
     1
 90
        0
176
     1
 62
    18
420
        0
176
     1
 90
       50
176
     1
 90
        3
176
     1
 62
     5
420
      255
176
     1
290
     0
176
     1
 90
       50
176
     1
 90
       50
176
     1
 90
       50
176
     1
290
     0
176
     1
 90
       50
176
     1
 62
   256
176
     0
 40
1.0
176
     0
 90
        2
176
     1
  1
strokes_ogs.tif
176
     1
290
     0
176
     1
 40
1.0
176
     1
 40
1.0
176
     1
  0
DICTIONARYVAR
  5
277
102
{ACAD_REACTORS
330
276
102
}
330
276
100
DictionaryVariables
280
     0
  1
1:1
  0
DICTIONARYVAR
  5
27C
102
{ACAD_REACTORS
330
276
102
}
330
276
100
DictionaryVariables
280
     0
  1
Standard
  0
DICTIONARYVAR
  5
27B
102
{ACAD_REACTORS
330
276
102
}
330
276
100
DictionaryVariables
280
     0
  1
Standard
  0
DICTIONARY
  5
278
330
6A
100
AcDbDictionary
280
     1
281
     1
  3
ACAD_ROUNDTRIP_2008_TABLESTYLE_CELLSTYLEMAP
360
279
  0
CELLSTYLEMAP
  5
279
102
{ACAD_REACTORS
330
278
102
}
330
278
100
AcDbCellStyleMap
 90
        3
300
CELLSTYLE
  1
TABLEFORMAT_BEGIN
 90
        5
170
     1
 91
        0
 92
    32768
 62
   257
 93
        1
300
CONTENTFORMAT
  1
CONTENTFORMAT_BEGIN
 90
        0
 91
        0
 92
        4
 93
        0
300

 40
0.0
140
1.0
 94
        5
 62
     0
340
11
144
0.25
309
CONTENTFORMAT_END
171
     1
301
MARGIN
  1
CELLMARGIN_BEGIN
 40
0.06
 40
0.06
 40
0.06
 40
0.06
 40
0.06
 40
0.06
309
CELLMARGIN_END
 94
        6
 95
        1
302
GRIDFORMAT
  1
GRIDFORMAT_BEGIN
 90
        0
 91
        1
 62
     0
 92
       -2
340
14
 93
        0
 40
0.045
309
GRIDFORMAT_END
 95
        2
302
GRIDFORMAT
  1
GRIDFORMAT_BEGIN
 90
        0
 91
        1
 62
     0
 92
       -2
340
14
 93
        0
 40
0.045
309
GRIDFORMAT_END
 95
        4
302
GRIDFORMAT
  1
GRIDFORMAT_BEGIN
 90
        0
 91
        1
 62
     0
 92
       -2
340
14
 93
        0
 40
0.045
309
GRIDFORMAT_END
 95
        8
302
GRIDFORMAT
  1
GRIDFORMAT_BEGIN
 90
        0
 91
        1
 62
     0
 92
       -2
340
14
 93
        0
 40
0.045
309
GRIDFORMAT_END
 95
       16
302
GRIDFORMAT
  1
GRIDFORMAT_BEGIN
 90
        0
 91
        1
 62
     0
 92
       -2
340
14
 93
        0
 40
0.045
309
GRIDFORMAT_END
 95
       32
302
GRIDFORMAT
  1
GRIDFORMAT_BEGIN
 90
        0
 91
        1
 62
     0
 92
       -2
340
14
 93
        0
 40
0.045
309
GRIDFORMAT_END
309
TABLEFORMAT_END
  1
CELLSTYLE_BEGIN
 90
        1
 91
        1
300
_TITLE
309
CELLSTYLE_END
300
CELLSTYLE
  1
TABLEFORMAT_BEGIN
 90
        5
170
     1
 91
        0
 92
        0
 62
   257
 93
        1
300
CONTENTFORMAT
  1
CONTENTFORMAT_BEGIN
 90
        0
 91
        0
 92
        4
 93
        0
300

 40
0.0
140
1.0
 94
        5
 62
     0
340
11
144
0.18
309
CONTENTFORMAT_END
171
     1
301
MARGIN
  1
CELLMARGIN_BEGIN
 40
0.06
 40
0.06
 40
0.06
 40
0.06
 40
0.06
 40
0.06
309
CELLMARGIN_END
 94
        6
 95
        1
302
GRIDFORMAT
  1
GRIDFORMAT_BEGIN
 90
        0
 91
        1
 62
     0
 92
       -2
340
14
 93
        0
 40
0.045
309
GRIDFORMAT_END
 95
        2
302
GRIDFORMAT
  1
GRIDFORMAT_BEGIN
 90
        0
 91
        1
 62
     0
 92
       -2
340
14
 93
        0
 40
0.045
309
GRIDFORMAT_END
 95
        4
302
GRIDFORMAT
  1
GRIDFORMAT_BEGIN
 90
        0
 91
        1
 62
     0
 92
       -2
340
14
 93
        0
 40
0.045
309
GRIDFORMAT_END
 95
        8
302
GRIDFORMAT
  1
GRIDFORMAT_BEGIN
 90
        0
 91
        1
 62
     0
 92
       -2
340
14
 93
        0
 40
0.045
309
GRIDFORMAT_END
 95
       16
302
GRIDFORMAT
  1
GRIDFORMAT_BEGIN
 90
        0
 91
        1
 62
     0
 92
       -2
340
14
 93
        0
 40
0.045
309
GRIDFORMAT_END
 95
       32
302
GRIDFORMAT
  1
GRIDFORMAT_BEGIN
 90
        0
 91
        1
 62
     0
 92
       -2
340
14
 93
        0
 40
0.045
309
GRIDFORMAT_END
309
TABLEFORMAT_END
  1
CELLSTYLE_BEGIN
 90
        2
 91
        1
300
_HEADER
309
CELLSTYLE_END
300
CELLSTYLE
  1
TABLEFORMAT_BEGIN
 90
        5
170
     1
 91
        0
 92
        0
 62
   257
 93
        1
300
CONTENTFORMAT
  1
CONTENTFORMAT_BEGIN
 90
        0
 91
        0
 92
        4
 93
        0
300

 40
0.0
140
1.0
 94
        2
 62
     0
340
11
144
0.18
309
CONTENTFORMAT_END
171
     1
301
MARGIN
  1
CELLMARGIN_BEGIN
 40
0.06
 40
0.06
 40
0.06
 40
0.06
 40
0.06
 40
0.06
309
CELLMARGIN_END
 94
        6
 95
        1
302
GRIDFORMAT
  1
GRIDFORMAT_BEGIN
 90
        0
 91
        1
 62
     0
 92
       -2
340
14
 93
        0
 40
0.045
309
GRIDFORMAT_END
 95
        2
302
GRIDFORMAT
  1
GRIDFORMAT_BEGIN
 90
        0
 91
        1
 62
     0
 92
       -2
340
14
 93
        0
 40
0.045
309
GRIDFORMAT_END
 95
        4
302
GRIDFORMAT
  1
GRIDFORMAT_BEGIN
 90
        0
 91
        1
 62
     0
 92
       -2
340
14
 93
        0
 40
0.045
309
GRIDFORMAT_END
 95
        8
302
GRIDFORMAT
  1
GRIDFORMAT_BEGIN
 90
        0
 91
        1
 62
     0
 92
       -2
340
14
 93
        0
 40
0.045
309
GRIDFORMAT_END
 95
       16
302
GRIDFORMAT
  1
GRIDFORMAT_BEGIN
 90
        0
 91
        1
 62
     0
 92
       -2
340
14
 93
        0
 40
0.045
309
GRIDFORMAT_END
 95
       32
302
GRIDFORMAT
  1
GRIDFORMAT_BEGIN
 90
        0
 91
        1
 62
     0
 92
       -2
340
14
 93
        0
 40
0.045
309
GRIDFORMAT_END
309
TABLEFORMAT_END
  1
CELLSTYLE_BEGIN
 90
        3
 91
        2
300
_DATA
309
CELLSTYLE_END
  0
ENDSEC
  0
EOF