0
SECTION
  2
HEADER
  9
$ACADVER
  1
AC1027
  9
$ACADMAINTVER
 70
     8
  9
$DWGCODEPAGE
  3
ANSI_1252
  9
$REQUIREDVERSIONS
160
                 0
  9
$COMMENTS
  1
File was created by Cadenas
  9
$CUSTOMPROPERTYTAG
  1
NN
  9
$CUSTOMPROPERTY
  1
Grip Tight Air Handling Normal Duty Pillow Block
  9
$CUSTOMPROPERTYTAG
  1
NT
  9
$CUSTOMPROPERTY
  1
GTAH Air Handling Normal Duty Pillow Blocks
  9
$CUSTOMPROPERTYTAG
  1
NB
  9
$CUSTOMPROPERTY
  1
129182
  9
$CUSTOMPROPERTYTAG
  1
NBSYN
  9
$CUSTOMPROPERTY
  1
$PN.$LUBE.
  9
$CUSTOMPROPERTYTAG
  1
LINA
  9
$CUSTOMPROPERTY
  1
129182
  9
$CUSTOMPROPERTYTAG
  1
SERIES
  9
$CUSTOMPROPERTY
  1
212
  9
$CUSTOMPROPERTYTAG
  1
SS
  9
$CUSTOMPROPERTY
  1
2-7/16
  9
$CUSTOMPROPERTYTAG
  1
PN
  9
$CUSTOMPROPERTY
  1
129182
  9
$CUSTOMPROPERTYTAG
  1
DESCRIPTION
  9
$CUSTOMPROPERTY
  1
P2B-GTAH-207
  9
$CUSTOMPROPERTYTAG
  1
A
  9
$CUSTOMPROPERTY
  1
2-7/64
  9
$CUSTOMPROPERTYTAG
  1
B
  9
$CUSTOMPROPERTY
  1
9-1/2
  9
$CUSTOMPROPERTYTAG
  1
C
  9
$CUSTOMPROPERTY
  1
2-3/8
  9
$CUSTOMPROPERTYTAG
  1
DMIN
  9
$CUSTOMPROPERTY
  1
6-7/8
  9
$CUSTOMPROPERTYTAG
  1
DMAX
  9
$CUSTOMPROPERTY
  1
7-15/16
  9
$CUSTOMPROPERTYTAG
  1
F
  9
$CUSTOMPROPERTY
  1
5/8
  9
$CUSTOMPROPERTYTAG
  1
G
  9
$CUSTOMPROPERTY
  1
1-7/32
  9
$CUSTOMPROPERTYTAG
  1
H
  9
$CUSTOMPROPERTY
  1
7/8
  9
$CUSTOMPROPERTYTAG
  1
J
  9
$CUSTOMPROPERTY
  1
5-3/8
  9
$CUSTOMPROPERTYTAG
  1
L
  9
$CUSTOMPROPERTY
  1
3-1/2
  9
$CUSTOMPROPERTYTAG
  1
M
  9
$CUSTOMPROPERTY
  1
2-3/4
  9
$CUSTOMPROPERTYTAG
  1
R
  9
$CUSTOMPROPERTY
  1
49/64
  9
$CUSTOMPROPERTYTAG
  1
S
  9
$CUSTOMPROPERTY
  1
1-11/32
  9
$CUSTOMPROPERTYTAG
  1
U
  9
$CUSTOMPROPERTY
  1
4-1/4
  9
$CUSTOMPROPERTYTAG
  1
V
  9
$CUSTOMPROPERTY
  1
8-1/2
  9
$CUSTOMPROPERTYTAG
  1
W
  9
$CUSTOMPROPERTY
  1
7/8
  9
$CUSTOMPROPERTYTAG
  1
X
  9
$CUSTOMPROPERTY
  1
3/16
  9
$CUSTOMPROPERTYTAG
  1
Z
  9
$CUSTOMPROPERTY
  1
1-5/16
  9
$CUSTOMPROPERTYTAG
  1
COMPANY
  9
$CUSTOMPROPERTY
  1
baldor
  9
$INSBASE
 10
0.0
 20
0.0
 30
0.0
  9
$EXTMIN
 10
1.000000000000000E+20
 20
1.000000000000000E+20
 30
1.000000000000000E+20
  9
$EXTMAX
 10
-1.000000000000000E+20
 20
-1.000000000000000E+20
 30
-1.000000000000000E+20
  9
$LIMMIN
 10
0.0
 20
0.0
  9
$LIMMAX
 10
12.0
 20
9.0
  9
$ORTHOMODE
 70
     0
  9
$REGENMODE
 70
     1
  9
$FILLMODE
 70
     1
  9
$QTEXTMODE
 70
     0
  9
$MIRRTEXT
 70
     1
  9
$LTSCALE
 40
1.0
  9
$ATTMODE
 70
     1
  9
$TEXTSIZE
 40
0.2
  9
$TRACEWID
 40
0.05
  9
$TEXTSTYLE
  7
Standard
  9
$CLAYER
  8
0
  9
$CELTYPE
  6
ByLayer
  9
$CECOLOR
 62
   256
  9
$CELTSCALE
 40
1.0
  9
$DISPSILH
 70
     0
  9
$DIMSCALE
 40
1.0
  9
$DIMASZ
 40
0.18
  9
$DIMEXO
 40
0.0625
  9
$DIMDLI
 40
0.38
  9
$DIMRND
 40
0.0
  9
$DIMDLE
 40
0.0
  9
$DIMEXE
 40
0.18
  9
$DIMTP
 40
0.0
  9
$DIMTM
 40
0.0
  9
$DIMTXT
 40
0.18
  9
$DIMCEN
 40
0.09
  9
$DIMTSZ
 40
0.0
  9
$DIMTOL
 70
     0
  9
$DIMLIM
 70
     0
  9
$DIMTIH
 70
     1
  9
$DIMTOH
 70
     1
  9
$DIMSE1
 70
     0
  9
$DIMSE2
 70
     0
  9
$DIMTAD
 70
     0
  9
$DIMZIN
 70
     0
  9
$DIMBLK
  1

  9
$DIMASO
 70
     1
  9
$DIMSHO
 70
     1
  9
$DIMPOST
  1

  9
$DIMAPOST
  1

  9
$DIMALT
 70
     0
  9
$DIMALTD
 70
     2
  9
$DIMALTF
 40
25.4
  9
$DIMLFAC
 40
1.0
  9
$DIMTOFL
 70
     0
  9
$DIMTVP
 40
0.0
  9
$DIMTIX
 70
     0
  9
$DIMSOXD
 70
     0
  9
$DIMSAH
 70
     0
  9
$DIMBLK1
  1

  9
$DIMBLK2
  1

  9
$DIMSTYLE
  2
Standard
  9
$DIMCLRD
 70
     0
  9
$DIMCLRE
 70
     0
  9
$DIMCLRT
 70
     0
  9
$DIMTFAC
 40
1.0
  9
$DIMGAP
 40
0.09
  9
$DIMJUST
 70
     0
  9
$DIMSD1
 70
     0
  9
$DIMSD2
 70
     0
  9
$DIMTOLJ
 70
     1
  9
$DIMTZIN
 70
     0
  9
$DIMALTZ
 70
     0
  9
$DIMALTTZ
 70
     0
  9
$DIMUPT
 70
     0
  9
$DIMDEC
 70
     4
  9
$DIMTDEC
 70
     4
  9
$DIMALTU
 70
     2
  9
$DIMALTTD
 70
     2
  9
$DIMTXSTY
  7
Standard
  9
$DIMAUNIT
 70
     0
  9
$DIMADEC
 70
     0
  9
$DIMALTRND
 40
0.0
  9
$DIMAZIN
 70
     0
  9
$DIMDSEP
 70
    46
  9
$DIMATFIT
 70
     3
  9
$DIMFRAC
 70
     0
  9
$DIMLDRBLK
  1

  9
$DIMLUNIT
 70
     2
  9
$DIMLWD
 70
    -2
  9
$DIMLWE
 70
    -2
  9
$DIMTMOVE
 70
     0
  9
$DIMFXL
 40
1.0
  9
$DIMFXLON
 70
     0
  9
$DIMJOGANG
 40
0.7853981633974483
  9
$DIMTFILL
 70
     0
  9
$DIMTFILLCLR
 70
     0
  9
$DIMARCSYM
 70
     0
  9
$DIMLTYPE
  6

  9
$DIMLTEX1
  6

  9
$DIMLTEX2
  6

  9
$DIMTXTDIRECTION
 70
     0
  9
$LUNITS
 70
     2
  9
$LUPREC
 70
     4
  9
$SKETCHINC
 40
0.1
  9
$FILLETRAD
 40
0.5
  9
$AUNITS
 70
     0
  9
$AUPREC
 70
     0
  9
$MENU
  1
.
  9
$ELEVATION
 40
0.0
  9
$PELEVATION
 40
0.0
  9
$THICKNESS
 40
0.0
  9
$LIMCHECK
 70
     0
  9
$CHAMFERA
 40
0.0
  9
$CHAMFERB
 40
0.0
  9
$CHAMFERC
 40
0.0
  9
$CHAMFERD
 40
0.0
  9
$SKPOLY
 70
     0
  9
$TDCREATE
 40
2458168.995473704
  9
$TDUCREATE
 40
2458168.953807037
  9
$TDUPDATE
 40
2458168.995473889
  9
$TDUUPDATE
 40
2458168.953807222
  9
$TDINDWG
 40
0.0000000116
  9
$TDUSRTIMER
 40
0.0000000116
  9
$USRTIMER
 70
     1
  9
$ANGBASE
 50
0.0
  9
$ANGDIR
 70
     0
  9
$PDMODE
 70
     0
  9
$PDSIZE
 40
0.0
  9
$PLINEWID
 40
0.0
  9
$SPLFRAME
 70
     0
  9
$SPLINETYPE
 70
     6
  9
$SPLINESEGS
 70
     8
  9
$HANDSEED
  5
1BB
  9
$SURFTAB1
 70
     6
  9
$SURFTAB2
 70
     6
  9
$SURFTYPE
 70
     6
  9
$SURFU
 70
     6
  9
$SURFV
 70
     6
  9
$UCSBASE
  2

  9
$UCSNAME
  2

  9
$UCSORG
 10
0.0
 20
0.0
 30
0.0
  9
$UCSXDIR
 10
1.0
 20
0.0
 30
0.0
  9
$UCSYDIR
 10
0.0
 20
1.0
 30
0.0
  9
$UCSORTHOREF
  2

  9
$UCSORTHOVIEW
 70
     0
  9
$UCSORGTOP
 10
0.0
 20
0.0
 30
0.0
  9
$UCSORGBOTTOM
 10
0.0
 20
0.0
 30
0.0
  9
$UCSORGLEFT
 10
0.0
 20
0.0
 30
0.0
  9
$UCSORGRIGHT
 10
0.0
 20
0.0
 30
0.0
  9
$UCSORGFRONT
 10
0.0
 20
0.0
 30
0.0
  9
$UCSORGBACK
 10
0.0
 20
0.0
 30
0.0
  9
$PUCSBASE
  2

  9
$PUCSNAME
  2

  9
$PUCSORG
 10
0.0
 20
0.0
 30
0.0
  9
$PUCSXDIR
 10
1.0
 20
0.0
 30
0.0
  9
$PUCSYDIR
 10
0.0
 20
1.0
 30
0.0
  9
$PUCSORTHOREF
  2

  9
$PUCSORTHOVIEW
 70
     0
  9
$PUCSORGTOP
 10
0.0
 20
0.0
 30
0.0
  9
$PUCSORGBOTTOM
 10
0.0
 20
0.0
 30
0.0
  9
$PUCSORGLEFT
 10
0.0
 20
0.0
 30
0.0
  9
$PUCSORGRIGHT
 10
0.0
 20
0.0
 30
0.0
  9
$PUCSORGFRONT
 10
0.0
 20
0.0
 30
0.0
  9
$PUCSORGBACK
 10
0.0
 20
0.0
 30
0.0
  9
$USERI1
 70
     0
  9
$USERI2
 70
     0
  9
$USERI3
 70
     0
  9
$USERI4
 70
     0
  9
$USERI5
 70
     0
  9
$USERR1
 40
0.0
  9
$USERR2
 40
0.0
  9
$USERR3
 40
0.0
  9
$USERR4
 40
0.0
  9
$USERR5
 40
0.0
  9
$WORLDVIEW
 70
     1
  9
$SHADEDGE
 70
     3
  9
$SHADEDIF
 70
    70
  9
$TILEMODE
 70
     1
  9
$MAXACTVP
 70
    64
  9
$PINSBASE
 10
0.0
 20
0.0
 30
0.0
  9
$PLIMCHECK
 70
     0
  9
$PEXTMIN
 10
1.000000000000000E+20
 20
1.000000000000000E+20
 30
1.000000000000000E+20
  9
$PEXTMAX
 10
-1.000000000000000E+20
 20
-1.000000000000000E+20
 30
-1.000000000000000E+20
  9
$PLIMMIN
 10
0.0
 20
0.0
  9
$PLIMMAX
 10
12.0
 20
9.0
  9
$UNITMODE
 70
     0
  9
$VISRETAIN
 70
     1
  9
$PLINEGEN
 70
     0
  9
$PSLTSCALE
 70
     1
  9
$TREEDEPTH
 70
  3020
  9
$CMLSTYLE
  2
Standard
  9
$CMLJUST
 70
     0
  9
$CMLSCALE
 40
1.0
  9
$PROXYGRAPHICS
 70
     1
  9
$MEASUREMENT
 70
     0
  9
$CELWEIGHT
370
    -1
  9
$ENDCAPS
280
     0
  9
$JOINSTYLE
280
     0
  9
$LWDISPLAY
290
     0
  9
$INSUNITS
 70
     1
  9
$HYPERLINKBASE
  1

  9
$STYLESHEET
  1

  9
$XEDIT
290
     1
  9
$CEPSNTYPE
380
     0
  9
$PSTYLEMODE
290
     1
  9
$FINGERPRINTGUID
  2
{3ED4B462-2756-4061-B9FE-62E3053C38BA}
  9
$VERSIONGUID
  2
{FAEB1C32-E019-11D5-929B-00C0DF256EC4}
  9
$EXTNAMES
290
     1
  9
$PSVPSCALE
 40
0.0
  9
$OLESTARTUP
290
     0
  9
$SORTENTS
280
   127
  9
$INDEXCTL
280
     0
  9
$HIDETEXT
280
     1
  9
$XCLIPFRAME
280
     2
  9
$HALOGAP
280
     0
  9
$OBSCOLOR
 70
   257
  9
$OBSLTYPE
280
     0
  9
$INTERSECTIONDISPLAY
280
     0
  9
$INTERSECTIONCOLOR
 70
   257
  9
$DIMASSOC
280
     2
  9
$PROJECTNAME
  1

  9
$CAMERADISPLAY
290
     0
  9
$LENSLENGTH
 40
50.0
  9
$CAMERAHEIGHT
 40
0.0
  9
$STEPSPERSEC
 40
2.0
  9
$STEPSIZE
 40
6.0
  9
$3DDWFPREC
 40
2.0
  9
$PSOLWIDTH
 40
0.25
  9
$PSOLHEIGHT
 40
4.0
  9
$LOFTANG1
 40
1.570796326794897
  9
$LOFTANG2
 40
1.570796326794897
  9
$LOFTMAG1
 40
0.0
  9
$LOFTMAG2
 40
0.0
  9
$LOFTPARAM
 70
     7
  9
$LOFTNORMALS
280
     1
  9
$LATITUDE
 40
37.795
  9
$LONGITUDE
 40
-122.394
  9
$NORTHDIRECTION
 40
0.0
  9
$TIMEZONE
 70
 -8000
  9
$LIGHTGLYPHDISPLAY
280
     1
  9
$TILEMODELIGHTSYNCH
280
     1
  9
$CMATERIAL
347
44
  9
$SOLIDHIST
280
     0
  9
$SHOWHIST
280
     1
  9
$DWFFRAME
280
     2
  9
$DGNFRAME
280
     2
  9
$REALWORLDSCALE
290
     1
  9
$INTERFERECOLOR
 62
   256
  9
$CSHADOW
280
     0
  9
$SHADOWPLANELOCATION
 40
0.0
  0
ENDSEC
  0
SECTION
  2
CLASSES
  0
CLASS
  1
ACDBDICTIONARYWDFLT
  2
AcDbDictionaryWithDefault
  3
ObjectDBX Classes
 90
        0
 91
        4
280
     0
281
     0
  0
CLASS
  1
VISUALSTYLE
  2
AcDbVisualStyle
  3
ObjectDBX Classes
 90
     4095
 91
        4
280
     0
281
     0
  0
CLASS
  1
MATERIAL
  2
AcDbMaterial
  3
ObjectDBX Classes
 90
     1153
 91
        4
280
     0
281
     0
  0
CLASS
  1
SCALE
  2
AcDbScale
  3
ObjectDBX Classes
 90
     1153
 91
        4
280
     0
281
     0
  0
CLASS
  1
TABLESTYLE
  2
AcDbTableStyle
  3
ObjectDBX Classes
 90
     4095
 91
        4
280
     0
281
     0
  0
CLASS
  1
MLEADERSTYLE
  2
AcDbMLeaderStyle
  3
ACDB_MLEADERSTYLE_CLASS
 90
     4095
 91
        4
280
     0
281
     0
  0
CLASS
  1
SUN
  2
AcDbSun
  3
SCENEOE
 90
     1153
 91
        4
280
     0
281
     0
  0
CLASS
  1
DICTIONARYVAR
  2
AcDbDictionaryVar
  3
ObjectDBX Classes
 90
        0
 91
        4
280
     0
281
     0
  0
CLASS
  1
CELLSTYLEMAP
  2
AcDbCellStyleMap
  3
ObjectDBX Classes
 90
     1152
 91
        4
280
     0
281
     0
  0
ENDSEC
  0
SECTION
  2
TABLES
  0
TABLE
  2
VPORT
  5
8
330
0
100
AcDbSymbolTable
 70
     1
  0
VPORT
  5
29
330
8
100
AcDbSymbolTableRecord
100
AcDbViewportTableRecord
  2
*Active
 70
     0
 10
0.0
 20
0.0
 11
1.0
 21
1.0
 12
0.0
 22
0.5093749999999995
 13
0.0
 23
0.0
 14
0.5
 24
0.5
 15
0.5
 25
0.5
 16
0.0
 26
0.0
 36
1.0
 17
0.0
 27
0.0
 37
0.0
 40
6.649124999999999
 41
1.457334611697028
 42
50.0
 43
0.0
 44
0.0
 50
0.0
 51
0.0
 71
     0
 72
   100
 73
     1
 74
     3
 75
     0
 76
     0
 77
     0
 78
     0
281
     0
 65
     1
110
0.0
120
0.0
130
0.0
111
1.0
121
0.0
131
0.0
112
0.0
122
1.0
132
0.0
 79
     0
146
0.0
348
2F
 60
     3
 61
     5
292
     1
282
     1
141
0.0
142
0.0
 63
   250
361
6D
  0
ENDTAB
  0
TABLE
  2
LTYPE
  5
5
330
0
100
AcDbSymbolTable
 70
     3
  0
LTYPE
  5
14
330
5
100
AcDbSymbolTableRecord
100
AcDbLinetypeTableRecord
  2
ByBlock
 70
     0
  3

 72
    65
 73
     0
 40
0.0
  0
LTYPE
  5
15
330
5
100
AcDbSymbolTableRecord
100
AcDbLinetypeTableRecord
  2
ByLayer
 70
     0
  3

 72
    65
 73
     0
 40
0.0
  0
LTYPE
  5
16
330
5
100
AcDbSymbolTableRecord
100
AcDbLinetypeTableRecord
  2
Continuous
 70
     0
  3
Solid line
 72
    65
 73
     0
 40
0.0
  0
LTYPE
  5
A5
330
5
100
AcDbSymbolTableRecord
100
AcDbLinetypeTableRecord
  2
Dashed
 70
     0
  3

 72
    65
 73
     2
 40
2.0
 49
1.0
 74
     0
 49
-1.0
 74
     0
  0
LTYPE
  5
B1
330
5
100
AcDbSymbolTableRecord
100
AcDbLinetypeTableRecord
  2
Center
 70
     0
  3

 72
    65
 73
     4
 40
1.5
 49
0.45
 74
     0
 49
-0.5
 74
     0
 49
0.05
 74
     0
 49
-0.5
 74
     0
  0
ENDTAB
  0
TABLE
  2
LAYER
  5
2
330
0
100
AcDbSymbolTable
 70
     7
  0
LAYER
  5
10
330
2
100
AcDbSymbolTableRecord
100
AcDbLayerTableRecord
  2
0
 70
     0
 62
     7
  6
Continuous
370
    -3
390
F
347
46
348
0
  0
LAYER
  5
72
330
2
100
AcDbSymbolTableRecord
100
AcDbLayerTableRecord
  2
AM_6
 70
     0
 62
    -2
  6
Continuous
370
    35
390
F
347
46
348
0
  0
LAYER
  5
A6
330
2
100
AcDbSymbolTableRecord
100
AcDbLayerTableRecord
  2
AM_9
 70
     0
 62
     6
  6
Dashed
370
    25
390
F
347
46
348
0
  0
LAYER
  5
B2
330
2
100
AcDbSymbolTableRecord
100
AcDbLayerTableRecord
  2
AM_7
 70
     0
 62
     7
  6
Center
370
    25
390
F
347
46
348
0
  0
LAYER
  5
B5
330
2
100
AcDbSymbolTableRecord
100
AcDbLayerTableRecord
  2
AM_4
 70
     0
 62
     3
  6
Continuous
370
    25
390
F
347
46
348
0
  0
LAYER
  5
E5
330
2
100
AcDbSymbolTableRecord
100
AcDbLayerTableRecord
  2
AM_5
 70
     0
 62
     3
  6
Continuous
370
    25
390
F
347
46
348
0
  0
LAYER
  5
1AD
330
2
100
AcDbSymbolTableRecord
100
AcDbLayerTableRecord
  2
ConnectionPoints
 70
     0
 62
     7
  6
Continuous
370
    50
390
F
347
46
348
0
  0
ENDTAB
  0
TABLE
  2
STYLE
  5
3
330
0
100
AcDbSymbolTable
 70
     1
  0
STYLE
  5
11
330
3
100
AcDbSymbolTableRecord
100
AcDbTextStyleTableRecord
  2
Standard
 70
     0
 40
0.0
 41
1.0
 50
0.0
 71
     0
 42
0.2
  3
txt
  4

  0
ENDTAB
  0
TABLE
  2
VIEW
  5
6
330
0
100
AcDbSymbolTable
 70
     0
  0
ENDTAB
  0
TABLE
  2
UCS
  5
7
330
0
100
AcDbSymbolTable
 70
     0
  0
ENDTAB
  0
TABLE
  2
APPID
  5
9
330
0
100
AcDbSymbolTable
 70
     1
  0
APPID
  5
12
330
9
100
AcDbSymbolTableRecord
100
AcDbRegAppTableRecord
  2
ACAD
 70
     0
  0
ENDTAB
  0
TABLE
  2
DIMSTYLE
  5
A
330
0
100
AcDbSymbolTable
 70
     1
100
AcDbDimStyleTable
  0
DIMSTYLE
105
27
330
A
100
AcDbSymbolTableRecord
100
AcDbDimStyleTableRecord
  2
Standard
 70
     0
178
     0
340
11
  0
ENDTAB
  0
TABLE
  2
BLOCK_RECORD
  5
1
330
0
100
AcDbSymbolTable
 70
     5
  0
BLOCK_RECORD
  5
1F
330
1
100
AcDbSymbolTableRecord
100
AcDbBlockTableRecord
  2
*Model_Space
340
22
 70
     0
280
     1
281
     0
  0
BLOCK_RECORD
  5
1B
330
1
100
AcDbSymbolTableRecord
100
AcDbBlockTableRecord
  2
*Paper_Space
340
1E
 70
     0
280
     1
281
     0
  0
BLOCK_RECORD
  5
23
330
1
100
AcDbSymbolTableRecord
100
AcDbBlockTableRecord
  2
*Paper_Space0
340
26
 70
     0
280
     1
281
     0
  0
BLOCK_RECORD
  5
6E
330
1
100
AcDbSymbolTableRecord
100
AcDbBlockTableRecord
  2
1_129182_0
340
0
102
{BLKREFS
331
6F
102
}
 70
     0
280
     1
281
     0
  0
BLOCK_RECORD
  5
8F
330
1
100
AcDbSymbolTableRecord
100
AcDbBlockTableRecord
  2
2_129525I_0_in_129182_0
340
0
102
{BLKREFS
331
90
102
}
 70
     0
280
     1
281
     0
  0
BLOCK_RECORD
  5
BE
330
1
100
AcDbSymbolTableRecord
100
AcDbBlockTableRecord
  2
3_129921_0_in_129182_0
340
0
102
{BLKREFS
331
BF
102
}
 70
     0
280
     1
281
     0
  0
BLOCK_RECORD
  5
FF
330
1
100
AcDbSymbolTableRecord
100
AcDbBlockTableRecord
  2
4_129449I_0_in_129182_0
340
0
102
{BLKREFS
331
100
102
}
 70
     0
280
     1
281
     0
  0
ENDTAB
  0
ENDSEC
  0
SECTION
  2
BLOCKS
  0
BLOCK
  5
20
330
1F
100
AcDbEntity
  8
0
100
AcDbBlockBegin
  2
*Model_Space
 70
     0
 10
0.0
 20
0.0
 30
0.0
  3
*Model_Space
  1

  0
ENDBLK
  5
21
330
1F
100
AcDbEntity
  8
0
100
AcDbBlockEnd
  0
BLOCK
  5
1C
330
1B
100
AcDbEntity
 67
     1
  8
0
100
AcDbBlockBegin
  2
*Paper_Space
 70
     0
 10
0.0
 20
0.0
 30
0.0
  3
*Paper_Space
  1

  0
ENDBLK
  5
1D
330
1B
100
AcDbEntity
 67
     1
  8
0
100
AcDbBlockEnd
  0
BLOCK
  5
24
330
23
100
AcDbEntity
  8
0
100
AcDbBlockBegin
  2
*Paper_Space0
 70
     0
 10
0.0
 20
0.0
 30
0.0
  3
*Paper_Space0
  1

  0
ENDBLK
  5
25
330
23
100
AcDbEntity
  8
0
100
AcDbBlockEnd
  0
BLOCK
  5
70
330
6E
100
AcDbEntity
  8
0
100
AcDbBlockBegin
  2
1_129182_0
 70
     2
 10
0.0
 20
0.0
 30
0.0
  3
1_129182_0
  1

  0
ATTDEF
  5
73
330
6E
100
AcDbEntity
  8
AM_6
100
AcDbText
 10
9.75
 20
3.76875
 30
0.0
 40
0.5
  1
Grip Tight Air Handling Normal Duty Pillow Block
100
AcDbAttributeDefinition
  3

  2
NN
 70
     8
280
     0
  0
ATTDEF
  5
74
330
6E
100
AcDbEntity
  8
AM_6
100
AcDbText
 10
9.75
 20
3.26875
 30
0.0
 40
0.5
  1
GTAH Air Handling Normal Duty Pillow Blocks
100
AcDbAttributeDefinition
  3

  2
NT
 70
     8
280
     0
  0
ATTDEF
  5
75
330
6E
100
AcDbEntity
  8
AM_6
100
AcDbText
 10
9.75
 20
2.76875
 30
0.0
 40
0.5
  1
129182
100
AcDbAttributeDefinition
  3

  2
NB
 70
     8
280
     0
  0
ATTDEF
  5
76
330
6E
100
AcDbEntity
  8
AM_6
100
AcDbText
 10
9.75
 20
2.26875
 30
0.0
 40
0.5
  1
$PN.$LUBE.
100
AcDbAttributeDefinition
  3

  2
NBSYN
 70
     8
280
     0
  0
ATTDEF
  5
77
330
6E
100
AcDbEntity
  8
AM_6
100
AcDbText
 10
9.75
 20
1.76875
 30
0.0
 40
0.5
  1
129182
100
AcDbAttributeDefinition
  3

  2
LINA
 70
     8
280
     0
  0
ATTDEF
  5
78
330
6E
100
AcDbEntity
  8
AM_6
100
AcDbText
 10
9.75
 20
1.26875
 30
0.0
 40
0.5
  1
212
100
AcDbAttributeDefinition
  3

  2
SERIES
 70
     8
280
     0
  0
ATTDEF
  5
79
330
6E
100
AcDbEntity
  8
AM_6
100
AcDbText
 10
9.75
 20
0.7687500000000003
 30
0.0
 40
0.5
  1
2-7/16
100
AcDbAttributeDefinition
  3

  2
SS
 70
     8
280
     0
  0
ATTDEF
  5
7A
330
6E
100
AcDbEntity
  8
AM_6
100
AcDbText
 10
9.75
 20
0.2687500000000003
 30
0.0
 40
0.5
  1
129182
100
AcDbAttributeDefinition
  3

  2
PN
 70
     8
280
     0
  0
ATTDEF
  5
7B
330
6E
100
AcDbEntity
  8
AM_6
100
AcDbText
 10
9.75
 20
-0.2312499999999997
 30
0.0
 40
0.5
  1
P2B-GTAH-207
100
AcDbAttributeDefinition
  3

  2
DESCRIPTION
 70
     8
280
     0
  0
ATTDEF
  5
7C
330
6E
100
AcDbEntity
  8
AM_6
100
AcDbText
 10
9.75
 20
-0.7312499999999997
 30
0.0
 40
0.5
  1
2-7/64
100
AcDbAttributeDefinition
  3

  2
A
 70
     8
280
     0
  0
ATTDEF
  5
7D
330
6E
100
AcDbEntity
  8
AM_6
100
AcDbText
 10
9.75
 20
-1.23125
 30
0.0
 40
0.5
  1
9-1/2
100
AcDbAttributeDefinition
  3

  2
B
 70
     8
280
     0
  0
ATTDEF
  5
7E
330
6E
100
AcDbEntity
  8
AM_6
100
AcDbText
 10
9.75
 20
-1.73125
 30
0.0
 40
0.5
  1
2-3/8
100
AcDbAttributeDefinition
  3

  2
C
 70
     8
280
     0
  0
ATTDEF
  5
7F
330
6E
100
AcDbEntity
  8
AM_6
100
AcDbText
 10
9.75
 20
-2.23125
 30
0.0
 40
0.5
  1
6-7/8
100
AcDbAttributeDefinition
  3

  2
DMIN
 70
     8
280
     0
  0
ATTDEF
  5
80
330
6E
100
AcDbEntity
  8
AM_6
100
AcDbText
 10
9.75
 20
-2.73125
 30
0.0
 40
0.5
  1
7-15/16
100
AcDbAttributeDefinition
  3

  2
DMAX
 70
     8
280
     0
  0
ATTDEF
  5
81
330
6E
100
AcDbEntity
  8
AM_6
100
AcDbText
 10
9.75
 20
-3.23125
 30
0.0
 40
0.5
  1
5/8
100
AcDbAttributeDefinition
  3

  2
F
 70
     8
280
     0
  0
ATTDEF
  5
82
330
6E
100
AcDbEntity
  8
AM_6
100
AcDbText
 10
9.75
 20
-3.73125
 30
0.0
 40
0.5
  1
1-7/32
100
AcDbAttributeDefinition
  3

  2
G
 70
     8
280
     0
  0
ATTDEF
  5
83
330
6E
100
AcDbEntity
  8
AM_6
100
AcDbText
 10
9.75
 20
-4.231249999999999
 30
0.0
 40
0.5
  1
7/8
100
AcDbAttributeDefinition
  3

  2
H
 70
     8
280
     0
  0
ATTDEF
  5
84
330
6E
100
AcDbEntity
  8
AM_6
100
AcDbText
 10
9.75
 20
-4.731249999999999
 30
0.0
 40
0.5
  1
5-3/8
100
AcDbAttributeDefinition
  3

  2
J
 70
     8
280
     0
  0
ATTDEF
  5
85
330
6E
100
AcDbEntity
  8
AM_6
100
AcDbText
 10
9.75
 20
-5.231249999999999
 30
0.0
 40
0.5
  1
3-1/2
100
AcDbAttributeDefinition
  3

  2
L
 70
     8
280
     0
  0
ATTDEF
  5
86
330
6E
100
AcDbEntity
  8
AM_6
100
AcDbText
 10
9.75
 20
-5.731249999999999
 30
0.0
 40
0.5
  1
2-3/4
100
AcDbAttributeDefinition
  3

  2
M
 70
     8
280
     0
  0
ATTDEF
  5
87
330
6E
100
AcDbEntity
  8
AM_6
100
AcDbText
 10
9.75
 20
-6.231249999999999
 30
0.0
 40
0.5
  1
49/64
100
AcDbAttributeDefinition
  3

  2
R
 70
     8
280
     0
  0
ATTDEF
  5
88
330
6E
100
AcDbEntity
  8
AM_6
100
AcDbText
 10
9.75
 20
-6.731249999999999
 30
0.0
 40
0.5
  1
1-11/32
100
AcDbAttributeDefinition
  3

  2
S
 70
     8
280
     0
  0
ATTDEF
  5
89
330
6E
100
AcDbEntity
  8
AM_6
100
AcDbText
 10
9.75
 20
-7.231249999999999
 30
0.0
 40
0.5
  1
4-1/4
100
AcDbAttributeDefinition
  3

  2
U
 70
     8
280
     0
  0
ATTDEF
  5
8A
330
6E
100
AcDbEntity
  8
AM_6
100
AcDbText
 10
9.75
 20
-7.731249999999999
 30
0.0
 40
0.5
  1
8-1/2
100
AcDbAttributeDefinition
  3

  2
V
 70
     8
280
     0
  0
ATTDEF
  5
8B
330
6E
100
AcDbEntity
  8
AM_6
100
AcDbText
 10
9.75
 20
-8.23125
 30
0.0
 40
0.5
  1
7/8
100
AcDbAttributeDefinition
  3

  2
W
 70
     8
280
     0
  0
ATTDEF
  5
8C
330
6E
100
AcDbEntity
  8
AM_6
100
AcDbText
 10
9.75
 20
-8.73125
 30
0.0
 40
0.5
  1
3/16
100
AcDbAttributeDefinition
  3

  2
X
 70
     8
280
     0
  0
ATTDEF
  5
8D
330
6E
100
AcDbEntity
  8
AM_6
100
AcDbText
 10
9.75
 20
-9.23125
 30
0.0
 40
0.5
  1
1-5/16
100
AcDbAttributeDefinition
  3

  2
Z
 70
     8
280
     0
  0
ATTDEF
  5
8E
330
6E
100
AcDbEntity
  8
AM_6
100
AcDbText
 10
9.75
 20
-9.73125
 30
0.0
 40
0.5
  1
baldor
100
AcDbAttributeDefinition
  3

  2
COMPANY
 70
     8
280
     0
  0
INSERT
  5
90
330
6E
100
AcDbEntity
  8
0
100
AcDbBlockReference
  2
2_129525I_0_in_129182_0
 10
0.0
 20
0.0
 30
0.0
  0
INSERT
  5
BF
330
6E
100
AcDbEntity
  8
0
100
AcDbBlockReference
  2
3_129921_0_in_129182_0
 10
0.0
 20
0.0
 30
0.0
  0
INSERT
  5
100
330
6E
100
AcDbEntity
  8
0
100
AcDbBlockReference
  2
4_129449I_0_in_129182_0
 10
0.0
 20
0.0
 30
0.0
  0
ENDBLK
  5
71
330
6E
100
AcDbEntity
  8
0
100
AcDbBlockEnd
  0
BLOCK
  5
91
330
8F
100
AcDbEntity
  8
0
100
AcDbBlockBegin
  2
2_129525I_0_in_129182_0
 70
     2
 10
0.0
 20
0.0
 30
0.0
  3
2_129525I_0_in_129182_0
  1

  0
ATTDEF
  5
93
330
8F
100
AcDbEntity
  8
AM_6
100
AcDbText
 10
7.25905646231312
 20
2.259056462313121
 30
0.0
 40
0.5
  1
INS-GT B
100
AcDbAttributeDefinition
  3

  2
NN
 70
     8
280
     0
  0
ATTDEF
  5
94
330
8F
100
AcDbEntity
  8
AM_6
100
AcDbText
 10
7.25905646231312
 20
1.759056462313121
 30
0.0
 40
0.5
  1
GT Normal Duty Bearing Inserts
100
AcDbAttributeDefinition
  3

  2
NT
 70
     8
280
     0
  0
ATTDEF
  5
95
330
8F
100
AcDbEntity
  8
AM_6
100
AcDbText
 10
7.25905646231312
 20
1.259056462313121
 30
0.0
 40
0.5
  1
129525I
100
AcDbAttributeDefinition
  3

  2
NB
 70
     8
280
     0
  0
ATTDEF
  5
96
330
8F
100
AcDbEntity
  8
AM_6
100
AcDbText
 10
7.25905646231312
 20
0.7590564623131208
 30
0.0
 40
0.5
  1
$PN.I
100
AcDbAttributeDefinition
  3

  2
NBSYN
 70
     8
280
     0
  0
ATTDEF
  5
97
330
8F
100
AcDbEntity
  8
AM_6
100
AcDbText
 10
7.25905646231312
 20
0.2590564623131208
 30
0.0
 40
0.5
  1
129525
100
AcDbAttributeDefinition
  3

  2
LINA
 70
     8
280
     0
  0
ATTDEF
  5
98
330
8F
100
AcDbEntity
  8
AM_6
100
AcDbText
 10
7.25905646231312
 20
-0.2409435376868792
 30
0.0
 40
0.5
  1
212
100
AcDbAttributeDefinition
  3

  2
SERIES
 70
     8
280
     0
  0
ATTDEF
  5
99
330
8F
100
AcDbEntity
  8
AM_6
100
AcDbText
 10
7.25905646231312
 20
-0.7409435376868792
 30
0.0
 40
0.5
  1
129525
100
AcDbAttributeDefinition
  3

  2
PN
 70
     8
280
     0
  0
ATTDEF
  5
9A
330
8F
100
AcDbEntity
  8
AM_6
100
AcDbText
 10
7.25905646231312
 20
-1.240943537686879
 30
0.0
 40
0.5
  1
INS-GT-12
100
AcDbAttributeDefinition
  3

  2
DESCRIPTION
 70
     8
280
     0
  0
ATTDEF
  5
9B
330
8F
100
AcDbEntity
  8
AM_6
100
AcDbText
 10
7.25905646231312
 20
-1.740943537686879
 30
0.0
 40
0.5
  1
2.12
100
AcDbAttributeDefinition
  3

  2
A
 70
     8
280
     0
  0
ATTDEF
  5
9C
330
8F
100
AcDbEntity
  8
AM_6
100
AcDbText
 10
7.25905646231312
 20
-2.240943537686879
 30
0.0
 40
0.5
  1
1.02
100
AcDbAttributeDefinition
  3

  2
C
 70
     8
280
     0
  0
ATTDEF
  5
9D
330
8F
100
AcDbEntity
  8
AM_6
100
AcDbText
 10
7.25905646231312
 20
-2.740943537686879
 30
0.0
 40
0.5
  1
4.3307
100
AcDbAttributeDefinition
  3

  2
D
 70
     8
280
     0
  0
ATTDEF
  5
9E
330
8F
100
AcDbEntity
  8
AM_6
100
AcDbText
 10
7.25905646231312
 20
-3.240943537686879
 30
0.0
 40
0.5
  1
0.25
100
AcDbAttributeDefinition
  3

  2
J
 70
     8
280
     0
  0
ATTDEF
  5
9F
330
8F
100
AcDbEntity
  8
AM_6
100
AcDbText
 10
7.25905646231312
 20
-3.740943537686879
 30
0.0
 40
0.5
  1
3.69
100
AcDbAttributeDefinition
  3

  2
L
 70
     8
280
     0
  0
ATTDEF
  5
A0
330
8F
100
AcDbEntity
  8
AM_6
100
AcDbText
 10
7.25905646231312
 20
-4.24094353768688
 30
0.0
 40
0.5
  1
#10 - 32 x 1/4
100
AcDbAttributeDefinition
  3

  2
N
 70
     8
280
     0
  0
ATTDEF
  5
A1
330
8F
100
AcDbEntity
  8
AM_6
100
AcDbText
 10
7.25905646231312
 20
-4.74094353768688
 30
0.0
 40
0.5
  1
0.73000
100
AcDbAttributeDefinition
  3

  2
W
 70
     8
280
     0
  0
ATTDEF
  5
A2
330
8F
100
AcDbEntity
  8
AM_6
100
AcDbText
 10
7.25905646231312
 20
-5.24094353768688
 30
0.0
 40
0.5
  1
1.46
100
AcDbAttributeDefinition
  3

  2
X
 70
     8
280
     0
  0
ATTDEF
  5
A3
330
8F
100
AcDbEntity
  8
AM_6
100
AcDbText
 10
7.25905646231312
 20
-5.74094353768688
 30
0.0
 40
0.5
  1
1.39
100
AcDbAttributeDefinition
  3

  2
Y
 70
     8
280
     0
  0
ATTDEF
  5
A4
330
8F
100
AcDbEntity
  8
AM_6
100
AcDbText
 10
7.25905646231312
 20
-6.24094353768688
 30
0.0
 40
0.5
  1
baldor
100
AcDbAttributeDefinition
  3

  2
COMPANY
 70
     8
280
     0
  0
CIRCLE
  5
A7
330
8F
100
AcDbEntity
  8
AM_9
100
AcDbCircle
 10
0.0
 20
0.0
 30
0.0
 40
1.4184905004777
  0
ARC
  5
A8
330
8F
100
AcDbEntity
  8
AM_9
100
AcDbCircle
 10
0.0
 20
0.0
 30
0.0
 40
2.16535
100
AcDbArc
 50
208.6629755394264
 51
331.3370244605737
  0
CIRCLE
  5
A9
330
8F
100
AcDbEntity
  8
AM_9
100
AcDbCircle
 10
0.0
 20
0.0
 30
0.0
 40
2.06335
  0
CIRCLE
  5
AA
330
8F
100
AcDbEntity
  8
AM_9
100
AcDbCircle
 10
0.0
 20
0.0
 30
0.0
 40
2.11806247745535
  0
CIRCLE
  5
AB
330
8F
100
AcDbEntity
  8
AM_9
100
AcDbCircle
 10
0.0
 20
0.0
 30
0.0
 40
1.508214233
  0
ARC
  5
AC
330
8F
100
AcDbEntity
  8
AM_9
100
AcDbCircle
 10
-0.0000000000000024
 20
-0.0000000000000041
 30
0.0
 40
1.640000000000003
100
AcDbArc
 50
4.371295797341546
 51
115.6287042026584
  0
ARC
  5
AD
330
8F
100
AcDbEntity
  8
AM_9
100
AcDbCircle
 10
-0.0000000000000002
 20
0.0
 30
0.0
 40
1.64
100
AcDbArc
 50
124.3712957973415
 51
235.6287042026585
  0
ARC
  5
AE
330
8F
100
AcDbEntity
  8
AM_9
100
AcDbCircle
 10
0.0000000000000006
 20
-0.0000000000000011
 30
0.0
 40
1.639999999999999
100
AcDbArc
 50
244.3712957973415
 51
355.6287042026585
  0
CIRCLE
  5
AF
330
8F
100
AcDbEntity
  8
AM_9
100
AcDbCircle
 10
0.0
 20
0.0
 30
0.0
 40
1.376428466
  0
CIRCLE
  5
B0
330
8F
100
AcDbEntity
  8
AM_9
100
AcDbCircle
 10
0.0
 20
0.0
 30
0.0
 40
1.5992
  0
LINE
  5
B3
330
8F
100
AcDbEntity
  8
AM_7
100
AcDbLine
 10
-2.259056462313121
 20
0.0
 30
0.0
 11
2.259056462313121
 21
0.0
 31
0.0
  0
LINE
  5
B4
330
8F
100
AcDbEntity
  8
AM_7
100
AcDbLine
 10
0.0
 20
-2.259056462313121
 30
0.0
 11
0.0
 21
2.259056462313121
 31
0.0
  0
CIRCLE
  5
B6
330
8F
100
AcDbEntity
  8
AM_4
100
AcDbCircle
 10
0.0
 20
0.0
 30
0.0
 40
2.151482345060115
  0
CIRCLE
  5
B7
330
8F
100
AcDbEntity
  8
AM_4
100
AcDbCircle
 10
0.0
 20
0.0
 30
0.0
 40
2.141389016312513
  0
CIRCLE
  5
B8
330
8F
100
AcDbEntity
  8
AM_4
100
AcDbCircle
 10
0.0
 20
0.0
 30
0.0
 40
2.127974977280586
  0
CIRCLE
  5
B9
330
8F
100
AcDbEntity
  8
AM_4
100
AcDbCircle
 10
0.0
 20
0.0
 30
0.0
 40
2.035840869774971
  0
CIRCLE
  5
BA
330
8F
100
AcDbEntity
  8
AM_4
100
AcDbCircle
 10
0.0
 20
0.0
 30
0.0
 40
2.073824698589939
  0
ARC
  5
BB
330
8F
100
AcDbEntity
  8
AM_4
100
AcDbCircle
 10
-0.0000000000000375
 20
0.0000000000000666
 30
0.0
 40
1.639999999999924
100
AcDbArc
 50
115.6287042026584
 51
124.3712957973417
  0
ARC
  5
BC
330
8F
100
AcDbEntity
  8
AM_4
100
AcDbCircle
 10
-0.0000000000000212
 20
-0.000000000000036
 30
0.0
 40
1.639999999999958
100
AcDbArc
 50
235.6287042026584
 51
244.3712957973416
  0
ARC
  5
BD
330
8F
100
AcDbEntity
  8
AM_4
100
AcDbCircle
 10
0.0000000000000038
 20
0.0
 30
0.0
 40
1.639999999999996
100
AcDbArc
 50
355.6287042026585
 51
4.371295797341546
  0
ENDBLK
  5
92
330
8F
100
AcDbEntity
  8
0
100
AcDbBlockEnd
  0
BLOCK
  5
C0
330
BE
100
AcDbEntity
  8
0
100
AcDbBlockBegin
  2
3_129921_0_in_129182_0
 70
     2
 10
0.0
 20
0.0
 30
0.0
  3
3_129921_0_in_129182_0
  1

  0
ATTDEF
  5
C2
330
BE
100
AcDbEntity
  8
AM_6
100
AcDbText
 10
6.745530005471117
 20
1.749319501019082
 30
0.0
 40
0.5
  1
Grip Tight Normal Duty Adapter and Nut Inch Bore
100
AcDbAttributeDefinition
  3

  2
NN
 70
     8
280
     0
  0
ATTDEF
  5
C3
330
BE
100
AcDbEntity
  8
AM_6
100
AcDbText
 10
6.745530005471117
 20
1.249319501019082
 30
0.0
 40
0.5
  1
GT and GTM Adapter & Lock Nut Assemblies
100
AcDbAttributeDefinition
  3

  2
NT
 70
     8
280
     0
  0
ATTDEF
  5
C4
330
BE
100
AcDbEntity
  8
AM_6
100
AcDbText
 10
6.745530005471117
 20
0.7493195010190816
 30
0.0
 40
0.5
  1
129921
100
AcDbAttributeDefinition
  3

  2
NB
 70
     8
280
     0
  0
ATTDEF
  5
C5
330
BE
100
AcDbEntity
  8
AM_6
100
AcDbText
 10
6.745530005471117
 20
0.2493195010190816
 30
0.0
 40
0.5
  1
$PN.
100
AcDbAttributeDefinition
  3

  2
NBSYN
 70
     8
280
     0
  0
ATTDEF
  5
C6
330
BE
100
AcDbEntity
  8
AM_6
100
AcDbText
 10
6.745530005471117
 20
-0.2506804989809184
 30
0.0
 40
0.5
  1
129921
100
AcDbAttributeDefinition
  3

  2
LINA
 70
     8
280
     0
  0
ATTDEF
  5
C7
330
BE
100
AcDbEntity
  8
AM_6
100
AcDbText
 10
6.745530005471117
 20
-0.7506804989809184
 30
0.0
 40
0.5
  1
212
100
AcDbAttributeDefinition
  3

  2
SERIES
 70
     8
280
     0
  0
ATTDEF
  5
C8
330
BE
100
AcDbEntity
  8
AM_6
100
AcDbText
 10
6.745530005471117
 20
-1.250680498980918
 30
0.0
 40
0.5
  1
2-7/16
100
AcDbAttributeDefinition
  3

  2
SS
 70
     8
280
     0
  0
ATTDEF
  5
C9
330
BE
100
AcDbEntity
  8
AM_6
100
AcDbText
 10
6.745530005471117
 20
-1.750680498980918
 30
0.0
 40
0.5
  1
129921
100
AcDbAttributeDefinition
  3

  2
PN
 70
     8
280
     0
  0
ATTDEF
  5
CA
330
BE
100
AcDbEntity
  8
AM_6
100
AcDbText
 10
6.745530005471117
 20
-2.250680498980918
 30
0.0
 40
0.5
  1
AN-GT-12-207
100
AcDbAttributeDefinition
  3

  2
DESCRIPTION
 70
     8
280
     0
  0
ATTDEF
  5
CB
330
BE
100
AcDbEntity
  8
AM_6
100
AcDbText
 10
6.745530005471117
 20
-2.750680498980918
 30
0.0
 40
0.5
  1
2-7/64
100
AcDbAttributeDefinition
  3

  2
A
 70
     8
280
     0
  0
ATTDEF
  5
CC
330
BE
100
AcDbEntity
  8
AM_6
100
AcDbText
 10
6.745530005471117
 20
-3.250680498980918
 30
0.0
 40
0.5
  1
1.0240
100
AcDbAttributeDefinition
  3

  2
C
 70
     8
280
     0
  0
ATTDEF
  5
CD
330
BE
100
AcDbEntity
  8
AM_6
100
AcDbText
 10
6.745530005471117
 20
-3.750680498980918
 30
0.0
 40
0.5
  1
4.3307
100
AcDbAttributeDefinition
  3

  2
D
 70
     8
280
     0
  0
ATTDEF
  5
CE
330
BE
100
AcDbEntity
  8
AM_6
100
AcDbText
 10
6.745530005471117
 20
-4.250680498980918
 30
0.0
 40
0.5
  1
0.250
100
AcDbAttributeDefinition
  3

  2
J
 70
     8
280
     0
  0
ATTDEF
  5
CF
330
BE
100
AcDbEntity
  8
AM_6
100
AcDbText
 10
6.745530005471117
 20
-4.750680498980918
 30
0.0
 40
0.5
  1
3-1/2
100
AcDbAttributeDefinition
  3

  2
L
 70
     8
280
     0
  0
ATTDEF
  5
D0
330
BE
100
AcDbEntity
  8
AM_6
100
AcDbText
 10
6.745530005471117
 20
-5.250680498980918
 30
0.0
 40
0.5
  1
10 - 32 x 1/4
100
AcDbAttributeDefinition
  3

  2
N
 70
     8
280
     0
  0
ATTDEF
  5
D1
330
BE
100
AcDbEntity
  8
AM_6
100
AcDbText
 10
6.745530005471117
 20
-5.750680498980918
 30
0.0
 40
0.5
  1
49/64
100
AcDbAttributeDefinition
  3

  2
W
 70
     8
280
     0
  0
ATTDEF
  5
D2
330
BE
100
AcDbEntity
  8
AM_6
100
AcDbText
 10
6.745530005471117
 20
-6.250680498980918
 30
0.0
 40
0.5
  1
1-5/16
100
AcDbAttributeDefinition
  3

  2
X
 70
     8
280
     0
  0
ATTDEF
  5
D3
330
BE
100
AcDbEntity
  8
AM_6
100
AcDbText
 10
6.745530005471117
 20
-6.750680498980918
 30
0.0
 40
0.5
  1
1-11/32
100
AcDbAttributeDefinition
  3

  2
Y
 70
     8
280
     0
  0
ATTDEF
  5
D4
330
BE
100
AcDbEntity
  8
AM_6
100
AcDbText
 10
6.745530005471117
 20
-7.250680498980918
 30
0.0
 40
0.5
  1
baldor
100
AcDbAttributeDefinition
  3

  2
COMPANY
 70
     8
280
     0
  0
LINE
  5
D5
330
BE
100
AcDbEntity
  8
AM_9
100
AcDbLine
 10
0.05
 20
1.305560948203287
 30
0.0
 11
0.05
 21
1.348552734640803
 31
0.0
  0
LINE
  5
D6
330
BE
100
AcDbEntity
  8
AM_9
100
AcDbLine
 10
-0.05
 20
1.305560948203287
 30
0.0
 11
-0.05
 21
1.348552734640803
 31
0.0
  0
ARC
  5
D7
330
BE
100
AcDbEntity
  8
AM_9
100
AcDbCircle
 10
0.0
 20
-0.0000000000000002
 30
0.0
 40
1.349479335931895
100
AcDbArc
 50
92.12337067246555
 51
87.87662932753443
  0
CIRCLE
  5
D8
330
BE
100
AcDbEntity
  8
AM_9
100
AcDbCircle
 10
0.0
 20
0.0
 30
0.0
 40
1.430555555555555
  0
CIRCLE
  5
D9
330
BE
100
AcDbEntity
  8
AM_9
100
AcDbCircle
 10
0.0
 20
0.0
 30
0.0
 40
1.555555555555555
  0
LINE
  5
DA
330
BE
100
AcDbEntity
  8
AM_9
100
AcDbLine
 10
-1.72745
 20
-0.0724500000000001
 30
0.0
 11
-1.33505
 21
-0.0724500000000001
 31
0.0
  0
LINE
  5
DB
330
BE
100
AcDbEntity
  8
AM_9
100
AcDbLine
 10
-1.33505
 20
0.0724500000000001
 30
0.0
 11
-1.72745
 21
0.0724500000000001
 31
0.0
  0
LINE
  5
DC
330
BE
100
AcDbEntity
  8
AM_9
100
AcDbLine
 10
-1.33505
 20
-0.0724500000000001
 30
0.0
 11
-1.3125
 21
-0.0950000000000001
 31
0.0
  0
LINE
  5
DD
330
BE
100
AcDbEntity
  8
AM_9
100
AcDbLine
 10
-1.3125
 20
0.0950000000000001
 30
0.0
 11
-1.33505
 21
0.0724500000000001
 31
0.0
  0
LINE
  5
DE
330
BE
100
AcDbEntity
  8
AM_9
100
AcDbLine
 10
-1.3125
 20
0.0950000000000001
 30
0.0
 11
-1.3125
 21
-0.0950000000000001
 31
0.0
  0
LINE
  5
DF
330
BE
100
AcDbEntity
  8
AM_9
100
AcDbLine
 10
-1.33505
 20
0.0724500000000001
 30
0.0
 11
-1.33505
 21
-0.0724500000000001
 31
0.0
  0
LINE
  5
E0
330
BE
100
AcDbEntity
  8
AM_9
100
AcDbLine
 10
-1.72745
 20
0.0724500000000001
 30
0.0
 11
-1.747070218354624
 21
0.0920702183546236
 31
0.0
  0
LINE
  5
E1
330
BE
100
AcDbEntity
  8
AM_9
100
AcDbLine
 10
-1.74739082472568
 20
-0.09239082472568
 30
0.0
 11
-1.72745
 21
-0.0724500000000001
 31
0.0
  0
LINE
  5
E2
330
BE
100
AcDbEntity
  8
AM_9
100
AcDbLine
 10
-1.72745
 20
0.0724500000000001
 30
0.0
 11
-1.72745
 21
-0.0724500000000001
 31
0.0
  0
LINE
  5
E3
330
BE
100
AcDbEntity
  8
AM_9
100
AcDbLine
 10
-1.749353437114752
 20
0.0475662911609105
 30
0.0
 11
-1.747550950312222
 21
0.0925509376659681
 31
0.0
  0
LINE
  5
E4
330
BE
100
AcDbEntity
  8
AM_9
100
AcDbLine
 10
-1.747550949875472
 20
-0.0925509459127004
 30
0.0
 11
-1.749336066898515
 21
-0.0482008822329383
 31
0.0
  0
LINE
  5
E6
330
BE
100
AcDbEntity
  8
AM_5
100
AcDbLine
 10
-1.747419526044046
 20
-0.0950000000000001
 30
0.0
 11
-1.3125
 21
-0.0950000000000001
 31
0.0
  0
LINE
  5
E7
330
BE
100
AcDbEntity
  8
AM_5
100
AcDbLine
 10
-1.747419526044046
 20
0.0949999999999999
 30
0.0
 11
-1.3125
 21
0.0949999999999999
 31
0.0
  0
LWPOLYLINE
  5
E8
330
BE
100
AcDbEntity
  8
AM_4
100
AcDbPolyline
 90
        6
 70
     0
 43
0.0
 10
-1.749336066898515
 20
-0.0482008822329383
 10
-1.749415748638305
 20
-0.0452165723632318
 10
-1.749928641284076
 20
-0.0158034937171547
 10
-1.749937805847102
 20
0.0147538356718353
 10
-1.749463319075742
 20
0.0433369958405927
 10
-1.749353437114752
 20
0.0475662911609105
  0
LINE
  5
E9
330
BE
100
AcDbEntity
  8
AM_4
100
AcDbLine
 10
-0.7645118272625037
 20
-1.574173327805978
 30
0.0
 11
-0.7084133430266486
 21
-1.477007902881875
 31
0.0
  0
LINE
  5
EA
330
BE
100
AcDbEntity
  8
AM_4
100
AcDbLine
 10
1.633333036999407
 20
-0.125
 30
0.0
 11
1.745530005471118
 21
-0.125
 31
0.0
  0
ARC
  5
EB
330
BE
100
AcDbEntity
  8
AM_4
100
AcDbCircle
 10
-0.0000000000000004
 20
0.0000000000000004
 30
0.0
 40
1.75
100
AcDbArc
 50
244.0960437581524
 51
355.9039562418476
  0
LINE
  5
EC
330
BE
100
AcDbEntity
  8
AM_4
100
AcDbLine
 10
-0.7084133430266496
 20
1.477007902881875
 30
0.0
 11
-0.7645118272625049
 21
1.574173327805978
 31
0.0
  0
LINE
  5
ED
330
BE
100
AcDbEntity
  8
AM_4
100
AcDbLine
 10
1.745530005471118
 20
0.125
 30
0.0
 11
1.633333036999407
 21
0.125
 31
0.0
  0
ARC
  5
EE
330
BE
100
AcDbEntity
  8
AM_4
100
AcDbCircle
 10
0.0000000000000002
 20
0.0000000000000004
 30
0.0
 40
1.75
100
AcDbArc
 50
4.096043758152337
 51
115.9039562418477
  0
LINE
  5
EF
330
BE
100
AcDbEntity
  8
AM_4
100
AcDbLine
 10
-0.981018178208614
 20
1.449173327805978
 30
0.0
 11
-0.9249196939727586
 21
1.352007902881875
 31
0.0
  0
LINE
  5
F0
330
BE
100
AcDbEntity
  8
AM_4
100
AcDbLine
 10
-0.9249196939727581
 20
-1.352007902881875
 30
0.0
 11
-0.9810181782086133
 21
-1.449173327805978
 31
0.0
  0
ARC
  5
F1
330
BE
100
AcDbEntity
  8
AM_4
100
AcDbCircle
 10
-0.0000000000000009
 20
0.0000000000000009
 30
0.0
 40
1.749999999999999
100
AcDbArc
 50
124.0960437581523
 51
178.4508896933642
  0
LWPOLYLINE
  5
F2
330
BE
100
AcDbEntity
  8
AM_4
100
AcDbPolyline
 90
        5
 70
     0
 43
0.0
 10
-1.749360410951264
 20
0.047309117476686
 10
-1.745047859360356
 20
0.0253285222387836
 10
-1.743331371074887
 20
0.0018699370410627
 10
-1.748152648680345
 20
-0.0423311387033335
 10
-1.749360410951264
 20
-0.0473091174766861
  0
ARC
  5
F3
330
BE
100
AcDbEntity
  8
AM_4
100
AcDbCircle
 10
0.0000000000000013
 20
0.0000000000000005
 30
0.0
 40
1.750000000000001
100
AcDbArc
 50
181.5491103066358
 51
235.9039562418477
  0
LINE
  5
F4
330
BE
100
AcDbEntity
  8
AM_4
100
AcDbLine
 10
1.633333036999407
 20
0.125
 30
0.0
 11
1.633333036999407
 21
-0.125
 31
0.0
  0
LINE
  5
F5
330
BE
100
AcDbEntity
  8
AM_4
100
AcDbLine
 10
-0.9249196939727586
 20
1.352007902881875
 30
0.0
 11
-0.7084133430266496
 21
1.477007902881875
 31
0.0
  0
LINE
  5
F6
330
BE
100
AcDbEntity
  8
AM_4
100
AcDbLine
 10
-0.05
 20
1.305555555555556
 30
0.0
 11
0.05
 21
1.305555555555556
 31
0.0
  0
ARC
  5
F7
330
BE
100
AcDbEntity
  8
AM_4
100
AcDbCircle
 10
-0.0000000000000009
 20
-0.000000000000001
 30
0.0
 40
1.709040000000001
100
AcDbArc
 50
4.194385965404924
 51
115.8056140345951
  0
ARC
  5
F8
330
BE
100
AcDbEntity
  8
AM_4
100
AcDbCircle
 10
0.0000000000000004
 20
0.0000000000000002
 30
0.0
 40
1.70904
100
AcDbArc
 50
124.1943859654049
 51
235.8056140345951
  0
LINE
  5
F9
330
BE
100
AcDbEntity
  8
AM_4
100
AcDbLine
 10
-0.7084133430266486
 20
-1.477007902881875
 30
0.0
 11
-0.9249196939727581
 21
-1.352007902881875
 31
0.0
  0
ARC
  5
FA
330
BE
100
AcDbEntity
  8
AM_4
100
AcDbCircle
 10
0.0
 20
0.0
 30
0.0
 40
1.70904
100
AcDbArc
 50
244.194385965405
 51
355.8056140345951
  0
ARC
  5
FB
330
BE
100
AcDbEntity
  8
AM_4
100
AcDbCircle
 10
0.0
 20
-0.0000000000000002
 30
0.0
 40
1.305555555555556
100
AcDbArc
 50
92.19484321188592
 51
87.8051567881141
  0
LINE
  5
FC
330
BE
100
AcDbEntity
  8
AM_4
100
AcDbLine
 10
0.05
 20
1.304597757411064
 30
0.0
 11
0.05
 21
1.217723927045864
 31
0.0
  0
ARC
  5
FD
330
BE
100
AcDbEntity
  8
AM_4
100
AcDbCircle
 10
0.0
 20
0.0000000000000001
 30
0.0
 40
1.21875
100
AcDbArc
 50
92.35125596514285
 51
87.64874403485717
  0
LINE
  5
FE
330
BE
100
AcDbEntity
  8
AM_4
100
AcDbLine
 10
-0.05
 20
1.304597757411064
 30
0.0
 11
-0.05
 21
1.217723927045864
 31
0.0
  0
ENDBLK
  5
C1
330
BE
100
AcDbEntity
  8
0
100
AcDbBlockEnd
  0
BLOCK
  5
101
330
FF
100
AcDbEntity
  8
0
100
AcDbBlockBegin
  2
4_129449I_0_in_129182_0
 70
     2
 10
0.0
 20
0.0
 30
0.0
  3
4_129449I_0_in_129182_0
  1

  0
ATTDEF
  5
103
330
FF
100
AcDbEntity
  8
AM_6
100
AcDbText
 10
9.75
 20
3.76875
 30
0.0
 40
0.5
  1
GTAH-I
100
AcDbAttributeDefinition
  3

  2
NN
 70
     8
280
     0
  0
ATTDEF
  5
104
330
FF
100
AcDbEntity
  8
AM_6
100
AcDbText
 10
9.75
 20
3.26875
 30
0.0
 40
0.5
  1
GTAH Air Handling Normal and Medium Duty Pillow Blocks
100
AcDbAttributeDefinition
  3

  2
NT
 70
     8
280
     0
  0
ATTDEF
  5
105
330
FF
100
AcDbEntity
  8
AM_6
100
AcDbText
 10
9.75
 20
2.76875
 30
0.0
 40
0.5
  1
129449I
100
AcDbAttributeDefinition
  3

  2
NB
 70
     8
280
     0
  0
ATTDEF
  5
106
330
FF
100
AcDbEntity
  8
AM_6
100
AcDbText
 10
9.75
 20
2.26875
 30
0.0
 40
0.5
  1
$PN.$LUBE.I
100
AcDbAttributeDefinition
  3

  2
NBSYN
 70
     8
280
     0
  0
ATTDEF
  5
107
330
FF
100
AcDbEntity
  8
AM_6
100
AcDbText
 10
9.75
 20
1.76875
 30
0.0
 40
0.5
  1
129449
100
AcDbAttributeDefinition
  3

  2
LINA
 70
     8
280
     0
  0
ATTDEF
  5
108
330
FF
100
AcDbEntity
  8
AM_6
100
AcDbText
 10
9.75
 20
1.26875
 30
0.0
 40
0.5
  1
212
100
AcDbAttributeDefinition
  3

  2
SERIES
 70
     8
280
     0
  0
ATTDEF
  5
109
330
FF
100
AcDbEntity
  8
AM_6
100
AcDbText
 10
9.75
 20
0.7687500000000003
 30
0.0
 40
0.5
  1
129449
100
AcDbAttributeDefinition
  3

  2
PN
 70
     8
280
     0
  0
ATTDEF
  5
10A
330
FF
100
AcDbEntity
  8
AM_6
100
AcDbText
 10
9.75
 20
0.2687500000000003
 30
0.0
 40
0.5
  1
P2B-GTAH-12
100
AcDbAttributeDefinition
  3

  2
DESCRIPTION
 70
     8
280
     0
  0
ATTDEF
  5
10B
330
FF
100
AcDbEntity
  8
AM_6
100
AcDbText
 10
9.75
 20
-0.2312499999999997
 30
0.0
 40
0.5
  1
2-7/64
100
AcDbAttributeDefinition
  3

  2
A
 70
     8
280
     0
  0
ATTDEF
  5
10C
330
FF
100
AcDbEntity
  8
AM_6
100
AcDbText
 10
9.75
 20
-0.7312499999999997
 30
0.0
 40
0.5
  1
9-1/2
100
AcDbAttributeDefinition
  3

  2
B
 70
     8
280
     0
  0
ATTDEF
  5
10D
330
FF
100
AcDbEntity
  8
AM_6
100
AcDbText
 10
9.75
 20
-1.23125
 30
0.0
 40
0.5
  1
2-3/8
100
AcDbAttributeDefinition
  3

  2
C
 70
     8
280
     0
  0
ATTDEF
  5
10E
330
FF
100
AcDbEntity
  8
AM_6
100
AcDbText
 10
9.75
 20
-1.73125
 30
0.0
 40
0.5
  1
6-7/8
100
AcDbAttributeDefinition
  3

  2
DMIN
 70
     8
280
     0
  0
ATTDEF
  5
10F
330
FF
100
AcDbEntity
  8
AM_6
100
AcDbText
 10
9.75
 20
-2.23125
 30
0.0
 40
0.5
  1
7-15/16
100
AcDbAttributeDefinition
  3

  2
DMAX
 70
     8
280
     0
  0
ATTDEF
  5
110
330
FF
100
AcDbEntity
  8
AM_6
100
AcDbText
 10
9.75
 20
-2.73125
 30
0.0
 40
0.5
  1
5/8
100
AcDbAttributeDefinition
  3

  2
F
 70
     8
280
     0
  0
ATTDEF
  5
111
330
FF
100
AcDbEntity
  8
AM_6
100
AcDbText
 10
9.75
 20
-3.23125
 30
0.0
 40
0.5
  1
1-7/32
100
AcDbAttributeDefinition
  3

  2
G
 70
     8
280
     0
  0
ATTDEF
  5
112
330
FF
100
AcDbEntity
  8
AM_6
100
AcDbText
 10
9.75
 20
-3.73125
 30
0.0
 40
0.5
  1
7/8
100
AcDbAttributeDefinition
  3

  2
H
 70
     8
280
     0
  0
ATTDEF
  5
113
330
FF
100
AcDbEntity
  8
AM_6
100
AcDbText
 10
9.75
 20
-4.231249999999999
 30
0.0
 40
0.5
  1
5-3/8
100
AcDbAttributeDefinition
  3

  2
J
 70
     8
280
     0
  0
ATTDEF
  5
114
330
FF
100
AcDbEntity
  8
AM_6
100
AcDbText
 10
9.75
 20
-4.731249999999999
 30
0.0
 40
0.5
  1
3-1/2
100
AcDbAttributeDefinition
  3

  2
L
 70
     8
280
     0
  0
ATTDEF
  5
115
330
FF
100
AcDbEntity
  8
AM_6
100
AcDbText
 10
9.75
 20
-5.231249999999999
 30
0.0
 40
0.5
  1
2-3/4
100
AcDbAttributeDefinition
  3

  2
M
 70
     8
280
     0
  0
ATTDEF
  5
116
330
FF
100
AcDbEntity
  8
AM_6
100
AcDbText
 10
9.75
 20
-5.731249999999999
 30
0.0
 40
0.5
  1
49/64
100
AcDbAttributeDefinition
  3

  2
R
 70
     8
280
     0
  0
ATTDEF
  5
117
330
FF
100
AcDbEntity
  8
AM_6
100
AcDbText
 10
9.75
 20
-6.231249999999999
 30
0.0
 40
0.5
  1
1-11/32
100
AcDbAttributeDefinition
  3

  2
S
 70
     8
280
     0
  0
ATTDEF
  5
118
330
FF
100
AcDbEntity
  8
AM_6
100
AcDbText
 10
9.75
 20
-6.731249999999999
 30
0.0
 40
0.5
  1
4-1/4
100
AcDbAttributeDefinition
  3

  2
U
 70
     8
280
     0
  0
ATTDEF
  5
119
330
FF
100
AcDbEntity
  8
AM_6
100
AcDbText
 10
9.75
 20
-7.231249999999999
 30
0.0
 40
0.5
  1
8-1/2
100
AcDbAttributeDefinition
  3

  2
V
 70
     8
280
     0
  0
ATTDEF
  5
11A
330
FF
100
AcDbEntity
  8
AM_6
100
AcDbText
 10
9.75
 20
-7.731249999999999
 30
0.0
 40
0.5
  1
7/8
100
AcDbAttributeDefinition
  3

  2
W
 70
     8
280
     0
  0
ATTDEF
  5
11B
330
FF
100
AcDbEntity
  8
AM_6
100
AcDbText
 10
9.75
 20
-8.23125
 30
0.0
 40
0.5
  1
3/16
100
AcDbAttributeDefinition
  3

  2
X
 70
     8
280
     0
  0
ATTDEF
  5
11C
330
FF
100
AcDbEntity
  8
AM_6
100
AcDbText
 10
9.75
 20
-8.73125
 30
0.0
 40
0.5
  1
1-5/16
100
AcDbAttributeDefinition
  3

  2
Z
 70
     8
280
     0
  0
ATTDEF
  5
11D
330
FF
100
AcDbEntity
  8
AM_6
100
AcDbText
 10
9.75
 20
-9.23125
 30
0.0
 40
0.5
  1
baldor
100
AcDbAttributeDefinition
  3

  2
COMPANY
 70
     8
280
     0
  0
LINE
  5
11E
330
FF
100
AcDbEntity
  8
AM_9
100
AcDbLine
 10
-3.2412402
 20
-1.875
 30
0.0
 11
-3.2412402
 21
-2.166666375
 31
0.0
  0
LINE
  5
11F
330
FF
100
AcDbEntity
  8
AM_9
100
AcDbLine
 10
-3.162499999999999
 20
-1.875
 30
0.0
 11
-3.162499999999999
 21
-2.166666375
 31
0.0
  0
LINE
  5
120
330
FF
100
AcDbEntity
  8
AM_9
100
AcDbLine
 10
3.2412402
 20
-1.875
 30
0.0
 11
3.2412402
 21
-2.166666375
 31
0.0
  0
LINE
  5
121
330
FF
100
AcDbEntity
  8
AM_9
100
AcDbLine
 10
3.1625
 20
-1.875
 30
0.0
 11
3.1625
 21
-2.166666375
 31
0.0
  0
LINE
  5
122
330
FF
100
AcDbEntity
  8
AM_9
100
AcDbLine
 10
-3.162499999999999
 20
-2.166666375
 30
0.0
 11
-4.75
 21
-2.166666375
 31
0.0
  0
LINE
  5
123
330
FF
100
AcDbEntity
  8
AM_9
100
AcDbLine
 10
4.75
 20
-2.166666375
 30
0.0
 11
3.1625
 21
-2.166666375
 31
0.0
  0
LINE
  5
124
330
FF
100
AcDbEntity
  8
AM_9
100
AcDbLine
 10
0.335166
 20
2.5462598
 30
0.0
 11
0.335166
 21
2.603514692189003
 31
0.0
  0
LINE
  5
125
330
FF
100
AcDbEntity
  8
AM_9
100
AcDbLine
 10
0.166818
 20
2.5462598
 30
0.0
 11
0.166818
 21
2.619694019322867
 31
0.0
  0
LINE
  5
126
330
FF
100
AcDbEntity
  8
AM_9
100
AcDbLine
 10
-0.224974530935
 20
2.5462598
 30
0.0
 11
-0.224974530935
 21
2.615341557126062
 31
0.0
  0
LINE
  5
127
330
FF
100
AcDbEntity
  8
AM_9
100
AcDbLine
 10
0.0688697
 20
2.5462598
 30
0.0
 11
0.0688697
 21
2.624096409132467
 31
0.0
  0
LINE
  5
128
330
FF
100
AcDbEntity
  8
AM_9
100
AcDbLine
 10
-0.200487509838
 20
2.5462598
 30
0.0
 11
-0.200487509838
 21
2.617332565494679
 31
0.0
  0
LINE
  5
129
330
FF
100
AcDbEntity
  8
AM_9
100
AcDbLine
 10
-0.078052404353
 20
2.5462598
 30
0.0
 11
-0.078052404353
 21
2.623839328574582
 31
0.0
  0
LINE
  5
12A
330
FF
100
AcDbEntity
  8
AM_9
100
AcDbLine
 10
0.0933567
 20
2.5462598
 30
0.0
 11
0.0933567
 21
2.623339384556469
 31
0.0
  0
LINE
  5
12B
330
FF
100
AcDbEntity
  8
AM_9
100
AcDbLine
 10
-0.243339895183
 20
2.5462598
 30
0.0
 11
-0.243339895183
 21
2.613696748938622
 31
0.0
  0
LINE
  5
12C
330
FF
100
AcDbEntity
  8
AM_9
100
AcDbLine
 10
0.111722
 20
2.5462598
 30
0.0
 11
0.111722
 21
2.622621435647164
 31
0.0
  0
LINE
  5
12D
330
FF
100
AcDbEntity
  8
AM_9
100
AcDbLine
 10
-0.096417768601
 20
2.5462598
 30
0.0
 11
-0.096417768601
 21
2.6232286621448
 31
0.0
  0
LINE
  5
12E
330
FF
100
AcDbEntity
  8
AM_9
100
AcDbLine
 10
-0.18212214559
 20
2.5462598
 30
0.0
 11
-0.18212214559
 21
2.618674573918206
 31
0.0
  0
LINE
  5
12F
330
FF
100
AcDbEntity
  8
AM_9
100
AcDbLine
 10
0.0505043
 20
2.5462598
 30
0.0
 11
0.0505043
 21
2.62451411039863
 31
0.0
  0
LINE
  5
130
330
FF
100
AcDbEntity
  8
AM_9
100
AcDbLine
 10
-0.081113429628
 20
2.5462598
 30
0.0
 11
-0.081113429628
 21
2.623746483853572
 31
0.0
  0
LINE
  5
131
330
FF
100
AcDbEntity
  8
AM_9
100
AcDbLine
 10
0.212731
 20
2.5462598
 30
0.0
 11
0.212731
 21
2.616365899800522
 31
0.0
  0
LINE
  5
132
330
FF
100
AcDbEntity
  8
AM_9
100
AcDbLine
 10
0.0658091
 20
2.5462598
 30
0.0
 11
0.0658091
 21
2.624174948885305
 31
0.0
  0
LINE
  5
133
330
FF
100
AcDbEntity
  8
AM_9
100
AcDbLine
 10
-0.197426878264
 20
2.5462598
 30
0.0
 11
-0.197426878264
 21
2.617565209835073
 31
0.0
  0
LINE
  5
134
330
FF
100
AcDbEntity
  8
AM_9
100
AcDbLine
 10
0.0964177
 20
2.5462598
 30
0.0
 11
0.0964177
 21
2.623228664666257
 31
0.0
  0
LINE
  5
135
330
FF
100
AcDbEntity
  8
AM_9
100
AcDbLine
 10
-0.22803555621
 20
2.5462598
 30
0.0
 11
-0.22803555621
 21
2.615076439629249
 31
0.0
  0
LINE
  5
136
330
FF
100
AcDbEntity
  8
AM_9
100
AcDbLine
 10
0.194366
 20
2.5462598
 30
0.0
 11
0.194366
 21
2.61779427343785
 31
0.0
  0
LINE
  5
137
330
FF
100
AcDbEntity
  8
AM_9
100
AcDbLine
 10
-0.087235086477
 20
2.5462598
 30
0.0
 11
-0.087235086477
 21
2.623550083319804
 31
0.0
  0
LINE
  5
138
330
FF
100
AcDbEntity
  8
AM_9
100
AcDbLine
 10
0.120905
 20
2.5462598
 30
0.0
 11
0.120905
 21
2.622214137132016
 31
0.0
  0
LINE
  5
139
330
FF
100
AcDbEntity
  8
AM_9
100
AcDbLine
 10
-0.234157213059
 20
2.5462598
 30
0.0
 11
-0.234157213059
 21
2.614535407978337
 31
0.0
  0
LINE
  5
13A
330
FF
100
AcDbEntity
  8
AM_9
100
AcDbLine
 10
-0.172939463466
 20
2.5462598
 30
0.0
 11
-0.172939463466
 21
2.619297032025214
 31
0.0
  0
LINE
  5
13B
330
FF
100
AcDbEntity
  8
AM_9
100
AcDbLine
 10
0.20967
 20
2.5462598
 30
0.0
 11
0.20967
 21
2.61661298076349
 31
0.0
  0
LINE
  5
13C
330
FF
100
AcDbEntity
  8
AM_9
100
AcDbLine
 10
0.102539
 20
2.5462598
 30
0.0
 11
0.102539
 21
2.622996521819843
 31
0.0
  0
LINE
  5
13D
330
FF
100
AcDbEntity
  8
AM_9
100
AcDbLine
 10
-0.105600450725
 20
2.5462598
 30
0.0
 11
-0.105600450725
 21
2.622875053220545
 31
0.0
  0
LINE
  5
13E
330
FF
100
AcDbEntity
  8
AM_9
100
AcDbLine
 10
0.191305
 20
2.5462598
 30
0.0
 11
0.191305
 21
2.618019747246955
 31
0.0
  0
LINE
  5
13F
330
FF
100
AcDbEntity
  8
AM_9
100
AcDbLine
 10
0.0413217
 20
2.5462598
 30
0.0
 11
0.0413217
 21
2.624674745013011
 31
0.0
  0
LINE
  5
140
330
FF
100
AcDbEntity
  8
AM_9
100
AcDbLine
 10
-0.191304827714
 20
2.5462598
 30
0.0
 11
-0.191304827714
 21
2.6180197598363
 31
0.0
  0
LINE
  5
141
330
FF
100
AcDbEntity
  8
AM_9
100
AcDbLine
 10
0.059687
 20
2.5462598
 30
0.0
 11
0.059687
 21
2.624321333608177
 31
0.0
  0
LINE
  5
142
330
FF
100
AcDbEntity
  8
AM_9
100
AcDbLine
 10
-0.252522577307
 20
2.5462598
 30
0.0
 11
-0.252522577307
 21
2.612825548702062
 31
0.0
  0
LINE
  5
143
330
FF
100
AcDbEntity
  8
AM_9
100
AcDbLine
 10
0.0321392
 20
2.5462598
 30
0.0
 11
0.0321392
 21
2.624803244402018
 31
0.0
  0
LINE
  5
144
330
FF
100
AcDbEntity
  8
AM_9
100
AcDbLine
 10
-0.114783132849
 20
2.5462598
 30
0.0
 11
-0.114783132849
 21
2.622489243526723
 31
0.0
  0
LINE
  5
145
330
FF
100
AcDbEntity
  8
AM_9
100
AcDbLine
 10
0.130087
 20
2.5462598
 30
0.0
 11
0.130087
 21
2.621774660879725
 31
0.0
  0
LINE
  5
146
330
FF
100
AcDbEntity
  8
AM_9
100
AcDbLine
 10
-0.0352000977482
 20
2.5462598
 30
0.0
 11
-0.0352000977482
 21
2.624763980459675
 31
0.0
  0
LINE
  5
147
330
FF
100
AcDbEntity
  8
AM_9
100
AcDbLine
 10
0.182122
 20
2.5462598
 30
0.0
 11
0.182122
 21
2.618674584043616
 31
0.0
  0
LINE
  5
148
330
FF
100
AcDbEntity
  8
AM_9
100
AcDbLine
 10
-0.3290446658729999
 20
2.5462598
 30
0.0
 11
-0.3290446658729999
 21
2.604295414859943
 31
0.0
  0
LINE
  5
149
330
FF
100
AcDbEntity
  8
AM_9
100
AcDbLine
 10
-0.163757175043
 20
2.5462598
 30
0.0
 11
-0.163757175043
 21
2.619887132611239
 31
0.0
  0
LINE
  5
14A
330
FF
100
AcDbEntity
  8
AM_9
100
AcDbLine
 10
-0.261705259431
 20
2.5462598
 30
0.0
 11
-0.261705259431
 21
2.61192177470654
 31
0.0
  0
LINE
  5
14B
330
FF
100
AcDbEntity
  8
AM_9
100
AcDbLine
 10
0.255583
 20
2.5462598
 30
0.0
 11
0.255583
 21
2.612527957766385
 31
0.0
  0
LINE
  5
14C
330
FF
100
AcDbEntity
  8
AM_9
100
AcDbLine
 10
0.197427
 20
2.5462598
 30
0.0
 11
0.197427
 21
2.617565200653272
 31
0.0
  0
LINE
  5
14D
330
FF
100
AcDbEntity
  8
AM_9
100
AcDbLine
 10
0.114783
 20
2.5462598
 30
0.0
 11
0.114783
 21
2.622489249341359
 31
0.0
  0
LINE
  5
14E
330
FF
100
AcDbEntity
  8
AM_9
100
AcDbLine
 10
-0.179061514016
 20
2.5462598
 30
0.0
 11
-0.179061514016
 21
2.618885635952495
 31
0.0
  0
LINE
  5
14F
330
FF
100
AcDbEntity
  8
AM_9
100
AcDbLine
 10
-0.099478400175
 20
2.5462598
 30
0.0
 11
-0.099478400175
 21
2.623114379492177
 31
0.0
  0
LINE
  5
150
330
FF
100
AcDbEntity
  8
AM_9
100
AcDbLine
 10
-0.246400920458
 20
2.5462598
 30
0.0
 11
-0.246400920458
 21
2.613409953757245
 31
0.0
  0
LINE
  5
151
330
FF
100
AcDbEntity
  8
AM_9
100
AcDbLine
 10
0.0474437
 20
2.5462598
 30
0.0
 11
0.0474437
 21
2.624571221234111
 31
0.0
  0
LINE
  5
152
330
FF
100
AcDbEntity
  8
AM_9
100
AcDbLine
 10
-0.111722107574
 20
2.5462598
 30
0.0
 11
-0.111722107574
 21
2.62262143106458
 31
0.0
  0
LINE
  5
153
330
FF
100
AcDbEntity
  8
AM_9
100
AcDbLine
 10
0.185183
 20
2.5462598
 30
0.0
 11
0.185183
 21
2.618459901642759
 31
0.0
  0
LINE
  5
154
330
FF
100
AcDbEntity
  8
AM_9
100
AcDbLine
 10
0.0352001
 20
2.5462598
 30
0.0
 11
0.0352001
 21
2.624763980429477
 31
0.0
  0
LINE
  5
155
330
FF
100
AcDbEntity
  8
AM_9
100
AcDbLine
 10
-0.258644234156
 20
2.5462598
 30
0.0
 11
-0.258644234156
 21
2.612226667067362
 31
0.0
  0
LINE
  5
156
330
FF
100
AcDbEntity
  8
AM_9
100
AcDbLine
 10
0.127026
 20
2.5462598
 30
0.0
 11
0.127026
 21
2.621924750126137
 31
0.0
  0
LINE
  5
157
330
FF
100
AcDbEntity
  8
AM_9
100
AcDbLine
 10
-0.166817806617
 20
2.5462598
 30
0.0
 11
-0.166817806617
 21
2.619694031637187
 31
0.0
  0
LINE
  5
158
330
FF
100
AcDbEntity
  8
AM_9
100
AcDbLine
 10
-0.3474096364199999
 20
2.5462598
 30
0.0
 11
-0.3474096364199999
 21
2.601909211429661
 31
0.0
  0
LINE
  5
159
330
FF
100
AcDbEntity
  8
AM_9
100
AcDbLine
 10
-0.053565383256
 20
2.5462598
 30
0.0
 11
-0.053565383256
 21
2.624453419231638
 31
0.0
  0
LINE
  5
15A
330
FF
100
AcDbEntity
  8
AM_9
100
AcDbLine
 10
0.237218
 20
2.5462598
 30
0.0
 11
0.237218
 21
2.614259478413724
 31
0.0
  0
LINE
  5
15B
330
FF
100
AcDbEntity
  8
AM_9
100
AcDbLine
 10
-0.053565383256
 20
2.5462598
 30
0.0
 11
0.0688697
 21
2.5462598
 31
0.0
  0
LINE
  5
15C
330
FF
100
AcDbEntity
  8
AM_9
100
AcDbLine
 10
0.0198957
 20
2.5462598
 30
0.0
 11
0.0198957
 21
2.624924601035525
 31
0.0
  0
LINE
  5
15D
330
FF
100
AcDbEntity
  8
AM_9
100
AcDbLine
 10
-0.127026446547
 20
2.5462598
 30
0.0
 11
-0.127026446547
 21
2.62192472849196
 31
0.0
  0
LINE
  5
15E
330
FF
100
AcDbEntity
  8
AM_9
100
AcDbLine
 10
-0.3474096364199999
 20
2.5462598
 30
0.0
 11
-0.224974530935
 21
2.5462598
 31
0.0
  0
LINE
  5
15F
330
FF
100
AcDbEntity
  8
AM_9
100
AcDbLine
 10
0.237218
 20
2.5462598
 30
0.0
 11
0.347409
 21
2.5462598
 31
0.0
  0
LINE
  5
160
330
FF
100
AcDbEntity
  8
AM_9
100
AcDbLine
 10
0.169879
 20
2.5462598
 30
0.0
 11
0.169879
 21
2.619497303941923
 31
0.0
  0
LINE
  5
161
330
FF
100
AcDbEntity
  8
AM_9
100
AcDbLine
 10
0.0933567
 20
2.5462598
 30
0.0
 11
0.212731
 21
2.5462598
 31
0.0
  0
LINE
  5
162
330
FF
100
AcDbEntity
  8
AM_9
100
AcDbLine
 10
0.142331
 20
2.5462598
 30
0.0
 11
0.142331
 21
2.621138471435457
 31
0.0
  0
LINE
  5
163
330
FF
100
AcDbEntity
  8
AM_9
100
AcDbLine
 10
0.347409
 20
2.5462598
 30
0.0
 11
0.347409
 21
2.601909296405045
 31
0.0
  0
LINE
  5
164
330
FF
100
AcDbEntity
  8
AM_9
100
AcDbLine
 10
-0.273948573129
 20
2.5462598
 30
0.0
 11
-0.273948573129
 21
2.610666041316006
 31
0.0
  0
LINE
  5
165
330
FF
100
AcDbEntity
  8
AM_9
100
AcDbLine
 10
-0.151513467644
 20
2.5462598
 30
0.0
 11
-0.151513467644
 21
2.620623717576121
 31
0.0
  0
LINE
  5
166
330
FF
100
AcDbEntity
  8
AM_9
100
AcDbLine
 10
-0.200487509838
 20
2.5462598
 30
0.0
 11
-0.078052404353
 21
2.5462598
 31
0.0
  0
LINE
  5
167
330
FF
100
AcDbEntity
  8
AM_9
100
AcDbLine
 10
-3.96875
 20
-1.875
 30
0.0
 11
-3.96875
 21
-2.75
 31
0.0
  0
LINE
  5
168
330
FF
100
AcDbEntity
  8
AM_9
100
AcDbLine
 10
-4.3125
 20
-1.875
 30
0.0
 11
-4.3125
 21
-2.75
 31
0.0
  0
LINE
  5
169
330
FF
100
AcDbEntity
  8
AM_9
100
AcDbLine
 10
3.4375
 20
-1.875
 30
0.0
 11
3.4375
 21
-2.75
 31
0.0
  0
LINE
  5
16A
330
FF
100
AcDbEntity
  8
AM_9
100
AcDbLine
 10
3.09375
 20
-1.875
 30
0.0
 11
3.09375
 21
-2.75
 31
0.0
  0
LINE
  5
16B
330
FF
100
AcDbEntity
  8
AM_9
100
AcDbLine
 10
-3.4375
 20
-1.875
 30
0.0
 11
-3.4375
 21
-2.75
 31
0.0
  0
LINE
  5
16C
330
FF
100
AcDbEntity
  8
AM_9
100
AcDbLine
 10
-3.09375
 20
-2.75
 30
0.0
 11
-3.09375
 21
-1.875
 31
0.0
  0
LINE
  5
16D
330
FF
100
AcDbEntity
  8
AM_9
100
AcDbLine
 10
3.96875
 20
-1.875
 30
0.0
 11
3.96875
 21
-2.75
 31
0.0
  0
LINE
  5
16E
330
FF
100
AcDbEntity
  8
AM_9
100
AcDbLine
 10
4.3125
 20
-2.75
 30
0.0
 11
4.3125
 21
-1.875
 31
0.0
  0
LINE
  5
16F
330
FF
100
AcDbEntity
  8
AM_9
100
AcDbLine
 10
2.65625
 20
0.1896739821252375
 30
0.0
 11
2.65625
 21
-1.875
 31
0.0
  0
LINE
  5
170
330
FF
100
AcDbEntity
  8
AM_9
100
AcDbLine
 10
-2.65625
 20
-1.875
 30
0.0
 11
-2.65625
 21
0.189673982125238
 31
0.0
  0
LINE
  5
171
330
FF
100
AcDbEntity
  8
AM_9
100
AcDbLine
 10
4.15625
 20
-1.875
 30
0.0
 11
4.15625
 21
-1.9625
 31
0.0
  0
LINE
  5
172
330
FF
100
AcDbEntity
  8
AM_9
100
AcDbLine
 10
4.34375
 20
-1.9625
 30
0.0
 11
4.34375
 21
-1.875
 31
0.0
  0
LINE
  5
173
330
FF
100
AcDbEntity
  8
AM_9
100
AcDbLine
 10
4.15625
 20
-1.9625
 30
0.0
 11
4.34375
 21
-1.9625
 31
0.0
  0
LINE
  5
174
330
FF
100
AcDbEntity
  8
AM_9
100
AcDbLine
 10
-4.34375
 20
-1.875
 30
0.0
 11
-4.34375
 21
-1.9625
 31
0.0
  0
LINE
  5
175
330
FF
100
AcDbEntity
  8
AM_9
100
AcDbLine
 10
-4.15625
 20
-1.9625
 30
0.0
 11
-4.15625
 21
-1.875
 31
0.0
  0
LINE
  5
176
330
FF
100
AcDbEntity
  8
AM_9
100
AcDbLine
 10
-4.34375
 20
-1.9625
 30
0.0
 11
-4.15625
 21
-1.9625
 31
0.0
  0
LINE
  5
177
330
FF
100
AcDbEntity
  8
AM_7
100
AcDbLine
 10
3.4375
 20
-2.14375
 30
0.0
 11
3.4375
 21
3.76875
 31
0.0
  0
LINE
  5
178
330
FF
100
AcDbEntity
  8
AM_7
100
AcDbLine
 10
-3.4375
 20
-2.14375
 30
0.0
 11
-3.4375
 21
3.76875
 31
0.0
  0
LINE
  5
179
330
FF
100
AcDbEntity
  8
AM_7
100
AcDbLine
 10
1.669279178529532
 20
1.669279178529531
 30
0.0
 11
2.167079184224586
 21
2.167079184224585
 31
0.0
  0
LINE
  5
17A
330
FF
100
AcDbEntity
  8
AM_7
100
AcDbLine
 10
-4.25
 20
-1.97125
 30
0.0
 11
-4.25
 21
-1.77875
 31
0.0
  0
LINE
  5
17B
330
FF
100
AcDbEntity
  8
AM_7
100
AcDbLine
 10
4.25
 20
-1.97125
 30
0.0
 11
4.25
 21
-1.77875
 31
0.0
  0
LINE
  5
17C
330
FF
100
AcDbEntity
  8
AM_4
100
AcDbLine
 10
-0.1515134676439992
 20
2.620623717576121
 30
0.0
 11
-0.1637571750429986
 21
2.619887132611239
 31
0.0
  0
LINE
  5
17D
330
FF
100
AcDbEntity
  8
AM_4
100
AcDbLine
 10
2.165977177520492
 20
2.075271994164096
 30
0.0
 11
2.075271999626969
 21
2.165977172057619
 31
0.0
  0
ARC
  5
17E
330
FF
100
AcDbEntity
  8
AM_4
100
AcDbCircle
 10
2.069704221226897
 20
2.160409404583295
 30
0.0
 40
0.0078740199999988
100
AcDbArc
 50
44.99999999999314
 51
107.3006441304221
  0
ARC
  5
17F
330
FF
100
AcDbEntity
  8
AM_4
100
AcDbCircle
 10
2.160409404583298
 20
2.069704221226897
 30
0.0
 40
0.0078740199999969
100
AcDbArc
 50
342.6993558695741
 51
45.00000000001142
  0
LINE
  5
180
330
FF
100
AcDbEntity
  8
AM_4
100
AcDbLine
 10
2.167927183889315
 20
2.06736260100441
 30
0.0
 11
2.067362601004411
 21
2.167927183889315
 31
0.0
  0
LINE
  5
181
330
FF
100
AcDbEntity
  8
AM_4
100
AcDbLine
 10
2.067362601004411
 20
2.167927183889315
 30
0.0
 11
1.999892271441033
 21
2.146911684272701
 31
0.0
  0
LINE
  5
182
330
FF
100
AcDbEntity
  8
AM_4
100
AcDbLine
 10
2.146911684272701
 20
1.999892271441032
 30
0.0
 11
2.167927183889315
 21
2.06736260100441
 31
0.0
  0
LINE
  5
183
330
FF
100
AcDbEntity
  8
AM_4
100
AcDbLine
 10
2.146911684272701
 20
1.999892271441032
 30
0.0
 11
1.999892271441033
 21
2.146911684272701
 31
0.0
  0
ARC
  5
184
330
FF
100
AcDbEntity
  8
AM_4
100
AcDbCircle
 10
2.005746307127973
 20
2.128117283745518
 30
0.0
 40
0.0196850000000032
100
AcDbArc
 50
107.3006441304219
 51
172.217193812234
  0
ARC
  5
185
330
FF
100
AcDbEntity
  8
AM_4
100
AcDbCircle
 10
2.128117283745518
 20
2.005746307127973
 30
0.0
 40
0.0196850000000039
100
AcDbArc
 50
277.7828061877657
 51
342.6993558695754
  0
LINE
  5
186
330
FF
100
AcDbEntity
  8
AM_4
100
AcDbLine
 10
2.130782992078687
 20
1.986242635061343
 30
0.0
 11
1.986242635061344
 21
2.130782992078686
 31
0.0
  0
ARC
  5
187
330
FF
100
AcDbEntity
  8
AM_4
100
AcDbCircle
 10
1.904409792131476
 20
2.141967680304553
 30
0.0
 40
0.0825936524963887
100
AcDbArc
 50
269.3563657692237
 51
352.2171938122404
  0
ARC
  5
188
330
FF
100
AcDbEntity
  8
AM_4
100
AcDbCircle
 10
2.141967680304556
 20
1.904409792131475
 30
0.0
 40
0.0825936524963895
100
AcDbArc
 50
97.7828061877608
 51
180.643634230776
  0
LINE
  5
189
330
FF
100
AcDbEntity
  8
AM_4
100
AcDbLine
 10
2.059379239096602
 20
1.903481992834842
 30
0.0
 11
1.903481992834843
 21
2.059379239096601
 31
0.0
  0
LINE
  5
18A
330
FF
100
AcDbEntity
  8
AM_4
100
AcDbLine
 10
1.903481992834843
 20
2.059379239096601
 30
0.0
 11
1.889562595847185
 21
2.045459842108944
 31
0.0
  0
LINE
  5
18B
330
FF
100
AcDbEntity
  8
AM_4
100
AcDbLine
 10
2.045459842108945
 20
1.889562595847184
 30
0.0
 11
2.059379239096602
 21
1.903481992834841
 31
0.0
  0
LINE
  5
18C
330
FF
100
AcDbEntity
  8
AM_4
100
AcDbLine
 10
1.792126109826803
 20
1.948023356088563
 30
0.0
 11
1.776608830302387
 21
1.932506076564148
 31
0.0
  0
LINE
  5
18D
330
FF
100
AcDbEntity
  8
AM_4
100
AcDbLine
 10
1.932466488278585
 20
1.776569242016824
 30
0.0
 11
1.948023356088564
 21
1.792126109826802
 31
0.0
  0
LINE
  5
18E
330
FF
100
AcDbEntity
  8
AM_4
100
AcDbLine
 10
2.078866394879323
 20
1.856156043076806
 30
0.0
 11
1.856156043076807
 21
2.078866394879322
 31
0.0
  0
LINE
  5
18F
330
FF
100
AcDbEntity
  8
AM_4
100
AcDbLine
 10
1.98142990885894
 20
1.758719557056425
 30
0.0
 11
1.758719557056426
 21
1.98142990885894
 31
0.0
  0
LINE
  5
190
330
FF
100
AcDbEntity
  8
AM_4
100
AcDbLine
 10
2.078866653688011
 20
1.856155594778714
 30
0.0
 11
1.981430357157034
 21
1.758719298247737
 31
0.0
  0
LINE
  5
191
330
FF
100
AcDbEntity
  8
AM_4
100
AcDbLine
 10
1.758719298247737
 20
1.981430357157033
 30
0.0
 11
1.856155594778715
 21
2.07886665368801
 31
0.0
  0
LWPOLYLINE
  5
192
330
FF
100
AcDbEntity
  8
AM_4
100
AcDbPolyline
 90
        3
 70
     0
 43
0.0
 10
1.962895227717551
 20
1.96289522771755
 10
1.912368407379385
 20
2.022652921065759
 10
1.851539698262903
 20
2.074250757172199
  0
LWPOLYLINE
  5
193
330
FF
100
AcDbEntity
  8
AM_4
100
AcDbPolyline
 90
        3
 70
     0
 43
0.0
 10
1.763335194763549
 20
1.986046253672845
 10
1.813862015101716
 20
1.926288560324636
 10
1.874690724218197
 20
1.874690724218196
  0
LWPOLYLINE
  5
194
330
FF
100
AcDbEntity
  8
AM_4
100
AcDbPolyline
 90
        3
 70
     0
 43
0.0
 10
2.074250757172199
 20
1.851539698262902
 10
2.023723936834033
 20
1.911297391611111
 10
1.962895227717551
 20
1.96289522771755
  0
LINE
  5
195
330
FF
100
AcDbEntity
  8
AM_4
100
AcDbLine
 10
1.874690724218197
 20
1.874690724218196
 30
0.0
 11
1.962895227717551
 21
1.96289522771755
 31
0.0
  0
LWPOLYLINE
  5
196
330
FF
100
AcDbEntity
  8
AM_4
100
AcDbPolyline
 90
        3
 70
     0
 43
0.0
 10
1.874690724218197
 20
1.874690724218196
 10
1.925217544556364
 20
1.814933030869988
 10
1.986046253672845
 20
1.763335194763548
  0
ARC
  5
197
330
FF
100
AcDbEntity
  8
AM_4
100
AcDbCircle
 10
1.8504449
 20
-2.517388725
 30
0.0
 40
0.0590551000000001
100
AcDbArc
 50
0.0
 51
90.0
  0
ARC
  5
198
330
FF
100
AcDbEntity
  8
AM_4
100
AcDbCircle
 10
-1.8504449
 20
-2.517388725
 30
0.0
 40
0.0590551000000006
100
AcDbArc
 50
90.0
 51
180.0
  0
ARC
  5
199
330
FF
100
AcDbEntity
  8
AM_4
100
AcDbCircle
 10
-0.0000000000000002
 20
-0.0000000000000002
 30
0.0
 40
2.16535
100
AcDbArc
 50
208.6629755394264
 51
331.3370244605737
  0
LINE
  5
19A
330
FF
100
AcDbEntity
  8
AM_4
100
AcDbLine
 10
1.8504449
 20
-2.458333625
 30
0.0
 11
-1.8504449
 21
-2.458333625
 31
0.0
  0
LINE
  5
19B
330
FF
100
AcDbEntity
  8
AM_4
100
AcDbLine
 10
-4.690944900000002
 20
-1.875
 30
0.0
 11
-1.9
 21
-1.875000000000029
 31
0.0
  0
LINE
  5
19C
330
FF
100
AcDbEntity
  8
AM_4
100
AcDbLine
 10
-4.75
 20
-2.75
 30
0.0
 11
-1.9095
 21
-2.75
 31
0.0
  0
LWPOLYLINE
  5
19D
330
FF
100
AcDbEntity
  8
AM_4
100
AcDbPolyline
 90
       19
 70
     0
 43
0.0
 10
-4.75
 20
-1.934055094031621
 10
-4.749775276995099
 20
-1.928908102950795
 10
-4.749102819298513
 20
-1.923800283625355
 10
-4.747987744719353
 20
-1.918770509644554
 10
-4.746438539648468
 20
-1.913857060625446
 10
-4.744466994471882
 20
-1.909097330881888
 10
-4.74208811383884
 20
-1.904527544831232
 10
-4.739320002467369
 20
-1.900182481304635
 10
-4.736183727356435
 20
-1.896095208859157
 10
-4.732703157453368
 20
-1.892296834106069
 10
-4.728904781996755
 20
-1.888816264970764
 10
-4.724817508917344
 20
-1.885679990685987
 10
-4.720472444831231
 20
-1.88291188019278
 10
-4.715902658299734
 20
-1.880533000483426
 10
-4.711142928157669
 20
-1.87856145626892
 10
-4.706229478825422
 20
-1.877012252191186
 10
-4.701199704619231
 20
-1.875897178628691
 10
-4.696091885157869
 20
-1.875224721964543
 10
-4.690944900000002
 20
-1.875
  0
LINE
  5
19E
330
FF
100
AcDbEntity
  8
AM_4
100
AcDbLine
 10
-4.75
 20
-2.75
 30
0.0
 11
-4.75
 21
-1.9340551
 31
0.0
  0
LINE
  5
19F
330
FF
100
AcDbEntity
  8
AM_4
100
AcDbLine
 10
3.162500000000001
 20
-1.875000000000001
 30
0.0
 11
2.549479729153908
 21
0.6251224765062581
 31
0.0
  0
LINE
  5
1A0
330
FF
100
AcDbEntity
  8
AM_4
100
AcDbLine
 10
-2.549479729153908
 20
0.6251224765062559
 30
0.0
 11
-3.162499999999994
 21
-1.875
 31
0.0
  0
LWPOLYLINE
  5
1A1
330
FF
100
AcDbEntity
  8
AM_4
100
AcDbPolyline
 90
       32
 70
     0
 43
0.0
 10
2.549479729153908
 20
0.6251224765062583
 10
2.485295175327344
 20
0.8449454961680235
 10
2.402196024554283
 20
1.05833797041191
 10
2.300814711548746
 20
1.263675853659024
 10
2.181922809318416
 20
1.45939640063145
 10
2.04642515702816
 20
1.644010059787431
 10
1.895352973627626
 20
1.816111809708014
 10
1.729856009652369
 20
1.974391852158427
 10
1.551193796928042
 20
2.117645580443519
 10
1.360726062772668
 20
2.244782747192074
 10
1.159902381650734
 20
2.354835761797616
 10
0.9502511430362317
 20
2.446967054367168
 10
0.7333679194458953
 20
2.520475450133883
 10
0.5109033231689187
 20
2.574801505820392
 10
0.2845504441107657
 20
2.609531767339951
 10
0.056031964356674
 20
2.624401916431691
 10
-0.172912952479197
 20
2.619298782282184
 10
-0.4005418973390061
 20
2.594261202823662
 10
-0.6251224765062553
 20
2.549479729153909
 10
-0.8449454961680204
 20
2.485295175327345
 10
-1.058337970411907
 20
2.402196024554285
 10
-1.263675853659021
 20
2.300814711548748
 10
-1.459396400631447
 20
2.181922809318419
 10
-1.644010059787428
 20
2.046425157028163
 10
-1.816111809708012
 20
1.895352973627629
 10
-1.974391852158425
 20
1.729856009652373
 10
-2.117645580443517
 20
1.551193796928045
 10
-2.244782747192072
 20
1.360726062772672
 10
-2.354835761797614
 20
1.159902381650738
 10
-2.446967054367168
 20
0.9502511430362358
 10
-2.520475450133883
 20
0.7333679194458995
 10
-2.54947972915391
 20
0.6251224765062552
  0
LINE
  5
1A2
330
FF
100
AcDbEntity
  8
AM_4
100
AcDbLine
 10
-1.9
 20
-2.48526712946055
 30
0.0
 11
-1.9
 21
-1.038624389517212
 31
0.0
  0
LWPOLYLINE
  5
1A3
330
FF
100
AcDbEntity
  8
AM_4
100
AcDbPolyline
 90
       49
 70
     0
 43
0.0
 10
1.899999999999999
 20
-1.038624389517213
 10
1.983292006478521
 20
-0.8690761989252734
 10
2.051489963243287
 20
-0.6929138136969559
 10
2.104074842664263
 20
-0.5114779359536045
 10
2.140646442057438
 20
-0.3261494022788246
 10
2.160926429468894
 20
-0.1383386747183093
 10
2.164760461949039
 20
0.0505248936879879
 10
2.152119360195648
 20
0.2390039371455546
 10
2.123099330625969
 20
0.4256640163269207
 10
2.0779212331878
 20
0.6090845353210785
 10
2.016928900481927
 20
0.7878695532261454
 10
1.940586520988419
 20
0.9606584081025179
 10
1.849475106312011
 20
1.126136072431824
 10
1.744288069332967
 20
1.283043161270373
 10
1.625825946916366
 20
1.430185516929011
 10
1.494990307343185
 20
1.566443297234193
 10
1.352776888831293
 20
1.6907794982031
 10
1.200268021366377
 20
1.802247846270108
 10
1.038624389517216
 20
1.899999999999998
 10
0.8690761989252769
 20
1.98329200647852
 10
0.6929138136969595
 20
2.051489963243286
 10
0.5114779359536084
 20
2.104074842664262
 10
0.3261494022788284
 20
2.140646442057437
 10
0.1383386747183133
 20
2.160926429468894
 10
-0.0505248936879839
 20
2.16476046194904
 10
-0.2390039371455506
 20
2.152119360195649
 10
-0.4256640163269167
 20
2.12309933062597
 10
-0.6090845353210745
 20
2.077921233187801
 10
-0.7878695532261416
 20
2.016928900481929
 10
-0.9606584081025142
 20
1.940586520988421
 10
-1.126136072431821
 20
1.849475106312014
 10
-1.283043161270369
 20
1.74428806933297
 10
-1.430185516929007
 20
1.625825946916369
 10
-1.56644329723419
 20
1.494990307343188
 10
-1.690779498203098
 20
1.352776888831297
 10
-1.802247846270106
 20
1.200268021366381
 10
-1.899999999999995
 20
1.03862438951722
 10
-1.983292006478518
 20
0.8690761989252807
 10
-2.051489963243284
 20
0.6929138136969634
 10
-2.104074842664261
 20
0.5114779359536122
 10
-2.140646442057436
 20
0.3261494022788324
 10
-2.160926429468894
 20
0.1383386747183173
 10
-2.16476046194904
 20
-0.0505248936879799
 10
-2.152119360195649
 20
-0.2390039371455467
 10
-2.12309933062597
 20
-0.4256640163269128
 10
-2.077921233187802
 20
-0.609084535321071
 10
-2.01692890048193
 20
-0.787869553226138
 10
-1.940586520988423
 20
-0.9606584081025108
 10
-1.9
 20
-1.038624389517212
  0
LINE
  5
1A4
330
FF
100
AcDbEntity
  8
AM_4
100
AcDbLine
 10
1.9
 20
-1.038624389517211
 30
0.0
 11
1.9
 21
-2.48526712946055
 31
0.0
  0
LINE
  5
1A5
330
FF
100
AcDbEntity
  8
AM_4
100
AcDbLine
 10
1.9095
 20
-2.75
 30
0.0
 11
4.75
 21
-2.75
 31
0.0
  0
LINE
  5
1A6
330
FF
100
AcDbEntity
  8
AM_4
100
AcDbLine
 10
1.9095
 20
-2.517388725
 30
0.0
 11
1.9095
 21
-2.75
 31
0.0
  0
LINE
  5
1A7
330
FF
100
AcDbEntity
  8
AM_4
100
AcDbLine
 10
-1.9095
 20
-2.75
 30
0.0
 11
-1.9095
 21
-2.517388725
 31
0.0
  0
LINE
  5
1A8
330
FF
100
AcDbEntity
  8
AM_4
100
AcDbLine
 10
-4.512499999999999
 20
-2.75
 30
0.0
 11
-4.512499999999999
 21
-1.875
 31
0.0
  0
LWPOLYLINE
  5
1A9
330
FF
100
AcDbEntity
  8
AM_4
100
AcDbPolyline
 90
       19
 70
     0
 43
0.0
 10
4.690944899999999
 20
-1.875
 10
4.696091891103537
 20
-1.875224722484722
 10
4.701199710496938
 20
-1.875897179665089
 10
4.706229484590433
 20
-1.877012253735916
 10
4.71114293376611
 20
-1.878561458310226
 10
4.715902663708922
 20
-1.880533003005772
 10
4.72047245
 20
-1.88291188317697
 10
4.724817513806355
 20
-1.885679994109309
 10
4.728904786568799
 20
-1.888816268807164
 10
4.732703161673649
 20
-1.89229683832635
 10
4.736183731192836
 20
-1.8960952134312
 10
4.739320005890691
 20
-1.900182486193645
 10
4.74208811682303
 20
-1.90452755
 10
4.744466996994228
 20
-1.909097336291077
 10
4.746438541689773
 20
-1.913857066233889
 10
4.747987746264084
 20
-1.918770515409566
 10
4.749102820334911
 20
-1.923800289503062
 10
4.749775277515278
 20
-1.928908108896463
 10
4.75
 20
-1.934055100000001
  0
LINE
  5
1AA
330
FF
100
AcDbEntity
  8
AM_4
100
AcDbLine
 10
1.900000000000002
 20
-1.875
 30
0.0
 11
4.690944899999999
 21
-1.875
 31
0.0
  0
LINE
  5
1AB
330
FF
100
AcDbEntity
  8
AM_4
100
AcDbLine
 10
4.512499999999999
 20
-1.875
 30
0.0
 11
4.512499999999998
 21
-2.75
 31
0.0
  0
LINE
  5
1AC
330
FF
100
AcDbEntity
  8
AM_4
100
AcDbLine
 10
4.75
 20
-1.9340551
 30
0.0
 11
4.75
 21
-2.75
 31
0.0
  0
ENDBLK
  5
102
330
FF
100
AcDbEntity
  8
0
100
AcDbBlockEnd
  0
ENDSEC
  0
SECTION
  2
ENTITIES
  0
INSERT
  5
6F
330
1F
100
AcDbEntity
  8
0
100
AcDbBlockReference
  2
1_129182_0
 10
0.0
 20
0.0
 30
0.0
  0
POINT
  5
1AE
330
1F
100
AcDbEntity
  8
ConnectionPoints
100
AcDbPoint
 10
0.0
 20
0.0
 30
0.0
  0
POINT
  5
1AF
330
1F
100
AcDbEntity
  8
ConnectionPoints
100
AcDbPoint
 10
0.0
 20
0.0
 30
-0.765625
  0
POINT
  5
1B0
330
1F
100
AcDbEntity
  8
ConnectionPoints
100
AcDbPoint
 10
0.0
 20
0.0
 30
0.0
  0
POINT
  5
1B1
330
1F
100
AcDbEntity
  8
ConnectionPoints
100
AcDbPoint
 10
0.0
 20
0.0
 30
0.0
  0
ENDSEC
  0
SECTION
  2
OBJECTS
  0
DICTIONARY
  5
C
330
0
100
AcDbDictionary
281
     1
  3
ACAD_DETAILVIEWSTYLE
350
1B9
  3
ACAD_GROUP
350
D
  3
ACAD_LAYOUT
350
1A
  3
ACAD_MATERIAL
350
43
  3
ACAD_MLEADERSTYLE
350
6B
  3
ACAD_MLINESTYLE
350
17
  3
ACAD_PLOTSETTINGS
350
19
  3
ACAD_PLOTSTYLENAME
350
E
  3
ACAD_SCALELIST
350
47
  3
ACAD_SECTIONVIEWSTYLE
350
1BA
  3
ACAD_TABLESTYLE
350
69
  3
ACAD_VISUALSTYLE
350
2A
  3
ACDB_RECOMPOSE_DATA
350
1B6
  3
AcDbVariableDictionary
350
1B2
  0
SUN
  5
6D
330
29
100
AcDbSun
 90
        1
290
     0
 63
     7
421
 16777215
 40
1.0
291
     1
 91
  2455826
 92
 54000000
292
     0
 70
     2
 71
   256
280
     1
  0
DICTIONARY
  5
1B9
102
{ACAD_REACTORS
330
C
102
}
330
C
100
AcDbDictionary
281
     1
  0
DICTIONARY
  5
D
102
{ACAD_REACTORS
330
C
102
}
330
C
100
AcDbDictionary
281
     1
  0
DICTIONARY
  5
1A
102
{ACAD_REACTORS
330
C
102
}
330
C
100
AcDbDictionary
281
     1
  3
Layout1
350
1E
  3
Layout2
350
26
  3
Model
350
22
  0
DICTIONARY
  5
43
102
{ACAD_REACTORS
330
C
102
}
330
C
100
AcDbDictionary
281
     1
  3
ByBlock
350
45
  3
ByLayer
350
44
  3
Global
350
46
  0
DICTIONARY
  5
6B
102
{ACAD_REACTORS
330
C
102
}
330
C
100
AcDbDictionary
281
     1
  3
Standard
350
6C
  0
DICTIONARY
  5
17
102
{ACAD_REACTORS
330
C
102
}
330
C
100
AcDbDictionary
281
     1
  3
Standard
350
18
  0
DICTIONARY
  5
19
102
{ACAD_REACTORS
330
C
102
}
330
C
100
AcDbDictionary
281
     1
  0
ACDBDICTIONARYWDFLT
  5
E
102
{ACAD_REACTORS
330
C
102
}
330
C
100
AcDbDictionary
281
     1
  3
Normal
350
F
100
AcDbDictionaryWithDefault
340
F
  0
DICTIONARY
  5
47
102
{ACAD_REACTORS
330
C
102
}
330
C
100
AcDbDictionary
281
     1
  3
A0
350
48
  3
A1
350
49
  3
A2
350
4A
  3
A3
350
4B
  3
A4
350
4C
  3
A5
350
4D
  3
A6
350
4E
  3
A7
350
4F
  3
A8
350
50
  3
A9
350
51
  3
B0
350
52
  3
B1
350
53
  3
B2
350
54
  3
B3
350
55
  3
B4
350
56
  3
B5
350
57
  3
B6
350
58
  3
B7
350
59
  3
B8
350
5A
  3
B9
350
5B
  3
C0
350
5C
  3
C1
350
5D
  3
C2
350
5E
  3
C3
350
5F
  3
C4
350
60
  3
C5
350
61
  3
C6
350
62
  3
C7
350
63
  3
C8
350
64
  3
C9
350
65
  3
D0
350
66
  3
D1
350
67
  3
D2
350
68
  0
DICTIONARY
  5
1BA
102
{ACAD_REACTORS
330
C
102
}
330
C
100
AcDbDictionary
281
     1
  0
DICTIONARY
  5
69
102
{ACAD_REACTORS
330
C
102
}
330
C
100
AcDbDictionary
281
     1
  3
Standard
350
6A
  0
DICTIONARY
  5
2A
102
{ACAD_REACTORS
330
C
102
}
330
C
100
AcDbDictionary
281
     1
  3
2dWireframe
350
2F
  3
Basic
350
32
  3
Brighten
350
36
  3
ColorChange
350
3A
  3
Conceptual
350
34
  3
Dim
350
35
  3
EdgeColorOff
350
3D
  3
Facepattern
350
39
  3
Flat
350
2B
  3
FlatWithEdges
350
2C
  3
Gouraud
350
2D
  3
GouraudWithEdges
350
2E
  3
Hidden
350
31
  3
JitterOff
350
3B
  3
Linepattern
350
38
  3
OverhangOff
350
3C
  3
Realistic
350
33
  3
Shaded
350
42
  3
Shaded with edges
350
41
  3
Shades of Gray
350
3E
  3
Sketchy
350
3F
  3
Thicken
350
37
  3
Wireframe
350
30
  3
X-Ray
350
40
  0
XRECORD
  5
1B6
102
{ACAD_REACTORS
330
C
102
}
330
C
100
AcDbXrecord
280
     1
 90
        1
330
6A
  0
DICTIONARY
  5
1B2
102
{ACAD_REACTORS
330
C
102
}
330
C
100
AcDbDictionary
281
     1
  3
CANNOSCALE
350
1B3
  3
CMLEADERSTYLE
350
1B8
  3
CTABLESTYLE
350
1B7
  0
LAYOUT
  5
1E
102
{ACAD_REACTORS
330
1A
102
}
330
1A
100
AcDbPlotSettings
  1

  2
none_device
  4

  6

 40
0.0
 41
0.0
 42
0.0
 43
0.0
 44
0.0
 45
0.0
 46
0.0
 47
0.0
 48
0.0
 49
0.0
140
0.0
141
0.0
142
1.0
143
1.0
 70
   688
 72
     0
 73
     0
 74
     5
  7

 75
    16
 76
     0
 77
     2
 78
   300
147
1.0
148
0.0
149
0.0
100
AcDbLayout
  1
Layout1
 70
     1
 71
     1
 10
0.0
 20
0.0
 11
12.0
 21
9.0
 12
0.0
 22
0.0
 32
0.0
 14
1.000000000000000E+20
 24
1.000000000000000E+20
 34
1.000000000000000E+20
 15
-1.000000000000000E+20
 25
-1.000000000000000E+20
 35
-1.000000000000000E+20
146
0.0
 13
0.0
 23
0.0
 33
0.0
 16
1.0
 26
0.0
 36
0.0
 17
0.0
 27
1.0
 37
0.0
 76
     0
330
1B
  0
LAYOUT
  5
26
102
{ACAD_REACTORS
330
1A
102
}
330
1A
100
AcDbPlotSettings
  1

  2
none_device
  4

  6

 40
0.0
 41
0.0
 42
0.0
 43
0.0
 44
0.0
 45
0.0
 46
0.0
 47
0.0
 48
0.0
 49
0.0
140
0.0
141
0.0
142
1.0
143
1.0
 70
   688
 72
     0
 73
     0
 74
     5
  7

 75
    16
 76
     0
 77
     2
 78
   300
147
1.0
148
0.0
149
0.0
100
AcDbLayout
  1
Layout2
 70
     1
 71
     2
 10
0.0
 20
0.0
 11
0.0
 21
0.0
 12
0.0
 22
0.0
 32
0.0
 14
0.0
 24
0.0
 34
0.0
 15
0.0
 25
0.0
 35
0.0
146
0.0
 13
0.0
 23
0.0
 33
0.0
 16
1.0
 26
0.0
 36
0.0
 17
0.0
 27
1.0
 37
0.0
 76
     0
330
23
  0
LAYOUT
  5
22
102
{ACAD_REACTORS
330
1A
102
}
330
1A
100
AcDbPlotSettings
  1

  2
none_device
  4
Letter_(8.50_x_11.00_Inches)
  6

 40
6.35
 41
6.35
 42
6.35000508
 43
6.35000508
 44
215.9
 45
279.4
 46
0.0
 47
0.0
 48
0.0
 49
0.0
140
0.0
141
0.0
142
1.0
143
1.0
 70
  1712
 72
     0
 73
     0
 74
     0
  7

 75
     0
 76
     0
 77
     2
 78
   300
147
1.0
148
0.0
149
0.0
100
AcDbLayout
  1
Model
 70
     1
 71
     0
 10
0.0
 20
0.0
 11
12.0
 21
9.0
 12
0.0
 22
0.0
 32
0.0
 14
1.000000000000000E+20
 24
1.000000000000000E+20
 34
1.000000000000000E+20
 15
-1.000000000000000E+20
 25
-1.000000000000000E+20
 35
-1.000000000000000E+20
146
0.0
 13
0.0
 23
0.0
 33
0.0
 16
1.0
 26
0.0
 36
0.0
 17
0.0
 27
1.0
 37
0.0
 76
     0
330
1F
331
29
  0
MATERIAL
  5
45
102
{ACAD_REACTORS
330
43
102
}
330
43
100
AcDbMaterial
  1
ByBlock
 72
     1
 94
      127
  0
MATERIAL
  5
44
102
{ACAD_REACTORS
330
43
102
}
330
43
100
AcDbMaterial
  1
ByLayer
 72
     1
 94
      127
  0
MATERIAL
  5
46
102
{ACAD_REACTORS
330
43
102
}
330
43
100
AcDbMaterial
  1
Global
 72
     1
 94
      127
  0
MLEADERSTYLE
  5
6C
102
{ACAD_REACTORS
330
6B
102
}
330
6B
100
AcDbMLeaderStyle
179
     2
170
     2
171
     1
172
     0
 90
        2
 40
0.0
 41
0.0
173
     1
 91
-1056964608
340
14
 92
       -2
290
     1
 42
0.09
291
     1
 43
0.36
  3
Standard
341
0
 44
0.18
300

342
11
174
     1
178
     6
175
     1
176
     0
 93
-1056964608
 45
0.18
292
     0
297
     0
 46
0.18
343
0
 94
-1056964608
 47
1.0
 49
1.0
140
1.0
293
     1
141
0.0
294
     1
177
     0
142
1.0
295
     0
296
     0
143
0.125
271
     0
272
     9
273
     9
298
     0
  0
MLINESTYLE
  5
18
102
{ACAD_REACTORS
330
17
102
}
330
17
100
AcDbMlineStyle
  2
Standard
 70
     0
  3

 62
   256
 51
90.0
 52
90.0
 71
     2
 49
0.5
 62
   256
  6
BYLAYER
 49
-0.5
 62
   256
  6
BYLAYER
  0
ACDBPLACEHOLDER
  5
F
102
{ACAD_REACTORS
330
E
102
}
330
E
  0
SCALE
  5
48
102
{ACAD_REACTORS
330
47
102
}
330
47
100
AcDbScale
 70
     0
300
1:1
140
1.0
141
1.0
290
     1
  0
SCALE
  5
49
102
{ACAD_REACTORS
330
47
102
}
330
47
100
AcDbScale
 70
     0
300
1:2
140
1.0
141
2.0
290
     0
  0
SCALE
  5
4A
102
{ACAD_REACTORS
330
47
102
}
330
47
100
AcDbScale
 70
     0
300
1:4
140
1.0
141
4.0
290
     0
  0
SCALE
  5
4B
102
{ACAD_REACTORS
330
47
102
}
330
47
100
AcDbScale
 70
     0
300
1:5
140
1.0
141
5.0
290
     0
  0
SCALE
  5
4C
102
{ACAD_REACTORS
330
47
102
}
330
47
100
AcDbScale
 70
     0
300
1:8
140
1.0
141
8.0
290
     0
  0
SCALE
  5
4D
102
{ACAD_REACTORS
330
47
102
}
330
47
100
AcDbScale
 70
     0
300
1:10
140
1.0
141
10.0
290
     0
  0
SCALE
  5
4E
102
{ACAD_REACTORS
330
47
102
}
330
47
100
AcDbScale
 70
     0
300
1:16
140
1.0
141
16.0
290
     0
  0
SCALE
  5
4F
102
{ACAD_REACTORS
330
47
102
}
330
47
100
AcDbScale
 70
     0
300
1:20
140
1.0
141
20.0
290
     0
  0
SCALE
  5
50
102
{ACAD_REACTORS
330
47
102
}
330
47
100
AcDbScale
 70
     0
300
1:30
140
1.0
141
30.0
290
     0
  0
SCALE
  5
51
102
{ACAD_REACTORS
330
47
102
}
330
47
100
AcDbScale
 70
     0
300
1:40
140
1.0
141
40.0
290
     0
  0
SCALE
  5
52
102
{ACAD_REACTORS
330
47
102
}
330
47
100
AcDbScale
 70
     0
300
1:50
140
1.0
141
50.0
290
     0
  0
SCALE
  5
53
102
{ACAD_REACTORS
330
47
102
}
330
47
100
AcDbScale
 70
     0
300
1:100
140
1.0
141
100.0
290
     0
  0
SCALE
  5
54
102
{ACAD_REACTORS
330
47
102
}
330
47
100
AcDbScale
 70
     0
300
2:1
140
2.0
141
1.0
290
     0
  0
SCALE
  5
55
102
{ACAD_REACTORS
330
47
102
}
330
47
100
AcDbScale
 70
     0
300
4:1
140
4.0
141
1.0
290
     0
  0
SCALE
  5
56
102
{ACAD_REACTORS
330
47
102
}
330
47
100
AcDbScale
 70
     0
300
8:1
140
8.0
141
1.0
290
     0
  0
SCALE
  5
57
102
{ACAD_REACTORS
330
47
102
}
330
47
100
AcDbScale
 70
     0
300
10:1
140
10.0
141
1.0
290
     0
  0
SCALE
  5
58
102
{ACAD_REACTORS
330
47
102
}
330
47
100
AcDbScale
 70
     0
300
100:1
140
100.0
141
1.0
290
     0
  0
SCALE
  5
59
102
{ACAD_REACTORS
330
47
102
}
330
47
100
AcDbScale
 70
     0
300
1/128" = 1'-0"
140
0.0078125
141
12.0
290
     0
  0
SCALE
  5
5A
102
{ACAD_REACTORS
330
47
102
}
330
47
100
AcDbScale
 70
     0
300
1/64" = 1'-0"
140
0.015625
141
12.0
290
     0
  0
SCALE
  5
5B
102
{ACAD_REACTORS
330
47
102
}
330
47
100
AcDbScale
 70
     0
300
1/32" = 1'-0"
140
0.03125
141
12.0
290
     0
  0
SCALE
  5
5C
102
{ACAD_REACTORS
330
47
102
}
330
47
100
AcDbScale
 70
     0
300
1/16" = 1'-0"
140
0.0625
141
12.0
290
     0
  0
SCALE
  5
5D
102
{ACAD_REACTORS
330
47
102
}
330
47
100
AcDbScale
 70
     0
300
3/32" = 1'-0"
140
0.09375
141
12.0
290
     0
  0
SCALE
  5
5E
102
{ACAD_REACTORS
330
47
102
}
330
47
100
AcDbScale
 70
     0
300
1/8" = 1'-0"
140
0.125
141
12.0
290
     0
  0
SCALE
  5
5F
102
{ACAD_REACTORS
330
47
102
}
330
47
100
AcDbScale
 70
     0
300
3/16" = 1'-0"
140
0.1875
141
12.0
290
     0
  0
SCALE
  5
60
102
{ACAD_REACTORS
330
47
102
}
330
47
100
AcDbScale
 70
     0
300
1/4" = 1'-0"
140
0.25
141
12.0
290
     0
  0
SCALE
  5
61
102
{ACAD_REACTORS
330
47
102
}
330
47
100
AcDbScale
 70
     0
300
3/8" = 1'-0"
140
0.375
141
12.0
290
     0
  0
SCALE
  5
62
102
{ACAD_REACTORS
330
47
102
}
330
47
100
AcDbScale
 70
     0
300
1/2" = 1'-0"
140
0.5
141
12.0
290
     0
  0
SCALE
  5
63
102
{ACAD_REACTORS
330
47
102
}
330
47
100
AcDbScale
 70
     0
300
3/4" = 1'-0"
140
0.75
141
12.0
290
     0
  0
SCALE
  5
64
102
{ACAD_REACTORS
330
47
102
}
330
47
100
AcDbScale
 70
     0
300
1" = 1'-0"
140
1.0
141
12.0
290
     0
  0
SCALE
  5
65
102
{ACAD_REACTORS
330
47
102
}
330
47
100
AcDbScale
 70
     0
300
1-1/2" = 1'-0"
140
1.5
141
12.0
290
     0
  0
SCALE
  5
66
102
{ACAD_REACTORS
330
47
102
}
330
47
100
AcDbScale
 70
     0
300
3" = 1'-0"
140
3.0
141
12.0
290
     0
  0
SCALE
  5
67
102
{ACAD_REACTORS
330
47
102
}
330
47
100
AcDbScale
 70
     0
300
6" = 1'-0"
140
6.0
141
12.0
290
     0
  0
SCALE
  5
68
102
{ACAD_REACTORS
330
47
102
}
330
47
100
AcDbScale
 70
     0
300
1'-0" = 1'-0"
140
12.0
141
12.0
290
     0
  0
TABLESTYLE
  5
6A
102
{ACAD_REACTORS
330
69
102
}
102
{ACAD_XDICTIONARY
360
1B4
102
}
330
69
100
AcDbTableStyle
  3
Standard
 70
     0
 71
     0
 40
0.06
 41
0.06
280
     0
281
     0
  7
Standard
140
0.18
170
     2
 62
     0
 63
   257
283
     0
 90
        4
 91
        0
  1

274
    -2
284
     1
 64
     0
275
    -2
285
     1
 65
     0
276
    -2
286
     1
 66
     0
277
    -2
287
     1
 67
     0
278
    -2
288
     1
 68
     0
279
    -2
289
     1
 69
     0
  7
Standard
140
0.25
170
     5
 62
     0
 63
   257
283
     0
 90
        4
 91
        0
  1

274
    -2
284
     1
 64
     0
275
    -2
285
     1
 65
     0
276
    -2
286
     1
 66
     0
277
    -2
287
     1
 67
     0
278
    -2
288
     1
 68
     0
279
    -2
289
     1
 69
     0
  7
Standard
140
0.18
170
     5
 62
     0
 63
   257
283
     0
 90
        4
 91
        0
  1

274
    -2
284
     1
 64
     0
275
    -2
285
     1
 65
     0
276
    -2
286
     1
 66
     0
277
    -2
287
     1
 67
     0
278
    -2
288
     1
 68
     0
279
    -2
289
     1
 69
     0
  0
VISUALSTYLE
  5
2F
102
{ACAD_REACTORS
330
2A
102
}
330
2A
100
AcDbVisualStyle
  2
2dWireframe
 70
     4
177
     3
291
     0
 70
    58
 90
        0
176
     1
 90
        2
176
     1
 90
        0
176
     1
 90
        0
176
     1
 40
0.6
176
     1
 40
30.0
176
     1
 62
     7
420
 16777215
176
     1
 90
        1
176
     1
 90
        4
176
     1
 62
     7
176
     1
 62
   257
176
     1
 90
        1
176
     1
 90
        1
176
     1
 40
1.0
176
     1
 90
        0
176
     1
 62
   257
176
     1
 40
1.0
176
     1
 90
        1
176
     1
 90
        6
176
     1
 90
        2
176
     1
 62
     7
176
     1
 90
        5
176
     1
 90
        0
176
     1
 90
        0
176
     1
290
     0
176
     1
 90
        1
176
     1
 40
0.0
176
     1
 90
        0
176
     1
290
     1
176
     1
290
     1
176
     1
290
     0
176
     1
290
     0
176
     1
290
     0
176
     1
290
     0
176
     1
290
     0
176
     1
290
     0
176
     1
290
     0
176
     1
 90
       50
176
     1
 40
0.0
176
     1
 40
1.0
176
     1
 90
        0
176
     1
 62
    18
420
        0
176
     1
 90
       50
176
     1
 90
        3
176
     1
 62
     5
420
      255
176
     1
290
     0
176
     1
 90
       50
176
     1
 90
       50
176
     1
 90
       50
176
     1
290
     0
176
     1
 90
       50
176
     1
 62
   256
176
     0
 40
1.0
176
     0
 90
        2
176
     1
  1
strokes_ogs.tif
176
     1
290
     0
176
     1
 40
1.0
176
     1
 40
1.0
176
     1
  0
VISUALSTYLE
  5
32
102
{ACAD_REACTORS
330
2A
102
}
330
2A
100
AcDbVisualStyle
  2
Basic
 70
     7
177
     3
291
     1
 70
    58
 90
        1
176
     1
 90
        0
176
     1
 90
        1
176
     1
 90
        0
176
     1
 40
0.6
176
     1
 40
30.0
176
     1
 62
     7
420
 16777215
176
     1
 90
        0
176
     1
 90
        4
176
     1
 62
     7
176
     1
 62
   257
176
     1
 90
        1
176
     1
 90
        1
176
     1
 40
1.0
176
     1
 90
        8
176
     1
 62
     7
176
     1
 40
1.0
176
     1
 90
        1
176
     1
 90
        6
176
     1
 90
        2
176
     1
 62
     7
176
     1
 90
        5
176
     1
 90
        0
176
     1
 90
        0
176
     1
290
     0
176
     1
 90
        1
176
     1
 40
0.0
176
     1
 90
        0
176
     1
290
     0
176
     1
290
     1
176
     1
290
     1
176
     1
290
     0
176
     1
290
     0
176
     1
290
     0
176
     1
290
     0
176
     1
290
     0
176
     1
290
     0
176
     1
 90
       50
176
     1
 40
0.0
176
     1
 40
1.0
176
     1
 90
        0
176
     1
 62
    18
420
        0
176
     1
 90
       50
176
     1
 90
        3
176
     1
 62
     5
420
      255
176
     1
290
     0
176
     1
 90
       50
176
     1
 90
       50
176
     1
 90
       50
176
     1
290
     0
176
     1
 90
       50
176
     1
 62
   256
176
     0
 40
1.0
176
     0
 90
        2
176
     1
  1
strokes_ogs.tif
176
     1
290
     0
176
     1
 40
1.0
176
     1
 40
1.0
176
     1
  0
VISUALSTYLE
  5
36
102
{ACAD_REACTORS
330
2A
102
}
330
2A
100
AcDbVisualStyle
  2
Brighten
 70
    12
177
     3
291
     1
 70
    58
 90
        2
176
     1
 90
        2
176
     1
 90
        0
176
     1
 90
        0
176
     1
 40
0.6
176
     1
 40
30.0
176
     1
 62
     7
420
 16777215
176
     1
 90
        1
176
     1
 90
        4
176
     1
 62
     7
176
     1
 62
   257
176
     1
 90
        1
176
     1
 90
        1
176
     1
 40
1.0
176
     1
 90
        8
176
     1
 62
     7
176
     1
 40
1.0
176
     1
 90
        1
176
     1
 90
        6
176
     1
 90
        2
176
     1
 62
     7
176
     1
 90
        5
176
     1
 90
        0
176
     1
 90
        0
176
     1
290
     0
176
     1
 90
        1
176
     1
 40
50.0
176
     1
 90
        0
176
     1
290
     0
176
     1
290
     1
176
     1
290
     1
176
     1
290
     0
176
     1
290
     0
176
     1
290
     0
176
     1
290
     0
176
     1
290
     0
176
     1
290
     0
176
     1
 90
       50
176
     1
 40
0.0
176
     1
 40
1.0
176
     1
 90
        0
176
     1
 62
    18
420
        0
176
     1
 90
       50
176
     1
 90
        3
176
     1
 62
     5
420
      255
176
     1
290
     0
176
     1
 90
       50
176
     1
 90
       50
176
     1
 90
       50
176
     1
290
     0
176
     1
 90
       50
176
     1
 62
   256
176
     0
 40
1.0
176
     0
 90
        2
176
     1
  1
strokes_ogs.tif
176
     1
290
     0
176
     1
 40
1.0
176
     1
 40
1.0
176
     1
  0
VISUALSTYLE
  5
3A
102
{ACAD_REACTORS
330
2A
102
}
330
2A
100
AcDbVisualStyle
  2
ColorChange
 70
    16
177
     3
291
     1
 70
    58
 90
        2
176
     1
 90
        2
176
     1
 90
        3
176
     1
 90
        0
176
     1
 40
0.6
176
     1
 40
30.0
176
     1
 62
     8
420
  8421504
176
     1
 90
        1
176
     1
 90
        4
176
     1
 62
     7
176
     1
 62
   257
176
     1
 90
        1
176
     1
 90
        1
176
     1
 40
1.0
176
     1
 90
        8
176
     1
 62
     8
420
  8421504
176
     1
 40
1.0
176
     1
 90
        1
176
     1
 90
        6
176
     1
 90
        2
176
     1
 62
     7
176
     1
 90
        5
176
     1
 90
        0
176
     1
 90
        0
176
     1
290
     0
176
     1
 90
        1
176
     1
 40
0.0
176
     1
 90
        0
176
     1
290
     0
176
     1
290
     1
176
     1
290
     1
176
     1
290
     0
176
     1
290
     0
176
     1
290
     0
176
     1
290
     0
176
     1
290
     0
176
     1
290
     0
176
     1
 90
       50
176
     1
 40
0.0
176
     1
 40
1.0
176
     1
 90
        0
176
     1
 62
    18
420
        0
176
     1
 90
       50
176
     1
 90
        3
176
     1
 62
     5
420
      255
176
     1
290
     0
176
     1
 90
       50
176
     1
 90
       50
176
     1
 90
       50
176
     1
290
     0
176
     1
 90
       50
176
     1
 62
   256
176
     0
 40
1.0
176
     0
 90
        2
176
     1
  1
strokes_ogs.tif
176
     1
290
     0
176
     1
 40
1.0
176
     1
 40
1.0
176
     1
  0
VISUALSTYLE
  5
34
102
{ACAD_REACTORS
330
2A
102
}
330
2A
100
AcDbVisualStyle
  2
Conceptual
 70
     9
177
     3
291
     0
 70
    58
 90
        3
176
     1
 90
        2
176
     1
 90
        0
176
     1
 90
        0
176
     1
 40
0.6
176
     1
 40
30.0
176
     1
 62
     7
420
 16777215
176
     1
 90
        2
176
     1
 90
        2
176
     1
 62
     7
176
     1
 62
   257
176
     1
 90
        1
176
     1
 90
        1
176
     1
 40
179.0
176
     1
 90
        8
176
     1
 62
     7
176
     1
 40
1.0
176
     1
 90
        1
176
     1
 90
        6
176
     1
 90
        2
176
     1
 62
     7
176
     1
 90
        3
176
     1
 90
        0
176
     1
 90
        0
176
     1
290
     0
176
     1
 90
        1
176
     1
 40
0.0
176
     1
 90
        0
176
     1
290
     0
176
     1
290
     1
176
     1
290
     1
176
     1
290
     0
176
     1
290
     0
176
     1
290
     0
176
     1
290
     0
176
     1
290
     0
176
     1
290
     0
176
     1
 90
       50
176
     1
 40
0.0
176
     1
 40
1.0
176
     1
 90
        0
176
     1
 62
    18
420
        0
176
     1
 90
       50
176
     1
 90
        3
176
     1
 62
     5
420
      255
176
     1
290
     0
176
     1
 90
       50
176
     1
 90
       50
176
     1
 90
       50
176
     1
290
     0
176
     1
 90
       50
176
     1
 62
   256
176
     0
 40
1.0
176
     0
 90
        2
176
     1
  1
strokes_ogs.tif
176
     1
290
     0
176
     1
 40
1.0
176
     1
 40
1.0
176
     1
  0
VISUALSTYLE
  5
35
102
{ACAD_REACTORS
330
2A
102
}
330
2A
100
AcDbVisualStyle
  2
Dim
 70
    11
177
     3
291
     1
 70
    58
 90
        2
176
     1
 90
        2
176
     1
 90
        0
176
     1
 90
        0
176
     1
 40
0.6
176
     1
 40
30.0
176
     1
 62
     7
420
 16777215
176
     1
 90
        1
176
     1
 90
        4
176
     1
 62
     7
176
     1
 62
   257
176
     1
 90
        1
176
     1
 90
        1
176
     1
 40
1.0
176
     1
 90
        8
176
     1
 62
     7
176
     1
 40
1.0
176
     1
 90
        1
176
     1
 90
        6
176
     1
 90
        2
176
     1
 62
     7
176
     1
 90
        5
176
     1
 90
        0
176
     1
 90
        0
176
     1
290
     0
176
     1
 90
        1
176
     1
 40
-50.0
176
     1
 90
        0
176
     1
290
     0
176
     1
290
     1
176
     1
290
     1
176
     1
290
     0
176
     1
290
     0
176
     1
290
     0
176
     1
290
     0
176
     1
290
     0
176
     1
290
     0
176
     1
 90
       50
176
     1
 40
0.0
176
     1
 40
1.0
176
     1
 90
        0
176
     1
 62
    18
420
        0
176
     1
 90
       50
176
     1
 90
        3
176
     1
 62
     5
420
      255
176
     1
290
     0
176
     1
 90
       50
176
     1
 90
       50
176
     1
 90
       50
176
     1
290
     0
176
     1
 90
       50
176
     1
 62
   256
176
     0
 40
1.0
176
     0
 90
        2
176
     1
  1
strokes_ogs.tif
176
     1
290
     0
176
     1
 40
1.0
176
     1
 40
1.0
176
     1
  0
VISUALSTYLE
  5
3D
102
{ACAD_REACTORS
330
2A
102
}
330
2A
100
AcDbVisualStyle
  2
EdgeColorOff
 70
    22
177
     3
291
     1
 70
    58
 90
        2
176
     0
 90
        2
176
     0
 90
        0
176
     0
 90
        0
176
     0
 40
0.6
176
     0
 40
30.0
176
     0
 62
     7
420
 16777215
176
     0
 90
        1
176
     0
 90
        4
176
     0
 62
     7
176
     0
 62
   257
176
     0
 90
        1
176
     0
 90
        1
176
     0
 40
1.0
176
     0
 90
        8
176
     2
 62
     7
176
     0
 40
1.0
176
     0
 90
        1
176
     0
 90
        6
176
     0
 90
        2
176
     0
 62
     7
176
     0
 90
        5
176
     0
 90
        0
176
     0
 90
        0
176
     0
290
     0
176
     0
 90
        1
176
     0
 40
0.0
176
     0
 90
        0
176
     0
290
     0
176
     0
290
     1
176
     0
290
     1
176
     0
290
     0
176
     0
290
     0
176
     0
290
     0
176
     0
290
     0
176
     0
290
     0
176
     0
290
     0
176
     0
 90
       50
176
     0
 40
0.0
176
     0
 40
1.0
176
     0
 90
        0
176
     0
 62
    18
420
        0
176
     0
 90
       50
176
     0
 90
        3
176
     0
 62
     5
420
      255
176
     0
290
     0
176
     0
 90
       50
176
     0
 90
       50
176
     0
 90
       50
176
     0
290
     0
176
     0
 90
       50
176
     0
 62
   256
176
     0
 40
1.0
176
     0
 90
        2
176
     0
  1
strokes_ogs.tif
176
     0
290
     0
176
     0
 40
1.0
176
     0
 40
1.0
176
     0
  0
VISUALSTYLE
  5
39
102
{ACAD_REACTORS
330
2A
102
}
330
2A
100
AcDbVisualStyle
  2
Facepattern
 70
    15
177
     3
291
     1
 70
    58
 90
        2
176
     1
 90
        2
176
     1
 90
        0
176
     1
 90
        0
176
     1
 40
0.6
176
     1
 40
30.0
176
     1
 62
     7
420
 16777215
176
     1
 90
        1
176
     1
 90
        4
176
     1
 62
     7
176
     1
 62
   257
176
     1
 90
        1
176
     1
 90
        1
176
     1
 40
1.0
176
     1
 90
        8
176
     1
 62
     7
176
     1
 40
1.0
176
     1
 90
        1
176
     1
 90
        6
176
     1
 90
        2
176
     1
 62
     7
176
     1
 90
        5
176
     1
 90
        0
176
     1
 90
        0
176
     1
290
     0
176
     1
 90
        1
176
     1
 40
0.0
176
     1
 90
        0
176
     1
290
     0
176
     1
290
     1
176
     1
290
     1
176
     1
290
     0
176
     1
290
     0
176
     1
290
     0
176
     1
290
     0
176
     1
290
     0
176
     1
290
     0
176
     1
 90
       50
176
     1
 40
0.0
176
     1
 40
1.0
176
     1
 90
        0
176
     1
 62
    18
420
        0
176
     1
 90
       50
176
     1
 90
        3
176
     1
 62
     5
420
      255
176
     1
290
     0
176
     1
 90
       50
176
     1
 90
       50
176
     1
 90
       50
176
     1
290
     0
176
     1
 90
       50
176
     1
 62
   256
176
     0
 40
1.0
176
     0
 90
        2
176
     1
  1
strokes_ogs.tif
176
     1
290
     0
176
     1
 40
1.0
176
     1
 40
1.0
176
     1
  0
VISUALSTYLE
  5
2B
102
{ACAD_REACTORS
330
2A
102
}
330
2A
100
AcDbVisualStyle
  2
Flat
 70
     0
177
     3
291
     1
 70
    58
 90
        2
176
     1
 90
        1
176
     1
 90
        1
176
     1
 90
        2
176
     1
 40
0.6
176
     1
 40
30.0
176
     1
 62
     7
420
 16777215
176
     1
 90
        0
176
     1
 90
        0
176
     1
 62
     7
176
     1
 62
   257
176
     1
 90
        1
176
     1
 90
        1
176
     1
 40
1.0
176
     1
 90
        8
176
     1
 62
     7
176
     1
 40
1.0
176
     1
 90
        1
176
     1
 90
        6
176
     1
 90
        2
176
     1
 62
     7
176
     1
 90
        5
176
     1
 90
        0
176
     1
 90
        0
176
     1
290
     0
176
     1
 90
       13
176
     1
 40
0.0
176
     1
 90
        0
176
     1
290
     0
176
     1
290
     1
176
     1
290
     1
176
     1
290
     0
176
     1
290
     0
176
     1
290
     0
176
     1
290
     0
176
     1
290
     0
176
     1
290
     0
176
     1
 90
       50
176
     1
 40
0.0
176
     1
 40
1.0
176
     1
 90
        0
176
     1
 62
    18
420
        0
176
     1
 90
       50
176
     1
 90
        3
176
     1
 62
     5
420
      255
176
     1
290
     0
176
     1
 90
       50
176
     1
 90
       50
176
     1
 90
       50
176
     1
290
     0
176
     1
 90
       50
176
     1
 62
   256
176
     0
 40
1.0
176
     0
 90
        2
176
     1
  1
strokes_ogs.tif
176
     1
290
     0
176
     1
 40
1.0
176
     1
 40
1.0
176
     1
  0
VISUALSTYLE
  5
2C
102
{ACAD_REACTORS
330
2A
102
}
330
2A
100
AcDbVisualStyle
  2
FlatWithEdges
 70
     1
177
     3
291
     1
 70
    58
 90
        2
176
     1
 90
        1
176
     1
 90
        1
176
     1
 90
        2
176
     1
 40
0.6
176
     1
 40
30.0
176
     1
 62
     7
420
 16777215
176
     1
 90
        1
176
     1
 90
        0
176
     1
 62
     7
176
     1
 62
   257
176
     1
 90
        1
176
     1
 90
        1
176
     1
 40
1.0
176
     1
 90
        0
176
     1
 62
   257
176
     1
 40
1.0
176
     1
 90
        1
176
     1
 90
        6
176
     1
 90
        2
176
     1
 62
     7
176
     1
 90
        5
176
     1
 90
        0
176
     1
 90
        0
176
     1
290
     0
176
     1
 90
       13
176
     1
 40
0.0
176
     1
 90
        0
176
     1
290
     0
176
     1
290
     1
176
     1
290
     1
176
     1
290
     0
176
     1
290
     0
176
     1
290
     0
176
     1
290
     0
176
     1
290
     0
176
     1
290
     0
176
     1
 90
       50
176
     1
 40
0.0
176
     1
 40
1.0
176
     1
 90
        0
176
     1
 62
    18
420
        0
176
     1
 90
       50
176
     1
 90
        3
176
     1
 62
     5
420
      255
176
     1
290
     0
176
     1
 90
       50
176
     1
 90
       50
176
     1
 90
       50
176
     1
290
     0
176
     1
 90
       50
176
     1
 62
   256
176
     0
 40
1.0
176
     0
 90
        2
176
     1
  1
strokes_ogs.tif
176
     1
290
     0
176
     1
 40
1.0
176
     1
 40
1.0
176
     1
  0
VISUALSTYLE
  5
2D
102
{ACAD_REACTORS
330
2A
102
}
330
2A
100
AcDbVisualStyle
  2
Gouraud
 70
     2
177
     3
291
     1
 70
    58
 90
        2
176
     1
 90
        2
176
     1
 90
        1
176
     1
 90
        2
176
     1
 40
0.6
176
     1
 40
30.0
176
     1
 62
     7
420
 16777215
176
     1
 90
        0
176
     1
 90
        0
176
     1
 62
     7
176
     1
 62
   257
176
     1
 90
        1
176
     1
 90
        1
176
     1
 40
1.0
176
     1
 90
        0
176
     1
 62
     7
176
     1
 40
1.0
176
     1
 90
        1
176
     1
 90
        6
176
     1
 90
        2
176
     1
 62
     7
176
     1
 90
        5
176
     1
 90
        0
176
     1
 90
        0
176
     1
290
     0
176
     1
 90
       13
176
     1
 40
0.0
176
     1
 90
        0
176
     1
290
     0
176
     1
290
     1
176
     1
290
     1
176
     1
290
     0
176
     1
290
     0
176
     1
290
     0
176
     1
290
     0
176
     1
290
     0
176
     1
290
     0
176
     1
 90
       50
176
     1
 40
0.0
176
     1
 40
1.0
176
     1
 90
        0
176
     1
 62
    18
420
        0
176
     1
 90
       50
176
     1
 90
        3
176
     1
 62
     5
420
      255
176
     1
290
     0
176
     1
 90
       50
176
     1
 90
       50
176
     1
 90
       50
176
     1
290
     0
176
     1
 90
       50
176
     1
 62
   256
176
     0
 40
1.0
176
     0
 90
        2
176
     1
  1
strokes_ogs.tif
176
     1
290
     0
176
     1
 40
1.0
176
     1
 40
1.0
176
     1
  0
VISUALSTYLE
  5
2E
102
{ACAD_REACTORS
330
2A
102
}
330
2A
100
AcDbVisualStyle
  2
GouraudWithEdges
 70
     3
177
     3
291
     1
 70
    58
 90
        2
176
     1
 90
        2
176
     1
 90
        1
176
     1
 90
        2
176
     1
 40
0.6
176
     1
 40
30.0
176
     1
 62
     7
420
 16777215
176
     1
 90
        1
176
     1
 90
        0
176
     1
 62
     7
176
     1
 62
   257
176
     1
 90
        1
176
     1
 90
        1
176
     1
 40
1.0
176
     1
 90
        0
176
     1
 62
   257
176
     1
 40
1.0
176
     1
 90
        1
176
     1
 90
        6
176
     1
 90
        2
176
     1
 62
     7
176
     1
 90
        5
176
     1
 90
        0
176
     1
 90
        0
176
     1
290
     0
176
     1
 90
       13
176
     1
 40
0.0
176
     1
 90
        0
176
     1
290
     0
176
     1
290
     1
176
     1
290
     1
176
     1
290
     0
176
     1
290
     0
176
     1
290
     0
176
     1
290
     0
176
     1
290
     0
176
     1
290
     0
176
     1
 90
       50
176
     1
 40
0.0
176
     1
 40
1.0
176
     1
 90
        0
176
     1
 62
    18
420
        0
176
     1
 90
       50
176
     1
 90
        3
176
     1
 62
     5
420
      255
176
     1
290
     0
176
     1
 90
       50
176
     1
 90
       50
176
     1
 90
       50
176
     1
290
     0
176
     1
 90
       50
176
     1
 62
   256
176
     0
 40
1.0
176
     0
 90
        2
176
     1
  1
strokes_ogs.tif
176
     1
290
     0
176
     1
 40
1.0
176
     1
 40
1.0
176
     1
  0
VISUALSTYLE
  5
31
102
{ACAD_REACTORS
330
2A
102
}
330
2A
100
AcDbVisualStyle
  2
Hidden
 70
     6
177
     3
291
     0
 70
    58
 90
        1
176
     1
 90
        2
176
     1
 90
        2
176
     1
 90
        0
176
     1
 40
0.6
176
     1
 40
30.0
176
     1
 62
     7
420
 16777215
176
     1
 90
        2
176
     1
 90
        2
176
     1
 62
     7
176
     1
 62
   257
176
     1
 90
        2
176
     1
 90
        1
176
     1
 40
40.0
176
     1
 90
        0
176
     1
 62
   257
176
     1
 40
1.0
176
     1
 90
        1
176
     1
 90
        6
176
     1
 90
        2
176
     1
 62
     7
176
     1
 90
        3
176
     1
 90
        0
176
     1
 90
        0
176
     1
290
     0
176
     1
 90
        1
176
     1
 40
0.0
176
     1
 90
        0
176
     1
290
     0
176
     1
290
     1
176
     1
290
     1
176
     1
290
     0
176
     1
290
     0
176
     1
290
     0
176
     1
290
     0
176
     1
290
     0
176
     1
290
     0
176
     1
 90
       50
176
     1
 40
0.0
176
     1
 40
1.0
176
     1
 90
        0
176
     1
 62
    18
420
        0
176
     1
 90
       50
176
     1
 90
        3
176
     1
 62
     5
420
      255
176
     1
290
     0
176
     1
 90
       50
176
     1
 90
       50
176
     1
 90
       50
176
     1
290
     0
176
     1
 90
       50
176
     1
 62
   256
176
     0
 40
1.0
176
     0
 90
        2
176
     1
  1
strokes_ogs.tif
176
     1
290
     0
176
     1
 40
1.0
176
     1
 40
1.0
176
     1
  0
VISUALSTYLE
  5
3B
102
{ACAD_REACTORS
330
2A
102
}
330
2A
100
AcDbVisualStyle
  2
JitterOff
 70
    20
177
     3
291
     1
 70
    58
 90
        2
176
     0
 90
        2
176
     0
 90
        0
176
     0
 90
        0
176
     0
 40
0.6
176
     0
 40
30.0
176
     0
 62
     7
420
 16777215
176
     0
 90
        1
176
     0
 90
        4
176
     0
 62
     7
176
     0
 62
   257
176
     0
 90
        1
176
     0
 90
        1
176
     0
 40
1.0
176
     0
 90
       10
176
     2
 62
     7
176
     0
 40
1.0
176
     0
 90
        1
176
     0
 90
        6
176
     0
 90
        2
176
     0
 62
     7
176
     0
 90
        5
176
     0
 90
        0
176
     0
 90
        0
176
     0
290
     0
176
     0
 90
        1
176
     0
 40
0.0
176
     0
 90
        0
176
     0
290
     0
176
     0
290
     1
176
     0
290
     1
176
     0
290
     0
176
     0
290
     0
176
     0
290
     0
176
     0
290
     0
176
     0
290
     0
176
     0
290
     0
176
     0
 90
       50
176
     0
 40
0.0
176
     0
 40
1.0
176
     0
 90
        0
176
     0
 62
    18
420
        0
176
     0
 90
       50
176
     0
 90
        3
176
     0
 62
     5
420
      255
176
     0
290
     0
176
     0
 90
       50
176
     0
 90
       50
176
     0
 90
       50
176
     0
290
     0
176
     0
 90
       50
176
     0
 62
   256
176
     0
 40
1.0
176
     0
 90
        2
176
     0
  1
strokes_ogs.tif
176
     0
290
     0
176
     0
 40
1.0
176
     0
 40
1.0
176
     0
  0
VISUALSTYLE
  5
38
102
{ACAD_REACTORS
330
2A
102
}
330
2A
100
AcDbVisualStyle
  2
Linepattern
 70
    14
177
     3
291
     1
 70
    58
 90
        2
176
     1
 90
        2
176
     1
 90
        0
176
     1
 90
        0
176
     1
 40
0.6
176
     1
 40
30.0
176
     1
 62
     7
420
 16777215
176
     1
 90
        1
176
     1
 90
        4
176
     1
 62
     7
176
     1
 62
   257
176
     1
 90
        7
176
     1
 90
        7
176
     1
 40
1.0
176
     1
 90
        8
176
     1
 62
     7
176
     1
 40
1.0
176
     1
 90
        1
176
     1
 90
        6
176
     1
 90
        2
176
     1
 62
     7
176
     1
 90
        5
176
     1
 90
        0
176
     1
 90
        0
176
     1
290
     0
176
     1
 90
        1
176
     1
 40
0.0
176
     1
 90
        0
176
     1
290
     0
176
     1
290
     1
176
     1
290
     1
176
     1
290
     0
176
     1
290
     0
176
     1
290
     0
176
     1
290
     0
176
     1
290
     0
176
     1
290
     0
176
     1
 90
       50
176
     1
 40
0.0
176
     1
 40
1.0
176
     1
 90
        0
176
     1
 62
    18
420
        0
176
     1
 90
       50
176
     1
 90
        3
176
     1
 62
     5
420
      255
176
     1
290
     0
176
     1
 90
       50
176
     1
 90
       50
176
     1
 90
       50
176
     1
290
     0
176
     1
 90
       50
176
     1
 62
   256
176
     0
 40
1.0
176
     0
 90
        2
176
     1
  1
strokes_ogs.tif
176
     1
290
     0
176
     1
 40
1.0
176
     1
 40
1.0
176
     1
  0
VISUALSTYLE
  5
3C
102
{ACAD_REACTORS
330
2A
102
}
330
2A
100
AcDbVisualStyle
  2
OverhangOff
 70
    21
177
     3
291
     1
 70
    58
 90
        2
176
     0
 90
        2
176
     0
 90
        0
176
     0
 90
        0
176
     0
 40
0.6
176
     0
 40
30.0
176
     0
 62
     7
420
 16777215
176
     0
 90
        1
176
     0
 90
        4
176
     0
 62
     7
176
     0
 62
   257
176
     0
 90
        1
176
     0
 90
        1
176
     0
 40
1.0
176
     0
 90
        9
176
     2
 62
     7
176
     0
 40
1.0
176
     0
 90
        1
176
     0
 90
        6
176
     0
 90
        2
176
     0
 62
     7
176
     0
 90
        5
176
     0
 90
        0
176
     0
 90
        0
176
     0
290
     0
176
     0
 90
        1
176
     0
 40
0.0
176
     0
 90
        0
176
     0
290
     0
176
     0
290
     1
176
     0
290
     1
176
     0
290
     0
176
     0
290
     0
176
     0
290
     0
176
     0
290
     0
176
     0
290
     0
176
     0
290
     0
176
     0
 90
       50
176
     0
 40
0.0
176
     0
 40
1.0
176
     0
 90
        0
176
     0
 62
    18
420
        0
176
     0
 90
       50
176
     0
 90
        3
176
     0
 62
     5
420
      255
176
     0
290
     0
176
     0
 90
       50
176
     0
 90
       50
176
     0
 90
       50
176
     0
290
     0
176
     0
 90
       50
176
     0
 62
   256
176
     0
 40
1.0
176
     0
 90
        2
176
     0
  1
strokes_ogs.tif
176
     0
290
     0
176
     0
 40
1.0
176
     0
 40
1.0
176
     0
  0
VISUALSTYLE
  5
33
102
{ACAD_REACTORS
330
2A
102
}
330
2A
100
AcDbVisualStyle
  2
Realistic
 70
     8
177
     3
291
     0
 70
    58
 90
        2
176
     1
 90
        3
176
     1
 90
        0
176
     1
 90
        2
176
     1
 40
0.6
176
     1
 40
30.0
176
     1
 62
     7
420
 16777215
176
     1
 90
        0
176
     1
 90
        0
176
     1
 62
     7
176
     1
 62
   257
176
     1
 90
        1
176
     1
 90
        1
176
     1
 40
1.0
176
     1
 90
        8
176
     1
 62
   257
176
     1
 40
1.0
176
     1
 90
        1
176
     1
 90
        6
176
     1
 90
        2
176
     1
 62
     7
176
     1
 90
        3
176
     1
 90
        0
176
     1
 90
        0
176
     1
290
     0
176
     1
 90
       13
176
     1
 40
0.0
176
     1
 90
        0
176
     1
290
     0
176
     1
290
     1
176
     1
290
     1
176
     1
290
     0
176
     1
290
     0
176
     1
290
     0
176
     1
290
     0
176
     1
290
     0
176
     1
290
     0
176
     1
 90
       50
176
     1
 40
0.0
176
     1
 40
1.0
176
     1
 90
        0
176
     1
 62
    18
420
        0
176
     1
 90
       50
176
     1
 90
        3
176
     1
 62
     5
420
      255
176
     1
290
     0
176
     1
 90
       50
176
     1
 90
       50
176
     1
 90
       50
176
     1
290
     0
176
     1
 90
       50
176
     1
 62
   256
176
     0
 40
1.0
176
     0
 90
        2
176
     1
  1
strokes_ogs.tif
176
     1
290
     0
176
     1
 40
1.0
176
     1
 40
1.0
176
     1
  0
VISUALSTYLE
  5
42
102
{ACAD_REACTORS
330
2A
102
}
330
2A
100
AcDbVisualStyle
  2
Shaded
 70
    27
177
     3
291
     0
 70
    58
 90
        2
176
     1
 90
        2
176
     1
 90
        1
176
     1
 90
        2
176
     1
 40
0.6
176
     1
 40
30.0
176
     1
 62
     7
420
 16777215
176
     1
 90
        0
176
     1
 90
        4
176
     1
 62
     7
176
     1
 62
   257
176
     1
 90
        1
176
     1
 90
        1
176
     1
 40
1.0
176
     1
 90
        8
176
     1
 62
   257
176
     1
 40
1.0
176
     1
 90
        1
176
     1
 90
        6
176
     1
 90
        2
176
     1
 62
     8
420
  7895160
176
     1
 90
        3
176
     1
 90
        0
176
     1
 90
        0
176
     1
290
     0
176
     1
 90
        5
176
     1
 40
0.0
176
     1
 90
        0
176
     1
290
     0
176
     1
290
     1
176
     1
290
     1
176
     1
290
     0
176
     1
290
     0
176
     1
290
     0
176
     1
290
     0
176
     1
290
     0
176
     1
290
     0
176
     1
 90
       50
176
     1
 40
0.0
176
     1
 40
1.0
176
     1
 90
        0
176
     1
 62
    18
420
        0
176
     1
 90
       50
176
     1
 90
        3
176
     1
 62
     5
420
      255
176
     1
290
     0
176
     1
 90
       50
176
     1
 90
       50
176
     1
 90
       50
176
     1
290
     0
176
     1
 90
       50
176
     1
 62
   256
176
     0
 40
1.0
176
     0
 90
        2
176
     1
  1
strokes_ogs.tif
176
     1
290
     0
176
     1
 40
1.0
176
     1
 40
1.0
176
     1
  0
VISUALSTYLE
  5
41
102
{ACAD_REACTORS
330
2A
102
}
330
2A
100
AcDbVisualStyle
  2
Shaded with edges
 70
    26
177
     3
291
     0
 70
    58
 90
        2
176
     1
 90
        2
176
     1
 90
        1
176
     1
 90
        2
176
     1
 40
0.6
176
     1
 40
30.0
176
     1
 62
     7
420
 16777215
176
     1
 90
        1
176
     1
 90
       10
176
     1
 62
     7
176
     1
 62
   257
176
     1
 90
        2
176
     1
 90
        1
176
     1
 40
1.0
176
     1
 90
        8
176
     1
 62
   257
176
     1
 40
1.0
176
     1
 90
        1
176
     1
 90
        6
176
     1
 90
        2
176
     1
 62
     7
176
     1
 90
        3
176
     1
 90
        0
176
     1
 90
        0
176
     1
290
     0
176
     1
 90
        5
176
     1
 40
0.0
176
     1
 90
        0
176
     1
290
     0
176
     1
290
     1
176
     1
290
     1
176
     1
290
     0
176
     1
290
     0
176
     1
290
     0
176
     1
290
     0
176
     1
290
     0
176
     1
290
     0
176
     1
 90
       50
176
     1
 40
0.0
176
     1
 40
1.0
176
     1
 90
        0
176
     1
 62
    18
420
        0
176
     1
 90
       50
176
     1
 90
        3
176
     1
 62
     5
420
      255
176
     1
290
     0
176
     1
 90
       50
176
     1
 90
       50
176
     1
 90
       50
176
     1
290
     0
176
     1
 90
       50
176
     1
 62
   256
176
     0
 40
1.0
176
     0
 90
        2
176
     1
  1
strokes_ogs.tif
176
     1
290
     0
176
     1
 40
1.0
176
     1
 40
1.0
176
     1
  0
VISUALSTYLE
  5
3E
102
{ACAD_REACTORS
330
2A
102
}
330
2A
100
AcDbVisualStyle
  2
Shades of Gray
 70
    23
177
     3
291
     0
 70
    58
 90
        2
176
     1
 90
        2
176
     1
 90
        3
176
     1
 90
        0
176
     1
 40
0.6
176
     1
 40
30.0
176
     1
 62
     7
420
 16777215
176
     1
 90
        2
176
     1
 90
        2
176
     1
 62
     7
176
     1
 62
     7
176
     1
 90
        1
176
     1
 90
        1
176
     1
 40
40.0
176
     1
 90
        8
176
     1
 62
     7
176
     1
 40
1.0
176
     1
 90
        1
176
     1
 90
        6
176
     1
 90
        2
176
     1
 62
     7
176
     1
 90
        3
176
     1
 90
        0
176
     1
 90
        0
176
     1
290
     0
176
     1
 90
        1
176
     1
 40
0.0
176
     1
 90
        0
176
     1
290
     0
176
     1
290
     1
176
     1
290
     1
176
     1
290
     0
176
     1
290
     0
176
     1
290
     0
176
     1
290
     0
176
     1
290
     0
176
     1
290
     0
176
     1
 90
       50
176
     1
 40
0.0
176
     1
 40
1.0
176
     1
 90
        0
176
     1
 62
    18
420
        0
176
     1
 90
       50
176
     1
 90
        3
176
     1
 62
     5
420
      255
176
     1
290
     0
176
     1
 90
       50
176
     1
 90
       50
176
     1
 90
       50
176
     1
290
     0
176
     1
 90
       50
176
     1
 62
   256
176
     0
 40
1.0
176
     0
 90
        2
176
     1
  1
strokes_ogs.tif
176
     1
290
     0
176
     1
 40
1.0
176
     1
 40
1.0
176
     1
  0
VISUALSTYLE
  5
3F
102
{ACAD_REACTORS
330
2A
102
}
330
2A
100
AcDbVisualStyle
  2
Sketchy
 70
    24
177
     3
291
     0
 70
    58
 90
        1
176
     1
 90
        2
176
     1
 90
        2
176
     1
 90
        0
176
     1
 40
0.6
176
     1
 40
30.0
176
     1
 62
     7
420
 16777215
176
     1
 90
        2
176
     1
 90
        2
176
     1
 62
     7
176
     1
 62
     7
176
     1
 90
        1
176
     1
 90
        1
176
     1
 40
40.0
176
     1
 90
       11
176
     1
 62
     7
176
     1
 40
1.0
176
     1
 90
        1
176
     1
 90
        6
176
     1
 90
        2
176
     1
 62
     7
176
     1
 90
        6
176
     1
 90
        0
176
     1
 90
        0
176
     1
290
     0
176
     1
 90
        1
176
     1
 40
0.0
176
     1
 90
        0
176
     1
290
     0
176
     1
290
     1
176
     1
290
     1
176
     1
290
     0
176
     1
290
     0
176
     1
290
     0
176
     1
290
     0
176
     1
290
     0
176
     1
290
     0
176
     1
 90
       50
176
     1
 40
0.0
176
     1
 40
1.0
176
     1
 90
        0
176
     1
 62
    18
420
        0
176
     1
 90
       50
176
     1
 90
        3
176
     1
 62
     5
420
      255
176
     1
290
     0
176
     1
 90
       50
176
     1
 90
       50
176
     1
 90
       50
176
     1
290
     0
176
     1
 90
       50
176
     1
 62
   256
176
     0
 40
1.0
176
     0
 90
        2
176
     1
  1
strokes_ogs.tif
176
     1
290
     0
176
     1
 40
1.0
176
     1
 40
1.0
176
     1
  0
VISUALSTYLE
  5
37
102
{ACAD_REACTORS
330
2A
102
}
330
2A
100
AcDbVisualStyle
  2
Thicken
 70
    13
177
     3
291
     1
 70
    58
 90
        2
176
     1
 90
        2
176
     1
 90
        0
176
     1
 90
        0
176
     1
 40
0.6
176
     1
 40
30.0
176
     1
 62
     7
420
 16777215
176
     1
 90
        1
176
     1
 90
        4
176
     1
 62
     7
176
     1
 62
   257
176
     1
 90
        1
176
     1
 90
        1
176
     1
 40
1.0
176
     1
 90
       12
176
     1
 62
     7
176
     1
 40
1.0
176
     1
 90
        1
176
     1
 90
        6
176
     1
 90
        2
176
     1
 62
     7
176
     1
 90
        5
176
     1
 90
        0
176
     1
 90
        0
176
     1
290
     0
176
     1
 90
        1
176
     1
 40
0.0
176
     1
 90
        0
176
     1
290
     0
176
     1
290
     1
176
     1
290
     1
176
     1
290
     0
176
     1
290
     0
176
     1
290
     0
176
     1
290
     0
176
     1
290
     0
176
     1
290
     0
176
     1
 90
       50
176
     1
 40
0.0
176
     1
 40
1.0
176
     1
 90
        0
176
     1
 62
    18
420
        0
176
     1
 90
       50
176
     1
 90
        3
176
     1
 62
     5
420
      255
176
     1
290
     0
176
     1
 90
       50
176
     1
 90
       50
176
     1
 90
       50
176
     1
290
     0
176
     1
 90
       50
176
     1
 62
   256
176
     0
 40
1.0
176
     0
 90
        2
176
     1
  1
strokes_ogs.tif
176
     1
290
     0
176
     1
 40
1.0
176
     1
 40
1.0
176
     1
  0
VISUALSTYLE
  5
30
102
{ACAD_REACTORS
330
2A
102
}
330
2A
100
AcDbVisualStyle
  2
Wireframe
 70
     5
177
     3
291
     0
 70
    58
 90
        0
176
     1
 90
        2
176
     1
 90
        0
176
     1
 90
        0
176
     1
 40
0.6
176
     1
 40
30.0
176
     1
 62
     7
420
 16777215
176
     1
 90
        1
176
     1
 90
        4
176
     1
 62
     7
176
     1
 62
   257
176
     1
 90
        1
176
     1
 90
        1
176
     1
 40
1.0
176
     1
 90
        0
176
     1
 62
   257
176
     1
 40
1.0
176
     1
 90
        1
176
     1
 90
        6
176
     1
 90
        2
176
     1
 62
     7
176
     1
 90
        3
176
     1
 90
        0
176
     1
 90
        0
176
     1
290
     0
176
     1
 90
        1
176
     1
 40
0.0
176
     1
 90
        0
176
     1
290
     0
176
     1
290
     1
176
     1
290
     1
176
     1
290
     0
176
     1
290
     0
176
     1
290
     0
176
     1
290
     0
176
     1
290
     0
176
     1
290
     0
176
     1
 90
       50
176
     1
 40
0.0
176
     1
 40
1.0
176
     1
 90
        0
176
     1
 62
    18
420
        0
176
     1
 90
       50
176
     1
 90
        3
176
     1
 62
     5
420
      255
176
     1
290
     0
176
     1
 90
       50
176
     1
 90
       50
176
     1
 90
       50
176
     1
290
     0
176
     1
 90
       50
176
     1
 62
   256
176
     0
 40
1.0
176
     0
 90
        2
176
     1
  1
strokes_ogs.tif
176
     1
290
     0
176
     1
 40
1.0
176
     1
 40
1.0
176
     1
  0
VISUALSTYLE
  5
40
102
{ACAD_REACTORS
330
2A
102
}
330
2A
100
AcDbVisualStyle
  2
X-Ray
 70
    25
177
     3
291
     0
 70
    58
 90
        2
176
     1
 90
        2
176
     1
 90
        1
176
     1
 90
        1
176
     1
 40
0.5
176
     1
 40
30.0
176
     1
 62
     7
420
 16777215
176
     1
 90
        1
176
     1
 90
        0
176
     1
 62
     7
176
     1
 62
   257
176
     1
 90
        1
176
     1
 90
        1
176
     1
 40
1.0
176
     1
 90
        8
176
     1
 62
     7
176
     1
 40
1.0
176
     1
 90
        1
176
     1
 90
        6
176
     1
 90
        2
176
     1
 62
     7
176
     1
 90
        3
176
     1
 90
        0
176
     1
 90
        0
176
     1
290
     0
176
     1
 90
       13
176
     1
 40
0.0
176
     1
 90
        0
176
     1
290
     0
176
     1
290
     1
176
     1
290
     1
176
     1
290
     0
176
     1
290
     0
176
     1
290
     0
176
     1
290
     0
176
     1
290
     0
176
     1
290
     0
176
     1
 90
       50
176
     1
 40
0.0
176
     1
 40
1.0
176
     1
 90
        0
176
     1
 62
    18
420
        0
176
     1
 90
       50
176
     1
 90
        3
176
     1
 62
     5
420
      255
176
     1
290
     0
176
     1
 90
       50
176
     1
 90
       50
176
     1
 90
       50
176
     1
290
     0
176
     1
 90
       50
176
     1
 62
   256
176
     0
 40
1.0
176
     0
 90
        2
176
     1
  1
strokes_ogs.tif
176
     1
290
     0
176
     1
 40
1.0
176
     1
 40
1.0
176
     1
  0
DICTIONARYVAR
  5
1B3
102
{ACAD_REACTORS
330
1B2
102
}
330
1B2
100
DictionaryVariables
280
     0
  1
1:1
  0
DICTIONARYVAR
  5
1B8
102
{ACAD_REACTORS
330
1B2
102
}
330
1B2
100
DictionaryVariables
280
     0
  1
Standard
  0
DICTIONARYVAR
  5
1B7
102
{ACAD_REACTORS
330
1B2
102
}
330
1B2
100
DictionaryVariables
280
     0
  1
Standard
  0
DICTIONARY
  5
1B4
330
6A
100
AcDbDictionary
280
     1
281
     1
  3
ACAD_ROUNDTRIP_2008_TABLESTYLE_CELLSTYLEMAP
360
1B5
  0
CELLSTYLEMAP
  5
1B5
102
{ACAD_REACTORS
330
1B4
102
}
330
1B4
100
AcDbCellStyleMap
 90
        3
300
CELLSTYLE
  1
TABLEFORMAT_BEGIN
 90
        5
170
     1
 91
        0
 92
    32768
 62
   257
 93
        1
300
CONTENTFORMAT
  1
CONTENTFORMAT_BEGIN
 90
        0
 91
        0
 92
        4
 93
        0
300

 40
0.0
140
1.0
 94
        5
 62
     0
340
11
144
0.25
309
CONTENTFORMAT_END
171
     1
301
MARGIN
  1
CELLMARGIN_BEGIN
 40
0.06
 40
0.06
 40
0.06
 40
0.06
 40
0.06
 40
0.06
309
CELLMARGIN_END
 94
        6
 95
        1
302
GRIDFORMAT
  1
GRIDFORMAT_BEGIN
 90
        0
 91
        1
 62
     0
 92
       -2
340
14
 93
        0
 40
0.045
309
GRIDFORMAT_END
 95
        2
302
GRIDFORMAT
  1
GRIDFORMAT_BEGIN
 90
        0
 91
        1
 62
     0
 92
       -2
340
14
 93
        0
 40
0.045
309
GRIDFORMAT_END
 95
        4
302
GRIDFORMAT
  1
GRIDFORMAT_BEGIN
 90
        0
 91
        1
 62
     0
 92
       -2
340
14
 93
        0
 40
0.045
309
GRIDFORMAT_END
 95
        8
302
GRIDFORMAT
  1
GRIDFORMAT_BEGIN
 90
        0
 91
        1
 62
     0
 92
       -2
340
14
 93
        0
 40
0.045
309
GRIDFORMAT_END
 95
       16
302
GRIDFORMAT
  1
GRIDFORMAT_BEGIN
 90
        0
 91
        1
 62
     0
 92
       -2
340
14
 93
        0
 40
0.045
309
GRIDFORMAT_END
 95
       32
302
GRIDFORMAT
  1
GRIDFORMAT_BEGIN
 90
        0
 91
        1
 62
     0
 92
       -2
340
14
 93
        0
 40
0.045
309
GRIDFORMAT_END
309
TABLEFORMAT_END
  1
CELLSTYLE_BEGIN
 90
        1
 91
        1
300
_TITLE
309
CELLSTYLE_END
300
CELLSTYLE
  1
TABLEFORMAT_BEGIN
 90
        5
170
     1
 91
        0
 92
        0
 62
   257
 93
        1
300
CONTENTFORMAT
  1
CONTENTFORMAT_BEGIN
 90
        0
 91
        0
 92
        4
 93
        0
300

 40
0.0
140
1.0
 94
        5
 62
     0
340
11
144
0.18
309
CONTENTFORMAT_END
171
     1
301
MARGIN
  1
CELLMARGIN_BEGIN
 40
0.06
 40
0.06
 40
0.06
 40
0.06
 40
0.06
 40
0.06
309
CELLMARGIN_END
 94
        6
 95
        1
302
GRIDFORMAT
  1
GRIDFORMAT_BEGIN
 90
        0
 91
        1
 62
     0
 92
       -2
340
14
 93
        0
 40
0.045
309
GRIDFORMAT_END
 95
        2
302
GRIDFORMAT
  1
GRIDFORMAT_BEGIN
 90
        0
 91
        1
 62
     0
 92
       -2
340
14
 93
        0
 40
0.045
309
GRIDFORMAT_END
 95
        4
302
GRIDFORMAT
  1
GRIDFORMAT_BEGIN
 90
        0
 91
        1
 62
     0
 92
       -2
340
14
 93
        0
 40
0.045
309
GRIDFORMAT_END
 95
        8
302
GRIDFORMAT
  1
GRIDFORMAT_BEGIN
 90
        0
 91
        1
 62
     0
 92
       -2
340
14
 93
        0
 40
0.045
309
GRIDFORMAT_END
 95
       16
302
GRIDFORMAT
  1
GRIDFORMAT_BEGIN
 90
        0
 91
        1
 62
     0
 92
       -2
340
14
 93
        0
 40
0.045
309
GRIDFORMAT_END
 95
       32
302
GRIDFORMAT
  1
GRIDFORMAT_BEGIN
 90
        0
 91
        1
 62
     0
 92
       -2
340
14
 93
        0
 40
0.045
309
GRIDFORMAT_END
309
TABLEFORMAT_END
  1
CELLSTYLE_BEGIN
 90
        2
 91
        1
300
_HEADER
309
CELLSTYLE_END
300
CELLSTYLE
  1
TABLEFORMAT_BEGIN
 90
        5
170
     1
 91
        0
 92
        0
 62
   257
 93
        1
300
CONTENTFORMAT
  1
CONTENTFORMAT_BEGIN
 90
        0
 91
        0
 92
        4
 93
        0
300

 40
0.0
140
1.0
 94
        2
 62
     0
340
11
144
0.18
309
CONTENTFORMAT_END
171
     1
301
MARGIN
  1
CELLMARGIN_BEGIN
 40
0.06
 40
0.06
 40
0.06
 40
0.06
 40
0.06
 40
0.06
309
CELLMARGIN_END
 94
        6
 95
        1
302
GRIDFORMAT
  1
GRIDFORMAT_BEGIN
 90
        0
 91
        1
 62
     0
 92
       -2
340
14
 93
        0
 40
0.045
309
GRIDFORMAT_END
 95
        2
302
GRIDFORMAT
  1
GRIDFORMAT_BEGIN
 90
        0
 91
        1
 62
     0
 92
       -2
340
14
 93
        0
 40
0.045
309
GRIDFORMAT_END
 95
        4
302
GRIDFORMAT
  1
GRIDFORMAT_BEGIN
 90
        0
 91
        1
 62
     0
 92
       -2
340
14
 93
        0
 40
0.045
309
GRIDFORMAT_END
 95
        8
302
GRIDFORMAT
  1
GRIDFORMAT_BEGIN
 90
        0
 91
        1
 62
     0
 92
       -2
340
14
 93
        0
 40
0.045
309
GRIDFORMAT_END
 95
       16
302
GRIDFORMAT
  1
GRIDFORMAT_BEGIN
 90
        0
 91
        1
 62
     0
 92
       -2
340
14
 93
        0
 40
0.045
309
GRIDFORMAT_END
 95
       32
302
GRIDFORMAT
  1
GRIDFORMAT_BEGIN
 90
        0
 91
        1
 62
     0
 92
       -2
340
14
 93
        0
 40
0.045
309
GRIDFORMAT_END
309
TABLEFORMAT_END
  1
CELLSTYLE_BEGIN
 90
        3
 91
        2
300
_DATA
309
CELLSTYLE_END
  0
ENDSEC
  0
EOF