0
SECTION
  2
HEADER
  9
$ACADVER
  1
AC1027
  9
$ACADMAINTVER
 70
     8
  9
$DWGCODEPAGE
  3
ANSI_1252
  9
$REQUIREDVERSIONS
160
                 0
  9
$COMMENTS
  1
File was created by Cadenas
  9
$CUSTOMPROPERTYTAG
  1
NN
  9
$CUSTOMPROPERTY
  1
Grip Tight Two-Bolt Pillow Block Inch Bore
  9
$CUSTOMPROPERTYTAG
  1
NT
  9
$CUSTOMPROPERTY
  1
GT Normal Duty Pillow Blocks
  9
$CUSTOMPROPERTYTAG
  1
NB
  9
$CUSTOMPROPERTY
  1
129173
  9
$CUSTOMPROPERTYTAG
  1
NBSYN
  9
$CUSTOMPROPERTY
  1
$PN.$LUBE.
  9
$CUSTOMPROPERTYTAG
  1
LINA
  9
$CUSTOMPROPERTY
  1
129173
  9
$CUSTOMPROPERTYTAG
  1
SERIES
  9
$CUSTOMPROPERTY
  1
215
  9
$CUSTOMPROPERTYTAG
  1
SS
  9
$CUSTOMPROPERTY
  1
2-15/16
  9
$CUSTOMPROPERTYTAG
  1
PN
  9
$CUSTOMPROPERTY
  1
129173
  9
$CUSTOMPROPERTYTAG
  1
DESCRIPTION
  9
$CUSTOMPROPERTY
  1
P2B-GT-215
  9
$CUSTOMPROPERTYTAG
  1
A
  9
$CUSTOMPROPERTY
  1
2-9/16
  9
$CUSTOMPROPERTYTAG
  1
B
  9
$CUSTOMPROPERTY
  1
11-3/4
  9
$CUSTOMPROPERTYTAG
  1
C
  9
$CUSTOMPROPERTY
  1
2-7/8
  9
$CUSTOMPROPERTYTAG
  1
DMIN
  9
$CUSTOMPROPERTY
  1
8-1/2
  9
$CUSTOMPROPERTYTAG
  1
DMAX
  9
$CUSTOMPROPERTY
  1
9-1/2
  9
$CUSTOMPROPERTYTAG
  1
F
  9
$CUSTOMPROPERTY
  1
7/8
  9
$CUSTOMPROPERTYTAG
  1
G
  9
$CUSTOMPROPERTY
  1
1-7/16
  9
$CUSTOMPROPERTYTAG
  1
H
  9
$CUSTOMPROPERTY
  1
1
  9
$CUSTOMPROPERTYTAG
  1
J
  9
$CUSTOMPROPERTY
  1
6-23/32
  9
$CUSTOMPROPERTYTAG
  1
L
  9
$CUSTOMPROPERTY
  1
4-1/4
  9
$CUSTOMPROPERTYTAG
  1
M
  9
$CUSTOMPROPERTY
  1
3-1/2
  9
$CUSTOMPROPERTYTAG
  1
R
  9
$CUSTOMPROPERTY
  1
57/64
  9
$CUSTOMPROPERTYTAG
  1
S
  9
$CUSTOMPROPERTY
  1
1-43/64
  9
$CUSTOMPROPERTYTAG
  1
U
  9
$CUSTOMPROPERTY
  1
5-1/2
  9
$CUSTOMPROPERTYTAG
  1
V
  9
$CUSTOMPROPERTY
  1
11
  9
$CUSTOMPROPERTYTAG
  1
W
  9
$CUSTOMPROPERTY
  1
1-1/16
  9
$CUSTOMPROPERTYTAG
  1
X
  9
$CUSTOMPROPERTY
  1
3/16
  9
$CUSTOMPROPERTYTAG
  1
Z
  9
$CUSTOMPROPERTY
  1
1-5/8
  9
$CUSTOMPROPERTYTAG
  1
COMPANY
  9
$CUSTOMPROPERTY
  1
baldor
  9
$INSBASE
 10
0.0
 20
0.0
 30
0.0
  9
$EXTMIN
 10
1.000000000000000E+20
 20
1.000000000000000E+20
 30
1.000000000000000E+20
  9
$EXTMAX
 10
-1.000000000000000E+20
 20
-1.000000000000000E+20
 30
-1.000000000000000E+20
  9
$LIMMIN
 10
0.0
 20
0.0
  9
$LIMMAX
 10
12.0
 20
9.0
  9
$ORTHOMODE
 70
     0
  9
$REGENMODE
 70
     1
  9
$FILLMODE
 70
     1
  9
$QTEXTMODE
 70
     0
  9
$MIRRTEXT
 70
     1
  9
$LTSCALE
 40
1.0
  9
$ATTMODE
 70
     1
  9
$TEXTSIZE
 40
0.2
  9
$TRACEWID
 40
0.05
  9
$TEXTSTYLE
  7
Standard
  9
$CLAYER
  8
0
  9
$CELTYPE
  6
ByLayer
  9
$CECOLOR
 62
   256
  9
$CELTSCALE
 40
1.0
  9
$DISPSILH
 70
     0
  9
$DIMSCALE
 40
1.0
  9
$DIMASZ
 40
0.18
  9
$DIMEXO
 40
0.0625
  9
$DIMDLI
 40
0.38
  9
$DIMRND
 40
0.0
  9
$DIMDLE
 40
0.0
  9
$DIMEXE
 40
0.18
  9
$DIMTP
 40
0.0
  9
$DIMTM
 40
0.0
  9
$DIMTXT
 40
0.18
  9
$DIMCEN
 40
0.09
  9
$DIMTSZ
 40
0.0
  9
$DIMTOL
 70
     0
  9
$DIMLIM
 70
     0
  9
$DIMTIH
 70
     1
  9
$DIMTOH
 70
     1
  9
$DIMSE1
 70
     0
  9
$DIMSE2
 70
     0
  9
$DIMTAD
 70
     0
  9
$DIMZIN
 70
     0
  9
$DIMBLK
  1

  9
$DIMASO
 70
     1
  9
$DIMSHO
 70
     1
  9
$DIMPOST
  1

  9
$DIMAPOST
  1

  9
$DIMALT
 70
     0
  9
$DIMALTD
 70
     2
  9
$DIMALTF
 40
25.4
  9
$DIMLFAC
 40
1.0
  9
$DIMTOFL
 70
     0
  9
$DIMTVP
 40
0.0
  9
$DIMTIX
 70
     0
  9
$DIMSOXD
 70
     0
  9
$DIMSAH
 70
     0
  9
$DIMBLK1
  1

  9
$DIMBLK2
  1

  9
$DIMSTYLE
  2
Standard
  9
$DIMCLRD
 70
     0
  9
$DIMCLRE
 70
     0
  9
$DIMCLRT
 70
     0
  9
$DIMTFAC
 40
1.0
  9
$DIMGAP
 40
0.09
  9
$DIMJUST
 70
     0
  9
$DIMSD1
 70
     0
  9
$DIMSD2
 70
     0
  9
$DIMTOLJ
 70
     1
  9
$DIMTZIN
 70
     0
  9
$DIMALTZ
 70
     0
  9
$DIMALTTZ
 70
     0
  9
$DIMUPT
 70
     0
  9
$DIMDEC
 70
     4
  9
$DIMTDEC
 70
     4
  9
$DIMALTU
 70
     2
  9
$DIMALTTD
 70
     2
  9
$DIMTXSTY
  7
Standard
  9
$DIMAUNIT
 70
     0
  9
$DIMADEC
 70
     0
  9
$DIMALTRND
 40
0.0
  9
$DIMAZIN
 70
     0
  9
$DIMDSEP
 70
    46
  9
$DIMATFIT
 70
     3
  9
$DIMFRAC
 70
     0
  9
$DIMLDRBLK
  1

  9
$DIMLUNIT
 70
     2
  9
$DIMLWD
 70
    -2
  9
$DIMLWE
 70
    -2
  9
$DIMTMOVE
 70
     0
  9
$DIMFXL
 40
1.0
  9
$DIMFXLON
 70
     0
  9
$DIMJOGANG
 40
0.7853981633974483
  9
$DIMTFILL
 70
     0
  9
$DIMTFILLCLR
 70
     0
  9
$DIMARCSYM
 70
     0
  9
$DIMLTYPE
  6

  9
$DIMLTEX1
  6

  9
$DIMLTEX2
  6

  9
$DIMTXTDIRECTION
 70
     0
  9
$LUNITS
 70
     2
  9
$LUPREC
 70
     4
  9
$SKETCHINC
 40
0.1
  9
$FILLETRAD
 40
0.5
  9
$AUNITS
 70
     0
  9
$AUPREC
 70
     0
  9
$MENU
  1
.
  9
$ELEVATION
 40
0.0
  9
$PELEVATION
 40
0.0
  9
$THICKNESS
 40
0.0
  9
$LIMCHECK
 70
     0
  9
$CHAMFERA
 40
0.0
  9
$CHAMFERB
 40
0.0
  9
$CHAMFERC
 40
0.0
  9
$CHAMFERD
 40
0.0
  9
$SKPOLY
 70
     0
  9
$TDCREATE
 40
2458168.995369375
  9
$TDUCREATE
 40
2458168.953702708
  9
$TDUPDATE
 40
2458168.995369548
  9
$TDUUPDATE
 40
2458168.953702882
  9
$TDINDWG
 40
0.0000000116
  9
$TDUSRTIMER
 40
0.0000000116
  9
$USRTIMER
 70
     1
  9
$ANGBASE
 50
0.0
  9
$ANGDIR
 70
     0
  9
$PDMODE
 70
     0
  9
$PDSIZE
 40
0.0
  9
$PLINEWID
 40
0.0
  9
$SPLFRAME
 70
     0
  9
$SPLINETYPE
 70
     6
  9
$SPLINESEGS
 70
     8
  9
$HANDSEED
  5
282
  9
$SURFTAB1
 70
     6
  9
$SURFTAB2
 70
     6
  9
$SURFTYPE
 70
     6
  9
$SURFU
 70
     6
  9
$SURFV
 70
     6
  9
$UCSBASE
  2

  9
$UCSNAME
  2

  9
$UCSORG
 10
0.0
 20
0.0
 30
0.0
  9
$UCSXDIR
 10
1.0
 20
0.0
 30
0.0
  9
$UCSYDIR
 10
0.0
 20
1.0
 30
0.0
  9
$UCSORTHOREF
  2

  9
$UCSORTHOVIEW
 70
     0
  9
$UCSORGTOP
 10
0.0
 20
0.0
 30
0.0
  9
$UCSORGBOTTOM
 10
0.0
 20
0.0
 30
0.0
  9
$UCSORGLEFT
 10
0.0
 20
0.0
 30
0.0
  9
$UCSORGRIGHT
 10
0.0
 20
0.0
 30
0.0
  9
$UCSORGFRONT
 10
0.0
 20
0.0
 30
0.0
  9
$UCSORGBACK
 10
0.0
 20
0.0
 30
0.0
  9
$PUCSBASE
  2

  9
$PUCSNAME
  2

  9
$PUCSORG
 10
0.0
 20
0.0
 30
0.0
  9
$PUCSXDIR
 10
1.0
 20
0.0
 30
0.0
  9
$PUCSYDIR
 10
0.0
 20
1.0
 30
0.0
  9
$PUCSORTHOREF
  2

  9
$PUCSORTHOVIEW
 70
     0
  9
$PUCSORGTOP
 10
0.0
 20
0.0
 30
0.0
  9
$PUCSORGBOTTOM
 10
0.0
 20
0.0
 30
0.0
  9
$PUCSORGLEFT
 10
0.0
 20
0.0
 30
0.0
  9
$PUCSORGRIGHT
 10
0.0
 20
0.0
 30
0.0
  9
$PUCSORGFRONT
 10
0.0
 20
0.0
 30
0.0
  9
$PUCSORGBACK
 10
0.0
 20
0.0
 30
0.0
  9
$USERI1
 70
     0
  9
$USERI2
 70
     0
  9
$USERI3
 70
     0
  9
$USERI4
 70
     0
  9
$USERI5
 70
     0
  9
$USERR1
 40
0.0
  9
$USERR2
 40
0.0
  9
$USERR3
 40
0.0
  9
$USERR4
 40
0.0
  9
$USERR5
 40
0.0
  9
$WORLDVIEW
 70
     1
  9
$SHADEDGE
 70
     3
  9
$SHADEDIF
 70
    70
  9
$TILEMODE
 70
     1
  9
$MAXACTVP
 70
    64
  9
$PINSBASE
 10
0.0
 20
0.0
 30
0.0
  9
$PLIMCHECK
 70
     0
  9
$PEXTMIN
 10
1.000000000000000E+20
 20
1.000000000000000E+20
 30
1.000000000000000E+20
  9
$PEXTMAX
 10
-1.000000000000000E+20
 20
-1.000000000000000E+20
 30
-1.000000000000000E+20
  9
$PLIMMIN
 10
0.0
 20
0.0
  9
$PLIMMAX
 10
12.0
 20
9.0
  9
$UNITMODE
 70
     0
  9
$VISRETAIN
 70
     1
  9
$PLINEGEN
 70
     0
  9
$PSLTSCALE
 70
     1
  9
$TREEDEPTH
 70
  3020
  9
$CMLSTYLE
  2
Standard
  9
$CMLJUST
 70
     0
  9
$CMLSCALE
 40
1.0
  9
$PROXYGRAPHICS
 70
     1
  9
$MEASUREMENT
 70
     0
  9
$CELWEIGHT
370
    -1
  9
$ENDCAPS
280
     0
  9
$JOINSTYLE
280
     0
  9
$LWDISPLAY
290
     0
  9
$INSUNITS
 70
     1
  9
$HYPERLINKBASE
  1

  9
$STYLESHEET
  1

  9
$XEDIT
290
     1
  9
$CEPSNTYPE
380
     0
  9
$PSTYLEMODE
290
     1
  9
$FINGERPRINTGUID
  2
{CF1D3519-7E55-4397-8D85-2F14E025F162}
  9
$VERSIONGUID
  2
{FAEB1C32-E019-11D5-929B-00C0DF256EC4}
  9
$EXTNAMES
290
     1
  9
$PSVPSCALE
 40
0.0
  9
$OLESTARTUP
290
     0
  9
$SORTENTS
280
   127
  9
$INDEXCTL
280
     0
  9
$HIDETEXT
280
     1
  9
$XCLIPFRAME
280
     2
  9
$HALOGAP
280
     0
  9
$OBSCOLOR
 70
   257
  9
$OBSLTYPE
280
     0
  9
$INTERSECTIONDISPLAY
280
     0
  9
$INTERSECTIONCOLOR
 70
   257
  9
$DIMASSOC
280
     2
  9
$PROJECTNAME
  1

  9
$CAMERADISPLAY
290
     0
  9
$LENSLENGTH
 40
50.0
  9
$CAMERAHEIGHT
 40
0.0
  9
$STEPSPERSEC
 40
2.0
  9
$STEPSIZE
 40
6.0
  9
$3DDWFPREC
 40
2.0
  9
$PSOLWIDTH
 40
0.25
  9
$PSOLHEIGHT
 40
4.0
  9
$LOFTANG1
 40
1.570796326794897
  9
$LOFTANG2
 40
1.570796326794897
  9
$LOFTMAG1
 40
0.0
  9
$LOFTMAG2
 40
0.0
  9
$LOFTPARAM
 70
     7
  9
$LOFTNORMALS
280
     1
  9
$LATITUDE
 40
37.795
  9
$LONGITUDE
 40
-122.394
  9
$NORTHDIRECTION
 40
0.0
  9
$TIMEZONE
 70
 -8000
  9
$LIGHTGLYPHDISPLAY
280
     1
  9
$TILEMODELIGHTSYNCH
280
     1
  9
$CMATERIAL
347
44
  9
$SOLIDHIST
280
     0
  9
$SHOWHIST
280
     1
  9
$DWFFRAME
280
     2
  9
$DGNFRAME
280
     2
  9
$REALWORLDSCALE
290
     1
  9
$INTERFERECOLOR
 62
   256
  9
$CSHADOW
280
     0
  9
$SHADOWPLANELOCATION
 40
0.0
  0
ENDSEC
  0
SECTION
  2
CLASSES
  0
CLASS
  1
ACDBDICTIONARYWDFLT
  2
AcDbDictionaryWithDefault
  3
ObjectDBX Classes
 90
        0
 91
        4
280
     0
281
     0
  0
CLASS
  1
VISUALSTYLE
  2
AcDbVisualStyle
  3
ObjectDBX Classes
 90
     4095
 91
        4
280
     0
281
     0
  0
CLASS
  1
MATERIAL
  2
AcDbMaterial
  3
ObjectDBX Classes
 90
     1153
 91
        4
280
     0
281
     0
  0
CLASS
  1
SCALE
  2
AcDbScale
  3
ObjectDBX Classes
 90
     1153
 91
        4
280
     0
281
     0
  0
CLASS
  1
TABLESTYLE
  2
AcDbTableStyle
  3
ObjectDBX Classes
 90
     4095
 91
        4
280
     0
281
     0
  0
CLASS
  1
MLEADERSTYLE
  2
AcDbMLeaderStyle
  3
ACDB_MLEADERSTYLE_CLASS
 90
     4095
 91
        4
280
     0
281
     0
  0
CLASS
  1
SUN
  2
AcDbSun
  3
SCENEOE
 90
     1153
 91
        4
280
     0
281
     0
  0
CLASS
  1
DICTIONARYVAR
  2
AcDbDictionaryVar
  3
ObjectDBX Classes
 90
        0
 91
        4
280
     0
281
     0
  0
CLASS
  1
CELLSTYLEMAP
  2
AcDbCellStyleMap
  3
ObjectDBX Classes
 90
     1152
 91
        4
280
     0
281
     0
  0
ENDSEC
  0
SECTION
  2
TABLES
  0
TABLE
  2
VPORT
  5
8
330
0
100
AcDbSymbolTable
 70
     1
  0
VPORT
  5
29
330
8
100
AcDbSymbolTableRecord
100
AcDbViewportTableRecord
  2
*Active
 70
     0
 10
0.0
 20
0.0
 11
1.0
 21
1.0
 12
0.0
 22
-0.109375
 13
0.0
 23
0.0
 14
0.5
 24
0.5
 15
0.5
 25
0.5
 16
0.0
 26
0.0
 36
1.0
 17
0.0
 27
0.0
 37
0.0
 40
3.448875
 41
3.475046210720887
 42
50.0
 43
0.0
 44
0.0
 50
0.0
 51
0.0
 71
     0
 72
   100
 73
     1
 74
     3
 75
     0
 76
     0
 77
     0
 78
     0
281
     0
 65
     1
110
0.0
120
0.0
130
0.0
111
1.0
121
0.0
131
0.0
112
0.0
122
1.0
132
0.0
 79
     0
146
0.0
348
2F
 60
     3
 61
     5
292
     1
282
     1
141
0.0
142
0.0
 63
   250
361
6D
  0
ENDTAB
  0
TABLE
  2
LTYPE
  5
5
330
0
100
AcDbSymbolTable
 70
     3
  0
LTYPE
  5
14
330
5
100
AcDbSymbolTableRecord
100
AcDbLinetypeTableRecord
  2
ByBlock
 70
     0
  3

 72
    65
 73
     0
 40
0.0
  0
LTYPE
  5
15
330
5
100
AcDbSymbolTableRecord
100
AcDbLinetypeTableRecord
  2
ByLayer
 70
     0
  3

 72
    65
 73
     0
 40
0.0
  0
LTYPE
  5
16
330
5
100
AcDbSymbolTableRecord
100
AcDbLinetypeTableRecord
  2
Continuous
 70
     0
  3
Solid line
 72
    65
 73
     0
 40
0.0
  0
LTYPE
  5
A5
330
5
100
AcDbSymbolTableRecord
100
AcDbLinetypeTableRecord
  2
Dashed
 70
     0
  3

 72
    65
 73
     2
 40
2.0
 49
1.0
 74
     0
 49
-1.0
 74
     0
  0
LTYPE
  5
117
330
5
100
AcDbSymbolTableRecord
100
AcDbLinetypeTableRecord
  2
Center
 70
     0
  3

 72
    65
 73
     4
 40
1.5
 49
0.45
 74
     0
 49
-0.5
 74
     0
 49
0.05
 74
     0
 49
-0.5
 74
     0
  0
ENDTAB
  0
TABLE
  2
LAYER
  5
2
330
0
100
AcDbSymbolTable
 70
     7
  0
LAYER
  5
10
330
2
100
AcDbSymbolTableRecord
100
AcDbLayerTableRecord
  2
0
 70
     0
 62
     7
  6
Continuous
370
    -3
390
F
347
46
348
0
  0
LAYER
  5
72
330
2
100
AcDbSymbolTableRecord
100
AcDbLayerTableRecord
  2
AM_6
 70
     0
 62
    -2
  6
Continuous
370
    35
390
F
347
46
348
0
  0
LAYER
  5
A6
330
2
100
AcDbSymbolTableRecord
100
AcDbLayerTableRecord
  2
AM_9
 70
     0
 62
     6
  6
Dashed
370
    25
390
F
347
46
348
0
  0
LAYER
  5
114
330
2
100
AcDbSymbolTableRecord
100
AcDbLayerTableRecord
  2
AM_5
 70
     0
 62
     3
  6
Continuous
370
    25
390
F
347
46
348
0
  0
LAYER
  5
118
330
2
100
AcDbSymbolTableRecord
100
AcDbLayerTableRecord
  2
AM_7
 70
     0
 62
     7
  6
Center
370
    25
390
F
347
46
348
0
  0
LAYER
  5
11A
330
2
100
AcDbSymbolTableRecord
100
AcDbLayerTableRecord
  2
AM_4
 70
     0
 62
     7
  6
Continuous
370
    50
390
F
347
46
348
0
  0
LAYER
  5
274
330
2
100
AcDbSymbolTableRecord
100
AcDbLayerTableRecord
  2
ConnectionPoints
 70
     0
 62
     7
  6
Continuous
370
    50
390
F
347
46
348
0
  0
ENDTAB
  0
TABLE
  2
STYLE
  5
3
330
0
100
AcDbSymbolTable
 70
     1
  0
STYLE
  5
11
330
3
100
AcDbSymbolTableRecord
100
AcDbTextStyleTableRecord
  2
Standard
 70
     0
 40
0.0
 41
1.0
 50
0.0
 71
     0
 42
0.2
  3
txt
  4

  0
ENDTAB
  0
TABLE
  2
VIEW
  5
6
330
0
100
AcDbSymbolTable
 70
     0
  0
ENDTAB
  0
TABLE
  2
UCS
  5
7
330
0
100
AcDbSymbolTable
 70
     0
  0
ENDTAB
  0
TABLE
  2
APPID
  5
9
330
0
100
AcDbSymbolTable
 70
     1
  0
APPID
  5
12
330
9
100
AcDbSymbolTableRecord
100
AcDbRegAppTableRecord
  2
ACAD
 70
     0
  0
ENDTAB
  0
TABLE
  2
DIMSTYLE
  5
A
330
0
100
AcDbSymbolTable
 70
     1
100
AcDbDimStyleTable
  0
DIMSTYLE
105
27
330
A
100
AcDbSymbolTableRecord
100
AcDbDimStyleTableRecord
  2
Standard
 70
     0
178
     0
340
11
  0
ENDTAB
  0
TABLE
  2
BLOCK_RECORD
  5
1
330
0
100
AcDbSymbolTable
 70
     5
  0
BLOCK_RECORD
  5
1F
330
1
100
AcDbSymbolTableRecord
100
AcDbBlockTableRecord
  2
*Model_Space
340
22
 70
     0
280
     1
281
     0
  0
BLOCK_RECORD
  5
1B
330
1
100
AcDbSymbolTableRecord
100
AcDbBlockTableRecord
  2
*Paper_Space
340
1E
 70
     0
280
     1
281
     0
  0
BLOCK_RECORD
  5
23
330
1
100
AcDbSymbolTableRecord
100
AcDbBlockTableRecord
  2
*Paper_Space0
340
26
 70
     0
280
     1
281
     0
  0
BLOCK_RECORD
  5
6E
330
1
100
AcDbSymbolTableRecord
100
AcDbBlockTableRecord
  2
1_129173_4
340
0
102
{BLKREFS
331
6F
102
}
 70
     0
280
     1
281
     0
  0
BLOCK_RECORD
  5
8F
330
1
100
AcDbSymbolTableRecord
100
AcDbBlockTableRecord
  2
2_129527I_0_in_129173_4
340
0
102
{BLKREFS
331
90
102
}
 70
     0
280
     1
281
     0
  0
BLOCK_RECORD
  5
D4
330
1
100
AcDbSymbolTableRecord
100
AcDbBlockTableRecord
  2
3_129923_0_in_129173_4
340
0
102
{BLKREFS
331
D5
102
}
 70
     0
280
     1
281
     0
  0
BLOCK_RECORD
  5
12F
330
1
100
AcDbSymbolTableRecord
100
AcDbBlockTableRecord
  2
4_129431I_0_in_129173_4
340
0
102
{BLKREFS
331
130
102
}
 70
     0
280
     1
281
     0
  0
ENDTAB
  0
ENDSEC
  0
SECTION
  2
BLOCKS
  0
BLOCK
  5
20
330
1F
100
AcDbEntity
  8
0
100
AcDbBlockBegin
  2
*Model_Space
 70
     0
 10
0.0
 20
0.0
 30
0.0
  3
*Model_Space
  1

  0
ENDBLK
  5
21
330
1F
100
AcDbEntity
  8
0
100
AcDbBlockEnd
  0
BLOCK
  5
1C
330
1B
100
AcDbEntity
 67
     1
  8
0
100
AcDbBlockBegin
  2
*Paper_Space
 70
     0
 10
0.0
 20
0.0
 30
0.0
  3
*Paper_Space
  1

  0
ENDBLK
  5
1D
330
1B
100
AcDbEntity
 67
     1
  8
0
100
AcDbBlockEnd
  0
BLOCK
  5
24
330
23
100
AcDbEntity
  8
0
100
AcDbBlockBegin
  2
*Paper_Space0
 70
     0
 10
0.0
 20
0.0
 30
0.0
  3
*Paper_Space0
  1

  0
ENDBLK
  5
25
330
23
100
AcDbEntity
  8
0
100
AcDbBlockEnd
  0
BLOCK
  5
70
330
6E
100
AcDbEntity
  8
0
100
AcDbBlockBegin
  2
1_129173_4
 70
     2
 10
0.0
 20
0.0
 30
0.0
  3
1_129173_4
  1

  0
ATTDEF
  5
73
330
6E
100
AcDbEntity
  8
AM_6
100
AcDbText
 10
10.875
 20
1.58125
 30
0.0
 40
0.5
  1
Grip Tight Two-Bolt Pillow Block Inch Bore
100
AcDbAttributeDefinition
  3

  2
NN
 70
     8
280
     0
  0
ATTDEF
  5
74
330
6E
100
AcDbEntity
  8
AM_6
100
AcDbText
 10
10.875
 20
1.08125
 30
0.0
 40
0.5
  1
GT Normal Duty Pillow Blocks
100
AcDbAttributeDefinition
  3

  2
NT
 70
     8
280
     0
  0
ATTDEF
  5
75
330
6E
100
AcDbEntity
  8
AM_6
100
AcDbText
 10
10.875
 20
0.58125
 30
0.0
 40
0.5
  1
129173
100
AcDbAttributeDefinition
  3

  2
NB
 70
     8
280
     0
  0
ATTDEF
  5
76
330
6E
100
AcDbEntity
  8
AM_6
100
AcDbText
 10
10.875
 20
0.08125
 30
0.0
 40
0.5
  1
$PN.$LUBE.
100
AcDbAttributeDefinition
  3

  2
NBSYN
 70
     8
280
     0
  0
ATTDEF
  5
77
330
6E
100
AcDbEntity
  8
AM_6
100
AcDbText
 10
10.875
 20
-0.41875
 30
0.0
 40
0.5
  1
129173
100
AcDbAttributeDefinition
  3

  2
LINA
 70
     8
280
     0
  0
ATTDEF
  5
78
330
6E
100
AcDbEntity
  8
AM_6
100
AcDbText
 10
10.875
 20
-0.91875
 30
0.0
 40
0.5
  1
215
100
AcDbAttributeDefinition
  3

  2
SERIES
 70
     8
280
     0
  0
ATTDEF
  5
79
330
6E
100
AcDbEntity
  8
AM_6
100
AcDbText
 10
10.875
 20
-1.41875
 30
0.0
 40
0.5
  1
2-15/16
100
AcDbAttributeDefinition
  3

  2
SS
 70
     8
280
     0
  0
ATTDEF
  5
7A
330
6E
100
AcDbEntity
  8
AM_6
100
AcDbText
 10
10.875
 20
-1.91875
 30
0.0
 40
0.5
  1
129173
100
AcDbAttributeDefinition
  3

  2
PN
 70
     8
280
     0
  0
ATTDEF
  5
7B
330
6E
100
AcDbEntity
  8
AM_6
100
AcDbText
 10
10.875
 20
-2.41875
 30
0.0
 40
0.5
  1
P2B-GT-215
100
AcDbAttributeDefinition
  3

  2
DESCRIPTION
 70
     8
280
     0
  0
ATTDEF
  5
7C
330
6E
100
AcDbEntity
  8
AM_6
100
AcDbText
 10
10.875
 20
-2.91875
 30
0.0
 40
0.5
  1
2-9/16
100
AcDbAttributeDefinition
  3

  2
A
 70
     8
280
     0
  0
ATTDEF
  5
7D
330
6E
100
AcDbEntity
  8
AM_6
100
AcDbText
 10
10.875
 20
-3.41875
 30
0.0
 40
0.5
  1
11-3/4
100
AcDbAttributeDefinition
  3

  2
B
 70
     8
280
     0
  0
ATTDEF
  5
7E
330
6E
100
AcDbEntity
  8
AM_6
100
AcDbText
 10
10.875
 20
-3.91875
 30
0.0
 40
0.5
  1
2-7/8
100
AcDbAttributeDefinition
  3

  2
C
 70
     8
280
     0
  0
ATTDEF
  5
7F
330
6E
100
AcDbEntity
  8
AM_6
100
AcDbText
 10
10.875
 20
-4.41875
 30
0.0
 40
0.5
  1
8-1/2
100
AcDbAttributeDefinition
  3

  2
DMIN
 70
     8
280
     0
  0
ATTDEF
  5
80
330
6E
100
AcDbEntity
  8
AM_6
100
AcDbText
 10
10.875
 20
-4.91875
 30
0.0
 40
0.5
  1
9-1/2
100
AcDbAttributeDefinition
  3

  2
DMAX
 70
     8
280
     0
  0
ATTDEF
  5
81
330
6E
100
AcDbEntity
  8
AM_6
100
AcDbText
 10
10.875
 20
-5.41875
 30
0.0
 40
0.5
  1
7/8
100
AcDbAttributeDefinition
  3

  2
F
 70
     8
280
     0
  0
ATTDEF
  5
82
330
6E
100
AcDbEntity
  8
AM_6
100
AcDbText
 10
10.875
 20
-5.91875
 30
0.0
 40
0.5
  1
1-7/16
100
AcDbAttributeDefinition
  3

  2
G
 70
     8
280
     0
  0
ATTDEF
  5
83
330
6E
100
AcDbEntity
  8
AM_6
100
AcDbText
 10
10.875
 20
-6.41875
 30
0.0
 40
0.5
  1
1
100
AcDbAttributeDefinition
  3

  2
H
 70
     8
280
     0
  0
ATTDEF
  5
84
330
6E
100
AcDbEntity
  8
AM_6
100
AcDbText
 10
10.875
 20
-6.91875
 30
0.0
 40
0.5
  1
6-23/32
100
AcDbAttributeDefinition
  3

  2
J
 70
     8
280
     0
  0
ATTDEF
  5
85
330
6E
100
AcDbEntity
  8
AM_6
100
AcDbText
 10
10.875
 20
-7.41875
 30
0.0
 40
0.5
  1
4-1/4
100
AcDbAttributeDefinition
  3

  2
L
 70
     8
280
     0
  0
ATTDEF
  5
86
330
6E
100
AcDbEntity
  8
AM_6
100
AcDbText
 10
10.875
 20
-7.91875
 30
0.0
 40
0.5
  1
3-1/2
100
AcDbAttributeDefinition
  3

  2
M
 70
     8
280
     0
  0
ATTDEF
  5
87
330
6E
100
AcDbEntity
  8
AM_6
100
AcDbText
 10
10.875
 20
-8.41875
 30
0.0
 40
0.5
  1
57/64
100
AcDbAttributeDefinition
  3

  2
R
 70
     8
280
     0
  0
ATTDEF
  5
88
330
6E
100
AcDbEntity
  8
AM_6
100
AcDbText
 10
10.875
 20
-8.91875
 30
0.0
 40
0.5
  1
1-43/64
100
AcDbAttributeDefinition
  3

  2
S
 70
     8
280
     0
  0
ATTDEF
  5
89
330
6E
100
AcDbEntity
  8
AM_6
100
AcDbText
 10
10.875
 20
-9.41875
 30
0.0
 40
0.5
  1
5-1/2
100
AcDbAttributeDefinition
  3

  2
U
 70
     8
280
     0
  0
ATTDEF
  5
8A
330
6E
100
AcDbEntity
  8
AM_6
100
AcDbText
 10
10.875
 20
-9.91875
 30
0.0
 40
0.5
  1
11
100
AcDbAttributeDefinition
  3

  2
V
 70
     8
280
     0
  0
ATTDEF
  5
8B
330
6E
100
AcDbEntity
  8
AM_6
100
AcDbText
 10
10.875
 20
-10.41875
 30
0.0
 40
0.5
  1
1-1/16
100
AcDbAttributeDefinition
  3

  2
W
 70
     8
280
     0
  0
ATTDEF
  5
8C
330
6E
100
AcDbEntity
  8
AM_6
100
AcDbText
 10
10.875
 20
-10.91875
 30
0.0
 40
0.5
  1
3/16
100
AcDbAttributeDefinition
  3

  2
X
 70
     8
280
     0
  0
ATTDEF
  5
8D
330
6E
100
AcDbEntity
  8
AM_6
100
AcDbText
 10
10.875
 20
-11.41875
 30
0.0
 40
0.5
  1
1-5/8
100
AcDbAttributeDefinition
  3

  2
Z
 70
     8
280
     0
  0
ATTDEF
  5
8E
330
6E
100
AcDbEntity
  8
AM_6
100
AcDbText
 10
10.875
 20
-11.91875
 30
0.0
 40
0.5
  1
baldor
100
AcDbAttributeDefinition
  3

  2
COMPANY
 70
     8
280
     0
  0
INSERT
  5
90
330
6E
100
AcDbEntity
  8
0
100
AcDbBlockReference
  2
2_129527I_0_in_129173_4
 10
0.0
 20
0.0
 30
0.0
  0
INSERT
  5
D5
330
6E
100
AcDbEntity
  8
0
100
AcDbBlockReference
  2
3_129923_0_in_129173_4
 10
0.0
 20
0.0
 30
0.0
  0
INSERT
  5
130
330
6E
100
AcDbEntity
  8
0
100
AcDbBlockReference
  2
4_129431I_0_in_129173_4
 10
0.0
 20
0.0
 30
0.0
  0
ENDBLK
  5
71
330
6E
100
AcDbEntity
  8
0
100
AcDbBlockEnd
  0
BLOCK
  5
91
330
8F
100
AcDbEntity
  8
0
100
AcDbBlockBegin
  2
2_129527I_0_in_129173_4
 70
     2
 10
0.0
 20
0.0
 30
0.0
  3
2_129527I_0_in_129173_4
  1

  0
ATTDEF
  5
93
330
8F
100
AcDbEntity
  8
AM_6
100
AcDbText
 10
7.558475058037379
 20
0.7739999999999999
 30
0.0
 40
0.5
  1
INS-GT B
100
AcDbAttributeDefinition
  3

  2
NN
 70
     8
280
     0
  0
ATTDEF
  5
94
330
8F
100
AcDbEntity
  8
AM_6
100
AcDbText
 10
7.558475058037379
 20
0.2739999999999999
 30
0.0
 40
0.5
  1
GT Normal Duty Bearing Inserts
100
AcDbAttributeDefinition
  3

  2
NT
 70
     8
280
     0
  0
ATTDEF
  5
95
330
8F
100
AcDbEntity
  8
AM_6
100
AcDbText
 10
7.558475058037379
 20
-0.2260000000000001
 30
0.0
 40
0.5
  1
129527I
100
AcDbAttributeDefinition
  3

  2
NB
 70
     8
280
     0
  0
ATTDEF
  5
96
330
8F
100
AcDbEntity
  8
AM_6
100
AcDbText
 10
7.558475058037379
 20
-0.7260000000000001
 30
0.0
 40
0.5
  1
$PN.I
100
AcDbAttributeDefinition
  3

  2
NBSYN
 70
     8
280
     0
  0
ATTDEF
  5
97
330
8F
100
AcDbEntity
  8
AM_6
100
AcDbText
 10
7.558475058037379
 20
-1.226
 30
0.0
 40
0.5
  1
129527
100
AcDbAttributeDefinition
  3

  2
LINA
 70
     8
280
     0
  0
ATTDEF
  5
98
330
8F
100
AcDbEntity
  8
AM_6
100
AcDbText
 10
7.558475058037379
 20
-1.726
 30
0.0
 40
0.5
  1
215
100
AcDbAttributeDefinition
  3

  2
SERIES
 70
     8
280
     0
  0
ATTDEF
  5
99
330
8F
100
AcDbEntity
  8
AM_6
100
AcDbText
 10
7.558475058037379
 20
-2.226
 30
0.0
 40
0.5
  1
129527
100
AcDbAttributeDefinition
  3

  2
PN
 70
     8
280
     0
  0
ATTDEF
  5
9A
330
8F
100
AcDbEntity
  8
AM_6
100
AcDbText
 10
7.558475058037379
 20
-2.726
 30
0.0
 40
0.5
  1
INS-GT-15
100
AcDbAttributeDefinition
  3

  2
DESCRIPTION
 70
     8
280
     0
  0
ATTDEF
  5
9B
330
8F
100
AcDbEntity
  8
AM_6
100
AcDbText
 10
7.558475058037379
 20
-3.226
 30
0.0
 40
0.5
  1
2.46
100
AcDbAttributeDefinition
  3

  2
A
 70
     8
280
     0
  0
ATTDEF
  5
9C
330
8F
100
AcDbEntity
  8
AM_6
100
AcDbText
 10
7.558475058037379
 20
-3.726
 30
0.0
 40
0.5
  1
1.14
100
AcDbAttributeDefinition
  3

  2
C
 70
     8
280
     0
  0
ATTDEF
  5
9D
330
8F
100
AcDbEntity
  8
AM_6
100
AcDbText
 10
7.558475058037379
 20
-4.226
 30
0.0
 40
0.5
  1
5.1181
100
AcDbAttributeDefinition
  3

  2
D
 70
     8
280
     0
  0
ATTDEF
  5
9E
330
8F
100
AcDbEntity
  8
AM_6
100
AcDbText
 10
7.558475058037379
 20
-4.726
 30
0.0
 40
0.5
  1
0.28
100
AcDbAttributeDefinition
  3

  2
J
 70
     8
280
     0
  0
ATTDEF
  5
9F
330
8F
100
AcDbEntity
  8
AM_6
100
AcDbText
 10
7.558475058037379
 20
-5.226
 30
0.0
 40
0.5
  1
4.44
100
AcDbAttributeDefinition
  3

  2
L
 70
     8
280
     0
  0
ATTDEF
  5
A0
330
8F
100
AcDbEntity
  8
AM_6
100
AcDbText
 10
7.558475058037379
 20
-5.726
 30
0.0
 40
0.5
  1
#10 - 32 x 1/4
100
AcDbAttributeDefinition
  3

  2
N
 70
     8
280
     0
  0
ATTDEF
  5
A1
330
8F
100
AcDbEntity
  8
AM_6
100
AcDbText
 10
7.558475058037379
 20
-6.226
 30
0.0
 40
0.5
  1
0.86000
100
AcDbAttributeDefinition
  3

  2
W
 70
     8
280
     0
  0
ATTDEF
  5
A2
330
8F
100
AcDbEntity
  8
AM_6
100
AcDbText
 10
7.558475058037379
 20
-6.726
 30
0.0
 40
0.5
  1
1.60
100
AcDbAttributeDefinition
  3

  2
X
 70
     8
280
     0
  0
ATTDEF
  5
A3
330
8F
100
AcDbEntity
  8
AM_6
100
AcDbText
 10
7.558475058037379
 20
-7.226
 30
0.0
 40
0.5
  1
1.60
100
AcDbAttributeDefinition
  3

  2
Y
 70
     8
280
     0
  0
ATTDEF
  5
A4
330
8F
100
AcDbEntity
  8
AM_6
100
AcDbText
 10
7.558475058037379
 20
-7.726
 30
0.0
 40
0.5
  1
baldor
100
AcDbAttributeDefinition
  3

  2
COMPANY
 70
     8
280
     0
  0
LINE
  5
A7
330
8F
100
AcDbEntity
  8
AM_9
100
AcDbLine
 10
1.656190349333333
 20
-1.199998983997968
 30
0.0
 11
1.656190349333333
 21
-0.5999989839979688
 31
0.0
  0
LINE
  5
A8
330
8F
100
AcDbEntity
  8
AM_9
100
AcDbLine
 10
-1.656190349333333
 20
-0.5999989839979688
 30
0.0
 11
-1.656190349333333
 21
-1.199998983997968
 31
0.0
  0
LINE
  5
A9
330
8F
100
AcDbEntity
  8
AM_9
100
AcDbLine
 10
-1.656190349333333
 20
-0.5999989839979688
 30
0.0
 11
1.656190349333333
 21
-0.5999989839979688
 31
0.0
  0
LINE
  5
AA
330
8F
100
AcDbEntity
  8
AM_9
100
AcDbLine
 10
1.656190349333333
 20
-0.5999989839979688
 30
0.0
 11
1.704171451135422
 21
0.7739999999999999
 31
0.0
  0
LINE
  5
AB
330
8F
100
AcDbEntity
  8
AM_9
100
AcDbLine
 10
-1.704171451135422
 20
0.7739999999999999
 30
0.0
 11
-1.656190349333333
 21
-0.5999989839979688
 31
0.0
  0
LINE
  5
AC
330
8F
100
AcDbEntity
  8
AM_9
100
AcDbLine
 10
1.814761841333333
 20
-0.9999989839979684
 30
0.0
 11
1.814761841333333
 21
-0.7999989839979683
 31
0.0
  0
LINE
  5
AD
330
8F
100
AcDbEntity
  8
AM_9
100
AcDbLine
 10
-1.814761841333333
 20
-0.7999989839979683
 30
0.0
 11
-1.814761841333333
 21
-0.9999989839979684
 31
0.0
  0
LINE
  5
AE
330
8F
100
AcDbEntity
  8
AM_9
100
AcDbLine
 10
1.927733333333334
 20
-1.199998983997968
 30
0.0
 11
1.973333333333334
 21
-1.154398983997968
 31
0.0
  0
LINE
  5
AF
330
8F
100
AcDbEntity
  8
AM_9
100
AcDbLine
 10
-1.973333333333334
 20
-1.154398983997968
 30
0.0
 11
-1.927733333333334
 21
-1.199998983997968
 31
0.0
  0
LINE
  5
B0
330
8F
100
AcDbEntity
  8
AM_9
100
AcDbLine
 10
-1.927733333333334
 20
-1.199998983997968
 30
0.0
 11
1.927733333333334
 21
-1.199998983997968
 31
0.0
  0
LINE
  5
B1
330
8F
100
AcDbEntity
  8
AM_9
100
AcDbLine
 10
-1.973333333333334
 20
-0.7999989839979683
 30
0.0
 11
1.973333333333334
 21
-0.7999989839979683
 31
0.0
  0
LINE
  5
B2
330
8F
100
AcDbEntity
  8
AM_9
100
AcDbLine
 10
1.973333333333334
 20
-0.7999989839979683
 30
0.0
 11
1.973333333333334
 21
-0.5699999999999998
 31
0.0
  0
LINE
  5
B3
330
8F
100
AcDbEntity
  8
AM_9
100
AcDbLine
 10
-1.973333333333334
 20
-0.5699999999999998
 30
0.0
 11
-1.973333333333334
 21
-0.7999989839979683
 31
0.0
  0
LINE
  5
B4
330
8F
100
AcDbEntity
  8
AM_9
100
AcDbLine
 10
-1.927733333333334
 20
0.7739999999999999
 30
0.0
 11
1.927733333333334
 21
0.7739999999999999
 31
0.0
  0
LINE
  5
B5
330
8F
100
AcDbEntity
  8
AM_9
100
AcDbLine
 10
-1.927733333333334
 20
0.7739999999999999
 30
0.0
 11
-1.973333333333334
 21
0.7283999999999999
 31
0.0
  0
LINE
  5
B6
330
8F
100
AcDbEntity
  8
AM_9
100
AcDbLine
 10
1.973333333333334
 20
0.7283999999999999
 30
0.0
 11
1.927733333333334
 21
0.7739999999999999
 31
0.0
  0
LINE
  5
B7
330
8F
100
AcDbEntity
  8
AM_9
100
AcDbLine
 10
1.973333333333334
 20
-1.154398983997968
 30
0.0
 11
1.973333333333334
 21
-0.9999989839979684
 31
0.0
  0
LINE
  5
B8
330
8F
100
AcDbEntity
  8
AM_9
100
AcDbLine
 10
-1.973333333333334
 20
-0.9999989839979684
 30
0.0
 11
-1.973333333333334
 21
-1.154398983997968
 31
0.0
  0
LINE
  5
B9
330
8F
100
AcDbEntity
  8
AM_9
100
AcDbLine
 10
-1.973333333333334
 20
-1.154398983997968
 30
0.0
 11
1.973333333333334
 21
-1.154398983997968
 31
0.0
  0
LINE
  5
BA
330
8F
100
AcDbEntity
  8
AM_9
100
AcDbLine
 10
-1.973333333333334
 20
-0.9999989839979684
 30
0.0
 11
1.973333333333334
 21
-0.9999989839979684
 31
0.0
  0
LINE
  5
BB
330
8F
100
AcDbEntity
  8
AM_9
100
AcDbLine
 10
-1.973333333333334
 20
0.7283999999999999
 30
0.0
 11
1.973333333333334
 21
0.7283999999999999
 31
0.0
  0
LINE
  5
BC
330
8F
100
AcDbEntity
  8
AM_9
100
AcDbLine
 10
1.973333333333334
 20
0.57
 30
0.0
 11
1.973333333333334
 21
0.7283999999999999
 31
0.0
  0
LINE
  5
BD
330
8F
100
AcDbEntity
  8
AM_9
100
AcDbLine
 10
-1.973333333333334
 20
0.7283999999999999
 30
0.0
 11
-1.973333333333334
 21
0.57
 31
0.0
  0
LINE
  5
BE
330
8F
100
AcDbEntity
  8
AM_9
100
AcDbLine
 10
2.44505
 20
-0.3360000000000001
 30
0.0
 11
2.44505
 21
-0.224
 31
0.0
  0
LINE
  5
BF
330
8F
100
AcDbEntity
  8
AM_9
100
AcDbLine
 10
-2.44505
 20
-0.224
 30
0.0
 11
-2.44505
 21
-0.3360000000000001
 31
0.0
  0
LINE
  5
C0
330
8F
100
AcDbEntity
  8
AM_9
100
AcDbLine
 10
-2.414304500833706
 20
0.57
 30
0.0
 11
2.414304500833706
 21
0.57
 31
0.0
  0
ARC
  5
C1
330
8F
100
AcDbEntity
  8
AM_9
100
AcDbCircle
 10
2.414304500833706
 20
0.5244000000000009
 30
0.0
 40
0.0455999999999992
100
AcDbArc
 50
21.41247997209981
 51
90.0
  0
ARC
  5
C2
330
8F
100
AcDbEntity
  8
AM_9
100
AcDbCircle
 10
-2.414304500833706
 20
0.5244000000000009
 30
0.0
 40
0.0455999999999991
100
AcDbArc
 50
90.0
 51
158.5875200279002
  0
LINE
  5
C3
330
8F
100
AcDbEntity
  8
AM_9
100
AcDbLine
 10
-2.414304501513198
 20
-0.5700000000000001
 30
0.0
 11
2.414304501513198
 21
-0.5700000000000001
 31
0.0
  0
ARC
  5
C4
330
8F
100
AcDbEntity
  8
AM_9
100
AcDbCircle
 10
2.414304500833705
 20
-0.5244000000000018
 30
0.0
 40
0.0455999999999983
100
AcDbArc
 50
270.0
 51
338.5875329531175
  0
ARC
  5
C5
330
8F
100
AcDbEntity
  8
AM_9
100
AcDbCircle
 10
-2.414304500833705
 20
-0.5244000000000018
 30
0.0
 40
0.0455999999999984
100
AcDbArc
 50
201.4124670468824
 51
270.0
  0
LINE
  5
C6
330
8F
100
AcDbEntity
  8
AM_9
100
AcDbLine
 10
-2.456757024669695
 20
-0.541047619047619
 30
0.0
 11
2.456757024669695
 21
-0.541047619047619
 31
0.0
  0
ARC
  5
C7
330
8F
100
AcDbEntity
  8
AM_9
100
AcDbCircle
 10
1.077049999999979
 20
0.0000000000000105
 30
0.0
 40
1.482000000000023
100
AcDbArc
 50
338.587532953116
 51
346.3358553527523
  0
ARC
  5
C8
330
8F
100
AcDbEntity
  8
AM_9
100
AcDbCircle
 10
-1.077049999999755
 20
0.0000000000000813
 30
0.0
 40
1.482000000000258
100
AcDbArc
 50
193.6641446472482
 51
201.4124670468835
  0
LINE
  5
C9
330
8F
100
AcDbEntity
  8
AM_9
100
AcDbLine
 10
-2.517105163897413
 20
-0.350093023255814
 30
0.0
 11
2.517105163897413
 21
-0.350093023255814
 31
0.0
  0
LINE
  5
CA
330
8F
100
AcDbEntity
  8
AM_9
100
AcDbLine
 10
-2.506027816482817
 20
-0.3360000000000001
 30
0.0
 11
2.506027816482817
 21
-0.3360000000000001
 31
0.0
  0
ARC
  5
CB
330
8F
100
AcDbEntity
  8
AM_9
100
AcDbCircle
 10
2.506027816482817
 20
-0.3474000000000004
 30
0.0
 40
0.0114000000000004
100
AcDbArc
 50
346.3358553527549
 51
90.0
  0
ARC
  5
CC
330
8F
100
AcDbEntity
  8
AM_9
100
AcDbCircle
 10
-2.506027816482817
 20
-0.3474000000000004
 30
0.0
 40
0.0114000000000003
100
AcDbArc
 50
90.0
 51
193.6641446472451
  0
LINE
  5
CD
330
8F
100
AcDbEntity
  8
AM_9
100
AcDbLine
 10
-2.532201401057636
 20
-0.224
 30
0.0
 11
2.532201401057636
 21
-0.224
 31
0.0
  0
ARC
  5
CE
330
8F
100
AcDbEntity
  8
AM_9
100
AcDbCircle
 10
2.532201401057635
 20
-0.212599999999999
 30
0.0
 40
0.0114000000000009
100
AcDbArc
 50
270.0
 51
351.6878031357814
  0
ARC
  5
CF
330
8F
100
AcDbEntity
  8
AM_9
100
AcDbCircle
 10
-2.532201401057635
 20
-0.212599999999999
 30
0.0
 40
0.0114000000000009
100
AcDbArc
 50
188.3121968642186
 51
270.0
  0
LINE
  5
D0
330
8F
100
AcDbEntity
  8
AM_9
100
AcDbLine
 10
-2.543481644476687
 20
-0.2142480620155041
 30
0.0
 11
2.543481644476687
 21
-0.2142480620155041
 31
0.0
  0
LINE
  5
D1
330
8F
100
AcDbEntity
  8
AM_9
100
AcDbLine
 10
-2.456757020914199
 20
0.5410476286243809
 30
0.0
 11
2.456757020914199
 21
0.5410476286243809
 31
0.0
  0
ARC
  5
D2
330
8F
100
AcDbEntity
  8
AM_9
100
AcDbCircle
 10
1.077049999999804
 20
-0.0000000000000235
 30
0.0
 40
1.48200000000019
100
AcDbArc
 50
351.6878031357888
 51
21.41246744458112
  0
ARC
  5
D3
330
8F
100
AcDbEntity
  8
AM_9
100
AcDbCircle
 10
-1.07705000000002
 20
0.0000000000000013
 30
0.0
 40
1.481999999999981
100
AcDbArc
 50
158.5875325554167
 51
188.3121968642134
  0
ENDBLK
  5
92
330
8F
100
AcDbEntity
  8
0
100
AcDbBlockEnd
  0
BLOCK
  5
D6
330
D4
100
AcDbEntity
  8
0
100
AcDbBlockBegin
  2
3_129923_0_in_129173_4
 70
     2
 10
0.0
 20
0.0
 30
0.0
  3
3_129923_0_in_129173_4
  1

  0
ATTDEF
  5
D8
330
D4
100
AcDbEntity
  8
AM_6
100
AcDbText
 10
7.120865094719605
 20
0.8906250000000001
 30
0.0
 40
0.5
  1
Grip Tight Normal Duty Adapter and Nut Inch Bore
100
AcDbAttributeDefinition
  3

  2
NN
 70
     8
280
     0
  0
ATTDEF
  5
D9
330
D4
100
AcDbEntity
  8
AM_6
100
AcDbText
 10
7.120865094719605
 20
0.3906250000000001
 30
0.0
 40
0.5
  1
GT and GTM Adapter & Lock Nut Assemblies
100
AcDbAttributeDefinition
  3

  2
NT
 70
     8
280
     0
  0
ATTDEF
  5
DA
330
D4
100
AcDbEntity
  8
AM_6
100
AcDbText
 10
7.120865094719605
 20
-0.1093749999999999
 30
0.0
 40
0.5
  1
129923
100
AcDbAttributeDefinition
  3

  2
NB
 70
     8
280
     0
  0
ATTDEF
  5
DB
330
D4
100
AcDbEntity
  8
AM_6
100
AcDbText
 10
7.120865094719605
 20
-0.6093749999999999
 30
0.0
 40
0.5
  1
$PN.
100
AcDbAttributeDefinition
  3

  2
NBSYN
 70
     8
280
     0
  0
ATTDEF
  5
DC
330
D4
100
AcDbEntity
  8
AM_6
100
AcDbText
 10
7.120865094719605
 20
-1.109375
 30
0.0
 40
0.5
  1
129923
100
AcDbAttributeDefinition
  3

  2
LINA
 70
     8
280
     0
  0
ATTDEF
  5
DD
330
D4
100
AcDbEntity
  8
AM_6
100
AcDbText
 10
7.120865094719605
 20
-1.609375
 30
0.0
 40
0.5
  1
215
100
AcDbAttributeDefinition
  3

  2
SERIES
 70
     8
280
     0
  0
ATTDEF
  5
DE
330
D4
100
AcDbEntity
  8
AM_6
100
AcDbText
 10
7.120865094719605
 20
-2.109375
 30
0.0
 40
0.5
  1
2-15/16
100
AcDbAttributeDefinition
  3

  2
SS
 70
     8
280
     0
  0
ATTDEF
  5
DF
330
D4
100
AcDbEntity
  8
AM_6
100
AcDbText
 10
7.120865094719605
 20
-2.609375
 30
0.0
 40
0.5
  1
129923
100
AcDbAttributeDefinition
  3

  2
PN
 70
     8
280
     0
  0
ATTDEF
  5
E0
330
D4
100
AcDbEntity
  8
AM_6
100
AcDbText
 10
7.120865094719605
 20
-3.109375
 30
0.0
 40
0.5
  1
AN-GT-15-215
100
AcDbAttributeDefinition
  3

  2
DESCRIPTION
 70
     8
280
     0
  0
ATTDEF
  5
E1
330
D4
100
AcDbEntity
  8
AM_6
100
AcDbText
 10
7.120865094719605
 20
-3.609375
 30
0.0
 40
0.5
  1
2-9/16
100
AcDbAttributeDefinition
  3

  2
A
 70
     8
280
     0
  0
ATTDEF
  5
E2
330
D4
100
AcDbEntity
  8
AM_6
100
AcDbText
 10
7.120865094719605
 20
-4.109375
 30
0.0
 40
0.5
  1
1.1420
100
AcDbAttributeDefinition
  3

  2
C
 70
     8
280
     0
  0
ATTDEF
  5
E3
330
D4
100
AcDbEntity
  8
AM_6
100
AcDbText
 10
7.120865094719605
 20
-4.609375
 30
0.0
 40
0.5
  1
5.1181
100
AcDbAttributeDefinition
  3

  2
D
 70
     8
280
     0
  0
ATTDEF
  5
E4
330
D4
100
AcDbEntity
  8
AM_6
100
AcDbText
 10
7.120865094719605
 20
-5.109375
 30
0.0
 40
0.5
  1
0.265
100
AcDbAttributeDefinition
  3

  2
J
 70
     8
280
     0
  0
ATTDEF
  5
E5
330
D4
100
AcDbEntity
  8
AM_6
100
AcDbText
 10
7.120865094719605
 20
-5.609375
 30
0.0
 40
0.5
  1
4-1/4
100
AcDbAttributeDefinition
  3

  2
L
 70
     8
280
     0
  0
ATTDEF
  5
E6
330
D4
100
AcDbEntity
  8
AM_6
100
AcDbText
 10
7.120865094719605
 20
-6.109375
 30
0.0
 40
0.5
  1
10 - 32 x 1/4
100
AcDbAttributeDefinition
  3

  2
N
 70
     8
280
     0
  0
ATTDEF
  5
E7
330
D4
100
AcDbEntity
  8
AM_6
100
AcDbText
 10
7.120865094719605
 20
-6.609375
 30
0.0
 40
0.5
  1
57/64
100
AcDbAttributeDefinition
  3

  2
W
 70
     8
280
     0
  0
ATTDEF
  5
E8
330
D4
100
AcDbEntity
  8
AM_6
100
AcDbText
 10
7.120865094719605
 20
-7.109375
 30
0.0
 40
0.5
  1
1-5/8
100
AcDbAttributeDefinition
  3

  2
X
 70
     8
280
     0
  0
ATTDEF
  5
E9
330
D4
100
AcDbEntity
  8
AM_6
100
AcDbText
 10
7.120865094719605
 20
-7.609375
 30
0.0
 40
0.5
  1
1-43/64
100
AcDbAttributeDefinition
  3

  2
Y
 70
     8
280
     0
  0
ATTDEF
  5
EA
330
D4
100
AcDbEntity
  8
AM_6
100
AcDbText
 10
7.120865094719605
 20
-8.109375
 30
0.0
 40
0.5
  1
baldor
100
AcDbAttributeDefinition
  3

  2
COMPANY
 70
     8
280
     0
  0
LINE
  5
EB
330
D4
100
AcDbEntity
  8
AM_9
100
AcDbLine
 10
-2.10245
 20
-1.517398158390483
 30
0.0
 11
-1.6163
 21
-1.517398158390483
 31
0.0
  0
LINE
  5
EC
330
D4
100
AcDbEntity
  8
AM_9
100
AcDbLine
 10
-1.6163
 20
-1.372498158390484
 30
0.0
 11
-2.10245
 21
-1.372498158390484
 31
0.0
  0
LINE
  5
ED
330
D4
100
AcDbEntity
  8
AM_9
100
AcDbLine
 10
-1.6163
 20
-1.517398158390483
 30
0.0
 11
-1.59375
 21
-1.539948158390483
 31
0.0
  0
LINE
  5
EE
330
D4
100
AcDbEntity
  8
AM_9
100
AcDbLine
 10
-1.59375
 20
-1.349948158390484
 30
0.0
 11
-1.6163
 21
-1.372498158390484
 31
0.0
  0
LINE
  5
EF
330
D4
100
AcDbEntity
  8
AM_9
100
AcDbLine
 10
-1.59375
 20
-1.349948158390484
 30
0.0
 11
-1.59375
 21
-1.539948158390483
 31
0.0
  0
LINE
  5
F0
330
D4
100
AcDbEntity
  8
AM_9
100
AcDbLine
 10
-1.6163
 20
-1.372498158390484
 30
0.0
 11
-1.6163
 21
-1.517398158390483
 31
0.0
  0
LINE
  5
F1
330
D4
100
AcDbEntity
  8
AM_9
100
AcDbLine
 10
-2.10245
 20
-1.372498158390484
 30
0.0
 11
-2.125
 21
-1.349948158390484
 31
0.0
  0
LINE
  5
F2
330
D4
100
AcDbEntity
  8
AM_9
100
AcDbLine
 10
-2.125
 20
-1.539948158390483
 30
0.0
 11
-2.10245
 21
-1.517398158390483
 31
0.0
  0
LINE
  5
F3
330
D4
100
AcDbEntity
  8
AM_9
100
AcDbLine
 10
-2.10245
 20
-1.372498158390484
 30
0.0
 11
-2.10245
 21
-1.517398158390483
 31
0.0
  0
LINE
  5
F4
330
D4
100
AcDbEntity
  8
AM_9
100
AcDbLine
 10
1.983332973499281
 20
-0.8125
 30
0.0
 11
1.983332973499281
 21
-1.625
 31
0.0
  0
LINE
  5
F5
330
D4
100
AcDbEntity
  8
AM_9
100
AcDbLine
 10
1.46875
 20
-1.671875
 30
0.0
 11
1.46875
 21
0.8906249999999998
 31
0.0
  0
LINE
  5
F6
330
D4
100
AcDbEntity
  8
AM_9
100
AcDbLine
 10
-1.46875
 20
0.8906249999999998
 30
0.0
 11
-1.46875
 21
-1.671875
 31
0.0
  0
LINE
  5
F7
330
D4
100
AcDbEntity
  8
AM_9
100
AcDbLine
 10
1.58531746031746
 20
-1.21875
 30
0.0
 11
1.58531746031746
 21
-0.6093749999999999
 31
0.0
  0
LINE
  5
F8
330
D4
100
AcDbEntity
  8
AM_9
100
AcDbLine
 10
-1.58531746031746
 20
-0.6093749999999999
 30
0.0
 11
-1.58531746031746
 21
-1.21875
 31
0.0
  0
LINE
  5
F9
330
D4
100
AcDbEntity
  8
AM_9
100
AcDbLine
 10
0.05
 20
0.8906250000000001
 30
0.0
 11
0.05
 21
-1.625
 31
0.0
  0
LINE
  5
FA
330
D4
100
AcDbEntity
  8
AM_9
100
AcDbLine
 10
-0.05
 20
0.8906250000000001
 30
0.0
 11
-0.05
 21
-1.625
 31
0.0
  0
LINE
  5
FB
330
D4
100
AcDbEntity
  8
AM_9
100
AcDbLine
 10
1.58531746031746
 20
-0.6093749999999999
 30
0.0
 11
1.637698614555082
 21
0.890625
 31
0.0
  0
LINE
  5
FC
330
D4
100
AcDbEntity
  8
AM_9
100
AcDbLine
 10
-1.637698614555082
 20
0.890625
 30
0.0
 11
-1.58531746031746
 21
-0.6093749999999999
 31
0.0
  0
LINE
  5
FD
330
D4
100
AcDbEntity
  8
AM_9
100
AcDbLine
 10
-1.58531746031746
 20
-0.6093749999999999
 30
0.0
 11
1.58531746031746
 21
-0.6093749999999999
 31
0.0
  0
LINE
  5
FE
330
D4
100
AcDbEntity
  8
AM_9
100
AcDbLine
 10
-1.637698614555082
 20
0.890625
 30
0.0
 11
1.637698614555082
 21
0.890625
 31
0.0
  0
LINE
  5
FF
330
D4
100
AcDbEntity
  8
AM_9
100
AcDbLine
 10
1.737103174603175
 20
-1.015625
 30
0.0
 11
1.737103174603175
 21
-0.8125000000000001
 31
0.0
  0
LINE
  5
100
330
D4
100
AcDbEntity
  8
AM_9
100
AcDbLine
 10
-1.737103174603175
 20
-0.8125000000000001
 30
0.0
 11
-1.737103174603175
 21
-1.015625
 31
0.0
  0
LINE
  5
101
330
D4
100
AcDbEntity
  8
AM_9
100
AcDbLine
 10
-2.125
 20
-0.8581799999999997
 30
0.0
 11
-2.125
 21
-1.10855557672671
 31
0.0
  0
LINE
  5
102
330
D4
100
AcDbEntity
  8
AM_9
100
AcDbLine
 10
-2.12489070999278
 20
-1.352537248555371
 30
0.0
 11
-2.125
 21
-1.349948158390484
 31
0.0
  0
LINE
  5
103
330
D4
100
AcDbEntity
  8
AM_9
100
AcDbLine
 10
-2.124019795609192
 20
-1.513320770642069
 30
0.0
 11
-2.123940835474688
 21
-1.510709493281116
 31
0.0
  0
LINE
  5
104
330
D4
100
AcDbEntity
  8
AM_9
100
AcDbLine
 10
-2.07932
 20
-0.8125000000000001
 30
0.0
 11
-2.125
 21
-0.8581799999999997
 31
0.0
  0
LINE
  5
105
330
D4
100
AcDbEntity
  8
AM_9
100
AcDbLine
 10
-2.125
 20
-0.8581799999999997
 30
0.0
 11
-1.175180913361242
 21
-0.8581799999999996
 31
0.0
  0
LINE
  5
106
330
D4
100
AcDbEntity
  8
AM_9
100
AcDbLine
 10
-1.152295402573758
 20
-0.8124999999999999
 30
0.0
 11
-1.175180913361242
 21
-0.8581799999999996
 31
0.0
  0
LINE
  5
107
330
D4
100
AcDbEntity
  8
AM_9
100
AcDbLine
 10
-1.175180913361242
 20
-0.8581799999999996
 30
0.0
 11
-1.175180913361242
 21
-1.03755436568673
 31
0.0
  0
LINE
  5
108
330
D4
100
AcDbEntity
  8
AM_9
100
AcDbLine
 10
-0.8769181207482027
 20
-0.8124999999999999
 30
0.0
 11
-0.8769181207482027
 21
-1.625
 31
0.0
  0
LINE
  5
109
330
D4
100
AcDbEntity
  8
AM_9
100
AcDbLine
 10
-1.106414852751079
 20
-0.8124999999999999
 30
0.0
 11
-1.106414852751079
 21
-1.034684499673233
 31
0.0
  0
LINE
  5
10A
330
D4
100
AcDbEntity
  8
AM_9
100
AcDbLine
 10
-1.888888888888889
 20
-1.015625
 30
0.0
 11
1.888888888888889
 21
-1.015625
 31
0.0
  0
LINE
  5
10B
330
D4
100
AcDbEntity
  8
AM_9
100
AcDbLine
 10
-1.888888888888889
 20
-1.21875
 30
0.0
 11
1.888888888888889
 21
-1.21875
 31
0.0
  0
LINE
  5
10C
330
D4
100
AcDbEntity
  8
AM_9
100
AcDbLine
 10
1.888888888888889
 20
-1.21875
 30
0.0
 11
1.888888888888889
 21
-1.015625
 31
0.0
  0
LINE
  5
10D
330
D4
100
AcDbEntity
  8
AM_9
100
AcDbLine
 10
-1.888888888888889
 20
-1.015625
 30
0.0
 11
-1.888888888888889
 21
-1.21875
 31
0.0
  0
LINE
  5
10E
330
D4
100
AcDbEntity
  8
AM_9
100
AcDbLine
 10
2.120865094719605
 20
-0.8581799999999997
 30
0.0
 11
2.120865094719605
 21
-1.108040854471979
 31
0.0
  0
LINE
  5
10F
330
D4
100
AcDbEntity
  8
AM_9
100
AcDbLine
 10
-0.9456841813583651
 20
-1.028786075167741
 30
0.0
 11
-0.9456841813583651
 21
-0.8581799999999996
 31
0.0
  0
LINE
  5
110
330
D4
100
AcDbEntity
  8
AM_9
100
AcDbLine
 10
2.075094073144637
 20
-0.8125000000000001
 30
0.0
 11
2.120865094719605
 21
-0.8581799999999997
 31
0.0
  0
LINE
  5
111
330
D4
100
AcDbEntity
  8
AM_9
100
AcDbLine
 10
-2.07932
 20
-0.8125000000000001
 30
0.0
 11
2.075094073144637
 21
-0.8125000000000001
 31
0.0
  0
LINE
  5
112
330
D4
100
AcDbEntity
  8
AM_9
100
AcDbLine
 10
-0.9456841813583651
 20
-0.8581799999999996
 30
0.0
 11
-0.922798670570881
 21
-0.8124999999999999
 31
0.0
  0
LINE
  5
113
330
D4
100
AcDbEntity
  8
AM_9
100
AcDbLine
 10
-0.9456841813583651
 20
-0.8581799999999996
 30
0.0
 11
2.120865094719605
 21
-0.8581799999999997
 31
0.0
  0
LINE
  5
115
330
D4
100
AcDbEntity
  8
AM_5
100
AcDbLine
 10
-2.125
 20
-1.539948158390483
 30
0.0
 11
-1.59375
 21
-1.539948158390483
 31
0.0
  0
LINE
  5
116
330
D4
100
AcDbEntity
  8
AM_5
100
AcDbLine
 10
-2.125
 20
-1.349948158390484
 30
0.0
 11
-1.59375
 21
-1.349948158390484
 31
0.0
  0
LINE
  5
119
330
D4
100
AcDbEntity
  8
AM_7
100
AcDbLine
 10
-1.5671875
 20
-1.444948158390484
 30
0.0
 11
-2.1515625
 21
-1.444948158390484
 31
0.0
  0
LINE
  5
11B
330
D4
100
AcDbEntity
  8
AM_4
100
AcDbLine
 10
0.05
 20
-1.671875
 30
0.0
 11
0.05
 21
-1.625
 31
0.0
  0
LINE
  5
11C
330
D4
100
AcDbEntity
  8
AM_4
100
AcDbLine
 10
-0.05
 20
-1.671875
 30
0.0
 11
-0.05
 21
-1.625
 31
0.0
  0
LINE
  5
11D
330
D4
100
AcDbEntity
  8
AM_4
100
AcDbLine
 10
1.58531746031746
 20
-1.671875
 30
0.0
 11
1.58531746031746
 21
-1.625
 31
0.0
  0
LINE
  5
11E
330
D4
100
AcDbEntity
  8
AM_4
100
AcDbLine
 10
-1.58531746031746
 20
-1.625
 30
0.0
 11
-1.58531746031746
 21
-1.671875
 31
0.0
  0
LINE
  5
11F
330
D4
100
AcDbEntity
  8
AM_4
100
AcDbLine
 10
-1.58531746031746
 20
-1.671875
 30
0.0
 11
1.58531746031746
 21
-1.671875
 31
0.0
  0
LINE
  5
120
330
D4
100
AcDbEntity
  8
AM_4
100
AcDbLine
 10
-2.125
 20
-1.57932
 30
0.0
 11
-2.07932
 21
-1.625
 31
0.0
  0
LINE
  5
121
330
D4
100
AcDbEntity
  8
AM_4
100
AcDbLine
 10
-2.123959347345033
 20
-1.511330898073669
 30
0.0
 11
-2.125
 21
-1.539948158390483
 31
0.0
  0
LINE
  5
122
330
D4
100
AcDbEntity
  8
AM_4
100
AcDbLine
 10
-2.125
 20
-1.10855557672671
 30
0.0
 11
-2.125
 21
-1.349948158390484
 31
0.0
  0
LINE
  5
123
330
D4
100
AcDbEntity
  8
AM_4
100
AcDbLine
 10
-2.125
 20
-1.539948158390484
 30
0.0
 11
-2.125
 21
-1.57932
 31
0.0
  0
LINE
  5
124
330
D4
100
AcDbEntity
  8
AM_4
100
AcDbLine
 10
-2.125
 20
-1.57932
 30
0.0
 11
-1.175180913361242
 21
-1.57932
 31
0.0
  0
LWPOLYLINE
  5
125
330
D4
100
AcDbEntity
  8
AM_4
100
AcDbPolyline
 90
       15
 70
     0
 43
0.0
 10
-2.125
 20
-1.349948158390484
 10
-2.124990781474192
 20
-1.350163824688261
 10
-2.124894297041747
 20
-1.352451124861885
 10
-2.124695871259881
 20
-1.35734191784535
 10
-2.124427119677649
 20
-1.364436868793983
 10
-2.124103752054505
 20
-1.373904047848077
 10
-2.123772076173517
 20
-1.385148210194333
 10
-2.123455834202709
 20
-1.39832549484532
 10
-2.123200523424547
 20
-1.412671227977578
 10
-2.123027938267925
 20
-1.428310130726837
 10
-2.122965592688326
 20
-1.444234602233577
 10
-2.123020977037826
 20
-1.460631624579972
 10
-2.123186386865366
 20
-1.476239308376228
 10
-2.123452094422646
 20
-1.491392654941782
 10
-2.123959347345033
 20
-1.511330898073669
  0
LINE
  5
126
330
D4
100
AcDbEntity
  8
AM_4
100
AcDbLine
 10
-1.175180913361242
 20
-1.03755436568673
 30
0.0
 11
-1.175180913361242
 21
-1.57932
 31
0.0
  0
LINE
  5
127
330
D4
100
AcDbEntity
  8
AM_4
100
AcDbLine
 10
-1.175180913361242
 20
-1.57932
 30
0.0
 11
-1.152295402573758
 21
-1.625
 31
0.0
  0
LINE
  5
128
330
D4
100
AcDbEntity
  8
AM_4
100
AcDbLine
 10
-1.106414852751079
 20
-1.034684499673233
 30
0.0
 11
-1.106414852751079
 21
-1.625
 31
0.0
  0
LINE
  5
129
330
D4
100
AcDbEntity
  8
AM_4
100
AcDbLine
 10
2.120865094719605
 20
-1.57932
 30
0.0
 11
2.075094073144637
 21
-1.625
 31
0.0
  0
LINE
  5
12A
330
D4
100
AcDbEntity
  8
AM_4
100
AcDbLine
 10
-0.922798670570881
 20
-1.625
 30
0.0
 11
-0.9456841813583653
 21
-1.57932
 31
0.0
  0
LINE
  5
12B
330
D4
100
AcDbEntity
  8
AM_4
100
AcDbLine
 10
-2.07932
 20
-1.625
 30
0.0
 11
2.075094073144637
 21
-1.625
 31
0.0
  0
LINE
  5
12C
330
D4
100
AcDbEntity
  8
AM_4
100
AcDbLine
 10
2.120865094719605
 20
-1.108040854471979
 30
0.0
 11
2.120865094719605
 21
-1.57932
 31
0.0
  0
LINE
  5
12D
330
D4
100
AcDbEntity
  8
AM_4
100
AcDbLine
 10
-0.9456841813583653
 20
-1.57932
 30
0.0
 11
-0.9456841813583651
 21
-1.028786075167741
 31
0.0
  0
LINE
  5
12E
330
D4
100
AcDbEntity
  8
AM_4
100
AcDbLine
 10
-0.9456841813583653
 20
-1.57932
 30
0.0
 11
2.120865094719605
 21
-1.57932
 31
0.0
  0
ENDBLK
  5
D7
330
D4
100
AcDbEntity
  8
0
100
AcDbBlockEnd
  0
BLOCK
  5
131
330
12F
100
AcDbEntity
  8
0
100
AcDbBlockBegin
  2
4_129431I_0_in_129173_4
 70
     2
 10
0.0
 20
0.0
 30
0.0
  3
4_129431I_0_in_129173_4
  1

  0
ATTDEF
  5
133
330
12F
100
AcDbEntity
  8
AM_6
100
AcDbText
 10
10.875
 20
1.58125
 30
0.0
 40
0.5
  1
GT-I
100
AcDbAttributeDefinition
  3

  2
NN
 70
     8
280
     0
  0
ATTDEF
  5
134
330
12F
100
AcDbEntity
  8
AM_6
100
AcDbText
 10
10.875
 20
1.08125
 30
0.0
 40
0.5
  1
GT Normal and Medium Duty Pillow Blocks
100
AcDbAttributeDefinition
  3

  2
NT
 70
     8
280
     0
  0
ATTDEF
  5
135
330
12F
100
AcDbEntity
  8
AM_6
100
AcDbText
 10
10.875
 20
0.58125
 30
0.0
 40
0.5
  1
129431I
100
AcDbAttributeDefinition
  3

  2
NB
 70
     8
280
     0
  0
ATTDEF
  5
136
330
12F
100
AcDbEntity
  8
AM_6
100
AcDbText
 10
10.875
 20
0.08125
 30
0.0
 40
0.5
  1
$PN.$LUBE.I
100
AcDbAttributeDefinition
  3

  2
NBSYN
 70
     8
280
     0
  0
ATTDEF
  5
137
330
12F
100
AcDbEntity
  8
AM_6
100
AcDbText
 10
10.875
 20
-0.41875
 30
0.0
 40
0.5
  1
129431
100
AcDbAttributeDefinition
  3

  2
LINA
 70
     8
280
     0
  0
ATTDEF
  5
138
330
12F
100
AcDbEntity
  8
AM_6
100
AcDbText
 10
10.875
 20
-0.91875
 30
0.0
 40
0.5
  1
215
100
AcDbAttributeDefinition
  3

  2
SERIES
 70
     8
280
     0
  0
ATTDEF
  5
139
330
12F
100
AcDbEntity
  8
AM_6
100
AcDbText
 10
10.875
 20
-1.41875
 30
0.0
 40
0.5
  1
129431
100
AcDbAttributeDefinition
  3

  2
PN
 70
     8
280
     0
  0
ATTDEF
  5
13A
330
12F
100
AcDbEntity
  8
AM_6
100
AcDbText
 10
10.875
 20
-1.91875
 30
0.0
 40
0.5
  1
P2B-GT-15
100
AcDbAttributeDefinition
  3

  2
DESCRIPTION
 70
     8
280
     0
  0
ATTDEF
  5
13B
330
12F
100
AcDbEntity
  8
AM_6
100
AcDbText
 10
10.875
 20
-2.41875
 30
0.0
 40
0.5
  1
2-9/16
100
AcDbAttributeDefinition
  3

  2
A
 70
     8
280
     0
  0
ATTDEF
  5
13C
330
12F
100
AcDbEntity
  8
AM_6
100
AcDbText
 10
10.875
 20
-2.91875
 30
0.0
 40
0.5
  1
11-3/4
100
AcDbAttributeDefinition
  3

  2
B
 70
     8
280
     0
  0
ATTDEF
  5
13D
330
12F
100
AcDbEntity
  8
AM_6
100
AcDbText
 10
10.875
 20
-3.41875
 30
0.0
 40
0.5
  1
2-7/8
100
AcDbAttributeDefinition
  3

  2
C
 70
     8
280
     0
  0
ATTDEF
  5
13E
330
12F
100
AcDbEntity
  8
AM_6
100
AcDbText
 10
10.875
 20
-3.91875
 30
0.0
 40
0.5
  1
8-1/2
100
AcDbAttributeDefinition
  3

  2
DMIN
 70
     8
280
     0
  0
ATTDEF
  5
13F
330
12F
100
AcDbEntity
  8
AM_6
100
AcDbText
 10
10.875
 20
-4.41875
 30
0.0
 40
0.5
  1
9-1/2
100
AcDbAttributeDefinition
  3

  2
DMAX
 70
     8
280
     0
  0
ATTDEF
  5
140
330
12F
100
AcDbEntity
  8
AM_6
100
AcDbText
 10
10.875
 20
-4.91875
 30
0.0
 40
0.5
  1
7/8
100
AcDbAttributeDefinition
  3

  2
F
 70
     8
280
     0
  0
ATTDEF
  5
141
330
12F
100
AcDbEntity
  8
AM_6
100
AcDbText
 10
10.875
 20
-5.41875
 30
0.0
 40
0.5
  1
1-7/16
100
AcDbAttributeDefinition
  3

  2
G
 70
     8
280
     0
  0
ATTDEF
  5
142
330
12F
100
AcDbEntity
  8
AM_6
100
AcDbText
 10
10.875
 20
-5.91875
 30
0.0
 40
0.5
  1
1
100
AcDbAttributeDefinition
  3

  2
H
 70
     8
280
     0
  0
ATTDEF
  5
143
330
12F
100
AcDbEntity
  8
AM_6
100
AcDbText
 10
10.875
 20
-6.41875
 30
0.0
 40
0.5
  1
6-23/32
100
AcDbAttributeDefinition
  3

  2
J
 70
     8
280
     0
  0
ATTDEF
  5
144
330
12F
100
AcDbEntity
  8
AM_6
100
AcDbText
 10
10.875
 20
-6.91875
 30
0.0
 40
0.5
  1
4-1/4
100
AcDbAttributeDefinition
  3

  2
L
 70
     8
280
     0
  0
ATTDEF
  5
145
330
12F
100
AcDbEntity
  8
AM_6
100
AcDbText
 10
10.875
 20
-7.41875
 30
0.0
 40
0.5
  1
3-1/2
100
AcDbAttributeDefinition
  3

  2
M
 70
     8
280
     0
  0
ATTDEF
  5
146
330
12F
100
AcDbEntity
  8
AM_6
100
AcDbText
 10
10.875
 20
-7.91875
 30
0.0
 40
0.5
  1
57/64
100
AcDbAttributeDefinition
  3

  2
R
 70
     8
280
     0
  0
ATTDEF
  5
147
330
12F
100
AcDbEntity
  8
AM_6
100
AcDbText
 10
10.875
 20
-8.41875
 30
0.0
 40
0.5
  1
1-43/64
100
AcDbAttributeDefinition
  3

  2
S
 70
     8
280
     0
  0
ATTDEF
  5
148
330
12F
100
AcDbEntity
  8
AM_6
100
AcDbText
 10
10.875
 20
-8.91875
 30
0.0
 40
0.5
  1
5-1/2
100
AcDbAttributeDefinition
  3

  2
U
 70
     8
280
     0
  0
ATTDEF
  5
149
330
12F
100
AcDbEntity
  8
AM_6
100
AcDbText
 10
10.875
 20
-9.41875
 30
0.0
 40
0.5
  1
11
100
AcDbAttributeDefinition
  3

  2
V
 70
     8
280
     0
  0
ATTDEF
  5
14A
330
12F
100
AcDbEntity
  8
AM_6
100
AcDbText
 10
10.875
 20
-9.91875
 30
0.0
 40
0.5
  1
1-1/16
100
AcDbAttributeDefinition
  3

  2
W
 70
     8
280
     0
  0
ATTDEF
  5
14B
330
12F
100
AcDbEntity
  8
AM_6
100
AcDbText
 10
10.875
 20
-10.41875
 30
0.0
 40
0.5
  1
3/16
100
AcDbAttributeDefinition
  3

  2
X
 70
     8
280
     0
  0
ATTDEF
  5
14C
330
12F
100
AcDbEntity
  8
AM_6
100
AcDbText
 10
10.875
 20
-10.91875
 30
0.0
 40
0.5
  1
1-5/8
100
AcDbAttributeDefinition
  3

  2
Z
 70
     8
280
     0
  0
ATTDEF
  5
14D
330
12F
100
AcDbEntity
  8
AM_6
100
AcDbText
 10
10.875
 20
-11.41875
 30
0.0
 40
0.5
  1
baldor
100
AcDbAttributeDefinition
  3

  2
COMPANY
 70
     8
280
     0
  0
LINE
  5
14E
330
12F
100
AcDbEntity
  8
AM_9
100
AcDbLine
 10
2.302694900000001
 20
-1.2266667625
 30
0.0
 11
2.302694900000001
 21
1.2266667625
 31
0.0
  0
LINE
  5
14F
330
12F
100
AcDbEntity
  8
AM_9
100
AcDbLine
 10
2.36175
 20
-1.4375
 30
0.0
 11
2.36175
 21
1.4375
 31
0.0
  0
LINE
  5
150
330
12F
100
AcDbEntity
  8
AM_9
100
AcDbLine
 10
-2.3026949
 20
-1.226666762500001
 30
0.0
 11
-2.3026949
 21
1.2266667625
 31
0.0
  0
LINE
  5
151
330
12F
100
AcDbEntity
  8
AM_9
100
AcDbLine
 10
-2.36175
 20
-1.4375
 30
0.0
 11
-2.36175
 21
1.4375
 31
0.0
  0
LWPOLYLINE
  5
152
330
12F
100
AcDbEntity
  8
AM_9
100
AcDbPolyline
 90
        5
 70
     0
 43
0.0
 10
2.405890905002359
 20
-0.0909214090671167
 10
2.40252707634598
 20
-0.0460980447457687
 10
2.401275468497338
 20
-0.0008744807129144
 10
2.402470371682479
 20
0.0450211226067941
 10
2.405890905002359
 20
0.090921409067117
  0
LINE
  5
153
330
12F
100
AcDbEntity
  8
AM_9
100
AcDbLine
 10
2.405890905002359
 20
0.090921409067117
 30
0.0
 11
2.494095408501713
 21
0.090921409067117
 31
0.0
  0
LINE
  5
154
330
12F
100
AcDbEntity
  8
AM_9
100
AcDbLine
 10
2.405890905002359
 20
-0.0909214090671167
 30
0.0
 11
2.494095408501713
 21
-0.0909214090671167
 31
0.0
  0
LINE
  5
155
330
12F
100
AcDbEntity
  8
AM_9
100
AcDbLine
 10
2.289919384287197
 20
0.1102359999999999
 30
0.0
 11
2.275991443871173
 21
0.1102359999999999
 31
0.0
  0
LINE
  5
156
330
12F
100
AcDbEntity
  8
AM_9
100
AcDbLine
 10
2.275997854100378
 20
-0.1102359999999997
 30
0.0
 11
2.289919384287197
 21
-0.1102359999999997
 31
0.0
  0
LWPOLYLINE
  5
157
330
12F
100
AcDbEntity
  8
AM_9
100
AcDbPolyline
 90
       20
 70
     0
 43
0.0
 10
2.276007494977203
 20
0.110235999483857
 10
2.266978593694779
 20
0.1094981638170555
 10
2.254029277835536
 20
0.1057986727468931
 10
2.241633650104037
 20
0.0991206290685206
 10
2.230163074633942
 20
0.0896108541731391
 10
2.219947060259178
 20
0.077577675399457
 10
2.211309263492573
 20
0.0633211457595365
 10
2.20449499116779
 20
0.0472790512053597
 10
2.199741861943469
 20
0.0298841650792988
 10
2.197167260115844
 20
0.0116459391476238
 10
2.196883370464046
 20
-0.0069162004926629
 10
2.198864308519879
 20
-0.0252833075551082
 10
2.203079382911129
 20
-0.0429234140544445
 10
2.209366922951318
 20
-0.0593543316898631
 10
2.217564987749469
 20
-0.0740958720125894
 10
2.227395747075527
 20
-0.0867498175888183
 10
2.23858750290071
 20
-0.0969293071736139
 10
2.250785566504444
 20
-0.1043759553070328
 10
2.263637920243204
 20
-0.1088372977596724
 10
2.27600456005119
 20
-0.1102359998073712
  0
LWPOLYLINE
  5
158
330
12F
100
AcDbEntity
  8
AM_9
100
AcDbPolyline
 90
       10
 70
     0
 43
0.0
 10
2.286344470126142
 20
-0.1092564839941042
 10
2.289792589963492
 20
-0.1084744342100791
 10
2.302358091532985
 20
-0.1036636078693302
 10
2.314107350448948
 20
-0.0958929639998163
 10
2.324735976812962
 20
-0.0854226870283619
 10
2.333946722828703
 20
-0.0725065725275797
 10
2.341513061249367
 20
-0.0575468211793821
 10
2.347215205098885
 20
-0.040937729376311
 10
2.350930631315791
 20
-0.023173450971794
 10
2.352613388190118
 20
0.0000000000000001
  0
LWPOLYLINE
  5
159
330
12F
100
AcDbEntity
  8
AM_9
100
AcDbPolyline
 90
        3
 70
     0
 43
0.0
 10
2.27600456005119
 20
-0.1102359998073712
 10
2.276767669372352
 20
-0.1102306514455891
 10
2.286344470126142
 20
-0.1092564839941042
  0
LWPOLYLINE
  5
15A
330
12F
100
AcDbEntity
  8
AM_9
100
AcDbPolyline
 90
        5
 70
     0
 43
0.0
 10
2.294535375547711
 20
-0.1818428181342336
 10
2.318620139676875
 20
-0.1594311359735597
 10
2.345062195885878
 20
-0.1368193539571326
 10
2.374362301463636
 20
-0.1138715522972781
 10
2.405890905002359
 20
-0.0909214090671167
  0
LWPOLYLINE
  5
15B
330
12F
100
AcDbEntity
  8
AM_9
100
AcDbPolyline
 90
        5
 70
     0
 43
0.0
 10
2.405890905002359
 20
0.090921409067117
 10
2.375078483560436
 20
0.1133330912277909
 10
2.346133211654151
 20
0.135944873244218
 10
2.319222912446673
 20
0.1588926749040726
 10
2.294535375547711
 20
0.1818428181342338
  0
ELLIPSE
  5
15C
330
12F
100
AcDbEntity
  8
AM_9
100
AcDbEllipse
 10
2.289919384287197
 20
0.0000000000000001
 30
0.0
 11
-2.892860668945868E-17
 21
-0.1574799999999995
 31
0.0
210
0.0
220
0.0
230
1.0
 40
0.7071067811865479
 41
0.0
 42
6.283185307179586
  0
ELLIPSE
  5
15D
330
12F
100
AcDbEntity
  8
AM_9
100
AcDbEllipse
 10
2.387355870307579
 20
0.0000000000000007
 30
0.0
 11
6.750008227540351E-18
 21
0.1102359999999995
 31
0.0
210
0.0
220
0.0
230
1.0
 40
0.7071067811865475
 41
3.141592653589793
 42
6.283185307179586
  0
ELLIPSE
  5
15E
330
12F
100
AcDbEntity
  8
AM_9
100
AcDbEllipse
 10
2.401275267295239
 20
-0.0000000000000013
 30
0.0
 11
6.750008227540549E-18
 21
0.1102360000000027
 31
0.0
210
0.0
220
0.0
230
1.0
 40
0.7071067811865148
 41
5.244885429684605
 42
5.690809362188085
  0
LINE
  5
15F
330
12F
100
AcDbEntity
  8
AM_9
100
AcDbLine
 10
2.494095408501713
 20
-0.0909214090671167
 30
0.0
 11
2.478758005423318
 21
-0.1053945343456812
 31
0.0
  0
LWPOLYLINE
  5
160
330
12F
100
AcDbEntity
  8
AM_9
100
AcDbPolyline
 90
        3
 70
     0
 43
0.0
 10
2.498421612913388
 20
-0.0219978170472341
 10
2.497515941821594
 20
-0.0450211226067939
 10
2.494095408501713
 20
-0.0909214090671167
  0
LWPOLYLINE
  5
161
330
12F
100
AcDbEntity
  8
AM_9
100
AcDbPolyline
 90
        3
 70
     0
 43
0.0
 10
2.494095408501713
 20
0.090921409067117
 10
2.497459237158092
 20
0.0460980447457689
 10
2.498449372371998
 20
0.0209124793586265
  0
LINE
  5
162
330
12F
100
AcDbEntity
  8
AM_9
100
AcDbLine
 10
2.47874169493523
 20
0.1054095531349322
 30
0.0
 11
2.494095408501713
 21
0.090921409067117
 31
0.0
  0
ELLIPSE
  5
163
330
12F
100
AcDbEntity
  8
AM_9
100
AcDbEllipse
 10
2.387355870307577
 20
-0.0000000000000005
 30
0.0
 11
9.642868896486385E-18
 21
0.1574800000000021
 31
0.0
210
0.0
220
0.0
230
1.0
 40
0.7071067811865477
 41
3.987826860032428
 42
5.434986031144646
  0
ELLIPSE
  5
164
330
12F
100
AcDbEntity
  8
AM_9
100
AcDbEllipse
 10
2.401275267295541
 20
-0.0000000000000322
 30
0.0
 11
6.750008227513991E-18
 21
0.110235999999569
 31
0.0
210
0.0
220
0.0
230
1.0
 40
0.7071067811865495
 41
4.421464503940099
 42
4.71238898038469
  0
ELLIPSE
  5
165
330
12F
100
AcDbEntity
  8
AM_9
100
AcDbEllipse
 10
2.401275267295242
 20
-0.0000000000000022
 30
0.0
 11
6.750008227540243E-18
 21
0.1102359999999977
 31
0.0
210
0.0
220
0.0
230
1.0
 40
0.7071067811865106
 41
3.735672614907728
 42
4.15584010368277
  0
LWPOLYLINE
  5
166
330
12F
100
AcDbEntity
  8
AM_9
100
AcDbPolyline
 90
        4
 70
     0
 43
0.0
 10
2.433825953166681
 20
-0.0796904017601086
 10
2.431853544120953
 20
-0.0777155717327954
 10
2.427046753951097
 20
-0.0718814925507579
 10
2.423717353487008
 20
-0.0668940346932412
  0
LWPOLYLINE
  5
167
330
12F
100
AcDbEntity
  8
AM_9
100
AcDbPolyline
 90
        4
 70
     0
 43
0.0
 10
2.440495211047447
 20
-0.0845561978295241
 10
2.439494066288587
 20
-0.0840233410247397
 10
2.43627940545748
 20
-0.0818177207891599
 10
2.433825953166681
 20
-0.0796904017601086
  0
LWPOLYLINE
  5
168
330
12F
100
AcDbEntity
  8
AM_9
100
AcDbPolyline
 90
       16
 70
     0
 43
0.0
 10
2.479124968348352
 20
-0.0053871507677482
 10
2.479075935920093
 20
-0.0066474476830892
 10
2.477883545968996
 20
-0.020230367470872
 10
2.475544069808473
 20
-0.0332323540650017
 10
2.472200778860094
 20
-0.0452580660584519
 10
2.468066579880572
 20
-0.0559711881037994
 10
2.463417266206936
 20
-0.0651041738744479
 10
2.458578630817178
 20
-0.0724810292272985
 10
2.453913392504923
 20
-0.0780310011260404
 10
2.449793374802811
 20
-0.0818129653260944
 10
2.446537881703789
 20
-0.0840432453590819
 10
2.444365527239068
 20
-0.085073594741235
 10
2.443298071824147
 20
-0.0853636421456711
 10
2.442847755666893
 20
-0.0853738951727979
 10
2.441700479233285
 20
-0.0850733173450657
 10
2.440495211047447
 20
-0.0845561978295241
  0
LWPOLYLINE
  5
169
330
12F
100
AcDbEntity
  8
AM_9
100
AcDbPolyline
 90
       17
 70
     0
 43
0.0
 10
2.438375380314514
 20
0.083335937224093
 10
2.439809620772325
 20
0.084200204783651
 10
2.441862482055242
 20
0.0851300366408804
 10
2.442827479056371
 20
0.085371519060844
 10
2.443298763648726
 20
0.0853635412498503
 10
2.444544674193234
 20
0.0850069109262062
 10
2.44686912638864
 20
0.0838501701226698
 10
2.450175738462876
 20
0.0815055482029588
 10
2.454649947536193
 20
0.0772462951895448
 10
2.45947484384909
 20
0.0712493134887855
 10
2.464322982413325
 20
0.0635050317325477
 10
2.468884875529445
 20
0.054088168957755
 10
2.472865036831673
 20
0.0431908445539361
 10
2.476021218908491
 20
0.0310629634964613
 10
2.478162319456938
 20
0.0180156347196559
 10
2.479155847738507
 20
0.0044117160504121
 10
2.47921867913768
 20
0.0000000000000001
  0
LWPOLYLINE
  5
16A
330
12F
100
AcDbEntity
  8
AM_9
100
AcDbPolyline
 90
        3
 70
     0
 43
0.0
 10
2.432731083197095
 20
0.0786233037140755
 10
2.436659671844712
 20
0.0821142419165616
 10
2.438375380314514
 20
0.083335937224093
  0
LWPOLYLINE
  5
16B
330
12F
100
AcDbEntity
  8
AM_9
100
AcDbPolyline
 90
        4
 70
     0
 43
0.0
 10
2.424071320714242
 20
0.0674657166892617
 10
2.427991613117007
 20
0.0731484157054863
 10
2.43261644590584
 20
0.0785073807851809
 10
2.432731083197095
 20
0.0786233037140755
  0
LINE
  5
16C
330
12F
100
AcDbEntity
  8
AM_9
100
AcDbLine
 10
2.120865094719606
 20
-1.2266667625
 30
0.0
 11
-2.125
 21
-1.226666762500001
 31
0.0
  0
LINE
  5
16D
330
12F
100
AcDbEntity
  8
AM_9
100
AcDbLine
 10
2.55905
 20
-1.22802781420765
 30
0.0
 11
2.55905
 21
1.228027814207651
 31
0.0
  0
LINE
  5
16E
330
12F
100
AcDbEntity
  8
AM_9
100
AcDbLine
 10
-2.55905
 20
1.228027814207651
 30
0.0
 11
-2.55905
 21
-1.22802781420765
 31
0.0
  0
ELLIPSE
  5
16F
330
12F
100
AcDbEntity
  8
AM_9
100
AcDbEllipse
 10
2.478357466293222
 20
0.0000000000000007
 30
0.0
 11
6.258279968144616E-18
 21
0.1022054680990776
 31
0.0
210
0.0
220
0.0
230
1.0
 40
0.7071067811865456
 41
2.526067757874745
 42
6.908907969004217
  0
LINE
  5
170
330
12F
100
AcDbEntity
  8
AM_9
100
AcDbLine
 10
2.533094584019741
 20
-0.0873613837273245
 30
0.0
 11
2.534175261600581
 21
-0.0863617159420869
 31
0.0
  0
ELLIPSE
  5
171
330
12F
100
AcDbEntity
  8
AM_9
100
AcDbEllipse
 10
2.493246629187109
 20
0.0000000000000711
 30
0.0
 11
6.365617546293525E-18
 21
0.1039584237794198
 31
0.0
210
0.0
220
0.0
230
1.0
 40
0.7071067811825529
 41
3.694304707710344
 42
4.71238898038469
  0
ELLIPSE
  5
172
330
12F
100
AcDbEntity
  8
AM_9
100
AcDbEllipse
 10
2.537489543776374
 20
-0.0000000000000001
 30
0.0
 11
4.354225479598951E-18
 21
0.07110989850511237
 31
0.0
210
0.0
220
0.0
230
1.0
 40
0.7071067811865727
 41
4.010968463888009
 42
4.71238898038469
  0
LWPOLYLINE
  5
173
330
12F
100
AcDbEntity
  8
AM_9
100
AcDbPolyline
 90
        3
 70
     0
 43
0.0
 10
2.28630868205836
 20
0.1092632953561039
 10
2.280116669492514
 20
0.1100706986559336
 10
2.276007494977203
 20
0.110235999483857
  0
LWPOLYLINE
  5
174
330
12F
100
AcDbEntity
  8
AM_9
100
AcDbPolyline
 90
       10
 70
     0
 43
0.0
 10
2.352613388190118
 20
0.0000000000000001
 10
2.351538133029627
 20
0.0184991073947241
 10
2.348368566836646
 20
0.0364766099596559
 10
2.343157771286783
 20
0.0534110566987277
 10
2.336066365103877
 20
0.0688406096528932
 10
2.327249682838203
 20
0.0823084723139591
 10
2.316963349445704
 20
0.0934568099861997
 10
2.305458777408949
 20
0.1019362245439066
 10
2.293064750042139
 20
0.1075414005172428
 10
2.28630868205836
 20
0.1092632953561039
  0
ELLIPSE
  5
175
330
12F
100
AcDbEntity
  8
AM_9
100
AcDbEllipse
 10
2.289919384287197
 20
0.0000000000000001
 30
0.0
 11
6.750008227540375E-18
 21
0.1102359999999999
 31
0.0
210
0.0
220
0.0
230
1.0
 40
0.7071067811865491
 41
0.0
 42
6.283185307179586
  0
LINE
  5
176
330
12F
100
AcDbEntity
  8
AM_7
100
AcDbLine
 10
5.4015625
 20
-1.0625
 30
0.0
 11
5.5984375
 21
-1.0625
 31
0.0
  0
LINE
  5
177
330
12F
100
AcDbEntity
  8
AM_7
100
AcDbLine
 10
5.5
 20
-1.1609375
 30
0.0
 11
5.5
 21
-0.9640624999999998
 31
0.0
  0
LINE
  5
178
330
12F
100
AcDbEntity
  8
AM_7
100
AcDbLine
 10
-5.5984375
 20
-1.062500000000001
 30
0.0
 11
-5.4015625
 21
-1.062500000000001
 31
0.0
  0
LINE
  5
179
330
12F
100
AcDbEntity
  8
AM_7
100
AcDbLine
 10
-5.5
 20
-1.160937500000001
 30
0.0
 11
-5.5
 21
-0.9640625000000007
 31
0.0
  0
LINE
  5
17A
330
12F
100
AcDbEntity
  8
AM_7
100
AcDbLine
 10
0.0
 20
1.58125
 30
0.0
 11
0.0
 21
-1.8
 31
0.0
  0
LINE
  5
17B
330
12F
100
AcDbEntity
  8
AM_7
100
AcDbLine
 10
-5.2421875
 20
0.0
 30
0.0
 11
-3.7578125
 21
0.0000000000000002
 31
0.0
  0
LINE
  5
17C
330
12F
100
AcDbEntity
  8
AM_7
100
AcDbLine
 10
-4.75
 20
-0.4921875
 30
0.0
 11
-4.75
 21
0.4921875
 31
0.0
  0
LINE
  5
17D
330
12F
100
AcDbEntity
  8
AM_7
100
AcDbLine
 10
3.7578125
 20
0.0000000000000001
 30
0.0
 11
5.2421875
 21
0.0000000000000002
 31
0.0
  0
LINE
  5
17E
330
12F
100
AcDbEntity
  8
AM_7
100
AcDbLine
 10
4.25
 20
-0.4921875000000004
 30
0.0
 11
4.25
 21
0.4921875000000006
 31
0.0
  0
LINE
  5
17F
330
12F
100
AcDbEntity
  8
AM_7
100
AcDbLine
 10
4.75
 20
-0.4921874999999998
 30
0.0
 11
4.75
 21
0.4921875000000002
 31
0.0
  0
LINE
  5
180
330
12F
100
AcDbEntity
  8
AM_7
100
AcDbLine
 10
-4.25
 20
-0.4921875000000003
 30
0.0
 11
-4.25
 21
0.4921875000000007
 31
0.0
  0
LINE
  5
181
330
12F
100
AcDbEntity
  8
AM_4
100
AcDbLine
 10
-2.350000000000001
 20
1.4375
 30
0.0
 11
-5.589999999999999
 21
1.4375
 31
0.0
  0
LINE
  5
182
330
12F
100
AcDbEntity
  8
AM_4
100
AcDbLine
 10
-5.875
 20
1.152499999999999
 30
0.0
 11
-5.875
 21
-1.152500000000001
 31
0.0
  0
LINE
  5
183
330
12F
100
AcDbEntity
  8
AM_4
100
AcDbLine
 10
-5.589999999999999
 20
1.4375
 30
0.0
 11
-5.875
 21
1.152499999999999
 31
0.0
  0
LINE
  5
184
330
12F
100
AcDbEntity
  8
AM_4
100
AcDbLine
 10
5.59
 20
1.4375
 30
0.0
 11
2.35
 21
1.4375
 31
0.0
  0
LINE
  5
185
330
12F
100
AcDbEntity
  8
AM_4
100
AcDbLine
 10
5.875
 20
-1.1525
 30
0.0
 11
5.875
 21
1.1525
 31
0.0
  0
LINE
  5
186
330
12F
100
AcDbEntity
  8
AM_4
100
AcDbLine
 10
5.875
 20
1.1525
 30
0.0
 11
5.59
 21
1.4375
 31
0.0
  0
CIRCLE
  5
187
330
12F
100
AcDbEntity
  8
AM_4
100
AcDbCircle
 10
5.5
 20
-1.0625
 30
0.0
 40
0.09375
  0
ARC
  5
188
330
12F
100
AcDbEntity
  8
AM_4
100
AcDbCircle
 10
4.750000000000004
 20
0.0000000000000056
 30
0.0
 40
1.124999999999994
100
AcDbArc
 50
18.64697662350962
 51
90.0
  0
LINE
  5
189
330
12F
100
AcDbEntity
  8
AM_4
100
AcDbLine
 10
5.589999999999998
 20
-1.4375
 30
0.0
 11
2.350000000000001
 21
-1.4375
 31
0.0
  0
LINE
  5
18A
330
12F
100
AcDbEntity
  8
AM_4
100
AcDbLine
 10
4.749999999999999
 20
0.4687500000000004
 30
0.0
 11
4.25
 21
0.4687500000000002
 31
0.0
  0
ARC
  5
18B
330
12F
100
AcDbEntity
  8
AM_4
100
AcDbCircle
 10
4.75
 20
0.0000000000000001
 30
0.0
 40
0.46875
100
AcDbArc
 50
270.0
 51
90.0
  0
LINE
  5
18C
330
12F
100
AcDbEntity
  8
AM_4
100
AcDbLine
 10
4.25
 20
-0.4687500000000002
 30
0.0
 11
4.75
 21
-0.4687499999999999
 31
0.0
  0
ARC
  5
18D
330
12F
100
AcDbEntity
  8
AM_4
100
AcDbCircle
 10
4.25
 20
0.0
 30
0.0
 40
0.4687500000000002
100
AcDbArc
 50
90.0
 51
270.0
  0
ARC
  5
18E
330
12F
100
AcDbEntity
  8
AM_4
100
AcDbCircle
 10
3.988740199999999
 20
1.203740199999999
 30
0.0
 40
0.078740199999999
100
AcDbArc
 50
180.0
 51
270.0
  0
LINE
  5
18F
330
12F
100
AcDbEntity
  8
AM_4
100
AcDbLine
 10
5.589999999999998
 20
-1.4375
 30
0.0
 11
5.875
 21
-1.1525
 31
0.0
  0
LINE
  5
190
330
12F
100
AcDbEntity
  8
AM_4
100
AcDbLine
 10
3.988740199999999
 20
1.125
 30
0.0
 11
4.75
 21
1.125
 31
0.0
  0
LWPOLYLINE
  5
191
330
12F
100
AcDbEntity
  8
AM_4
100
AcDbPolyline
 90
        8
 70
     0
 43
0.0
 10
5.875
 20
0.0000000000000001
 10
5.87499925186984
 20
0.0012974175504423
 10
5.873280253415545
 20
0.0621797815294786
 10
5.868254791393293
 20
0.1230090302617747
 10
5.859765079498569
 20
0.1845120962097512
 10
5.84781818887012
 20
0.245805256627945
 10
5.833477265198784
 20
0.3028234069509234
 10
5.815944899999999
 20
0.3597033085252233
  0
LINE
  5
192
330
12F
100
AcDbEntity
  8
AM_4
100
AcDbLine
 10
5.815944899999999
 20
-1.211555100000001
 30
0.0
 11
5.815944899999999
 21
0.3597033085252234
 31
0.0
  0
LINE
  5
193
330
12F
100
AcDbEntity
  8
AM_4
100
AcDbLine
 10
-5.875
 20
-1.152500000000001
 30
0.0
 11
-5.59
 21
-1.4375
 31
0.0
  0
LWPOLYLINE
  5
194
330
12F
100
AcDbEntity
  8
AM_4
100
AcDbPolyline
 90
        8
 70
     0
 43
0.0
 10
-5.815944899999999
 20
0.3597033085252221
 10
-5.833357307291458
 20
0.3032522790321641
 10
-5.84781818887012
 20
0.2458052566279432
 10
-5.859609142864279
 20
0.1854522851625138
 10
-5.868073128952235
 20
0.1246494216390933
 10
-5.873229367712106
 20
0.0630934823025519
 10
-5.87499925186984
 20
0.0012974175504228
 10
-5.875
 20
-0.0000000000000006
  0
LINE
  5
195
330
12F
100
AcDbEntity
  8
AM_4
100
AcDbLine
 10
-2.35
 20
-1.437499999999997
 30
0.0
 11
-5.59
 21
-1.4375
 31
0.0
  0
CIRCLE
  5
196
330
12F
100
AcDbEntity
  8
AM_4
100
AcDbCircle
 10
-5.5
 20
-1.062500000000001
 30
0.0
 40
0.09375
  0
LINE
  5
197
330
12F
100
AcDbEntity
  8
AM_4
100
AcDbLine
 10
-4.25
 20
0.4687500000000003
 30
0.0
 11
-4.749999999999999
 21
0.4687500000000002
 31
0.0
  0
ARC
  5
198
330
12F
100
AcDbEntity
  8
AM_4
100
AcDbCircle
 10
-4.25
 20
0.0000000000000001
 30
0.0
 40
0.46875
100
AcDbArc
 50
270.0
 51
90.0
  0
LINE
  5
199
330
12F
100
AcDbEntity
  8
AM_4
100
AcDbLine
 10
-4.749999999999999
 20
-0.4687500000000002
 30
0.0
 11
-4.25
 21
-0.4687499999999999
 31
0.0
  0
ARC
  5
19A
330
12F
100
AcDbEntity
  8
AM_4
100
AcDbCircle
 10
-4.75
 20
0.0
 30
0.0
 40
0.4687500000000002
100
AcDbArc
 50
90.0
 51
270.0
  0
LINE
  5
19B
330
12F
100
AcDbEntity
  8
AM_4
100
AcDbLine
 10
-4.749999999999999
 20
1.125
 30
0.0
 11
-3.988740199999999
 21
1.125
 31
0.0
  0
ARC
  5
19C
330
12F
100
AcDbEntity
  8
AM_4
100
AcDbCircle
 10
-4.750000000000002
 20
0.0000000000000022
 30
0.0
 40
1.124999999999998
100
AcDbArc
 50
90.0
 51
161.3530233764903
  0
LINE
  5
19D
330
12F
100
AcDbEntity
  8
AM_4
100
AcDbLine
 10
-5.815944899999999
 20
-1.211555100000002
 30
0.0
 11
-5.815944899999999
 21
0.3597033085252221
 31
0.0
  0
ARC
  5
19E
330
12F
100
AcDbEntity
  8
AM_4
100
AcDbCircle
 10
-3.9887402
 20
1.203740199999999
 30
0.0
 40
0.0787401999999995
100
AcDbArc
 50
270.0
 51
0.0
  0
LWPOLYLINE
  5
19F
330
12F
100
AcDbEntity
  8
AM_4
100
AcDbPolyline
 90
       15
 70
     0
 43
0.0
 10
3.91
 20
1.072392185723115
 10
3.817828665185324
 20
1.038678457158182
 10
3.728946415180774
 20
0.9970597583630754
 10
3.644029697577455
 20
0.9478528327656832
 10
3.563724779870444
 20
0.8914321747817557
 10
3.488642830972927
 20
0.8282271796862753
 10
3.419355269851734
 20
0.7587188756561384
 10
3.356389416683969
 20
0.683436262855275
 10
3.300224479632063
 20
0.602952287423985
 10
3.251287907780295
 20
0.5178794810128532
 10
3.209952137989169
 20
0.4288652990470333
 10
3.176531760426014
 20
0.3365871931995178
 10
3.151281124343862
 20
0.2417474555748501
 10
3.134392402330049
 20
0.145067873842153
 10
3.129904883661356
 20
0.1049377451364421
  0
LINE
  5
1A0
330
12F
100
AcDbEntity
  8
AM_4
100
AcDbLine
 10
3.910000000000001
 20
1.072392185723115
 30
0.0
 11
3.910000000000001
 21
1.4375
 31
0.0
  0
LWPOLYLINE
  5
1A1
330
12F
100
AcDbEntity
  8
AM_4
100
AcDbPolyline
 90
       15
 70
     0
 43
0.0
 10
3.129904883661356
 20
-0.1049377451364412
 10
3.143313110864617
 20
-0.2021611471471445
 10
3.165143893530012
 20
-0.29784598075982
 10
3.195231086219671
 20
-0.391264026614593
 10
3.233345707230081
 20
-0.4817043169751502
 10
3.279197681281115
 20
-0.5684785466225074
 10
3.332438047164068
 20
-0.6509263112733361
 10
3.392661613547158
 20
-0.728420133655322
 10
3.459410042726224
 20
-0.8003702389880885
 10
3.532175338851413
 20
-0.8662290435253923
 10
3.610403714082322
 20
-0.9254953219980707
 10
3.693499803247862
 20
-0.9777180222409895
 10
3.780831194934692
 20
-1.022499697972372
 10
3.871733244519938
 20
-1.059499533599986
 10
3.91
 20
-1.072392185723115
  0
LINE
  5
1A2
330
12F
100
AcDbEntity
  8
AM_4
100
AcDbLine
 10
3.910000000000002
 20
-1.4375
 30
0.0
 11
3.910000000000001
 21
-1.072392185723115
 31
0.0
  0
LWPOLYLINE
  5
1A3
330
12F
100
AcDbEntity
  8
AM_4
100
AcDbPolyline
 90
       15
 70
     0
 43
0.0
 10
-3.129904883661356
 20
0.1049377451364373
 10
-3.143313110864616
 20
0.2021611471471407
 10
-3.165143893530011
 20
0.2978459807598162
 10
-3.195231086219669
 20
0.3912640266145893
 10
-3.233345707230079
 20
0.4817043169751466
 10
-3.279197681281114
 20
0.5684785466225041
 10
-3.332438047164066
 20
0.6509263112733329
 10
-3.392661613547155
 20
0.728420133655319
 10
-3.459410042726222
 20
0.8003702389880857
 10
-3.532175338851409
 20
0.8662290435253895
 10
-3.610403714082319
 20
0.9254953219980684
 10
-3.693499803247859
 20
0.9777180222409874
 10
-3.780831194934688
 20
1.02249969797237
 10
-3.871733244519934
 20
1.059499533599984
 10
-3.909999999999999
 20
1.072392185723114
  0
LINE
  5
1A4
330
12F
100
AcDbEntity
  8
AM_4
100
AcDbLine
 10
-3.91
 20
1.072392185723115
 30
0.0
 11
-3.910000000000001
 21
1.4375
 31
0.0
  0
LWPOLYLINE
  5
1A5
330
12F
100
AcDbEntity
  8
AM_4
100
AcDbPolyline
 90
       15
 70
     0
 43
0.0
 10
-3.91
 20
-1.072392185723116
 10
-3.817828665185324
 20
-1.038678457158182
 10
-3.728946415180774
 20
-0.9970597583630756
 10
-3.644029697577455
 20
-0.9478528327656834
 10
-3.563724779870444
 20
-0.8914321747817558
 10
-3.488642830972927
 20
-0.8282271796862753
 10
-3.419355269851734
 20
-0.7587188756561384
 10
-3.35638941668397
 20
-0.683436262855275
 10
-3.300224479632063
 20
-0.602952287423985
 10
-3.251287907780295
 20
-0.5178794810128532
 10
-3.209952137989169
 20
-0.4288652990470332
 10
-3.176531760426014
 20
-0.3365871931995177
 10
-3.151281124343862
 20
-0.24174745557485
 10
-3.134392402330049
 20
-0.1450678738421529
 10
-3.129904883661356
 20
-0.104937745136438
  0
LINE
  5
1A6
330
12F
100
AcDbEntity
  8
AM_4
100
AcDbLine
 10
-3.910000000000001
 20
-1.4375
 30
0.0
 11
-3.91
 21
-1.072392185723116
 31
0.0
  0
LINE
  5
1A7
330
12F
100
AcDbEntity
  8
AM_4
100
AcDbLine
 10
2.401275267295236
 20
0.1102360000000002
 30
0.0
 11
2.387355870307578
 21
0.1102360000000002
 31
0.0
  0
LINE
  5
1A8
330
12F
100
AcDbEntity
  8
AM_4
100
AcDbLine
 10
2.387355870307578
 20
-0.1102359999999999
 30
0.0
 11
2.401275267295236
 21
-0.1102359999999999
 31
0.0
  0
ELLIPSE
  5
1A9
330
12F
100
AcDbEntity
  8
AM_4
100
AcDbEllipse
 10
2.387355870307578
 20
0.0000000000000001
 30
0.0
 11
6.750008227540391E-18
 21
0.1102360000000002
 31
0.0
210
0.0
220
0.0
230
1.0
 40
0.7071067811865515
 41
0.0
 42
3.141592653589793
  0
ELLIPSE
  5
1AA
330
12F
100
AcDbEntity
  8
AM_4
100
AcDbEllipse
 10
2.401275267295235
 20
0.0000000000000001
 30
0.0
 11
6.750008227540371E-18
 21
0.1102359999999998
 31
0.0
210
0.0
220
0.0
230
1.0
 40
0.7071067811865496
 41
5.690809362188054
 42
10.01885792208736
  0
LINE
  5
1AB
330
12F
100
AcDbEntity
  8
AM_4
100
AcDbLine
 10
2.294535375547711
 20
0.1818428181342338
 30
0.0
 11
2.382739879047064
 21
0.1818428181342339
 31
0.0
  0
LWPOLYLINE
  5
1AC
330
12F
100
AcDbEntity
  8
AM_4
100
AcDbPolyline
 90
        5
 70
     0
 43
0.0
 10
2.294535375547711
 20
0.1818428181342338
 10
2.263722954105787
 20
0.1594311359735597
 10
2.234777682199502
 20
0.1368193539571327
 10
2.207867382992025
 20
0.1138715522972785
 10
2.183179846093062
 20
0.090921409067117
  0
LWPOLYLINE
  5
1AD
330
12F
100
AcDbEntity
  8
AM_4
100
AcDbPolyline
 90
        5
 70
     0
 43
0.0
 10
2.183179846093062
 20
-0.0909214090671165
 10
2.207264610222227
 20
-0.1133330912277904
 10
2.233706666431229
 20
-0.1359448732442177
 10
2.263006772008987
 20
-0.1588926749040721
 10
2.294535375547711
 20
-0.1818428181342336
  0
LINE
  5
1AE
330
12F
100
AcDbEntity
  8
AM_4
100
AcDbLine
 10
2.294535375547711
 20
-0.1818428181342336
 30
0.0
 11
2.382739879047064
 21
-0.1818428181342335
 31
0.0
  0
LINE
  5
1AF
330
12F
100
AcDbEntity
  8
AM_4
100
AcDbLine
 10
2.183179846093062
 20
0.090921409067117
 30
0.0
 11
2.271384349592416
 21
0.090921409067117
 31
0.0
  0
LWPOLYLINE
  5
1B0
330
12F
100
AcDbEntity
  8
AM_4
100
AcDbPolyline
 90
        5
 70
     0
 43
0.0
 10
2.183179846093062
 20
0.090921409067117
 10
2.179816017436683
 20
0.0460980447457689
 10
2.178564409588041
 20
0.0008744807129147
 10
2.179759312773182
 20
-0.0450211226067938
 10
2.183179846093062
 20
-0.0909214090671165
  0
LINE
  5
1B1
330
12F
100
AcDbEntity
  8
AM_4
100
AcDbLine
 10
2.183179846093062
 20
-0.0909214090671165
 30
0.0
 11
2.271384349592416
 21
-0.0909214090671167
 31
0.0
  0
LWPOLYLINE
  5
1B2
330
12F
100
AcDbEntity
  8
AM_4
100
AcDbPolyline
 90
        5
 70
     0
 43
0.0
 10
2.478758005423318
 20
-0.1053945343456812
 10
2.470010644372549
 20
-0.1133330912277905
 10
2.443568588163546
 20
-0.1359448732442177
 10
2.414268482585788
 20
-0.1588926749040719
 10
2.382739879047064
 20
-0.1818428181342335
  0
LWPOLYLINE
  5
1B3
330
12F
100
AcDbEntity
  8
AM_4
100
AcDbPolyline
 90
        5
 70
     0
 43
0.0
 10
2.382739879047064
 20
0.1818428181342339
 10
2.413552300488988
 20
0.1594311359735598
 10
2.442497572395273
 20
0.1368193539571327
 10
2.469407871602751
 20
0.1138715522972784
 10
2.47874169493523
 20
0.1054095531349322
  0
LWPOLYLINE
  5
1B4
330
12F
100
AcDbEntity
  8
AM_4
100
AcDbPolyline
 90
        5
 70
     0
 43
0.0
 10
2.271384349592416
 20
0.090921409067117
 10
2.30219677103434
 20
0.113333091227791
 10
2.331142042940625
 20
0.1359448732442181
 10
2.358052342148103
 20
0.1588926749040728
 10
2.382739879047064
 20
0.1818428181342339
  0
LWPOLYLINE
  5
1B5
330
12F
100
AcDbEntity
  8
AM_4
100
AcDbPolyline
 90
        5
 70
     0
 43
0.0
 10
2.271384349592416
 20
-0.0909214090671167
 10
2.274748178248796
 20
-0.0460980447457687
 10
2.275999786097437
 20
-0.0008744807129145
 10
2.274804882912297
 20
0.0450211226067941
 10
2.271384349592416
 20
0.090921409067117
  0
LWPOLYLINE
  5
1B6
330
12F
100
AcDbEntity
  8
AM_4
100
AcDbPolyline
 90
        5
 70
     0
 43
0.0
 10
2.382739879047064
 20
-0.1818428181342335
 10
2.3586551149179
 20
-0.1594311359735597
 10
2.332213058708898
 20
-0.1368193539571324
 10
2.302912953131139
 20
-0.1138715522972781
 10
2.271384349592416
 20
-0.0909214090671167
  0
ELLIPSE
  5
1B7
330
12F
100
AcDbEntity
  8
AM_4
100
AcDbEllipse
 10
2.387355870307578
 20
0.0000000000000005
 30
0.0
 11
9.642868896486279E-18
 21
0.1574800000000003
 31
0.0
210
0.0
220
0.0
230
1.0
 40
0.7071067811865499
 41
5.434986031144652
 42
10.271012167212
  0
ELLIPSE
  5
1B8
330
12F
100
AcDbEntity
  8
AM_4
100
AcDbEllipse
 10
2.478357466293222
 20
0.0000000000000001
 30
0.0
 11
6.258279968144595E-18
 21
0.1022054680990773
 31
0.0
210
0.0
220
0.0
230
1.0
 40
0.707106781186548
 41
0.6257226618246312
 42
2.526067757874737
  0
LINE
  5
1B9
330
12F
100
AcDbEntity
  8
AM_4
100
AcDbLine
 10
-2.350000000000001
 20
1.4375
 30
0.0
 11
-2.350000000000001
 21
1.2266667625
 31
0.0
  0
LINE
  5
1BA
330
12F
100
AcDbEntity
  8
AM_4
100
AcDbLine
 10
2.35
 20
1.2266667625
 30
0.0
 11
2.35
 21
1.4375
 31
0.0
  0
LINE
  5
1BB
330
12F
100
AcDbEntity
  8
AM_4
100
AcDbLine
 10
-2.350000000000001
 20
1.2266667625
 30
0.0
 11
2.35
 21
1.2266667625
 31
0.0
  0
LINE
  5
1BC
330
12F
100
AcDbEntity
  8
AM_4
100
AcDbLine
 10
2.350000000000001
 20
-1.4375
 30
0.0
 11
2.350000000000001
 21
-1.2266667625
 31
0.0
  0
LINE
  5
1BD
330
12F
100
AcDbEntity
  8
AM_4
100
AcDbLine
 10
-2.35
 20
-1.226666762500001
 30
0.0
 11
-2.35
 21
-1.437499999999997
 31
0.0
  0
LINE
  5
1BE
330
12F
100
AcDbEntity
  8
AM_4
100
AcDbLine
 10
-2.125
 20
-1.226666762500001
 30
0.0
 11
-2.35
 21
-1.226666762500001
 31
0.0
  0
LINE
  5
1BF
330
12F
100
AcDbEntity
  8
AM_4
100
AcDbLine
 10
2.350000000000001
 20
-1.2266667625
 30
0.0
 11
2.120865094719606
 21
-1.2266667625
 31
0.0
  0
LWPOLYLINE
  5
1C0
330
12F
100
AcDbEntity
  8
AM_4
100
AcDbPolyline
 90
       37
 70
     0
 43
0.0
 10
-2.55905
 20
1.228027814207651
 10
-2.549312042151681
 20
1.209339886922934
 10
-2.520172280345891
 20
1.190794186048934
 10
-2.471852485765041
 20
1.1725318555675
 10
-2.404720401222179
 20
1.154691882840694
 10
-2.31928694241614
 20
1.137410040833037
 10
-2.216202309554569
 20
1.120817854797268
 10
-2.096251038937746
 20
1.105041601287756
 10
-1.960346032163622
 20
1.090201347119669
 10
-1.809521608395436
 20
1.076410035588019
 10
-1.644925632568341
 20
1.063772626900982
 10
-1.467810779444147
 20
1.052385299369342
 10
-1.279525000000003
 20
1.042334717431471
 10
-1.08150126270754
 20
1.033697372084625
 10
-0.8752466477775563
 20
1.026538998742265
 10
-0.6623308773696097
 20
1.020914076947869
 10
-0.4443743690585624
 20
1.016865415752713
 10
-0.2230359034783992
 20
1.014423827913142
 10
-0.0000000000000049
 20
1.013607895386886
 10
0.2230359034783896
 20
1.014423827913142
 10
0.4443743690585528
 20
1.016865415752713
 10
0.6623308773696003
 20
1.020914076947868
 10
0.875246647777547
 20
1.026538998742264
 10
1.081501262707531
 20
1.033697372084625
 10
1.279524999999995
 20
1.042334717431471
 10
1.467810779444139
 20
1.052385299369341
 10
1.644925632568333
 20
1.063772626900981
 10
1.809521608395429
 20
1.076410035588018
 10
1.960346032163616
 20
1.090201347119669
 10
2.09625103893774
 20
1.105041601287755
 10
2.216202309554564
 20
1.120817854797268
 10
2.319286942416136
 20
1.137410040833037
 10
2.404720401222176
 20
1.154691882840694
 10
2.471852485765038
 20
1.1725318555675
 10
2.52017228034589
 20
1.190794186048933
 10
2.549312042151681
 20
1.209339886922933
 10
2.55905
 20
1.22802781420765
  0
LWPOLYLINE
  5
1C1
330
12F
100
AcDbEntity
  8
AM_4
100
AcDbPolyline
 90
        6
 70
     0
 43
0.0
 10
2.55905
 20
1.228027814207651
 10
2.549312042151681
 20
1.246715741492367
 10
2.520172280345891
 20
1.265261442366368
 10
2.471852485765041
 20
1.283523772847801
 10
2.404720401222179
 20
1.301363745574607
 10
2.35
 20
1.312908752074285
  0
LWPOLYLINE
  5
1C2
330
12F
100
AcDbEntity
  8
AM_4
100
AcDbPolyline
 90
       37
 70
     0
 43
0.0
 10
2.55905
 20
-1.22802781420765
 10
2.549312042151681
 20
-1.209339886922934
 10
2.520172280345891
 20
-1.190794186048933
 10
2.471852485765041
 20
-1.1725318555675
 10
2.404720401222179
 20
-1.154691882840694
 10
2.31928694241614
 20
-1.137410040833037
 10
2.216202309554569
 20
-1.120817854797268
 10
2.096251038937746
 20
-1.105041601287755
 10
1.960346032163623
 20
-1.090201347119669
 10
1.809521608395436
 20
-1.076410035588018
 10
1.644925632568341
 20
-1.063772626900981
 10
1.467810779444147
 20
-1.052385299369341
 10
1.279525000000003
 20
-1.042334717431471
 10
1.081501262707541
 20
-1.033697372084625
 10
0.8752466477775566
 20
-1.026538998742264
 10
0.6623308773696099
 20
-1.020914076947868
 10
0.4443743690585627
 20
-1.016865415752712
 10
0.2230359034783995
 20
-1.014423827913142
 10
0.0000000000000052
 20
-1.013607895386885
 10
-0.2230359034783892
 20
-1.014423827913142
 10
-0.4443743690585526
 20
-1.016865415752712
 10
-0.6623308773696001
 20
-1.020914076947868
 10
-0.8752466477775467
 20
-1.026538998742264
 10
-1.081501262707531
 20
-1.033697372084624
 10
-1.279524999999994
 20
-1.04233471743147
 10
-1.467810779444139
 20
-1.052385299369341
 10
-1.644925632568333
 20
-1.06377262690098
 10
-1.809521608395429
 20
-1.076410035588018
 10
-1.960346032163616
 20
-1.090201347119668
 10
-2.09625103893774
 20
-1.105041601287755
 10
-2.216202309554564
 20
-1.120817854797267
 10
-2.319286942416136
 20
-1.137410040833036
 10
-2.404720401222176
 20
-1.154691882840693
 10
-2.471852485765038
 20
-1.172531855567499
 10
-2.52017228034589
 20
-1.190794186048932
 10
-2.549312042151681
 20
-1.209339886922933
 10
-2.55905
 20
-1.228027814207649
  0
LWPOLYLINE
  5
1C3
330
12F
100
AcDbEntity
  8
AM_4
100
AcDbPolyline
 90
        6
 70
     0
 43
0.0
 10
-2.55905
 20
-1.22802781420765
 10
-2.549312042151681
 20
-1.246715741492367
 10
-2.520172280345891
 20
-1.265261442366367
 10
-2.471852485765041
 20
-1.2835237728478
 10
-2.404720401222179
 20
-1.301363745574606
 10
-2.350000000000001
 20
-1.312908752074285
  0
LWPOLYLINE
  5
1C4
330
12F
100
AcDbEntity
  8
AM_4
100
AcDbPolyline
 90
       10
 70
     0
 43
0.0
 10
2.531209386976206
 20
0.0890230717388237
 10
2.522011855463366
 20
0.0957941422953075
 10
2.510563136348923
 20
0.1016103663026774
 10
2.498663843845346
 20
0.1050853052424492
 10
2.486650878618442
 20
0.1062142221487898
 10
2.474800679245698
 20
0.1050683547675274
 10
2.463346272938748
 20
0.1017506478079188
 10
2.452470311715472
 20
0.0963668487959577
 10
2.442320872237078
 20
0.0890037217774495
 10
2.436950611296509
 20
0.0839837617719333
  0
LWPOLYLINE
  5
1C5
330
12F
100
AcDbEntity
  8
AM_4
100
AcDbPolyline
 90
       10
 70
     0
 43
0.0
 10
2.43854648684971
 20
-0.0855685329923685
 10
2.447604883855529
 20
-0.0931510087294049
 10
2.458803882135318
 20
-0.0997856181752909
 10
2.470582233570804
 20
-0.1041082520706343
 10
2.482589765220165
 20
-0.1060750214775463
 10
2.494525972588278
 20
-0.1057361467349831
 10
2.506150719277106
 20
-0.1031852490280401
 10
2.517251325655123
 20
-0.0985329997176925
 10
2.527679539720011
 20
-0.0918712257948557
 10
2.533094584019741
 20
-0.0873613837273245
  0
LINE
  5
1C6
330
12F
100
AcDbEntity
  8
AM_4
100
AcDbLine
 10
2.563887615873788
 20
0.0605219071451577
 30
0.0
 11
2.531839033672275
 21
0.0884794128974549
 31
0.0
  0
LINE
  5
1C7
330
12F
100
AcDbEntity
  8
AM_4
100
AcDbLine
 10
2.531839033672275
 20
-0.0884794128974546
 30
0.0
 11
2.563887615873788
 21
-0.0605219071451574
 31
0.0
  0
ELLIPSE
  5
1C8
330
12F
100
AcDbEntity
  8
AM_4
100
AcDbEllipse
 10
2.49324662918638
 20
0.0000000000000001
 30
0.0
 11
6.365617546288444E-18
 21
0.1039584237793368
 31
0.0
210
0.0
220
0.0
230
1.0
 40
0.7071067811865518
 41
5.730473253052761
 42
9.977490014896205
  0
ELLIPSE
  5
1C9
330
12F
100
AcDbEntity
  8
AM_4
100
AcDbEllipse
 10
2.537489543776376
 20
0.0000000000000003
 30
0.0
 11
4.354225479598973E-18
 21
0.07110989850511273
 31
0.0
210
0.0
220
0.0
230
1.0
 40
0.7071067811865441
 41
6.125619137890126
 42
9.977490014896203
  0
ELLIPSE
  5
1CA
330
12F
100
AcDbEntity
  8
AM_4
100
AcDbEllipse
 10
2.537489543776374
 20
0.0000000000000004
 30
0.0
 11
4.354225479598933E-18
 21
0.07110989850511208
 31
0.0
210
0.0
220
0.0
230
1.0
 40
0.7071067811865693
 41
4.71238898038469
 42
6.125619137890103
  0
ELLIPSE
  5
1CB
330
12F
100
AcDbEntity
  8
AM_4
100
AcDbEllipse
 10
2.540469237171807
 20
0.0000000000000002
 30
0.0
 11
-1.178200542891334E-17
 21
-0.06413825024007701
 31
0.0
210
0.0
220
0.0
230
1.0
 40
0.7071067811865492
 41
0.0
 42
6.283185307179586
  0
LWPOLYLINE
  5
1CC
330
12F
100
AcDbEntity
  8
AM_4
100
AcDbPolyline
 90
        6
 70
     0
 43
0.0
 10
2.576267180509416
 20
-0.045493705668541
 10
2.576822617103004
 20
-0.044549908486102
 10
2.581932576212011
 20
-0.0338817935931275
 10
2.585579571896441
 20
-0.0221359559526153
 10
2.587648655848921
 20
-0.0096995077142408
 10
2.588128075912808
 20
0.0000000000000002
  0
ELLIPSE
  5
1CD
330
12F
100
AcDbEntity
  8
AM_4
100
AcDbEllipse
 10
2.537489543776369
 20
-0.0000000000000019
 30
0.0
 11
4.354225479598786E-18
 21
0.07110989850510968
 31
0.0
210
0.0
220
0.0
230
1.0
 40
0.707106781186637
 41
3.694304707716693
 42
4.010968463888052
  0
LINE
  5
1CE
330
12F
100
AcDbEntity
  8
AM_4
100
AcDbLine
 10
-0.243339895183
 20
0.0218509000000002
 30
0.0
 11
-0.243339895183
 21
-0.0218508779411998
 31
0.0
  0
LINE
  5
1CF
330
12F
100
AcDbEntity
  8
AM_4
100
AcDbLine
 10
-0.243339895183
 20
-0.0218508779411999
 30
0.0
 11
-0.2464009204580002
 21
-0.0335047031319006
 31
0.0
  0
LINE
  5
1D0
330
12F
100
AcDbEntity
  8
AM_4
100
AcDbLine
 10
-0.2464009204579999
 20
0.0335046999999999
 30
0.0
 11
-0.2433398951829997
 21
0.0218508999999992
 31
0.0
  0
LINE
  5
1D1
330
12F
100
AcDbEntity
  8
AM_4
100
AcDbLine
 10
-0.3290446658729999
 20
-0.0509854606029997
 30
0.0
 11
-0.3290446658729999
 21
0.0509854000000003
 31
0.0
  0
LINE
  5
1D2
330
12F
100
AcDbEntity
  8
AM_4
100
AcDbLine
 10
-0.273948573129
 20
-0.0509854606029997
 30
0.0
 11
-0.3290446658729999
 21
-0.0509854606029997
 31
0.0
  0
LINE
  5
1D3
330
12F
100
AcDbEntity
  8
AM_4
100
AcDbLine
 10
-0.261705259431
 20
-0.048072073203
 30
0.0
 11
-0.2739485731289996
 21
-0.0509854606029998
 31
0.0
  0
LINE
  5
1D4
330
12F
100
AcDbEntity
  8
AM_4
100
AcDbLine
 10
-0.2525225773070003
 20
-0.042244904702
 30
0.0
 11
-0.2617052594309999
 21
-0.0480720732029997
 31
0.0
  0
LINE
  5
1D5
330
12F
100
AcDbEntity
  8
AM_4
100
AcDbLine
 10
-0.2464009204580001
 20
-0.0335047031319004
 30
0.0
 11
-0.2525225773069996
 21
-0.0422449047019996
 31
0.0
  0
LINE
  5
1D6
330
12F
100
AcDbEntity
  8
AM_4
100
AcDbLine
 10
-0.252522577307
 20
0.0422449000000002
 30
0.0
 11
-0.2464009204579998
 21
0.0335046999999999
 31
0.0
  0
LINE
  5
1D7
330
12F
100
AcDbEntity
  8
AM_4
100
AcDbLine
 10
-0.2617052594309996
 20
0.048072
 30
0.0
 11
-0.252522577307
 21
0.0422449000000003
 31
0.0
  0
LINE
  5
1D8
330
12F
100
AcDbEntity
  8
AM_4
100
AcDbLine
 10
-0.2739485731289999
 20
0.0509854000000004
 30
0.0
 11
-0.2617052594309996
 21
0.0480720000000003
 31
0.0
  0
LINE
  5
1D9
330
12F
100
AcDbEntity
  8
AM_4
100
AcDbLine
 10
-0.3290446658729999
 20
0.0509854000000003
 30
0.0
 11
-0.273948573129
 21
0.0509854000000002
 31
0.0
  0
LINE
  5
1DA
330
12F
100
AcDbEntity
  8
AM_4
100
AcDbLine
 10
-0.1821221455900014
 20
0.0218508999999947
 30
0.0
 11
-0.1790615140159994
 21
0.0335047000000024
 31
0.0
  0
LINE
  5
1DB
330
12F
100
AcDbEntity
  8
AM_4
100
AcDbLine
 10
-0.18212214559
 20
-0.0218508779411996
 30
0.0
 11
-0.18212214559
 21
0.0218509000000002
 31
0.0
  0
LINE
  5
1DC
330
12F
100
AcDbEntity
  8
AM_4
100
AcDbLine
 10
-0.1790615140159982
 20
-0.0335047031319071
 30
0.0
 11
-0.1821221455900002
 21
-0.0218508779411992
 31
0.0
  0
LINE
  5
1DD
330
12F
100
AcDbEntity
  8
AM_4
100
AcDbLine
 10
-0.1729394634660001
 20
-0.0422449047019996
 30
0.0
 11
-0.1790615140159981
 21
-0.0335047031319024
 31
0.0
  0
LINE
  5
1DE
330
12F
100
AcDbEntity
  8
AM_4
100
AcDbLine
 10
-0.1637571750430006
 20
-0.0480720732029997
 30
0.0
 11
-0.1729394634660002
 21
-0.0422449047019999
 31
0.0
  0
LINE
  5
1DF
330
12F
100
AcDbEntity
  8
AM_4
100
AcDbLine
 10
-0.1515134676439977
 20
-0.0509854606030004
 30
0.0
 11
-0.1637571750430006
 21
-0.0480720732029997
 31
0.0
  0
LINE
  5
1E0
330
12F
100
AcDbEntity
  8
AM_4
100
AcDbLine
 10
-0.127026446547
 20
-0.0509854606029997
 30
0.0
 11
-0.151513467644
 21
-0.0509854606029998
 31
0.0
  0
LINE
  5
1E1
330
12F
100
AcDbEntity
  8
AM_4
100
AcDbLine
 10
-0.1147831328489998
 20
-0.0480720732029997
 30
0.0
 11
-0.1270264465469997
 21
-0.0509854606029996
 31
0.0
  0
LINE
  5
1E2
330
12F
100
AcDbEntity
  8
AM_4
100
AcDbLine
 10
-0.1056004507249997
 20
-0.0422449047019997
 30
0.0
 11
-0.1147831328489997
 21
-0.0480720732029997
 31
0.0
  0
LINE
  5
1E3
330
12F
100
AcDbEntity
  8
AM_4
100
AcDbLine
 10
-0.099478400175
 20
-0.0335047031319001
 30
0.0
 11
-0.1056004507249997
 21
-0.0422449047019997
 31
0.0
  0
LINE
  5
1E4
330
12F
100
AcDbEntity
  8
AM_4
100
AcDbLine
 10
-0.096417768601
 20
-0.0218508779411997
 30
0.0
 11
-0.099478400175
 21
-0.0335047031318999
 31
0.0
  0
LINE
  5
1E5
330
12F
100
AcDbEntity
  8
AM_4
100
AcDbLine
 10
-0.096417768601
 20
0.0218509000000002
 30
0.0
 11
-0.096417768601
 21
-0.0218508779411998
 31
0.0
  0
LINE
  5
1E6
330
12F
100
AcDbEntity
  8
AM_4
100
AcDbLine
 10
-0.0994784001749997
 20
0.0335046999999992
 30
0.0
 11
-0.0964177686009997
 21
0.0218508999999989
 31
0.0
  0
LINE
  5
1E7
330
12F
100
AcDbEntity
  8
AM_4
100
AcDbLine
 10
-0.1056004507250001
 20
0.0422449000000004
 30
0.0
 11
-0.0994784001749997
 21
0.0335046999999997
 31
0.0
  0
LINE
  5
1E8
330
12F
100
AcDbEntity
  8
AM_4
100
AcDbLine
 10
-0.1147831328490002
 20
0.0480720000000004
 30
0.0
 11
-0.1056004507250002
 21
0.0422449000000004
 31
0.0
  0
LINE
  5
1E9
330
12F
100
AcDbEntity
  8
AM_4
100
AcDbLine
 10
-0.1270264465470001
 20
0.0509854
 30
0.0
 11
-0.1147831328490001
 21
0.048072
 31
0.0
  0
LINE
  5
1EA
330
12F
100
AcDbEntity
  8
AM_4
100
AcDbLine
 10
-0.151513467644
 20
0.0509854000000003
 30
0.0
 11
-0.127026446547
 21
0.0509854000000002
 31
0.0
  0
LINE
  5
1EB
330
12F
100
AcDbEntity
  8
AM_4
100
AcDbLine
 10
-0.1637571750430018
 20
0.0480719999999999
 30
0.0
 11
-0.1515134676440017
 21
0.0509854
 31
0.0
  0
LINE
  5
1EC
330
12F
100
AcDbEntity
  8
AM_4
100
AcDbLine
 10
-0.1729394634660014
 20
0.0422448999999993
 30
0.0
 11
-0.1637571750430018
 21
0.048071999999999
 31
0.0
  0
LINE
  5
1ED
330
12F
100
AcDbEntity
  8
AM_4
100
AcDbLine
 10
-0.1790615140159993
 20
0.033504700000001
 30
0.0
 11
-0.1729394634660013
 21
0.0422448999999982
 31
0.0
  0
LINE
  5
1EE
330
12F
100
AcDbEntity
  8
AM_4
100
AcDbLine
 10
-0.053565383256
 20
0.0684661000000002
 30
0.0
 11
0.0198957
 21
0.0684661000000002
 31
0.0
  0
LINE
  5
1EF
330
12F
100
AcDbEntity
  8
AM_4
100
AcDbLine
 10
0.0198957
 20
-0.0684661787039998
 30
0.0
 11
-0.053565383256
 21
-0.0684661787039998
 31
0.0
  0
LINE
  5
1F0
330
12F
100
AcDbEntity
  8
AM_4
100
AcDbLine
 10
0.347409
 20
-0.0684661787039998
 30
0.0
 11
0.237218
 21
-0.0684661787039999
 31
0.0
  0
LINE
  5
1F1
330
12F
100
AcDbEntity
  8
AM_4
100
AcDbLine
 10
0.237218
 20
-0.0684661787039999
 30
0.0
 11
0.237218
 21
0.0684661000000002
 31
0.0
  0
LINE
  5
1F2
330
12F
100
AcDbEntity
  8
AM_4
100
AcDbLine
 10
0.237218
 20
0.0684661000000002
 30
0.0
 11
0.347409
 21
0.0684661000000002
 31
0.0
  0
LINE
  5
1F3
330
12F
100
AcDbEntity
  8
AM_4
100
AcDbLine
 10
0.347409
 20
0.0684661000000002
 30
0.0
 11
0.347409
 21
0.0509854000000002
 31
0.0
  0
LINE
  5
1F4
330
12F
100
AcDbEntity
  8
AM_4
100
AcDbLine
 10
0.347409
 20
0.0509854000000002
 30
0.0
 11
0.255583
 21
0.0509854000000003
 31
0.0
  0
LINE
  5
1F5
330
12F
100
AcDbEntity
  8
AM_4
100
AcDbLine
 10
0.255583
 20
0.0509854000000003
 30
0.0
 11
0.255583
 21
0.0131105000000002
 31
0.0
  0
LINE
  5
1F6
330
12F
100
AcDbEntity
  8
AM_4
100
AcDbLine
 10
0.255583
 20
0.0131105000000002
 30
0.0
 11
0.335166
 21
0.0131105000000002
 31
0.0
  0
LINE
  5
1F7
330
12F
100
AcDbEntity
  8
AM_4
100
AcDbLine
 10
0.335166
 20
0.0131105000000002
 30
0.0
 11
0.335166
 21
-0.0043701598401998
 31
0.0
  0
LINE
  5
1F8
330
12F
100
AcDbEntity
  8
AM_4
100
AcDbLine
 10
0.335166
 20
-0.0043701598401998
 30
0.0
 11
0.255583
 21
-0.0043701598401998
 31
0.0
  0
LINE
  5
1F9
330
12F
100
AcDbEntity
  8
AM_4
100
AcDbLine
 10
0.255583
 20
-0.0043701598401998
 30
0.0
 11
0.255583
 21
-0.0509854606029998
 31
0.0
  0
LINE
  5
1FA
330
12F
100
AcDbEntity
  8
AM_4
100
AcDbLine
 10
0.255583
 20
-0.0509854606029998
 30
0.0
 11
0.347409
 21
-0.0509854606029997
 31
0.0
  0
LINE
  5
1FB
330
12F
100
AcDbEntity
  8
AM_4
100
AcDbLine
 10
0.347409
 20
-0.0509854606029997
 30
0.0
 11
0.347409
 21
-0.0684661787039998
 31
0.0
  0
LINE
  5
1FC
330
12F
100
AcDbEntity
  8
AM_4
100
AcDbLine
 10
0.0933567
 20
-0.0218508779411998
 30
0.0
 11
0.0933567
 21
0.0218509000000002
 31
0.0
  0
LINE
  5
1FD
330
12F
100
AcDbEntity
  8
AM_4
100
AcDbLine
 10
0.0933566999999989
 20
0.0218508999999948
 30
0.0
 11
0.0964176999999974
 21
0.036418099999988
 31
0.0
  0
LINE
  5
1FE
330
12F
100
AcDbEntity
  8
AM_4
100
AcDbLine
 10
0.0964176999999975
 20
0.0364180999999953
 30
0.0
 11
0.1025389999999996
 21
0.0480719999999993
 31
0.0
  0
LINE
  5
1FF
330
12F
100
AcDbEntity
  8
AM_4
100
AcDbLine
 10
0.1025389999999996
 20
0.0480719999999998
 30
0.0
 11
0.114782999999999
 21
0.0597255999999993
 31
0.0
  0
LINE
  5
200
330
12F
100
AcDbEntity
  8
AM_4
100
AcDbLine
 10
0.1147829999999991
 20
0.0597255999999997
 30
0.0
 11
0.1270260000000008
 21
0.0655528000000005
 31
0.0
  0
LINE
  5
201
330
12F
100
AcDbEntity
  8
AM_4
100
AcDbLine
 10
0.1270260000000008
 20
0.0655528000000002
 30
0.0
 11
0.1423309999999984
 21
0.0684660999999997
 31
0.0
  0
LINE
  5
202
330
12F
100
AcDbEntity
  8
AM_4
100
AcDbLine
 10
0.142331
 20
0.0684661000000002
 30
0.0
 11
0.169879
 21
0.0684661000000002
 31
0.0
  0
LINE
  5
203
330
12F
100
AcDbEntity
  8
AM_4
100
AcDbLine
 10
0.1698790000000001
 20
0.0684661000000003
 30
0.0
 11
0.1851829999999997
 21
0.0655528000000004
 31
0.0
  0
LINE
  5
204
330
12F
100
AcDbEntity
  8
AM_4
100
AcDbLine
 10
0.1851829999999997
 20
0.0655528000000006
 30
0.0
 11
0.1974269999999997
 21
0.0597256000000006
 31
0.0
  0
LINE
  5
205
330
12F
100
AcDbEntity
  8
AM_4
100
AcDbLine
 10
0.1974269999999998
 20
0.0597256000000004
 30
0.0
 11
0.20967
 21
0.0480720000000002
 31
0.0
  0
LINE
  5
206
330
12F
100
AcDbEntity
  8
AM_4
100
AcDbLine
 10
0.20967
 20
0.048072
 30
0.0
 11
0.212731
 21
0.0335047000000003
 31
0.0
  0
LINE
  5
207
330
12F
100
AcDbEntity
  8
AM_4
100
AcDbLine
 10
0.212731
 20
0.0335047000000002
 30
0.0
 11
0.194366
 21
0.0335047000000001
 31
0.0
  0
LINE
  5
208
330
12F
100
AcDbEntity
  8
AM_4
100
AcDbLine
 10
0.1943660000000003
 20
0.0335046999999994
 30
0.0
 11
0.1913050000000016
 21
0.0422448999999959
 31
0.0
  0
LINE
  5
209
330
12F
100
AcDbEntity
  8
AM_4
100
AcDbLine
 10
0.1913050000000016
 20
0.0422448999999994
 30
0.0
 11
0.1821220000000005
 21
0.0480720000000001
 31
0.0
  0
LINE
  5
20A
330
12F
100
AcDbEntity
  8
AM_4
100
AcDbLine
 10
0.1821220000000005
 20
0.0480720000000002
 30
0.0
 11
0.1698790000000016
 21
0.0509853999999999
 31
0.0
  0
LINE
  5
20B
330
12F
100
AcDbEntity
  8
AM_4
100
AcDbLine
 10
0.169879
 20
0.0509854000000002
 30
0.0
 11
0.142331
 21
0.0509854000000003
 31
0.0
  0
LINE
  5
20C
330
12F
100
AcDbEntity
  8
AM_4
100
AcDbLine
 10
0.142331
 20
0.0509854000000004
 30
0.0
 11
0.1300870000000001
 21
0.0480720000000004
 31
0.0
  0
LINE
  5
20D
330
12F
100
AcDbEntity
  8
AM_4
100
AcDbLine
 10
0.1300870000000001
 20
0.0480720000000004
 30
0.0
 11
0.1209050000000002
 21
0.0422449000000005
 31
0.0
  0
LINE
  5
20E
330
12F
100
AcDbEntity
  8
AM_4
100
AcDbLine
 10
0.1209050000000002
 20
0.0422449000000004
 30
0.0
 11
0.1147829999999998
 21
0.0335046999999999
 31
0.0
  0
LINE
  5
20F
330
12F
100
AcDbEntity
  8
AM_4
100
AcDbLine
 10
0.1147829999999999
 20
0.0335046999999999
 30
0.0
 11
0.1117220000000001
 21
0.0218509000000006
 31
0.0
  0
LINE
  5
210
330
12F
100
AcDbEntity
  8
AM_4
100
AcDbLine
 10
0.111722
 20
0.0218509000000002
 30
0.0
 11
0.111722
 21
-0.0218508779411998
 31
0.0
  0
LINE
  5
211
330
12F
100
AcDbEntity
  8
AM_4
100
AcDbLine
 10
0.1117220000000004
 20
-0.021850877941201
 30
0.0
 11
0.1147830000000001
 21
-0.0335047031319002
 31
0.0
  0
LINE
  5
212
330
12F
100
AcDbEntity
  8
AM_4
100
AcDbLine
 10
0.1147830000000002
 20
-0.0335047031319001
 30
0.0
 11
0.1209049999999998
 21
-0.0422449047019996
 31
0.0
  0
LINE
  5
213
330
12F
100
AcDbEntity
  8
AM_4
100
AcDbLine
 10
0.1209049999999998
 20
-0.0422449047019997
 30
0.0
 11
0.1300869999999997
 21
-0.0480720732029996
 31
0.0
  0
LINE
  5
214
330
12F
100
AcDbEntity
  8
AM_4
100
AcDbLine
 10
0.1300869999999998
 20
-0.0480720732029997
 30
0.0
 11
0.1423310000000003
 21
-0.0509854606029998
 31
0.0
  0
LINE
  5
215
330
12F
100
AcDbEntity
  8
AM_4
100
AcDbLine
 10
0.142331
 20
-0.0509854606029998
 30
0.0
 11
0.169879
 21
-0.0509854606029997
 31
0.0
  0
LINE
  5
216
330
12F
100
AcDbEntity
  8
AM_4
100
AcDbLine
 10
0.1698790000000004
 20
-0.0509854606029996
 30
0.0
 11
0.1821219999999993
 21
-0.0480720732029999
 31
0.0
  0
LINE
  5
217
330
12F
100
AcDbEntity
  8
AM_4
100
AcDbLine
 10
0.1821219999999993
 20
-0.0480720732030002
 30
0.0
 11
0.1913050000000004
 21
-0.0422449047019995
 31
0.0
  0
LINE
  5
218
330
12F
100
AcDbEntity
  8
AM_4
100
AcDbLine
 10
0.1913050000000004
 20
-0.0422449047019988
 30
0.0
 11
0.1943659999999992
 21
-0.0335047031319023
 31
0.0
  0
LINE
  5
219
330
12F
100
AcDbEntity
  8
AM_4
100
AcDbLine
 10
0.194366
 20
-0.0335047031318998
 30
0.0
 11
0.194366
 21
-0.0101970921205998
 31
0.0
  0
LINE
  5
21A
330
12F
100
AcDbEntity
  8
AM_4
100
AcDbLine
 10
0.194366
 20
-0.0101970921205998
 30
0.0
 11
0.166818
 21
-0.0101970921205997
 31
0.0
  0
LINE
  5
21B
330
12F
100
AcDbEntity
  8
AM_4
100
AcDbLine
 10
0.166818
 20
-0.0101970921205997
 30
0.0
 11
0.166818
 21
0.0072836200000002
 31
0.0
  0
LINE
  5
21C
330
12F
100
AcDbEntity
  8
AM_4
100
AcDbLine
 10
0.166818
 20
0.0072836200000002
 30
0.0
 11
0.212731
 21
0.0072836200000002
 31
0.0
  0
LINE
  5
21D
330
12F
100
AcDbEntity
  8
AM_4
100
AcDbLine
 10
0.212731
 20
0.0072836200000002
 30
0.0
 11
0.212731
 21
-0.0364181299019998
 31
0.0
  0
LINE
  5
21E
330
12F
100
AcDbEntity
  8
AM_4
100
AcDbLine
 10
0.2127310000000003
 20
-0.0364181299019986
 30
0.0
 11
0.2096699999999997
 21
-0.0480720732030012
 31
0.0
  0
LINE
  5
21F
330
12F
100
AcDbEntity
  8
AM_4
100
AcDbLine
 10
0.2096699999999997
 20
-0.0480720732030002
 30
0.0
 11
0.1974270000000002
 21
-0.0597256228029998
 31
0.0
  0
LINE
  5
220
330
12F
100
AcDbEntity
  8
AM_4
100
AcDbLine
 10
0.1974270000000002
 20
-0.059725622803
 30
0.0
 11
0.1851830000000001
 21
-0.065552791304
 31
0.0
  0
LINE
  5
221
330
12F
100
AcDbEntity
  8
AM_4
100
AcDbLine
 10
0.1851830000000001
 20
-0.0655527913039998
 30
0.0
 11
0.1698789999999998
 21
-0.0684661787039998
 31
0.0
  0
LINE
  5
222
330
12F
100
AcDbEntity
  8
AM_4
100
AcDbLine
 10
0.169879
 20
-0.0684661787039998
 30
0.0
 11
0.142331
 21
-0.0684661787039999
 31
0.0
  0
LINE
  5
223
330
12F
100
AcDbEntity
  8
AM_4
100
AcDbLine
 10
0.1423310000000025
 20
-0.0684661787040004
 30
0.0
 11
0.1270260000000021
 21
-0.0655527913040003
 31
0.0
  0
LINE
  5
224
330
12F
100
AcDbEntity
  8
AM_4
100
AcDbLine
 10
0.127026000000002
 20
-0.0655527913040008
 30
0.0
 11
0.1147830000000002
 21
-0.059725622803
 31
0.0
  0
LINE
  5
225
330
12F
100
AcDbEntity
  8
AM_4
100
AcDbLine
 10
0.1147830000000002
 20
-0.0597256228029999
 30
0.0
 11
0.1025390000000008
 21
-0.0480720732030004
 31
0.0
  0
LINE
  5
226
330
12F
100
AcDbEntity
  8
AM_4
100
AcDbLine
 10
0.1025390000000008
 20
-0.0480720732030013
 30
0.0
 11
0.0964177000000015
 21
-0.0364181299020027
 31
0.0
  0
LINE
  5
227
330
12F
100
AcDbEntity
  8
AM_4
100
AcDbLine
 10
0.0964177000000015
 20
-0.0364181299020074
 30
0.0
 11
0.0933567000000001
 21
-0.0218508779412004
 31
0.0
  0
LINE
  5
228
330
12F
100
AcDbEntity
  8
AM_4
100
AcDbLine
 10
-0.053565383256
 20
-0.0684661787039998
 30
0.0
 11
-0.053565383256
 21
0.0684661000000002
 31
0.0
  0
LINE
  5
229
330
12F
100
AcDbEntity
  8
AM_4
100
AcDbLine
 10
0.0198957000000001
 20
0.0684661000000004
 30
0.0
 11
0.0352001000000002
 21
0.0655528000000004
 31
0.0
  0
LINE
  5
22A
330
12F
100
AcDbEntity
  8
AM_4
100
AcDbLine
 10
0.0352001000000002
 20
0.0655528000000002
 30
0.0
 11
0.0474437000000002
 21
0.0597256000000002
 31
0.0
  0
LINE
  5
22B
330
12F
100
AcDbEntity
  8
AM_4
100
AcDbLine
 10
0.0474437000000002
 20
0.0597256000000002
 30
0.0
 11
0.059687
 21
0.0480720000000004
 31
0.0
  0
LINE
  5
22C
330
12F
100
AcDbEntity
  8
AM_4
100
AcDbLine
 10
0.059687
 20
0.0480720000000001
 30
0.0
 11
0.0658090999999996
 21
0.0364181000000008
 31
0.0
  0
LINE
  5
22D
330
12F
100
AcDbEntity
  8
AM_4
100
AcDbLine
 10
0.0658091000000003
 20
0.0364180999999985
 30
0.0
 11
0.0688696999999999
 21
0.0218509000000008
 31
0.0
  0
LINE
  5
22E
330
12F
100
AcDbEntity
  8
AM_4
100
AcDbLine
 10
0.0688697
 20
0.0218509000000002
 30
0.0
 11
0.0688697
 21
-0.0218508779411998
 31
0.0
  0
LINE
  5
22F
330
12F
100
AcDbEntity
  8
AM_4
100
AcDbLine
 10
0.0688697000000003
 20
-0.0218508779411985
 30
0.0
 11
0.0658091
 21
-0.0364181299019999
 31
0.0
  0
LINE
  5
230
330
12F
100
AcDbEntity
  8
AM_4
100
AcDbLine
 10
0.0658091
 20
-0.0364181299019999
 30
0.0
 11
0.0596870000000004
 21
-0.0480720732029992
 31
0.0
  0
LINE
  5
231
330
12F
100
AcDbEntity
  8
AM_4
100
AcDbLine
 10
0.0596870000000004
 20
-0.0480720732029997
 30
0.0
 11
0.0474436999999999
 21
-0.0597256228030001
 31
0.0
  0
LINE
  5
232
330
12F
100
AcDbEntity
  8
AM_4
100
AcDbLine
 10
0.0474436999999999
 20
-0.0597256228030001
 30
0.0
 11
0.0352000999999999
 21
-0.0655527913040001
 31
0.0
  0
LINE
  5
233
330
12F
100
AcDbEntity
  8
AM_4
100
AcDbLine
 10
0.0352000999999999
 20
-0.065552791304
 30
0.0
 11
0.0198956999999997
 21
-0.068466178704
 31
0.0
  0
LINE
  5
234
330
12F
100
AcDbEntity
  8
AM_4
100
AcDbLine
 10
-0.200487509838
 20
-0.0218508779411998
 30
0.0
 11
-0.200487509838
 21
0.0218509000000002
 31
0.0
  0
LINE
  5
235
330
12F
100
AcDbEntity
  8
AM_4
100
AcDbLine
 10
-0.2004875098380009
 20
0.0218508999999962
 30
0.0
 11
-0.1974268782640008
 21
0.0364180999999962
 31
0.0
  0
LINE
  5
236
330
12F
100
AcDbEntity
  8
AM_4
100
AcDbLine
 10
-0.1974268782640008
 20
0.0364180999999985
 30
0.0
 11
-0.1913048277140008
 21
0.0480719999999985
 31
0.0
  0
LINE
  5
237
330
12F
100
AcDbEntity
  8
AM_4
100
AcDbLine
 10
-0.1913048277140008
 20
0.0480719999999997
 30
0.0
 11
-0.1790615140159994
 21
0.0597256000000011
 31
0.0
  0
LINE
  5
238
330
12F
100
AcDbEntity
  8
AM_4
100
AcDbLine
 10
-0.1790615140159993
 20
0.0597256000000006
 30
0.0
 11
-0.1668178066170006
 21
0.0655528
 31
0.0
  0
LINE
  5
239
330
12F
100
AcDbEntity
  8
AM_4
100
AcDbLine
 10
-0.1668178066170006
 20
0.0655528000000001
 30
0.0
 11
-0.1515134676440017
 21
0.0684660999999999
 31
0.0
  0
LINE
  5
23A
330
12F
100
AcDbEntity
  8
AM_4
100
AcDbLine
 10
-0.151513467644
 20
0.0684661000000002
 30
0.0
 11
-0.127026446547
 21
0.0684661000000002
 31
0.0
  0
LINE
  5
23B
330
12F
100
AcDbEntity
  8
AM_4
100
AcDbLine
 10
-0.1270264465470002
 20
0.0684661000000003
 30
0.0
 11
-0.111722107574
 21
0.0655528000000003
 31
0.0
  0
LINE
  5
23C
330
12F
100
AcDbEntity
  8
AM_4
100
AcDbLine
 10
-0.111722107574
 20
0.0655528
 30
0.0
 11
-0.0994784001749997
 21
0.0597255999999999
 31
0.0
  0
LINE
  5
23D
330
12F
100
AcDbEntity
  8
AM_4
100
AcDbLine
 10
-0.0994784001749997
 20
0.0597256000000002
 30
0.0
 11
-0.0872350864769999
 21
0.0480720000000003
 31
0.0
  0
LINE
  5
23E
330
12F
100
AcDbEntity
  8
AM_4
100
AcDbLine
 10
-0.0872350864769999
 20
0.0480720000000002
 30
0.0
 11
-0.0811134296280002
 21
0.0364181000000009
 31
0.0
  0
LINE
  5
23F
330
12F
100
AcDbEntity
  8
AM_4
100
AcDbLine
 10
-0.0811134296280002
 20
0.0364181000000015
 30
0.0
 11
-0.078052404353
 21
0.0218509000000004
 31
0.0
  0
LINE
  5
240
330
12F
100
AcDbEntity
  8
AM_4
100
AcDbLine
 10
-0.078052404353
 20
0.0218509000000002
 30
0.0
 11
-0.078052404353
 21
-0.0218508779411998
 31
0.0
  0
LINE
  5
241
330
12F
100
AcDbEntity
  8
AM_4
100
AcDbLine
 10
-0.0780524043530003
 20
-0.0218508779412013
 30
0.0
 11
-0.0811134296279998
 21
-0.036418129901999
 31
0.0
  0
LINE
  5
242
330
12F
100
AcDbEntity
  8
AM_4
100
AcDbLine
 10
-0.0811134296279998
 20
-0.0364181299019992
 30
0.0
 11
-0.0872350864770002
 21
-0.0480720732029999
 31
0.0
  0
LINE
  5
243
330
12F
100
AcDbEntity
  8
AM_4
100
AcDbLine
 10
-0.0872350864770002
 20
-0.048072073203
 30
0.0
 11
-0.099478400175
 21
-0.0597256228029998
 31
0.0
  0
LINE
  5
244
330
12F
100
AcDbEntity
  8
AM_4
100
AcDbLine
 10
-0.099478400175
 20
-0.059725622803
 30
0.0
 11
-0.1117221075739996
 21
-0.0655527913039998
 31
0.0
  0
LINE
  5
245
330
12F
100
AcDbEntity
  8
AM_4
100
AcDbLine
 10
-0.1117221075740003
 20
-0.065552791304
 30
0.0
 11
-0.1270264465469997
 21
-0.0684661787039999
 31
0.0
  0
LINE
  5
246
330
12F
100
AcDbEntity
  8
AM_4
100
AcDbLine
 10
-0.127026446547
 20
-0.0684661787039998
 30
0.0
 11
-0.151513467644
 21
-0.0684661787039999
 31
0.0
  0
LINE
  5
247
330
12F
100
AcDbEntity
  8
AM_4
100
AcDbLine
 10
-0.1515134676439976
 20
-0.0684661787040002
 30
0.0
 11
-0.1668178066169995
 21
-0.0655527913039998
 31
0.0
  0
LINE
  5
248
330
12F
100
AcDbEntity
  8
AM_4
100
AcDbLine
 10
-0.1668178066169994
 20
-0.0655527913040002
 30
0.0
 11
-0.1790615140159982
 21
-0.0597256228030008
 31
0.0
  0
LINE
  5
249
330
12F
100
AcDbEntity
  8
AM_4
100
AcDbLine
 10
-0.1790615140159982
 20
-0.0597256228030015
 30
0.0
 11
-0.1913048277139997
 21
-0.0480720732030001
 31
0.0
  0
LINE
  5
24A
330
12F
100
AcDbEntity
  8
AM_4
100
AcDbLine
 10
-0.1913048277139997
 20
-0.0480720732030003
 30
0.0
 11
-0.1974268782639997
 21
-0.0364181299020003
 31
0.0
  0
LINE
  5
24B
330
12F
100
AcDbEntity
  8
AM_4
100
AcDbLine
 10
-0.1974268782639997
 20
-0.036418129902001
 30
0.0
 11
-0.2004875098379998
 21
-0.021850877941201
 31
0.0
  0
LINE
  5
24C
330
12F
100
AcDbEntity
  8
AM_4
100
AcDbLine
 10
-0.3474096364199999
 20
-0.0684661787039998
 30
0.0
 11
-0.3474096364199999
 21
0.0684661000000002
 31
0.0
  0
LINE
  5
24D
330
12F
100
AcDbEntity
  8
AM_4
100
AcDbLine
 10
-0.3474096364199999
 20
0.0684661000000002
 30
0.0
 11
-0.273948573129
 21
0.0684661000000002
 31
0.0
  0
LINE
  5
24E
330
12F
100
AcDbEntity
  8
AM_4
100
AcDbLine
 10
-0.2739485731289999
 20
0.0684661000000001
 30
0.0
 11
-0.2586442341559997
 21
0.0655528000000001
 31
0.0
  0
LINE
  5
24F
330
12F
100
AcDbEntity
  8
AM_4
100
AcDbLine
 10
-0.2586442341559997
 20
0.0655528000000002
 30
0.0
 11
-0.2464009204579999
 21
0.0597256000000003
 31
0.0
  0
LINE
  5
250
330
12F
100
AcDbEntity
  8
AM_4
100
AcDbLine
 10
-0.2464009204579998
 20
0.0597256000000004
 30
0.0
 11
-0.2341572130590002
 21
0.0480720000000008
 31
0.0
  0
LINE
  5
251
330
12F
100
AcDbEntity
  8
AM_4
100
AcDbLine
 10
-0.2341572130590002
 20
0.0480720000000004
 30
0.0
 11
-0.2280355562099999
 21
0.0364180999999999
 31
0.0
  0
LINE
  5
252
330
12F
100
AcDbEntity
  8
AM_4
100
AcDbLine
 10
-0.2280355562099999
 20
0.0364180999999997
 30
0.0
 11
-0.2249745309349999
 21
0.0218508999999997
 31
0.0
  0
LINE
  5
253
330
12F
100
AcDbEntity
  8
AM_4
100
AcDbLine
 10
-0.224974530935
 20
0.0218509000000002
 30
0.0
 11
-0.224974530935
 21
-0.0218508779411998
 31
0.0
  0
LINE
  5
254
330
12F
100
AcDbEntity
  8
AM_4
100
AcDbLine
 10
-0.2249745309350003
 20
-0.0218508779412017
 30
0.0
 11
-0.2280355562099996
 21
-0.0364181299019984
 31
0.0
  0
LINE
  5
255
330
12F
100
AcDbEntity
  8
AM_4
100
AcDbLine
 10
-0.2280355562099996
 20
-0.0364181299019991
 30
0.0
 11
-0.2341572130589999
 21
-0.0480720732029996
 31
0.0
  0
LINE
  5
256
330
12F
100
AcDbEntity
  8
AM_4
100
AcDbLine
 10
-0.2341572130589999
 20
-0.0480720732029997
 30
0.0
 11
-0.2464009204580002
 21
-0.059725622803
 31
0.0
  0
LINE
  5
257
330
12F
100
AcDbEntity
  8
AM_4
100
AcDbLine
 10
-0.2464009204580002
 20
-0.0597256228029998
 30
0.0
 11
-0.2586442341560001
 21
-0.0655527913039998
 31
0.0
  0
LINE
  5
258
330
12F
100
AcDbEntity
  8
AM_4
100
AcDbLine
 10
-0.2586442341560001
 20
-0.065552791304
 30
0.0
 11
-0.2739485731290003
 21
-0.0684661787040001
 31
0.0
  0
LINE
  5
259
330
12F
100
AcDbEntity
  8
AM_4
100
AcDbLine
 10
-0.273948573129
 20
-0.0684661787039998
 30
0.0
 11
-0.3474096364199999
 21
-0.0684661787039998
 31
0.0
  0
LWPOLYLINE
  5
25A
330
12F
100
AcDbEntity
  8
AM_4
100
AcDbPolyline
 90
        6
 70
     0
 43
0.0
 10
-3.129904883661356
 20
-0.1049377451364422
 10
-3.12661802718981
 20
-0.0603153642539489
 10
-3.125071582054652
 20
-0.0126907249193274
 10
-3.125515689680999
 20
0.0340592989710949
 10
-3.127934372279091
 20
0.0812017677595964
 10
-3.129904883661356
 20
0.1049377451364414
  0
LINE
  5
25B
330
12F
100
AcDbEntity
  8
AM_4
100
AcDbLine
 10
-3.129904883661356
 20
-1.165099804562934
 30
0.0
 11
-3.129904883661356
 21
-0.1049377451364422
 31
0.0
  0
LINE
  5
25C
330
12F
100
AcDbEntity
  8
AM_4
100
AcDbLine
 10
3.129904883661356
 20
-1.165099804562934
 30
0.0
 11
3.129904883661356
 21
-0.1049377451364361
 31
0.0
  0
LWPOLYLINE
  5
25D
330
12F
100
AcDbEntity
  8
AM_4
100
AcDbPolyline
 90
        6
 70
     0
 43
0.0
 10
3.129904883661356
 20
0.1049377451364367
 10
3.12661802718981
 20
0.0603153642539433
 10
3.125071582054652
 20
0.0126907249193219
 10
3.125515689680999
 20
-0.0340592989710999
 10
3.127934372279091
 20
-0.0812017677596007
 10
3.129904883661356
 20
-0.1049377451364362
  0
LINE
  5
25E
330
12F
100
AcDbEntity
  8
AM_4
100
AcDbLine
 10
3.129904883661356
 20
0.1049377451364366
 30
0.0
 11
3.129904883661356
 21
1.165099804562934
 31
0.0
  0
LINE
  5
25F
330
12F
100
AcDbEntity
  8
AM_4
100
AcDbLine
 10
-3.129904883661356
 20
0.1049377451364371
 30
0.0
 11
-3.129904883661356
 21
1.165099804562934
 31
0.0
  0
LINE
  5
260
330
12F
100
AcDbEntity
  8
AM_4
100
AcDbLine
 10
3.129904883661356
 20
1.165099804562934
 30
0.0
 11
3.910000000000001
 21
1.4375
 31
0.0
  0
LWPOLYLINE
  5
261
330
12F
100
AcDbEntity
  8
AM_4
100
AcDbPolyline
 90
        6
 70
     0
 43
0.0
 10
-2.349999999999995
 20
1.312908752074286
 10
-2.429349228943124
 20
1.295424452778003
 10
-2.490209643372825
 20
1.277427224366996
 10
-2.532118058786765
 20
1.259054036616497
 10
-2.554755526838652
 20
1.240444720579321
 10
-2.55905
 20
1.228027814207651
  0
LINE
  5
262
330
12F
100
AcDbEntity
  8
AM_4
100
AcDbLine
 10
-3.910000000000001
 20
1.4375
 30
0.0
 11
-3.129904883661356
 21
1.165099804562934
 31
0.0
  0
LWPOLYLINE
  5
263
330
12F
100
AcDbEntity
  8
AM_4
100
AcDbPolyline
 90
       32
 70
     0
 43
0.0
 10
-3.129904883661356
 20
1.165099804562934
 10
-3.052538019728619
 20
1.142482565912442
 10
-2.951939498292898
 20
1.120516378255109
 10
-2.828874934845365
 20
1.099368417542555
 10
-2.684280925022271
 20
1.07919963252529
 10
-2.519257916546621
 20
1.060163519835541
 10
-2.335061834156531
 20
1.042404955785196
 10
-2.133094521259625
 20
1.026059093769592
 10
-1.914893071058245
 20
1.011250335668569
 10
-1.682118128342064
 20
0.9980913850730492
 10
-1.436541250978504
 20
0.9866823895426555
 10
-1.180031427287674
 20
0.9771101784223141
 10
-0.9145408519127284
 20
0.9694476020185101
 10
-0.6420900684398622
 20
0.9637529771644665
 10
-0.3647525918415852
 20
0.9600696433938308
 10
-0.0846391277757571
 20
0.9584256331006559
 10
0.1961184911589471
 20
0.9588334581959527
 10
0.4753835299563492
 20
0.9612900148844948
 10
0.75103061304636
 20
0.965776607286573
 10
1.020961899686405
 20
0.9722590897249288
 10
1.283123049796187
 20
0.9806881265939766
 10
1.535518858726139
 20
0.9909995678335509
 10
1.776228441969548
 20
1.0031149371496
 10
2.003419854253512
 20
1.01694202926617
 10
2.215364031748625
 20
1.032375611663226
 10
2.410447951288756
 20
1.049298225459675
 10
2.587186906451312
 20
1.067581079346372
 10
2.744235807069608
 20
1.087085029765751
 10
2.880399416181219
 20
1.107661639878313
 10
2.994641446502971
 20
1.129154309256604
 10
3.086092447202892
 20
1.151399465709028
 10
3.129904883661355
 20
1.165099804562934
  0
LINE
  5
264
330
12F
100
AcDbEntity
  8
AM_4
100
AcDbLine
 10
3.910000000000002
 20
-1.4375
 30
0.0
 11
3.129904883661356
 21
-1.165099804562934
 31
0.0
  0
LWPOLYLINE
  5
265
330
12F
100
AcDbEntity
  8
AM_4
100
AcDbPolyline
 90
       32
 70
     0
 43
0.0
 10
3.129904883661356
 20
-1.165099804562935
 10
3.05253801972862
 20
-1.142482565912442
 10
2.951939498292899
 20
-1.120516378255109
 10
2.828874934845366
 20
-1.099368417542555
 10
2.684280925022272
 20
-1.07919963252529
 10
2.519257916546623
 20
-1.060163519835541
 10
2.335061834156533
 20
-1.042404955785196
 10
2.133094521259627
 20
-1.026059093769592
 10
1.914893071058248
 20
-1.011250335668569
 10
1.682118128342067
 20
-0.998091385073049
 10
1.436541250978507
 20
-0.9866823895426553
 10
1.180031427287678
 20
-0.9771101784223138
 10
0.9145408519127318
 20
-0.9694476020185098
 10
0.6420900684398657
 20
-0.9637529771644661
 10
0.3647525918415888
 20
-0.9600696433938306
 10
0.0846391277757607
 20
-0.9584256331006554
 10
-0.1961184911589436
 20
-0.9588334581959523
 10
-0.4753835299563456
 20
-0.9612900148844943
 10
-0.7510306130463564
 20
-0.9657766072865726
 10
-1.020961899686402
 20
-0.9722590897249282
 10
-1.283123049796183
 20
-0.9806881265939759
 10
-1.535518858726136
 20
-0.9909995678335503
 10
-1.776228441969545
 20
-1.0031149371496
 10
-2.00341985425351
 20
-1.016942029266169
 10
-2.215364031748623
 20
-1.032375611663225
 10
-2.410447951288754
 20
-1.049298225459674
 10
-2.58718690645131
 20
-1.067581079346371
 10
-2.744235807069606
 20
-1.08708502976575
 10
-2.880399416181217
 20
-1.107661639878312
 10
-2.99464144650297
 20
-1.129154309256604
 10
-3.086092447202891
 20
-1.151399465709027
 10
-3.129904883661356
 20
-1.165099804562934
  0
LINE
  5
266
330
12F
100
AcDbEntity
  8
AM_4
100
AcDbLine
 10
-3.129904883661356
 20
-1.165099804562934
 30
0.0
 11
-3.910000000000001
 21
-1.4375
 31
0.0
  0
LWPOLYLINE
  5
267
330
12F
100
AcDbEntity
  8
AM_4
100
AcDbPolyline
 90
        6
 70
     0
 43
0.0
 10
2.350000000000001
 20
-1.312908752074285
 10
2.429349228943129
 20
-1.295424452778001
 10
2.490209643372829
 20
-1.277427224366994
 10
2.532118058786768
 20
-1.259054036616495
 10
2.554755526838653
 20
-1.24044472057932
 10
2.55905
 20
-1.22802781420765
  0
LINE
  5
268
330
12F
100
AcDbEntity
  8
AM_4
100
AcDbLine
 10
0.0198957
 20
-0.0509854606029997
 30
0.0
 11
-0.0352000977482
 21
-0.0509854606029997
 31
0.0
  0
LINE
  5
269
330
12F
100
AcDbEntity
  8
AM_4
100
AcDbLine
 10
-0.0352000977482
 20
0.0509854000000003
 30
0.0
 11
0.0198957
 21
0.0509854000000002
 31
0.0
  0
LINE
  5
26A
330
12F
100
AcDbEntity
  8
AM_4
100
AcDbLine
 10
0.0321392000000002
 20
-0.0480720732029999
 30
0.0
 11
0.0198956999999997
 21
-0.050985460603
 31
0.0
  0
LINE
  5
26B
330
12F
100
AcDbEntity
  8
AM_4
100
AcDbLine
 10
0.0413217
 20
-0.0422449047019995
 30
0.0
 11
0.0321392000000002
 21
-0.0480720732029994
 31
0.0
  0
LINE
  5
26C
330
12F
100
AcDbEntity
  8
AM_4
100
AcDbLine
 10
0.0474436999999999
 20
-0.0335047031319001
 30
0.0
 11
0.0413217000000001
 21
-0.0422449047019999
 31
0.0
  0
LINE
  5
26D
330
12F
100
AcDbEntity
  8
AM_4
100
AcDbLine
 10
0.0505042999999998
 20
-0.0218508779412005
 30
0.0
 11
0.0474436999999999
 21
-0.0335047031319004
 31
0.0
  0
LINE
  5
26E
330
12F
100
AcDbEntity
  8
AM_4
100
AcDbLine
 10
0.0505043
 20
0.0218509000000002
 30
0.0
 11
0.0505043
 21
-0.0218508779411998
 31
0.0
  0
LINE
  5
26F
330
12F
100
AcDbEntity
  8
AM_4
100
AcDbLine
 10
0.0474437000000002
 20
0.0335046999999997
 30
0.0
 11
0.0505043000000002
 21
0.0218508999999997
 31
0.0
  0
LINE
  5
270
330
12F
100
AcDbEntity
  8
AM_4
100
AcDbLine
 10
0.0413216999999996
 20
0.0422449000000007
 30
0.0
 11
0.0474437000000002
 21
0.0335046999999999
 31
0.0
  0
LINE
  5
271
330
12F
100
AcDbEntity
  8
AM_4
100
AcDbLine
 10
0.0321391999999998
 20
0.0480720000000002
 30
0.0
 11
0.0413216999999996
 21
0.0422449000000003
 31
0.0
  0
LINE
  5
272
330
12F
100
AcDbEntity
  8
AM_4
100
AcDbLine
 10
0.0198957000000001
 20
0.0509854000000004
 30
0.0
 11
0.0321391999999998
 21
0.0480720000000004
 31
0.0
  0
LINE
  5
273
330
12F
100
AcDbEntity
  8
AM_4
100
AcDbLine
 10
-0.0352000977482
 20
-0.0509854606029997
 30
0.0
 11
-0.0352000977482
 21
0.0509854000000003
 31
0.0
  0
ENDBLK
  5
132
330
12F
100
AcDbEntity
  8
0
100
AcDbBlockEnd
  0
ENDSEC
  0
SECTION
  2
ENTITIES
  0
INSERT
  5
6F
330
1F
100
AcDbEntity
  8
0
100
AcDbBlockReference
  2
1_129173_4
 10
0.0
 20
0.0
 30
0.0
  0
POINT
  5
275
330
1F
100
AcDbEntity
  8
ConnectionPoints
100
AcDbPoint
 10
0.0
 20
0.0
 30
0.0
  0
POINT
  5
276
330
1F
100
AcDbEntity
  8
ConnectionPoints
100
AcDbPoint
 10
0.0
 20
0.890625
 30
-0.0000000000000001
  0
POINT
  5
277
330
1F
100
AcDbEntity
  8
ConnectionPoints
100
AcDbPoint
 10
0.0
 20
0.0
 30
0.0
  0
POINT
  5
278
330
1F
100
AcDbEntity
  8
ConnectionPoints
100
AcDbPoint
 10
0.0
 20
0.0
 30
0.0
  0
ENDSEC
  0
SECTION
  2
OBJECTS
  0
DICTIONARY
  5
C
330
0
100
AcDbDictionary
281
     1
  3
ACAD_DETAILVIEWSTYLE
350
280
  3
ACAD_GROUP
350
D
  3
ACAD_LAYOUT
350
1A
  3
ACAD_MATERIAL
350
43
  3
ACAD_MLEADERSTYLE
350
6B
  3
ACAD_MLINESTYLE
350
17
  3
ACAD_PLOTSETTINGS
350
19
  3
ACAD_PLOTSTYLENAME
350
E
  3
ACAD_SCALELIST
350
47
  3
ACAD_SECTIONVIEWSTYLE
350
281
  3
ACAD_TABLESTYLE
350
69
  3
ACAD_VISUALSTYLE
350
2A
  3
ACDB_RECOMPOSE_DATA
350
27D
  3
AcDbVariableDictionary
350
279
  0
SUN
  5
6D
330
29
100
AcDbSun
 90
        1
290
     0
 63
     7
421
 16777215
 40
1.0
291
     1
 91
  2455826
 92
 54000000
292
     0
 70
     2
 71
   256
280
     1
  0
DICTIONARY
  5
280
102
{ACAD_REACTORS
330
C
102
}
330
C
100
AcDbDictionary
281
     1
  0
DICTIONARY
  5
D
102
{ACAD_REACTORS
330
C
102
}
330
C
100
AcDbDictionary
281
     1
  0
DICTIONARY
  5
1A
102
{ACAD_REACTORS
330
C
102
}
330
C
100
AcDbDictionary
281
     1
  3
Layout1
350
1E
  3
Layout2
350
26
  3
Model
350
22
  0
DICTIONARY
  5
43
102
{ACAD_REACTORS
330
C
102
}
330
C
100
AcDbDictionary
281
     1
  3
ByBlock
350
45
  3
ByLayer
350
44
  3
Global
350
46
  0
DICTIONARY
  5
6B
102
{ACAD_REACTORS
330
C
102
}
330
C
100
AcDbDictionary
281
     1
  3
Standard
350
6C
  0
DICTIONARY
  5
17
102
{ACAD_REACTORS
330
C
102
}
330
C
100
AcDbDictionary
281
     1
  3
Standard
350
18
  0
DICTIONARY
  5
19
102
{ACAD_REACTORS
330
C
102
}
330
C
100
AcDbDictionary
281
     1
  0
ACDBDICTIONARYWDFLT
  5
E
102
{ACAD_REACTORS
330
C
102
}
330
C
100
AcDbDictionary
281
     1
  3
Normal
350
F
100
AcDbDictionaryWithDefault
340
F
  0
DICTIONARY
  5
47
102
{ACAD_REACTORS
330
C
102
}
330
C
100
AcDbDictionary
281
     1
  3
A0
350
48
  3
A1
350
49
  3
A2
350
4A
  3
A3
350
4B
  3
A4
350
4C
  3
A5
350
4D
  3
A6
350
4E
  3
A7
350
4F
  3
A8
350
50
  3
A9
350
51
  3
B0
350
52
  3
B1
350
53
  3
B2
350
54
  3
B3
350
55
  3
B4
350
56
  3
B5
350
57
  3
B6
350
58
  3
B7
350
59
  3
B8
350
5A
  3
B9
350
5B
  3
C0
350
5C
  3
C1
350
5D
  3
C2
350
5E
  3
C3
350
5F
  3
C4
350
60
  3
C5
350
61
  3
C6
350
62
  3
C7
350
63
  3
C8
350
64
  3
C9
350
65
  3
D0
350
66
  3
D1
350
67
  3
D2
350
68
  0
DICTIONARY
  5
281
102
{ACAD_REACTORS
330
C
102
}
330
C
100
AcDbDictionary
281
     1
  0
DICTIONARY
  5
69
102
{ACAD_REACTORS
330
C
102
}
330
C
100
AcDbDictionary
281
     1
  3
Standard
350
6A
  0
DICTIONARY
  5
2A
102
{ACAD_REACTORS
330
C
102
}
330
C
100
AcDbDictionary
281
     1
  3
2dWireframe
350
2F
  3
Basic
350
32
  3
Brighten
350
36
  3
ColorChange
350
3A
  3
Conceptual
350
34
  3
Dim
350
35
  3
EdgeColorOff
350
3D
  3
Facepattern
350
39
  3
Flat
350
2B
  3
FlatWithEdges
350
2C
  3
Gouraud
350
2D
  3
GouraudWithEdges
350
2E
  3
Hidden
350
31
  3
JitterOff
350
3B
  3
Linepattern
350
38
  3
OverhangOff
350
3C
  3
Realistic
350
33
  3
Shaded
350
42
  3
Shaded with edges
350
41
  3
Shades of Gray
350
3E
  3
Sketchy
350
3F
  3
Thicken
350
37
  3
Wireframe
350
30
  3
X-Ray
350
40
  0
XRECORD
  5
27D
102
{ACAD_REACTORS
330
C
102
}
330
C
100
AcDbXrecord
280
     1
 90
        1
330
6A
  0
DICTIONARY
  5
279
102
{ACAD_REACTORS
330
C
102
}
330
C
100
AcDbDictionary
281
     1
  3
CANNOSCALE
350
27A
  3
CMLEADERSTYLE
350
27F
  3
CTABLESTYLE
350
27E
  0
LAYOUT
  5
1E
102
{ACAD_REACTORS
330
1A
102
}
330
1A
100
AcDbPlotSettings
  1

  2
none_device
  4

  6

 40
0.0
 41
0.0
 42
0.0
 43
0.0
 44
0.0
 45
0.0
 46
0.0
 47
0.0
 48
0.0
 49
0.0
140
0.0
141
0.0
142
1.0
143
1.0
 70
   688
 72
     0
 73
     0
 74
     5
  7

 75
    16
 76
     0
 77
     2
 78
   300
147
1.0
148
0.0
149
0.0
100
AcDbLayout
  1
Layout1
 70
     1
 71
     1
 10
0.0
 20
0.0
 11
12.0
 21
9.0
 12
0.0
 22
0.0
 32
0.0
 14
1.000000000000000E+20
 24
1.000000000000000E+20
 34
1.000000000000000E+20
 15
-1.000000000000000E+20
 25
-1.000000000000000E+20
 35
-1.000000000000000E+20
146
0.0
 13
0.0
 23
0.0
 33
0.0
 16
1.0
 26
0.0
 36
0.0
 17
0.0
 27
1.0
 37
0.0
 76
     0
330
1B
  0
LAYOUT
  5
26
102
{ACAD_REACTORS
330
1A
102
}
330
1A
100
AcDbPlotSettings
  1

  2
none_device
  4

  6

 40
0.0
 41
0.0
 42
0.0
 43
0.0
 44
0.0
 45
0.0
 46
0.0
 47
0.0
 48
0.0
 49
0.0
140
0.0
141
0.0
142
1.0
143
1.0
 70
   688
 72
     0
 73
     0
 74
     5
  7

 75
    16
 76
     0
 77
     2
 78
   300
147
1.0
148
0.0
149
0.0
100
AcDbLayout
  1
Layout2
 70
     1
 71
     2
 10
0.0
 20
0.0
 11
0.0
 21
0.0
 12
0.0
 22
0.0
 32
0.0
 14
0.0
 24
0.0
 34
0.0
 15
0.0
 25
0.0
 35
0.0
146
0.0
 13
0.0
 23
0.0
 33
0.0
 16
1.0
 26
0.0
 36
0.0
 17
0.0
 27
1.0
 37
0.0
 76
     0
330
23
  0
LAYOUT
  5
22
102
{ACAD_REACTORS
330
1A
102
}
330
1A
100
AcDbPlotSettings
  1

  2
none_device
  4
Letter_(8.50_x_11.00_Inches)
  6

 40
6.35
 41
6.35
 42
6.35000508
 43
6.35000508
 44
215.9
 45
279.4
 46
0.0
 47
0.0
 48
0.0
 49
0.0
140
0.0
141
0.0
142
1.0
143
1.0
 70
  1712
 72
     0
 73
     0
 74
     0
  7

 75
     0
 76
     0
 77
     2
 78
   300
147
1.0
148
0.0
149
0.0
100
AcDbLayout
  1
Model
 70
     1
 71
     0
 10
0.0
 20
0.0
 11
12.0
 21
9.0
 12
0.0
 22
0.0
 32
0.0
 14
1.000000000000000E+20
 24
1.000000000000000E+20
 34
1.000000000000000E+20
 15
-1.000000000000000E+20
 25
-1.000000000000000E+20
 35
-1.000000000000000E+20
146
0.0
 13
0.0
 23
0.0
 33
0.0
 16
1.0
 26
0.0
 36
0.0
 17
0.0
 27
1.0
 37
0.0
 76
     0
330
1F
331
29
  0
MATERIAL
  5
45
102
{ACAD_REACTORS
330
43
102
}
330
43
100
AcDbMaterial
  1
ByBlock
 72
     1
 94
      127
  0
MATERIAL
  5
44
102
{ACAD_REACTORS
330
43
102
}
330
43
100
AcDbMaterial
  1
ByLayer
 72
     1
 94
      127
  0
MATERIAL
  5
46
102
{ACAD_REACTORS
330
43
102
}
330
43
100
AcDbMaterial
  1
Global
 72
     1
 94
      127
  0
MLEADERSTYLE
  5
6C
102
{ACAD_REACTORS
330
6B
102
}
330
6B
100
AcDbMLeaderStyle
179
     2
170
     2
171
     1
172
     0
 90
        2
 40
0.0
 41
0.0
173
     1
 91
-1056964608
340
14
 92
       -2
290
     1
 42
0.09
291
     1
 43
0.36
  3
Standard
341
0
 44
0.18
300

342
11
174
     1
178
     6
175
     1
176
     0
 93
-1056964608
 45
0.18
292
     0
297
     0
 46
0.18
343
0
 94
-1056964608
 47
1.0
 49
1.0
140
1.0
293
     1
141
0.0
294
     1
177
     0
142
1.0
295
     0
296
     0
143
0.125
271
     0
272
     9
273
     9
298
     0
  0
MLINESTYLE
  5
18
102
{ACAD_REACTORS
330
17
102
}
330
17
100
AcDbMlineStyle
  2
Standard
 70
     0
  3

 62
   256
 51
90.0
 52
90.0
 71
     2
 49
0.5
 62
   256
  6
BYLAYER
 49
-0.5
 62
   256
  6
BYLAYER
  0
ACDBPLACEHOLDER
  5
F
102
{ACAD_REACTORS
330
E
102
}
330
E
  0
SCALE
  5
48
102
{ACAD_REACTORS
330
47
102
}
330
47
100
AcDbScale
 70
     0
300
1:1
140
1.0
141
1.0
290
     1
  0
SCALE
  5
49
102
{ACAD_REACTORS
330
47
102
}
330
47
100
AcDbScale
 70
     0
300
1:2
140
1.0
141
2.0
290
     0
  0
SCALE
  5
4A
102
{ACAD_REACTORS
330
47
102
}
330
47
100
AcDbScale
 70
     0
300
1:4
140
1.0
141
4.0
290
     0
  0
SCALE
  5
4B
102
{ACAD_REACTORS
330
47
102
}
330
47
100
AcDbScale
 70
     0
300
1:5
140
1.0
141
5.0
290
     0
  0
SCALE
  5
4C
102
{ACAD_REACTORS
330
47
102
}
330
47
100
AcDbScale
 70
     0
300
1:8
140
1.0
141
8.0
290
     0
  0
SCALE
  5
4D
102
{ACAD_REACTORS
330
47
102
}
330
47
100
AcDbScale
 70
     0
300
1:10
140
1.0
141
10.0
290
     0
  0
SCALE
  5
4E
102
{ACAD_REACTORS
330
47
102
}
330
47
100
AcDbScale
 70
     0
300
1:16
140
1.0
141
16.0
290
     0
  0
SCALE
  5
4F
102
{ACAD_REACTORS
330
47
102
}
330
47
100
AcDbScale
 70
     0
300
1:20
140
1.0
141
20.0
290
     0
  0
SCALE
  5
50
102
{ACAD_REACTORS
330
47
102
}
330
47
100
AcDbScale
 70
     0
300
1:30
140
1.0
141
30.0
290
     0
  0
SCALE
  5
51
102
{ACAD_REACTORS
330
47
102
}
330
47
100
AcDbScale
 70
     0
300
1:40
140
1.0
141
40.0
290
     0
  0
SCALE
  5
52
102
{ACAD_REACTORS
330
47
102
}
330
47
100
AcDbScale
 70
     0
300
1:50
140
1.0
141
50.0
290
     0
  0
SCALE
  5
53
102
{ACAD_REACTORS
330
47
102
}
330
47
100
AcDbScale
 70
     0
300
1:100
140
1.0
141
100.0
290
     0
  0
SCALE
  5
54
102
{ACAD_REACTORS
330
47
102
}
330
47
100
AcDbScale
 70
     0
300
2:1
140
2.0
141
1.0
290
     0
  0
SCALE
  5
55
102
{ACAD_REACTORS
330
47
102
}
330
47
100
AcDbScale
 70
     0
300
4:1
140
4.0
141
1.0
290
     0
  0
SCALE
  5
56
102
{ACAD_REACTORS
330
47
102
}
330
47
100
AcDbScale
 70
     0
300
8:1
140
8.0
141
1.0
290
     0
  0
SCALE
  5
57
102
{ACAD_REACTORS
330
47
102
}
330
47
100
AcDbScale
 70
     0
300
10:1
140
10.0
141
1.0
290
     0
  0
SCALE
  5
58
102
{ACAD_REACTORS
330
47
102
}
330
47
100
AcDbScale
 70
     0
300
100:1
140
100.0
141
1.0
290
     0
  0
SCALE
  5
59
102
{ACAD_REACTORS
330
47
102
}
330
47
100
AcDbScale
 70
     0
300
1/128" = 1'-0"
140
0.0078125
141
12.0
290
     0
  0
SCALE
  5
5A
102
{ACAD_REACTORS
330
47
102
}
330
47
100
AcDbScale
 70
     0
300
1/64" = 1'-0"
140
0.015625
141
12.0
290
     0
  0
SCALE
  5
5B
102
{ACAD_REACTORS
330
47
102
}
330
47
100
AcDbScale
 70
     0
300
1/32" = 1'-0"
140
0.03125
141
12.0
290
     0
  0
SCALE
  5
5C
102
{ACAD_REACTORS
330
47
102
}
330
47
100
AcDbScale
 70
     0
300
1/16" = 1'-0"
140
0.0625
141
12.0
290
     0
  0
SCALE
  5
5D
102
{ACAD_REACTORS
330
47
102
}
330
47
100
AcDbScale
 70
     0
300
3/32" = 1'-0"
140
0.09375
141
12.0
290
     0
  0
SCALE
  5
5E
102
{ACAD_REACTORS
330
47
102
}
330
47
100
AcDbScale
 70
     0
300
1/8" = 1'-0"
140
0.125
141
12.0
290
     0
  0
SCALE
  5
5F
102
{ACAD_REACTORS
330
47
102
}
330
47
100
AcDbScale
 70
     0
300
3/16" = 1'-0"
140
0.1875
141
12.0
290
     0
  0
SCALE
  5
60
102
{ACAD_REACTORS
330
47
102
}
330
47
100
AcDbScale
 70
     0
300
1/4" = 1'-0"
140
0.25
141
12.0
290
     0
  0
SCALE
  5
61
102
{ACAD_REACTORS
330
47
102
}
330
47
100
AcDbScale
 70
     0
300
3/8" = 1'-0"
140
0.375
141
12.0
290
     0
  0
SCALE
  5
62
102
{ACAD_REACTORS
330
47
102
}
330
47
100
AcDbScale
 70
     0
300
1/2" = 1'-0"
140
0.5
141
12.0
290
     0
  0
SCALE
  5
63
102
{ACAD_REACTORS
330
47
102
}
330
47
100
AcDbScale
 70
     0
300
3/4" = 1'-0"
140
0.75
141
12.0
290
     0
  0
SCALE
  5
64
102
{ACAD_REACTORS
330
47
102
}
330
47
100
AcDbScale
 70
     0
300
1" = 1'-0"
140
1.0
141
12.0
290
     0
  0
SCALE
  5
65
102
{ACAD_REACTORS
330
47
102
}
330
47
100
AcDbScale
 70
     0
300
1-1/2" = 1'-0"
140
1.5
141
12.0
290
     0
  0
SCALE
  5
66
102
{ACAD_REACTORS
330
47
102
}
330
47
100
AcDbScale
 70
     0
300
3" = 1'-0"
140
3.0
141
12.0
290
     0
  0
SCALE
  5
67
102
{ACAD_REACTORS
330
47
102
}
330
47
100
AcDbScale
 70
     0
300
6" = 1'-0"
140
6.0
141
12.0
290
     0
  0
SCALE
  5
68
102
{ACAD_REACTORS
330
47
102
}
330
47
100
AcDbScale
 70
     0
300
1'-0" = 1'-0"
140
12.0
141
12.0
290
     0
  0
TABLESTYLE
  5
6A
102
{ACAD_REACTORS
330
69
102
}
102
{ACAD_XDICTIONARY
360
27B
102
}
330
69
100
AcDbTableStyle
  3
Standard
 70
     0
 71
     0
 40
0.06
 41
0.06
280
     0
281
     0
  7
Standard
140
0.18
170
     2
 62
     0
 63
   257
283
     0
 90
        4
 91
        0
  1

274
    -2
284
     1
 64
     0
275
    -2
285
     1
 65
     0
276
    -2
286
     1
 66
     0
277
    -2
287
     1
 67
     0
278
    -2
288
     1
 68
     0
279
    -2
289
     1
 69
     0
  7
Standard
140
0.25
170
     5
 62
     0
 63
   257
283
     0
 90
        4
 91
        0
  1

274
    -2
284
     1
 64
     0
275
    -2
285
     1
 65
     0
276
    -2
286
     1
 66
     0
277
    -2
287
     1
 67
     0
278
    -2
288
     1
 68
     0
279
    -2
289
     1
 69
     0
  7
Standard
140
0.18
170
     5
 62
     0
 63
   257
283
     0
 90
        4
 91
        0
  1

274
    -2
284
     1
 64
     0
275
    -2
285
     1
 65
     0
276
    -2
286
     1
 66
     0
277
    -2
287
     1
 67
     0
278
    -2
288
     1
 68
     0
279
    -2
289
     1
 69
     0
  0
VISUALSTYLE
  5
2F
102
{ACAD_REACTORS
330
2A
102
}
330
2A
100
AcDbVisualStyle
  2
2dWireframe
 70
     4
177
     3
291
     0
 70
    58
 90
        0
176
     1
 90
        2
176
     1
 90
        0
176
     1
 90
        0
176
     1
 40
0.6
176
     1
 40
30.0
176
     1
 62
     7
420
 16777215
176
     1
 90
        1
176
     1
 90
        4
176
     1
 62
     7
176
     1
 62
   257
176
     1
 90
        1
176
     1
 90
        1
176
     1
 40
1.0
176
     1
 90
        0
176
     1
 62
   257
176
     1
 40
1.0
176
     1
 90
        1
176
     1
 90
        6
176
     1
 90
        2
176
     1
 62
     7
176
     1
 90
        5
176
     1
 90
        0
176
     1
 90
        0
176
     1
290
     0
176
     1
 90
        1
176
     1
 40
0.0
176
     1
 90
        0
176
     1
290
     1
176
     1
290
     1
176
     1
290
     0
176
     1
290
     0
176
     1
290
     0
176
     1
290
     0
176
     1
290
     0
176
     1
290
     0
176
     1
290
     0
176
     1
 90
       50
176
     1
 40
0.0
176
     1
 40
1.0
176
     1
 90
        0
176
     1
 62
    18
420
        0
176
     1
 90
       50
176
     1
 90
        3
176
     1
 62
     5
420
      255
176
     1
290
     0
176
     1
 90
       50
176
     1
 90
       50
176
     1
 90
       50
176
     1
290
     0
176
     1
 90
       50
176
     1
 62
   256
176
     0
 40
1.0
176
     0
 90
        2
176
     1
  1
strokes_ogs.tif
176
     1
290
     0
176
     1
 40
1.0
176
     1
 40
1.0
176
     1
  0
VISUALSTYLE
  5
32
102
{ACAD_REACTORS
330
2A
102
}
330
2A
100
AcDbVisualStyle
  2
Basic
 70
     7
177
     3
291
     1
 70
    58
 90
        1
176
     1
 90
        0
176
     1
 90
        1
176
     1
 90
        0
176
     1
 40
0.6
176
     1
 40
30.0
176
     1
 62
     7
420
 16777215
176
     1
 90
        0
176
     1
 90
        4
176
     1
 62
     7
176
     1
 62
   257
176
     1
 90
        1
176
     1
 90
        1
176
     1
 40
1.0
176
     1
 90
        8
176
     1
 62
     7
176
     1
 40
1.0
176
     1
 90
        1
176
     1
 90
        6
176
     1
 90
        2
176
     1
 62
     7
176
     1
 90
        5
176
     1
 90
        0
176
     1
 90
        0
176
     1
290
     0
176
     1
 90
        1
176
     1
 40
0.0
176
     1
 90
        0
176
     1
290
     0
176
     1
290
     1
176
     1
290
     1
176
     1
290
     0
176
     1
290
     0
176
     1
290
     0
176
     1
290
     0
176
     1
290
     0
176
     1
290
     0
176
     1
 90
       50
176
     1
 40
0.0
176
     1
 40
1.0
176
     1
 90
        0
176
     1
 62
    18
420
        0
176
     1
 90
       50
176
     1
 90
        3
176
     1
 62
     5
420
      255
176
     1
290
     0
176
     1
 90
       50
176
     1
 90
       50
176
     1
 90
       50
176
     1
290
     0
176
     1
 90
       50
176
     1
 62
   256
176
     0
 40
1.0
176
     0
 90
        2
176
     1
  1
strokes_ogs.tif
176
     1
290
     0
176
     1
 40
1.0
176
     1
 40
1.0
176
     1
  0
VISUALSTYLE
  5
36
102
{ACAD_REACTORS
330
2A
102
}
330
2A
100
AcDbVisualStyle
  2
Brighten
 70
    12
177
     3
291
     1
 70
    58
 90
        2
176
     1
 90
        2
176
     1
 90
        0
176
     1
 90
        0
176
     1
 40
0.6
176
     1
 40
30.0
176
     1
 62
     7
420
 16777215
176
     1
 90
        1
176
     1
 90
        4
176
     1
 62
     7
176
     1
 62
   257
176
     1
 90
        1
176
     1
 90
        1
176
     1
 40
1.0
176
     1
 90
        8
176
     1
 62
     7
176
     1
 40
1.0
176
     1
 90
        1
176
     1
 90
        6
176
     1
 90
        2
176
     1
 62
     7
176
     1
 90
        5
176
     1
 90
        0
176
     1
 90
        0
176
     1
290
     0
176
     1
 90
        1
176
     1
 40
50.0
176
     1
 90
        0
176
     1
290
     0
176
     1
290
     1
176
     1
290
     1
176
     1
290
     0
176
     1
290
     0
176
     1
290
     0
176
     1
290
     0
176
     1
290
     0
176
     1
290
     0
176
     1
 90
       50
176
     1
 40
0.0
176
     1
 40
1.0
176
     1
 90
        0
176
     1
 62
    18
420
        0
176
     1
 90
       50
176
     1
 90
        3
176
     1
 62
     5
420
      255
176
     1
290
     0
176
     1
 90
       50
176
     1
 90
       50
176
     1
 90
       50
176
     1
290
     0
176
     1
 90
       50
176
     1
 62
   256
176
     0
 40
1.0
176
     0
 90
        2
176
     1
  1
strokes_ogs.tif
176
     1
290
     0
176
     1
 40
1.0
176
     1
 40
1.0
176
     1
  0
VISUALSTYLE
  5
3A
102
{ACAD_REACTORS
330
2A
102
}
330
2A
100
AcDbVisualStyle
  2
ColorChange
 70
    16
177
     3
291
     1
 70
    58
 90
        2
176
     1
 90
        2
176
     1
 90
        3
176
     1
 90
        0
176
     1
 40
0.6
176
     1
 40
30.0
176
     1
 62
     8
420
  8421504
176
     1
 90
        1
176
     1
 90
        4
176
     1
 62
     7
176
     1
 62
   257
176
     1
 90
        1
176
     1
 90
        1
176
     1
 40
1.0
176
     1
 90
        8
176
     1
 62
     8
420
  8421504
176
     1
 40
1.0
176
     1
 90
        1
176
     1
 90
        6
176
     1
 90
        2
176
     1
 62
     7
176
     1
 90
        5
176
     1
 90
        0
176
     1
 90
        0
176
     1
290
     0
176
     1
 90
        1
176
     1
 40
0.0
176
     1
 90
        0
176
     1
290
     0
176
     1
290
     1
176
     1
290
     1
176
     1
290
     0
176
     1
290
     0
176
     1
290
     0
176
     1
290
     0
176
     1
290
     0
176
     1
290
     0
176
     1
 90
       50
176
     1
 40
0.0
176
     1
 40
1.0
176
     1
 90
        0
176
     1
 62
    18
420
        0
176
     1
 90
       50
176
     1
 90
        3
176
     1
 62
     5
420
      255
176
     1
290
     0
176
     1
 90
       50
176
     1
 90
       50
176
     1
 90
       50
176
     1
290
     0
176
     1
 90
       50
176
     1
 62
   256
176
     0
 40
1.0
176
     0
 90
        2
176
     1
  1
strokes_ogs.tif
176
     1
290
     0
176
     1
 40
1.0
176
     1
 40
1.0
176
     1
  0
VISUALSTYLE
  5
34
102
{ACAD_REACTORS
330
2A
102
}
330
2A
100
AcDbVisualStyle
  2
Conceptual
 70
     9
177
     3
291
     0
 70
    58
 90
        3
176
     1
 90
        2
176
     1
 90
        0
176
     1
 90
        0
176
     1
 40
0.6
176
     1
 40
30.0
176
     1
 62
     7
420
 16777215
176
     1
 90
        2
176
     1
 90
        2
176
     1
 62
     7
176
     1
 62
   257
176
     1
 90
        1
176
     1
 90
        1
176
     1
 40
179.0
176
     1
 90
        8
176
     1
 62
     7
176
     1
 40
1.0
176
     1
 90
        1
176
     1
 90
        6
176
     1
 90
        2
176
     1
 62
     7
176
     1
 90
        3
176
     1
 90
        0
176
     1
 90
        0
176
     1
290
     0
176
     1
 90
        1
176
     1
 40
0.0
176
     1
 90
        0
176
     1
290
     0
176
     1
290
     1
176
     1
290
     1
176
     1
290
     0
176
     1
290
     0
176
     1
290
     0
176
     1
290
     0
176
     1
290
     0
176
     1
290
     0
176
     1
 90
       50
176
     1
 40
0.0
176
     1
 40
1.0
176
     1
 90
        0
176
     1
 62
    18
420
        0
176
     1
 90
       50
176
     1
 90
        3
176
     1
 62
     5
420
      255
176
     1
290
     0
176
     1
 90
       50
176
     1
 90
       50
176
     1
 90
       50
176
     1
290
     0
176
     1
 90
       50
176
     1
 62
   256
176
     0
 40
1.0
176
     0
 90
        2
176
     1
  1
strokes_ogs.tif
176
     1
290
     0
176
     1
 40
1.0
176
     1
 40
1.0
176
     1
  0
VISUALSTYLE
  5
35
102
{ACAD_REACTORS
330
2A
102
}
330
2A
100
AcDbVisualStyle
  2
Dim
 70
    11
177
     3
291
     1
 70
    58
 90
        2
176
     1
 90
        2
176
     1
 90
        0
176
     1
 90
        0
176
     1
 40
0.6
176
     1
 40
30.0
176
     1
 62
     7
420
 16777215
176
     1
 90
        1
176
     1
 90
        4
176
     1
 62
     7
176
     1
 62
   257
176
     1
 90
        1
176
     1
 90
        1
176
     1
 40
1.0
176
     1
 90
        8
176
     1
 62
     7
176
     1
 40
1.0
176
     1
 90
        1
176
     1
 90
        6
176
     1
 90
        2
176
     1
 62
     7
176
     1
 90
        5
176
     1
 90
        0
176
     1
 90
        0
176
     1
290
     0
176
     1
 90
        1
176
     1
 40
-50.0
176
     1
 90
        0
176
     1
290
     0
176
     1
290
     1
176
     1
290
     1
176
     1
290
     0
176
     1
290
     0
176
     1
290
     0
176
     1
290
     0
176
     1
290
     0
176
     1
290
     0
176
     1
 90
       50
176
     1
 40
0.0
176
     1
 40
1.0
176
     1
 90
        0
176
     1
 62
    18
420
        0
176
     1
 90
       50
176
     1
 90
        3
176
     1
 62
     5
420
      255
176
     1
290
     0
176
     1
 90
       50
176
     1
 90
       50
176
     1
 90
       50
176
     1
290
     0
176
     1
 90
       50
176
     1
 62
   256
176
     0
 40
1.0
176
     0
 90
        2
176
     1
  1
strokes_ogs.tif
176
     1
290
     0
176
     1
 40
1.0
176
     1
 40
1.0
176
     1
  0
VISUALSTYLE
  5
3D
102
{ACAD_REACTORS
330
2A
102
}
330
2A
100
AcDbVisualStyle
  2
EdgeColorOff
 70
    22
177
     3
291
     1
 70
    58
 90
        2
176
     0
 90
        2
176
     0
 90
        0
176
     0
 90
        0
176
     0
 40
0.6
176
     0
 40
30.0
176
     0
 62
     7
420
 16777215
176
     0
 90
        1
176
     0
 90
        4
176
     0
 62
     7
176
     0
 62
   257
176
     0
 90
        1
176
     0
 90
        1
176
     0
 40
1.0
176
     0
 90
        8
176
     2
 62
     7
176
     0
 40
1.0
176
     0
 90
        1
176
     0
 90
        6
176
     0
 90
        2
176
     0
 62
     7
176
     0
 90
        5
176
     0
 90
        0
176
     0
 90
        0
176
     0
290
     0
176
     0
 90
        1
176
     0
 40
0.0
176
     0
 90
        0
176
     0
290
     0
176
     0
290
     1
176
     0
290
     1
176
     0
290
     0
176
     0
290
     0
176
     0
290
     0
176
     0
290
     0
176
     0
290
     0
176
     0
290
     0
176
     0
 90
       50
176
     0
 40
0.0
176
     0
 40
1.0
176
     0
 90
        0
176
     0
 62
    18
420
        0
176
     0
 90
       50
176
     0
 90
        3
176
     0
 62
     5
420
      255
176
     0
290
     0
176
     0
 90
       50
176
     0
 90
       50
176
     0
 90
       50
176
     0
290
     0
176
     0
 90
       50
176
     0
 62
   256
176
     0
 40
1.0
176
     0
 90
        2
176
     0
  1
strokes_ogs.tif
176
     0
290
     0
176
     0
 40
1.0
176
     0
 40
1.0
176
     0
  0
VISUALSTYLE
  5
39
102
{ACAD_REACTORS
330
2A
102
}
330
2A
100
AcDbVisualStyle
  2
Facepattern
 70
    15
177
     3
291
     1
 70
    58
 90
        2
176
     1
 90
        2
176
     1
 90
        0
176
     1
 90
        0
176
     1
 40
0.6
176
     1
 40
30.0
176
     1
 62
     7
420
 16777215
176
     1
 90
        1
176
     1
 90
        4
176
     1
 62
     7
176
     1
 62
   257
176
     1
 90
        1
176
     1
 90
        1
176
     1
 40
1.0
176
     1
 90
        8
176
     1
 62
     7
176
     1
 40
1.0
176
     1
 90
        1
176
     1
 90
        6
176
     1
 90
        2
176
     1
 62
     7
176
     1
 90
        5
176
     1
 90
        0
176
     1
 90
        0
176
     1
290
     0
176
     1
 90
        1
176
     1
 40
0.0
176
     1
 90
        0
176
     1
290
     0
176
     1
290
     1
176
     1
290
     1
176
     1
290
     0
176
     1
290
     0
176
     1
290
     0
176
     1
290
     0
176
     1
290
     0
176
     1
290
     0
176
     1
 90
       50
176
     1
 40
0.0
176
     1
 40
1.0
176
     1
 90
        0
176
     1
 62
    18
420
        0
176
     1
 90
       50
176
     1
 90
        3
176
     1
 62
     5
420
      255
176
     1
290
     0
176
     1
 90
       50
176
     1
 90
       50
176
     1
 90
       50
176
     1
290
     0
176
     1
 90
       50
176
     1
 62
   256
176
     0
 40
1.0
176
     0
 90
        2
176
     1
  1
strokes_ogs.tif
176
     1
290
     0
176
     1
 40
1.0
176
     1
 40
1.0
176
     1
  0
VISUALSTYLE
  5
2B
102
{ACAD_REACTORS
330
2A
102
}
330
2A
100
AcDbVisualStyle
  2
Flat
 70
     0
177
     3
291
     1
 70
    58
 90
        2
176
     1
 90
        1
176
     1
 90
        1
176
     1
 90
        2
176
     1
 40
0.6
176
     1
 40
30.0
176
     1
 62
     7
420
 16777215
176
     1
 90
        0
176
     1
 90
        0
176
     1
 62
     7
176
     1
 62
   257
176
     1
 90
        1
176
     1
 90
        1
176
     1
 40
1.0
176
     1
 90
        8
176
     1
 62
     7
176
     1
 40
1.0
176
     1
 90
        1
176
     1
 90
        6
176
     1
 90
        2
176
     1
 62
     7
176
     1
 90
        5
176
     1
 90
        0
176
     1
 90
        0
176
     1
290
     0
176
     1
 90
       13
176
     1
 40
0.0
176
     1
 90
        0
176
     1
290
     0
176
     1
290
     1
176
     1
290
     1
176
     1
290
     0
176
     1
290
     0
176
     1
290
     0
176
     1
290
     0
176
     1
290
     0
176
     1
290
     0
176
     1
 90
       50
176
     1
 40
0.0
176
     1
 40
1.0
176
     1
 90
        0
176
     1
 62
    18
420
        0
176
     1
 90
       50
176
     1
 90
        3
176
     1
 62
     5
420
      255
176
     1
290
     0
176
     1
 90
       50
176
     1
 90
       50
176
     1
 90
       50
176
     1
290
     0
176
     1
 90
       50
176
     1
 62
   256
176
     0
 40
1.0
176
     0
 90
        2
176
     1
  1
strokes_ogs.tif
176
     1
290
     0
176
     1
 40
1.0
176
     1
 40
1.0
176
     1
  0
VISUALSTYLE
  5
2C
102
{ACAD_REACTORS
330
2A
102
}
330
2A
100
AcDbVisualStyle
  2
FlatWithEdges
 70
     1
177
     3
291
     1
 70
    58
 90
        2
176
     1
 90
        1
176
     1
 90
        1
176
     1
 90
        2
176
     1
 40
0.6
176
     1
 40
30.0
176
     1
 62
     7
420
 16777215
176
     1
 90
        1
176
     1
 90
        0
176
     1
 62
     7
176
     1
 62
   257
176
     1
 90
        1
176
     1
 90
        1
176
     1
 40
1.0
176
     1
 90
        0
176
     1
 62
   257
176
     1
 40
1.0
176
     1
 90
        1
176
     1
 90
        6
176
     1
 90
        2
176
     1
 62
     7
176
     1
 90
        5
176
     1
 90
        0
176
     1
 90
        0
176
     1
290
     0
176
     1
 90
       13
176
     1
 40
0.0
176
     1
 90
        0
176
     1
290
     0
176
     1
290
     1
176
     1
290
     1
176
     1
290
     0
176
     1
290
     0
176
     1
290
     0
176
     1
290
     0
176
     1
290
     0
176
     1
290
     0
176
     1
 90
       50
176
     1
 40
0.0
176
     1
 40
1.0
176
     1
 90
        0
176
     1
 62
    18
420
        0
176
     1
 90
       50
176
     1
 90
        3
176
     1
 62
     5
420
      255
176
     1
290
     0
176
     1
 90
       50
176
     1
 90
       50
176
     1
 90
       50
176
     1
290
     0
176
     1
 90
       50
176
     1
 62
   256
176
     0
 40
1.0
176
     0
 90
        2
176
     1
  1
strokes_ogs.tif
176
     1
290
     0
176
     1
 40
1.0
176
     1
 40
1.0
176
     1
  0
VISUALSTYLE
  5
2D
102
{ACAD_REACTORS
330
2A
102
}
330
2A
100
AcDbVisualStyle
  2
Gouraud
 70
     2
177
     3
291
     1
 70
    58
 90
        2
176
     1
 90
        2
176
     1
 90
        1
176
     1
 90
        2
176
     1
 40
0.6
176
     1
 40
30.0
176
     1
 62
     7
420
 16777215
176
     1
 90
        0
176
     1
 90
        0
176
     1
 62
     7
176
     1
 62
   257
176
     1
 90
        1
176
     1
 90
        1
176
     1
 40
1.0
176
     1
 90
        0
176
     1
 62
     7
176
     1
 40
1.0
176
     1
 90
        1
176
     1
 90
        6
176
     1
 90
        2
176
     1
 62
     7
176
     1
 90
        5
176
     1
 90
        0
176
     1
 90
        0
176
     1
290
     0
176
     1
 90
       13
176
     1
 40
0.0
176
     1
 90
        0
176
     1
290
     0
176
     1
290
     1
176
     1
290
     1
176
     1
290
     0
176
     1
290
     0
176
     1
290
     0
176
     1
290
     0
176
     1
290
     0
176
     1
290
     0
176
     1
 90
       50
176
     1
 40
0.0
176
     1
 40
1.0
176
     1
 90
        0
176
     1
 62
    18
420
        0
176
     1
 90
       50
176
     1
 90
        3
176
     1
 62
     5
420
      255
176
     1
290
     0
176
     1
 90
       50
176
     1
 90
       50
176
     1
 90
       50
176
     1
290
     0
176
     1
 90
       50
176
     1
 62
   256
176
     0
 40
1.0
176
     0
 90
        2
176
     1
  1
strokes_ogs.tif
176
     1
290
     0
176
     1
 40
1.0
176
     1
 40
1.0
176
     1
  0
VISUALSTYLE
  5
2E
102
{ACAD_REACTORS
330
2A
102
}
330
2A
100
AcDbVisualStyle
  2
GouraudWithEdges
 70
     3
177
     3
291
     1
 70
    58
 90
        2
176
     1
 90
        2
176
     1
 90
        1
176
     1
 90
        2
176
     1
 40
0.6
176
     1
 40
30.0
176
     1
 62
     7
420
 16777215
176
     1
 90
        1
176
     1
 90
        0
176
     1
 62
     7
176
     1
 62
   257
176
     1
 90
        1
176
     1
 90
        1
176
     1
 40
1.0
176
     1
 90
        0
176
     1
 62
   257
176
     1
 40
1.0
176
     1
 90
        1
176
     1
 90
        6
176
     1
 90
        2
176
     1
 62
     7
176
     1
 90
        5
176
     1
 90
        0
176
     1
 90
        0
176
     1
290
     0
176
     1
 90
       13
176
     1
 40
0.0
176
     1
 90
        0
176
     1
290
     0
176
     1
290
     1
176
     1
290
     1
176
     1
290
     0
176
     1
290
     0
176
     1
290
     0
176
     1
290
     0
176
     1
290
     0
176
     1
290
     0
176
     1
 90
       50
176
     1
 40
0.0
176
     1
 40
1.0
176
     1
 90
        0
176
     1
 62
    18
420
        0
176
     1
 90
       50
176
     1
 90
        3
176
     1
 62
     5
420
      255
176
     1
290
     0
176
     1
 90
       50
176
     1
 90
       50
176
     1
 90
       50
176
     1
290
     0
176
     1
 90
       50
176
     1
 62
   256
176
     0
 40
1.0
176
     0
 90
        2
176
     1
  1
strokes_ogs.tif
176
     1
290
     0
176
     1
 40
1.0
176
     1
 40
1.0
176
     1
  0
VISUALSTYLE
  5
31
102
{ACAD_REACTORS
330
2A
102
}
330
2A
100
AcDbVisualStyle
  2
Hidden
 70
     6
177
     3
291
     0
 70
    58
 90
        1
176
     1
 90
        2
176
     1
 90
        2
176
     1
 90
        0
176
     1
 40
0.6
176
     1
 40
30.0
176
     1
 62
     7
420
 16777215
176
     1
 90
        2
176
     1
 90
        2
176
     1
 62
     7
176
     1
 62
   257
176
     1
 90
        2
176
     1
 90
        1
176
     1
 40
40.0
176
     1
 90
        0
176
     1
 62
   257
176
     1
 40
1.0
176
     1
 90
        1
176
     1
 90
        6
176
     1
 90
        2
176
     1
 62
     7
176
     1
 90
        3
176
     1
 90
        0
176
     1
 90
        0
176
     1
290
     0
176
     1
 90
        1
176
     1
 40
0.0
176
     1
 90
        0
176
     1
290
     0
176
     1
290
     1
176
     1
290
     1
176
     1
290
     0
176
     1
290
     0
176
     1
290
     0
176
     1
290
     0
176
     1
290
     0
176
     1
290
     0
176
     1
 90
       50
176
     1
 40
0.0
176
     1
 40
1.0
176
     1
 90
        0
176
     1
 62
    18
420
        0
176
     1
 90
       50
176
     1
 90
        3
176
     1
 62
     5
420
      255
176
     1
290
     0
176
     1
 90
       50
176
     1
 90
       50
176
     1
 90
       50
176
     1
290
     0
176
     1
 90
       50
176
     1
 62
   256
176
     0
 40
1.0
176
     0
 90
        2
176
     1
  1
strokes_ogs.tif
176
     1
290
     0
176
     1
 40
1.0
176
     1
 40
1.0
176
     1
  0
VISUALSTYLE
  5
3B
102
{ACAD_REACTORS
330
2A
102
}
330
2A
100
AcDbVisualStyle
  2
JitterOff
 70
    20
177
     3
291
     1
 70
    58
 90
        2
176
     0
 90
        2
176
     0
 90
        0
176
     0
 90
        0
176
     0
 40
0.6
176
     0
 40
30.0
176
     0
 62
     7
420
 16777215
176
     0
 90
        1
176
     0
 90
        4
176
     0
 62
     7
176
     0
 62
   257
176
     0
 90
        1
176
     0
 90
        1
176
     0
 40
1.0
176
     0
 90
       10
176
     2
 62
     7
176
     0
 40
1.0
176
     0
 90
        1
176
     0
 90
        6
176
     0
 90
        2
176
     0
 62
     7
176
     0
 90
        5
176
     0
 90
        0
176
     0
 90
        0
176
     0
290
     0
176
     0
 90
        1
176
     0
 40
0.0
176
     0
 90
        0
176
     0
290
     0
176
     0
290
     1
176
     0
290
     1
176
     0
290
     0
176
     0
290
     0
176
     0
290
     0
176
     0
290
     0
176
     0
290
     0
176
     0
290
     0
176
     0
 90
       50
176
     0
 40
0.0
176
     0
 40
1.0
176
     0
 90
        0
176
     0
 62
    18
420
        0
176
     0
 90
       50
176
     0
 90
        3
176
     0
 62
     5
420
      255
176
     0
290
     0
176
     0
 90
       50
176
     0
 90
       50
176
     0
 90
       50
176
     0
290
     0
176
     0
 90
       50
176
     0
 62
   256
176
     0
 40
1.0
176
     0
 90
        2
176
     0
  1
strokes_ogs.tif
176
     0
290
     0
176
     0
 40
1.0
176
     0
 40
1.0
176
     0
  0
VISUALSTYLE
  5
38
102
{ACAD_REACTORS
330
2A
102
}
330
2A
100
AcDbVisualStyle
  2
Linepattern
 70
    14
177
     3
291
     1
 70
    58
 90
        2
176
     1
 90
        2
176
     1
 90
        0
176
     1
 90
        0
176
     1
 40
0.6
176
     1
 40
30.0
176
     1
 62
     7
420
 16777215
176
     1
 90
        1
176
     1
 90
        4
176
     1
 62
     7
176
     1
 62
   257
176
     1
 90
        7
176
     1
 90
        7
176
     1
 40
1.0
176
     1
 90
        8
176
     1
 62
     7
176
     1
 40
1.0
176
     1
 90
        1
176
     1
 90
        6
176
     1
 90
        2
176
     1
 62
     7
176
     1
 90
        5
176
     1
 90
        0
176
     1
 90
        0
176
     1
290
     0
176
     1
 90
        1
176
     1
 40
0.0
176
     1
 90
        0
176
     1
290
     0
176
     1
290
     1
176
     1
290
     1
176
     1
290
     0
176
     1
290
     0
176
     1
290
     0
176
     1
290
     0
176
     1
290
     0
176
     1
290
     0
176
     1
 90
       50
176
     1
 40
0.0
176
     1
 40
1.0
176
     1
 90
        0
176
     1
 62
    18
420
        0
176
     1
 90
       50
176
     1
 90
        3
176
     1
 62
     5
420
      255
176
     1
290
     0
176
     1
 90
       50
176
     1
 90
       50
176
     1
 90
       50
176
     1
290
     0
176
     1
 90
       50
176
     1
 62
   256
176
     0
 40
1.0
176
     0
 90
        2
176
     1
  1
strokes_ogs.tif
176
     1
290
     0
176
     1
 40
1.0
176
     1
 40
1.0
176
     1
  0
VISUALSTYLE
  5
3C
102
{ACAD_REACTORS
330
2A
102
}
330
2A
100
AcDbVisualStyle
  2
OverhangOff
 70
    21
177
     3
291
     1
 70
    58
 90
        2
176
     0
 90
        2
176
     0
 90
        0
176
     0
 90
        0
176
     0
 40
0.6
176
     0
 40
30.0
176
     0
 62
     7
420
 16777215
176
     0
 90
        1
176
     0
 90
        4
176
     0
 62
     7
176
     0
 62
   257
176
     0
 90
        1
176
     0
 90
        1
176
     0
 40
1.0
176
     0
 90
        9
176
     2
 62
     7
176
     0
 40
1.0
176
     0
 90
        1
176
     0
 90
        6
176
     0
 90
        2
176
     0
 62
     7
176
     0
 90
        5
176
     0
 90
        0
176
     0
 90
        0
176
     0
290
     0
176
     0
 90
        1
176
     0
 40
0.0
176
     0
 90
        0
176
     0
290
     0
176
     0
290
     1
176
     0
290
     1
176
     0
290
     0
176
     0
290
     0
176
     0
290
     0
176
     0
290
     0
176
     0
290
     0
176
     0
290
     0
176
     0
 90
       50
176
     0
 40
0.0
176
     0
 40
1.0
176
     0
 90
        0
176
     0
 62
    18
420
        0
176
     0
 90
       50
176
     0
 90
        3
176
     0
 62
     5
420
      255
176
     0
290
     0
176
     0
 90
       50
176
     0
 90
       50
176
     0
 90
       50
176
     0
290
     0
176
     0
 90
       50
176
     0
 62
   256
176
     0
 40
1.0
176
     0
 90
        2
176
     0
  1
strokes_ogs.tif
176
     0
290
     0
176
     0
 40
1.0
176
     0
 40
1.0
176
     0
  0
VISUALSTYLE
  5
33
102
{ACAD_REACTORS
330
2A
102
}
330
2A
100
AcDbVisualStyle
  2
Realistic
 70
     8
177
     3
291
     0
 70
    58
 90
        2
176
     1
 90
        3
176
     1
 90
        0
176
     1
 90
        2
176
     1
 40
0.6
176
     1
 40
30.0
176
     1
 62
     7
420
 16777215
176
     1
 90
        0
176
     1
 90
        0
176
     1
 62
     7
176
     1
 62
   257
176
     1
 90
        1
176
     1
 90
        1
176
     1
 40
1.0
176
     1
 90
        8
176
     1
 62
   257
176
     1
 40
1.0
176
     1
 90
        1
176
     1
 90
        6
176
     1
 90
        2
176
     1
 62
     7
176
     1
 90
        3
176
     1
 90
        0
176
     1
 90
        0
176
     1
290
     0
176
     1
 90
       13
176
     1
 40
0.0
176
     1
 90
        0
176
     1
290
     0
176
     1
290
     1
176
     1
290
     1
176
     1
290
     0
176
     1
290
     0
176
     1
290
     0
176
     1
290
     0
176
     1
290
     0
176
     1
290
     0
176
     1
 90
       50
176
     1
 40
0.0
176
     1
 40
1.0
176
     1
 90
        0
176
     1
 62
    18
420
        0
176
     1
 90
       50
176
     1
 90
        3
176
     1
 62
     5
420
      255
176
     1
290
     0
176
     1
 90
       50
176
     1
 90
       50
176
     1
 90
       50
176
     1
290
     0
176
     1
 90
       50
176
     1
 62
   256
176
     0
 40
1.0
176
     0
 90
        2
176
     1
  1
strokes_ogs.tif
176
     1
290
     0
176
     1
 40
1.0
176
     1
 40
1.0
176
     1
  0
VISUALSTYLE
  5
42
102
{ACAD_REACTORS
330
2A
102
}
330
2A
100
AcDbVisualStyle
  2
Shaded
 70
    27
177
     3
291
     0
 70
    58
 90
        2
176
     1
 90
        2
176
     1
 90
        1
176
     1
 90
        2
176
     1
 40
0.6
176
     1
 40
30.0
176
     1
 62
     7
420
 16777215
176
     1
 90
        0
176
     1
 90
        4
176
     1
 62
     7
176
     1
 62
   257
176
     1
 90
        1
176
     1
 90
        1
176
     1
 40
1.0
176
     1
 90
        8
176
     1
 62
   257
176
     1
 40
1.0
176
     1
 90
        1
176
     1
 90
        6
176
     1
 90
        2
176
     1
 62
     8
420
  7895160
176
     1
 90
        3
176
     1
 90
        0
176
     1
 90
        0
176
     1
290
     0
176
     1
 90
        5
176
     1
 40
0.0
176
     1
 90
        0
176
     1
290
     0
176
     1
290
     1
176
     1
290
     1
176
     1
290
     0
176
     1
290
     0
176
     1
290
     0
176
     1
290
     0
176
     1
290
     0
176
     1
290
     0
176
     1
 90
       50
176
     1
 40
0.0
176
     1
 40
1.0
176
     1
 90
        0
176
     1
 62
    18
420
        0
176
     1
 90
       50
176
     1
 90
        3
176
     1
 62
     5
420
      255
176
     1
290
     0
176
     1
 90
       50
176
     1
 90
       50
176
     1
 90
       50
176
     1
290
     0
176
     1
 90
       50
176
     1
 62
   256
176
     0
 40
1.0
176
     0
 90
        2
176
     1
  1
strokes_ogs.tif
176
     1
290
     0
176
     1
 40
1.0
176
     1
 40
1.0
176
     1
  0
VISUALSTYLE
  5
41
102
{ACAD_REACTORS
330
2A
102
}
330
2A
100
AcDbVisualStyle
  2
Shaded with edges
 70
    26
177
     3
291
     0
 70
    58
 90
        2
176
     1
 90
        2
176
     1
 90
        1
176
     1
 90
        2
176
     1
 40
0.6
176
     1
 40
30.0
176
     1
 62
     7
420
 16777215
176
     1
 90
        1
176
     1
 90
       10
176
     1
 62
     7
176
     1
 62
   257
176
     1
 90
        2
176
     1
 90
        1
176
     1
 40
1.0
176
     1
 90
        8
176
     1
 62
   257
176
     1
 40
1.0
176
     1
 90
        1
176
     1
 90
        6
176
     1
 90
        2
176
     1
 62
     7
176
     1
 90
        3
176
     1
 90
        0
176
     1
 90
        0
176
     1
290
     0
176
     1
 90
        5
176
     1
 40
0.0
176
     1
 90
        0
176
     1
290
     0
176
     1
290
     1
176
     1
290
     1
176
     1
290
     0
176
     1
290
     0
176
     1
290
     0
176
     1
290
     0
176
     1
290
     0
176
     1
290
     0
176
     1
 90
       50
176
     1
 40
0.0
176
     1
 40
1.0
176
     1
 90
        0
176
     1
 62
    18
420
        0
176
     1
 90
       50
176
     1
 90
        3
176
     1
 62
     5
420
      255
176
     1
290
     0
176
     1
 90
       50
176
     1
 90
       50
176
     1
 90
       50
176
     1
290
     0
176
     1
 90
       50
176
     1
 62
   256
176
     0
 40
1.0
176
     0
 90
        2
176
     1
  1
strokes_ogs.tif
176
     1
290
     0
176
     1
 40
1.0
176
     1
 40
1.0
176
     1
  0
VISUALSTYLE
  5
3E
102
{ACAD_REACTORS
330
2A
102
}
330
2A
100
AcDbVisualStyle
  2
Shades of Gray
 70
    23
177
     3
291
     0
 70
    58
 90
        2
176
     1
 90
        2
176
     1
 90
        3
176
     1
 90
        0
176
     1
 40
0.6
176
     1
 40
30.0
176
     1
 62
     7
420
 16777215
176
     1
 90
        2
176
     1
 90
        2
176
     1
 62
     7
176
     1
 62
     7
176
     1
 90
        1
176
     1
 90
        1
176
     1
 40
40.0
176
     1
 90
        8
176
     1
 62
     7
176
     1
 40
1.0
176
     1
 90
        1
176
     1
 90
        6
176
     1
 90
        2
176
     1
 62
     7
176
     1
 90
        3
176
     1
 90
        0
176
     1
 90
        0
176
     1
290
     0
176
     1
 90
        1
176
     1
 40
0.0
176
     1
 90
        0
176
     1
290
     0
176
     1
290
     1
176
     1
290
     1
176
     1
290
     0
176
     1
290
     0
176
     1
290
     0
176
     1
290
     0
176
     1
290
     0
176
     1
290
     0
176
     1
 90
       50
176
     1
 40
0.0
176
     1
 40
1.0
176
     1
 90
        0
176
     1
 62
    18
420
        0
176
     1
 90
       50
176
     1
 90
        3
176
     1
 62
     5
420
      255
176
     1
290
     0
176
     1
 90
       50
176
     1
 90
       50
176
     1
 90
       50
176
     1
290
     0
176
     1
 90
       50
176
     1
 62
   256
176
     0
 40
1.0
176
     0
 90
        2
176
     1
  1
strokes_ogs.tif
176
     1
290
     0
176
     1
 40
1.0
176
     1
 40
1.0
176
     1
  0
VISUALSTYLE
  5
3F
102
{ACAD_REACTORS
330
2A
102
}
330
2A
100
AcDbVisualStyle
  2
Sketchy
 70
    24
177
     3
291
     0
 70
    58
 90
        1
176
     1
 90
        2
176
     1
 90
        2
176
     1
 90
        0
176
     1
 40
0.6
176
     1
 40
30.0
176
     1
 62
     7
420
 16777215
176
     1
 90
        2
176
     1
 90
        2
176
     1
 62
     7
176
     1
 62
     7
176
     1
 90
        1
176
     1
 90
        1
176
     1
 40
40.0
176
     1
 90
       11
176
     1
 62
     7
176
     1
 40
1.0
176
     1
 90
        1
176
     1
 90
        6
176
     1
 90
        2
176
     1
 62
     7
176
     1
 90
        6
176
     1
 90
        0
176
     1
 90
        0
176
     1
290
     0
176
     1
 90
        1
176
     1
 40
0.0
176
     1
 90
        0
176
     1
290
     0
176
     1
290
     1
176
     1
290
     1
176
     1
290
     0
176
     1
290
     0
176
     1
290
     0
176
     1
290
     0
176
     1
290
     0
176
     1
290
     0
176
     1
 90
       50
176
     1
 40
0.0
176
     1
 40
1.0
176
     1
 90
        0
176
     1
 62
    18
420
        0
176
     1
 90
       50
176
     1
 90
        3
176
     1
 62
     5
420
      255
176
     1
290
     0
176
     1
 90
       50
176
     1
 90
       50
176
     1
 90
       50
176
     1
290
     0
176
     1
 90
       50
176
     1
 62
   256
176
     0
 40
1.0
176
     0
 90
        2
176
     1
  1
strokes_ogs.tif
176
     1
290
     0
176
     1
 40
1.0
176
     1
 40
1.0
176
     1
  0
VISUALSTYLE
  5
37
102
{ACAD_REACTORS
330
2A
102
}
330
2A
100
AcDbVisualStyle
  2
Thicken
 70
    13
177
     3
291
     1
 70
    58
 90
        2
176
     1
 90
        2
176
     1
 90
        0
176
     1
 90
        0
176
     1
 40
0.6
176
     1
 40
30.0
176
     1
 62
     7
420
 16777215
176
     1
 90
        1
176
     1
 90
        4
176
     1
 62
     7
176
     1
 62
   257
176
     1
 90
        1
176
     1
 90
        1
176
     1
 40
1.0
176
     1
 90
       12
176
     1
 62
     7
176
     1
 40
1.0
176
     1
 90
        1
176
     1
 90
        6
176
     1
 90
        2
176
     1
 62
     7
176
     1
 90
        5
176
     1
 90
        0
176
     1
 90
        0
176
     1
290
     0
176
     1
 90
        1
176
     1
 40
0.0
176
     1
 90
        0
176
     1
290
     0
176
     1
290
     1
176
     1
290
     1
176
     1
290
     0
176
     1
290
     0
176
     1
290
     0
176
     1
290
     0
176
     1
290
     0
176
     1
290
     0
176
     1
 90
       50
176
     1
 40
0.0
176
     1
 40
1.0
176
     1
 90
        0
176
     1
 62
    18
420
        0
176
     1
 90
       50
176
     1
 90
        3
176
     1
 62
     5
420
      255
176
     1
290
     0
176
     1
 90
       50
176
     1
 90
       50
176
     1
 90
       50
176
     1
290
     0
176
     1
 90
       50
176
     1
 62
   256
176
     0
 40
1.0
176
     0
 90
        2
176
     1
  1
strokes_ogs.tif
176
     1
290
     0
176
     1
 40
1.0
176
     1
 40
1.0
176
     1
  0
VISUALSTYLE
  5
30
102
{ACAD_REACTORS
330
2A
102
}
330
2A
100
AcDbVisualStyle
  2
Wireframe
 70
     5
177
     3
291
     0
 70
    58
 90
        0
176
     1
 90
        2
176
     1
 90
        0
176
     1
 90
        0
176
     1
 40
0.6
176
     1
 40
30.0
176
     1
 62
     7
420
 16777215
176
     1
 90
        1
176
     1
 90
        4
176
     1
 62
     7
176
     1
 62
   257
176
     1
 90
        1
176
     1
 90
        1
176
     1
 40
1.0
176
     1
 90
        0
176
     1
 62
   257
176
     1
 40
1.0
176
     1
 90
        1
176
     1
 90
        6
176
     1
 90
        2
176
     1
 62
     7
176
     1
 90
        3
176
     1
 90
        0
176
     1
 90
        0
176
     1
290
     0
176
     1
 90
        1
176
     1
 40
0.0
176
     1
 90
        0
176
     1
290
     0
176
     1
290
     1
176
     1
290
     1
176
     1
290
     0
176
     1
290
     0
176
     1
290
     0
176
     1
290
     0
176
     1
290
     0
176
     1
290
     0
176
     1
 90
       50
176
     1
 40
0.0
176
     1
 40
1.0
176
     1
 90
        0
176
     1
 62
    18
420
        0
176
     1
 90
       50
176
     1
 90
        3
176
     1
 62
     5
420
      255
176
     1
290
     0
176
     1
 90
       50
176
     1
 90
       50
176
     1
 90
       50
176
     1
290
     0
176
     1
 90
       50
176
     1
 62
   256
176
     0
 40
1.0
176
     0
 90
        2
176
     1
  1
strokes_ogs.tif
176
     1
290
     0
176
     1
 40
1.0
176
     1
 40
1.0
176
     1
  0
VISUALSTYLE
  5
40
102
{ACAD_REACTORS
330
2A
102
}
330
2A
100
AcDbVisualStyle
  2
X-Ray
 70
    25
177
     3
291
     0
 70
    58
 90
        2
176
     1
 90
        2
176
     1
 90
        1
176
     1
 90
        1
176
     1
 40
0.5
176
     1
 40
30.0
176
     1
 62
     7
420
 16777215
176
     1
 90
        1
176
     1
 90
        0
176
     1
 62
     7
176
     1
 62
   257
176
     1
 90
        1
176
     1
 90
        1
176
     1
 40
1.0
176
     1
 90
        8
176
     1
 62
     7
176
     1
 40
1.0
176
     1
 90
        1
176
     1
 90
        6
176
     1
 90
        2
176
     1
 62
     7
176
     1
 90
        3
176
     1
 90
        0
176
     1
 90
        0
176
     1
290
     0
176
     1
 90
       13
176
     1
 40
0.0
176
     1
 90
        0
176
     1
290
     0
176
     1
290
     1
176
     1
290
     1
176
     1
290
     0
176
     1
290
     0
176
     1
290
     0
176
     1
290
     0
176
     1
290
     0
176
     1
290
     0
176
     1
 90
       50
176
     1
 40
0.0
176
     1
 40
1.0
176
     1
 90
        0
176
     1
 62
    18
420
        0
176
     1
 90
       50
176
     1
 90
        3
176
     1
 62
     5
420
      255
176
     1
290
     0
176
     1
 90
       50
176
     1
 90
       50
176
     1
 90
       50
176
     1
290
     0
176
     1
 90
       50
176
     1
 62
   256
176
     0
 40
1.0
176
     0
 90
        2
176
     1
  1
strokes_ogs.tif
176
     1
290
     0
176
     1
 40
1.0
176
     1
 40
1.0
176
     1
  0
DICTIONARYVAR
  5
27A
102
{ACAD_REACTORS
330
279
102
}
330
279
100
DictionaryVariables
280
     0
  1
1:1
  0
DICTIONARYVAR
  5
27F
102
{ACAD_REACTORS
330
279
102
}
330
279
100
DictionaryVariables
280
     0
  1
Standard
  0
DICTIONARYVAR
  5
27E
102
{ACAD_REACTORS
330
279
102
}
330
279
100
DictionaryVariables
280
     0
  1
Standard
  0
DICTIONARY
  5
27B
330
6A
100
AcDbDictionary
280
     1
281
     1
  3
ACAD_ROUNDTRIP_2008_TABLESTYLE_CELLSTYLEMAP
360
27C
  0
CELLSTYLEMAP
  5
27C
102
{ACAD_REACTORS
330
27B
102
}
330
27B
100
AcDbCellStyleMap
 90
        3
300
CELLSTYLE
  1
TABLEFORMAT_BEGIN
 90
        5
170
     1
 91
        0
 92
    32768
 62
   257
 93
        1
300
CONTENTFORMAT
  1
CONTENTFORMAT_BEGIN
 90
        0
 91
        0
 92
        4
 93
        0
300

 40
0.0
140
1.0
 94
        5
 62
     0
340
11
144
0.25
309
CONTENTFORMAT_END
171
     1
301
MARGIN
  1
CELLMARGIN_BEGIN
 40
0.06
 40
0.06
 40
0.06
 40
0.06
 40
0.06
 40
0.06
309
CELLMARGIN_END
 94
        6
 95
        1
302
GRIDFORMAT
  1
GRIDFORMAT_BEGIN
 90
        0
 91
        1
 62
     0
 92
       -2
340
14
 93
        0
 40
0.045
309
GRIDFORMAT_END
 95
        2
302
GRIDFORMAT
  1
GRIDFORMAT_BEGIN
 90
        0
 91
        1
 62
     0
 92
       -2
340
14
 93
        0
 40
0.045
309
GRIDFORMAT_END
 95
        4
302
GRIDFORMAT
  1
GRIDFORMAT_BEGIN
 90
        0
 91
        1
 62
     0
 92
       -2
340
14
 93
        0
 40
0.045
309
GRIDFORMAT_END
 95
        8
302
GRIDFORMAT
  1
GRIDFORMAT_BEGIN
 90
        0
 91
        1
 62
     0
 92
       -2
340
14
 93
        0
 40
0.045
309
GRIDFORMAT_END
 95
       16
302
GRIDFORMAT
  1
GRIDFORMAT_BEGIN
 90
        0
 91
        1
 62
     0
 92
       -2
340
14
 93
        0
 40
0.045
309
GRIDFORMAT_END
 95
       32
302
GRIDFORMAT
  1
GRIDFORMAT_BEGIN
 90
        0
 91
        1
 62
     0
 92
       -2
340
14
 93
        0
 40
0.045
309
GRIDFORMAT_END
309
TABLEFORMAT_END
  1
CELLSTYLE_BEGIN
 90
        1
 91
        1
300
_TITLE
309
CELLSTYLE_END
300
CELLSTYLE
  1
TABLEFORMAT_BEGIN
 90
        5
170
     1
 91
        0
 92
        0
 62
   257
 93
        1
300
CONTENTFORMAT
  1
CONTENTFORMAT_BEGIN
 90
        0
 91
        0
 92
        4
 93
        0
300

 40
0.0
140
1.0
 94
        5
 62
     0
340
11
144
0.18
309
CONTENTFORMAT_END
171
     1
301
MARGIN
  1
CELLMARGIN_BEGIN
 40
0.06
 40
0.06
 40
0.06
 40
0.06
 40
0.06
 40
0.06
309
CELLMARGIN_END
 94
        6
 95
        1
302
GRIDFORMAT
  1
GRIDFORMAT_BEGIN
 90
        0
 91
        1
 62
     0
 92
       -2
340
14
 93
        0
 40
0.045
309
GRIDFORMAT_END
 95
        2
302
GRIDFORMAT
  1
GRIDFORMAT_BEGIN
 90
        0
 91
        1
 62
     0
 92
       -2
340
14
 93
        0
 40
0.045
309
GRIDFORMAT_END
 95
        4
302
GRIDFORMAT
  1
GRIDFORMAT_BEGIN
 90
        0
 91
        1
 62
     0
 92
       -2
340
14
 93
        0
 40
0.045
309
GRIDFORMAT_END
 95
        8
302
GRIDFORMAT
  1
GRIDFORMAT_BEGIN
 90
        0
 91
        1
 62
     0
 92
       -2
340
14
 93
        0
 40
0.045
309
GRIDFORMAT_END
 95
       16
302
GRIDFORMAT
  1
GRIDFORMAT_BEGIN
 90
        0
 91
        1
 62
     0
 92
       -2
340
14
 93
        0
 40
0.045
309
GRIDFORMAT_END
 95
       32
302
GRIDFORMAT
  1
GRIDFORMAT_BEGIN
 90
        0
 91
        1
 62
     0
 92
       -2
340
14
 93
        0
 40
0.045
309
GRIDFORMAT_END
309
TABLEFORMAT_END
  1
CELLSTYLE_BEGIN
 90
        2
 91
        1
300
_HEADER
309
CELLSTYLE_END
300
CELLSTYLE
  1
TABLEFORMAT_BEGIN
 90
        5
170
     1
 91
        0
 92
        0
 62
   257
 93
        1
300
CONTENTFORMAT
  1
CONTENTFORMAT_BEGIN
 90
        0
 91
        0
 92
        4
 93
        0
300

 40
0.0
140
1.0
 94
        2
 62
     0
340
11
144
0.18
309
CONTENTFORMAT_END
171
     1
301
MARGIN
  1
CELLMARGIN_BEGIN
 40
0.06
 40
0.06
 40
0.06
 40
0.06
 40
0.06
 40
0.06
309
CELLMARGIN_END
 94
        6
 95
        1
302
GRIDFORMAT
  1
GRIDFORMAT_BEGIN
 90
        0
 91
        1
 62
     0
 92
       -2
340
14
 93
        0
 40
0.045
309
GRIDFORMAT_END
 95
        2
302
GRIDFORMAT
  1
GRIDFORMAT_BEGIN
 90
        0
 91
        1
 62
     0
 92
       -2
340
14
 93
        0
 40
0.045
309
GRIDFORMAT_END
 95
        4
302
GRIDFORMAT
  1
GRIDFORMAT_BEGIN
 90
        0
 91
        1
 62
     0
 92
       -2
340
14
 93
        0
 40
0.045
309
GRIDFORMAT_END
 95
        8
302
GRIDFORMAT
  1
GRIDFORMAT_BEGIN
 90
        0
 91
        1
 62
     0
 92
       -2
340
14
 93
        0
 40
0.045
309
GRIDFORMAT_END
 95
       16
302
GRIDFORMAT
  1
GRIDFORMAT_BEGIN
 90
        0
 91
        1
 62
     0
 92
       -2
340
14
 93
        0
 40
0.045
309
GRIDFORMAT_END
 95
       32
302
GRIDFORMAT
  1
GRIDFORMAT_BEGIN
 90
        0
 91
        1
 62
     0
 92
       -2
340
14
 93
        0
 40
0.045
309
GRIDFORMAT_END
309
TABLEFORMAT_END
  1
CELLSTYLE_BEGIN
 90
        3
 91
        2
300
_DATA
309
CELLSTYLE_END
  0
ENDSEC
  0
EOF