0
SECTION
  2
HEADER
  9
$ACADVER
  1
AC1027
  9
$ACADMAINTVER
 70
     8
  9
$DWGCODEPAGE
  3
ANSI_1252
  9
$REQUIREDVERSIONS
160
                 0
  9
$COMMENTS
  1
File was created by Cadenas
  9
$CUSTOMPROPERTYTAG
  1
NN
  9
$CUSTOMPROPERTY
  1
Grip Tight Two-Bolt Pillow Block Inch Bore
  9
$CUSTOMPROPERTYTAG
  1
NT
  9
$CUSTOMPROPERTY
  1
GT Normal Duty Pillow Blocks
  9
$CUSTOMPROPERTYTAG
  1
NB
  9
$CUSTOMPROPERTY
  1
129170
  9
$CUSTOMPROPERTYTAG
  1
NBSYN
  9
$CUSTOMPROPERTY
  1
$PN.$LUBE.
  9
$CUSTOMPROPERTYTAG
  1
LINA
  9
$CUSTOMPROPERTY
  1
129170
  9
$CUSTOMPROPERTYTAG
  1
SERIES
  9
$CUSTOMPROPERTY
  1
211
  9
$CUSTOMPROPERTYTAG
  1
SS
  9
$CUSTOMPROPERTY
  1
2-3/16
  9
$CUSTOMPROPERTYTAG
  1
PN
  9
$CUSTOMPROPERTY
  1
129170
  9
$CUSTOMPROPERTYTAG
  1
DESCRIPTION
  9
$CUSTOMPROPERTY
  1
P2B-GT-203
  9
$CUSTOMPROPERTYTAG
  1
A
  9
$CUSTOMPROPERTY
  1
1-59/64
  9
$CUSTOMPROPERTYTAG
  1
B
  9
$CUSTOMPROPERTY
  1
8-7/8
  9
$CUSTOMPROPERTYTAG
  1
C
  9
$CUSTOMPROPERTY
  1
2-5/16
  9
$CUSTOMPROPERTYTAG
  1
DMIN
  9
$CUSTOMPROPERTY
  1
6-3/8
  9
$CUSTOMPROPERTYTAG
  1
DMAX
  9
$CUSTOMPROPERTY
  1
7-7/16
  9
$CUSTOMPROPERTYTAG
  1
F
  9
$CUSTOMPROPERTY
  1
5/8
  9
$CUSTOMPROPERTYTAG
  1
G
  9
$CUSTOMPROPERTY
  1
1-7/32
  9
$CUSTOMPROPERTYTAG
  1
H
  9
$CUSTOMPROPERTY
  1
7/8
  9
$CUSTOMPROPERTYTAG
  1
J
  9
$CUSTOMPROPERTY
  1
4-15/16
  9
$CUSTOMPROPERTYTAG
  1
L
  9
$CUSTOMPROPERTY
  1
3-1/4
  9
$CUSTOMPROPERTYTAG
  1
M
  9
$CUSTOMPROPERTY
  1
2-1/2
  9
$CUSTOMPROPERTYTAG
  1
R
  9
$CUSTOMPROPERTY
  1
45/64
  9
$CUSTOMPROPERTYTAG
  1
S
  9
$CUSTOMPROPERTY
  1
1-7/32
  9
$CUSTOMPROPERTYTAG
  1
U
  9
$CUSTOMPROPERTY
  1
3-15/16
  9
$CUSTOMPROPERTYTAG
  1
V
  9
$CUSTOMPROPERTY
  1
7-7/8
  9
$CUSTOMPROPERTYTAG
  1
W
  9
$CUSTOMPROPERTY
  1
13/16
  9
$CUSTOMPROPERTYTAG
  1
X
  9
$CUSTOMPROPERTY
  1
3/16
  9
$CUSTOMPROPERTYTAG
  1
Z
  9
$CUSTOMPROPERTY
  1
1-3/16
  9
$CUSTOMPROPERTYTAG
  1
COMPANY
  9
$CUSTOMPROPERTY
  1
baldor
  9
$INSBASE
 10
0.0
 20
0.0
 30
0.0
  9
$EXTMIN
 10
1.000000000000000E+20
 20
1.000000000000000E+20
 30
1.000000000000000E+20
  9
$EXTMAX
 10
-1.000000000000000E+20
 20
-1.000000000000000E+20
 30
-1.000000000000000E+20
  9
$LIMMIN
 10
0.0
 20
0.0
  9
$LIMMAX
 10
12.0
 20
9.0
  9
$ORTHOMODE
 70
     0
  9
$REGENMODE
 70
     1
  9
$FILLMODE
 70
     1
  9
$QTEXTMODE
 70
     0
  9
$MIRRTEXT
 70
     1
  9
$LTSCALE
 40
1.0
  9
$ATTMODE
 70
     1
  9
$TEXTSIZE
 40
0.2
  9
$TRACEWID
 40
0.05
  9
$TEXTSTYLE
  7
Standard
  9
$CLAYER
  8
0
  9
$CELTYPE
  6
ByLayer
  9
$CECOLOR
 62
   256
  9
$CELTSCALE
 40
1.0
  9
$DISPSILH
 70
     0
  9
$DIMSCALE
 40
1.0
  9
$DIMASZ
 40
0.18
  9
$DIMEXO
 40
0.0625
  9
$DIMDLI
 40
0.38
  9
$DIMRND
 40
0.0
  9
$DIMDLE
 40
0.0
  9
$DIMEXE
 40
0.18
  9
$DIMTP
 40
0.0
  9
$DIMTM
 40
0.0
  9
$DIMTXT
 40
0.18
  9
$DIMCEN
 40
0.09
  9
$DIMTSZ
 40
0.0
  9
$DIMTOL
 70
     0
  9
$DIMLIM
 70
     0
  9
$DIMTIH
 70
     1
  9
$DIMTOH
 70
     1
  9
$DIMSE1
 70
     0
  9
$DIMSE2
 70
     0
  9
$DIMTAD
 70
     0
  9
$DIMZIN
 70
     0
  9
$DIMBLK
  1

  9
$DIMASO
 70
     1
  9
$DIMSHO
 70
     1
  9
$DIMPOST
  1

  9
$DIMAPOST
  1

  9
$DIMALT
 70
     0
  9
$DIMALTD
 70
     2
  9
$DIMALTF
 40
25.4
  9
$DIMLFAC
 40
1.0
  9
$DIMTOFL
 70
     0
  9
$DIMTVP
 40
0.0
  9
$DIMTIX
 70
     0
  9
$DIMSOXD
 70
     0
  9
$DIMSAH
 70
     0
  9
$DIMBLK1
  1

  9
$DIMBLK2
  1

  9
$DIMSTYLE
  2
Standard
  9
$DIMCLRD
 70
     0
  9
$DIMCLRE
 70
     0
  9
$DIMCLRT
 70
     0
  9
$DIMTFAC
 40
1.0
  9
$DIMGAP
 40
0.09
  9
$DIMJUST
 70
     0
  9
$DIMSD1
 70
     0
  9
$DIMSD2
 70
     0
  9
$DIMTOLJ
 70
     1
  9
$DIMTZIN
 70
     0
  9
$DIMALTZ
 70
     0
  9
$DIMALTTZ
 70
     0
  9
$DIMUPT
 70
     0
  9
$DIMDEC
 70
     4
  9
$DIMTDEC
 70
     4
  9
$DIMALTU
 70
     2
  9
$DIMALTTD
 70
     2
  9
$DIMTXSTY
  7
Standard
  9
$DIMAUNIT
 70
     0
  9
$DIMADEC
 70
     0
  9
$DIMALTRND
 40
0.0
  9
$DIMAZIN
 70
     0
  9
$DIMDSEP
 70
    46
  9
$DIMATFIT
 70
     3
  9
$DIMFRAC
 70
     0
  9
$DIMLDRBLK
  1

  9
$DIMLUNIT
 70
     2
  9
$DIMLWD
 70
    -2
  9
$DIMLWE
 70
    -2
  9
$DIMTMOVE
 70
     0
  9
$DIMFXL
 40
1.0
  9
$DIMFXLON
 70
     0
  9
$DIMJOGANG
 40
0.7853981633974483
  9
$DIMTFILL
 70
     0
  9
$DIMTFILLCLR
 70
     0
  9
$DIMARCSYM
 70
     0
  9
$DIMLTYPE
  6

  9
$DIMLTEX1
  6

  9
$DIMLTEX2
  6

  9
$DIMTXTDIRECTION
 70
     0
  9
$LUNITS
 70
     2
  9
$LUPREC
 70
     4
  9
$SKETCHINC
 40
0.1
  9
$FILLETRAD
 40
0.5
  9
$AUNITS
 70
     0
  9
$AUPREC
 70
     0
  9
$MENU
  1
.
  9
$ELEVATION
 40
0.0
  9
$PELEVATION
 40
0.0
  9
$THICKNESS
 40
0.0
  9
$LIMCHECK
 70
     0
  9
$CHAMFERA
 40
0.0
  9
$CHAMFERB
 40
0.0
  9
$CHAMFERC
 40
0.0
  9
$CHAMFERD
 40
0.0
  9
$SKPOLY
 70
     0
  9
$TDCREATE
 40
2458168.994629884
  9
$TDUCREATE
 40
2458168.952963218
  9
$TDUPDATE
 40
2458168.994630069
  9
$TDUUPDATE
 40
2458168.952963403
  9
$TDINDWG
 40
0.0000000116
  9
$TDUSRTIMER
 40
0.0000000116
  9
$USRTIMER
 70
     1
  9
$ANGBASE
 50
0.0
  9
$ANGDIR
 70
     0
  9
$PDMODE
 70
     0
  9
$PDSIZE
 40
0.0
  9
$PLINEWID
 40
0.0
  9
$SPLFRAME
 70
     0
  9
$SPLINETYPE
 70
     6
  9
$SPLINESEGS
 70
     8
  9
$HANDSEED
  5
27B
  9
$SURFTAB1
 70
     6
  9
$SURFTAB2
 70
     6
  9
$SURFTYPE
 70
     6
  9
$SURFU
 70
     6
  9
$SURFV
 70
     6
  9
$UCSBASE
  2

  9
$UCSNAME
  2

  9
$UCSORG
 10
0.0
 20
0.0
 30
0.0
  9
$UCSXDIR
 10
1.0
 20
0.0
 30
0.0
  9
$UCSYDIR
 10
0.0
 20
1.0
 30
0.0
  9
$UCSORTHOREF
  2

  9
$UCSORTHOVIEW
 70
     0
  9
$UCSORGTOP
 10
0.0
 20
0.0
 30
0.0
  9
$UCSORGBOTTOM
 10
0.0
 20
0.0
 30
0.0
  9
$UCSORGLEFT
 10
0.0
 20
0.0
 30
0.0
  9
$UCSORGRIGHT
 10
0.0
 20
0.0
 30
0.0
  9
$UCSORGFRONT
 10
0.0
 20
0.0
 30
0.0
  9
$UCSORGBACK
 10
0.0
 20
0.0
 30
0.0
  9
$PUCSBASE
  2

  9
$PUCSNAME
  2

  9
$PUCSORG
 10
0.0
 20
0.0
 30
0.0
  9
$PUCSXDIR
 10
1.0
 20
0.0
 30
0.0
  9
$PUCSYDIR
 10
0.0
 20
1.0
 30
0.0
  9
$PUCSORTHOREF
  2

  9
$PUCSORTHOVIEW
 70
     0
  9
$PUCSORGTOP
 10
0.0
 20
0.0
 30
0.0
  9
$PUCSORGBOTTOM
 10
0.0
 20
0.0
 30
0.0
  9
$PUCSORGLEFT
 10
0.0
 20
0.0
 30
0.0
  9
$PUCSORGRIGHT
 10
0.0
 20
0.0
 30
0.0
  9
$PUCSORGFRONT
 10
0.0
 20
0.0
 30
0.0
  9
$PUCSORGBACK
 10
0.0
 20
0.0
 30
0.0
  9
$USERI1
 70
     0
  9
$USERI2
 70
     0
  9
$USERI3
 70
     0
  9
$USERI4
 70
     0
  9
$USERI5
 70
     0
  9
$USERR1
 40
0.0
  9
$USERR2
 40
0.0
  9
$USERR3
 40
0.0
  9
$USERR4
 40
0.0
  9
$USERR5
 40
0.0
  9
$WORLDVIEW
 70
     1
  9
$SHADEDGE
 70
     3
  9
$SHADEDIF
 70
    70
  9
$TILEMODE
 70
     1
  9
$MAXACTVP
 70
    64
  9
$PINSBASE
 10
0.0
 20
0.0
 30
0.0
  9
$PLIMCHECK
 70
     0
  9
$PEXTMIN
 10
1.000000000000000E+20
 20
1.000000000000000E+20
 30
1.000000000000000E+20
  9
$PEXTMAX
 10
-1.000000000000000E+20
 20
-1.000000000000000E+20
 30
-1.000000000000000E+20
  9
$PLIMMIN
 10
0.0
 20
0.0
  9
$PLIMMAX
 10
12.0
 20
9.0
  9
$UNITMODE
 70
     0
  9
$VISRETAIN
 70
     1
  9
$PLINEGEN
 70
     0
  9
$PSLTSCALE
 70
     1
  9
$TREEDEPTH
 70
  3020
  9
$CMLSTYLE
  2
Standard
  9
$CMLJUST
 70
     0
  9
$CMLSCALE
 40
1.0
  9
$PROXYGRAPHICS
 70
     1
  9
$MEASUREMENT
 70
     0
  9
$CELWEIGHT
370
    -1
  9
$ENDCAPS
280
     0
  9
$JOINSTYLE
280
     0
  9
$LWDISPLAY
290
     0
  9
$INSUNITS
 70
     1
  9
$HYPERLINKBASE
  1

  9
$STYLESHEET
  1

  9
$XEDIT
290
     1
  9
$CEPSNTYPE
380
     0
  9
$PSTYLEMODE
290
     1
  9
$FINGERPRINTGUID
  2
{424D8B35-3D75-45A1-A62D-221D080DEE1C}
  9
$VERSIONGUID
  2
{FAEB1C32-E019-11D5-929B-00C0DF256EC4}
  9
$EXTNAMES
290
     1
  9
$PSVPSCALE
 40
0.0
  9
$OLESTARTUP
290
     0
  9
$SORTENTS
280
   127
  9
$INDEXCTL
280
     0
  9
$HIDETEXT
280
     1
  9
$XCLIPFRAME
280
     2
  9
$HALOGAP
280
     0
  9
$OBSCOLOR
 70
   257
  9
$OBSLTYPE
280
     0
  9
$INTERSECTIONDISPLAY
280
     0
  9
$INTERSECTIONCOLOR
 70
   257
  9
$DIMASSOC
280
     2
  9
$PROJECTNAME
  1

  9
$CAMERADISPLAY
290
     0
  9
$LENSLENGTH
 40
50.0
  9
$CAMERAHEIGHT
 40
0.0
  9
$STEPSPERSEC
 40
2.0
  9
$STEPSIZE
 40
6.0
  9
$3DDWFPREC
 40
2.0
  9
$PSOLWIDTH
 40
0.25
  9
$PSOLHEIGHT
 40
4.0
  9
$LOFTANG1
 40
1.570796326794897
  9
$LOFTANG2
 40
1.570796326794897
  9
$LOFTMAG1
 40
0.0
  9
$LOFTMAG2
 40
0.0
  9
$LOFTPARAM
 70
     7
  9
$LOFTNORMALS
280
     1
  9
$LATITUDE
 40
37.795
  9
$LONGITUDE
 40
-122.394
  9
$NORTHDIRECTION
 40
0.0
  9
$TIMEZONE
 70
 -8000
  9
$LIGHTGLYPHDISPLAY
280
     1
  9
$TILEMODELIGHTSYNCH
280
     1
  9
$CMATERIAL
347
44
  9
$SOLIDHIST
280
     0
  9
$SHOWHIST
280
     1
  9
$DWFFRAME
280
     2
  9
$DGNFRAME
280
     2
  9
$REALWORLDSCALE
290
     1
  9
$INTERFERECOLOR
 62
   256
  9
$CSHADOW
280
     0
  9
$SHADOWPLANELOCATION
 40
0.0
  0
ENDSEC
  0
SECTION
  2
CLASSES
  0
CLASS
  1
ACDBDICTIONARYWDFLT
  2
AcDbDictionaryWithDefault
  3
ObjectDBX Classes
 90
        0
 91
        4
280
     0
281
     0
  0
CLASS
  1
VISUALSTYLE
  2
AcDbVisualStyle
  3
ObjectDBX Classes
 90
     4095
 91
        4
280
     0
281
     0
  0
CLASS
  1
MATERIAL
  2
AcDbMaterial
  3
ObjectDBX Classes
 90
     1153
 91
        4
280
     0
281
     0
  0
CLASS
  1
SCALE
  2
AcDbScale
  3
ObjectDBX Classes
 90
     1153
 91
        4
280
     0
281
     0
  0
CLASS
  1
TABLESTYLE
  2
AcDbTableStyle
  3
ObjectDBX Classes
 90
     4095
 91
        4
280
     0
281
     0
  0
CLASS
  1
MLEADERSTYLE
  2
AcDbMLeaderStyle
  3
ACDB_MLEADERSTYLE_CLASS
 90
     4095
 91
        4
280
     0
281
     0
  0
CLASS
  1
SUN
  2
AcDbSun
  3
SCENEOE
 90
     1153
 91
        4
280
     0
281
     0
  0
CLASS
  1
DICTIONARYVAR
  2
AcDbDictionaryVar
  3
ObjectDBX Classes
 90
        0
 91
        4
280
     0
281
     0
  0
CLASS
  1
CELLSTYLEMAP
  2
AcDbCellStyleMap
  3
ObjectDBX Classes
 90
     1152
 91
        4
280
     0
281
     0
  0
ENDSEC
  0
SECTION
  2
TABLES
  0
TABLE
  2
VPORT
  5
8
330
0
100
AcDbSymbolTable
 70
     1
  0
VPORT
  5
29
330
8
100
AcDbSymbolTableRecord
100
AcDbViewportTableRecord
  2
*Active
 70
     0
 10
0.0
 20
0.0
 11
1.0
 21
1.0
 12
0.0
 22
-0.0050781249999998
 13
0.0
 23
0.0
 14
0.5
 24
0.5
 15
0.5
 25
0.5
 16
0.0
 26
0.0
 36
1.0
 17
0.0
 27
0.0
 37
0.0
 40
2.604984375000001
 41
3.475068828387885
 42
50.0
 43
0.0
 44
0.0
 50
0.0
 51
0.0
 71
     0
 72
   100
 73
     1
 74
     3
 75
     0
 76
     0
 77
     0
 78
     0
281
     0
 65
     1
110
0.0
120
0.0
130
0.0
111
1.0
121
0.0
131
0.0
112
0.0
122
1.0
132
0.0
 79
     0
146
0.0
348
2F
 60
     3
 61
     5
292
     1
282
     1
141
0.0
142
0.0
 63
   250
361
6D
  0
ENDTAB
  0
TABLE
  2
LTYPE
  5
5
330
0
100
AcDbSymbolTable
 70
     3
  0
LTYPE
  5
14
330
5
100
AcDbSymbolTableRecord
100
AcDbLinetypeTableRecord
  2
ByBlock
 70
     0
  3

 72
    65
 73
     0
 40
0.0
  0
LTYPE
  5
15
330
5
100
AcDbSymbolTableRecord
100
AcDbLinetypeTableRecord
  2
ByLayer
 70
     0
  3

 72
    65
 73
     0
 40
0.0
  0
LTYPE
  5
16
330
5
100
AcDbSymbolTableRecord
100
AcDbLinetypeTableRecord
  2
Continuous
 70
     0
  3
Solid line
 72
    65
 73
     0
 40
0.0
  0
LTYPE
  5
A5
330
5
100
AcDbSymbolTableRecord
100
AcDbLinetypeTableRecord
  2
Dashed
 70
     0
  3

 72
    65
 73
     2
 40
2.0
 49
1.0
 74
     0
 49
-1.0
 74
     0
  0
LTYPE
  5
120
330
5
100
AcDbSymbolTableRecord
100
AcDbLinetypeTableRecord
  2
Center
 70
     0
  3

 72
    65
 73
     4
 40
1.5
 49
0.45
 74
     0
 49
-0.5
 74
     0
 49
0.05
 74
     0
 49
-0.5
 74
     0
  0
ENDTAB
  0
TABLE
  2
LAYER
  5
2
330
0
100
AcDbSymbolTable
 70
     7
  0
LAYER
  5
10
330
2
100
AcDbSymbolTableRecord
100
AcDbLayerTableRecord
  2
0
 70
     0
 62
     7
  6
Continuous
370
    -3
390
F
347
46
348
0
  0
LAYER
  5
72
330
2
100
AcDbSymbolTableRecord
100
AcDbLayerTableRecord
  2
AM_6
 70
     0
 62
    -2
  6
Continuous
370
    35
390
F
347
46
348
0
  0
LAYER
  5
A6
330
2
100
AcDbSymbolTableRecord
100
AcDbLayerTableRecord
  2
AM_9
 70
     0
 62
     6
  6
Dashed
370
    25
390
F
347
46
348
0
  0
LAYER
  5
D5
330
2
100
AcDbSymbolTableRecord
100
AcDbLayerTableRecord
  2
AM_4
 70
     0
 62
     7
  6
Continuous
370
    50
390
F
347
46
348
0
  0
LAYER
  5
11D
330
2
100
AcDbSymbolTableRecord
100
AcDbLayerTableRecord
  2
AM_5
 70
     0
 62
     3
  6
Continuous
370
    25
390
F
347
46
348
0
  0
LAYER
  5
121
330
2
100
AcDbSymbolTableRecord
100
AcDbLayerTableRecord
  2
AM_7
 70
     0
 62
     7
  6
Center
370
    25
390
F
347
46
348
0
  0
LAYER
  5
26D
330
2
100
AcDbSymbolTableRecord
100
AcDbLayerTableRecord
  2
ConnectionPoints
 70
     0
 62
     7
  6
Continuous
370
    50
390
F
347
46
348
0
  0
ENDTAB
  0
TABLE
  2
STYLE
  5
3
330
0
100
AcDbSymbolTable
 70
     1
  0
STYLE
  5
11
330
3
100
AcDbSymbolTableRecord
100
AcDbTextStyleTableRecord
  2
Standard
 70
     0
 40
0.0
 41
1.0
 50
0.0
 71
     0
 42
0.2
  3
txt
  4

  0
ENDTAB
  0
TABLE
  2
VIEW
  5
6
330
0
100
AcDbSymbolTable
 70
     0
  0
ENDTAB
  0
TABLE
  2
UCS
  5
7
330
0
100
AcDbSymbolTable
 70
     0
  0
ENDTAB
  0
TABLE
  2
APPID
  5
9
330
0
100
AcDbSymbolTable
 70
     1
  0
APPID
  5
12
330
9
100
AcDbSymbolTableRecord
100
AcDbRegAppTableRecord
  2
ACAD
 70
     0
  0
ENDTAB
  0
TABLE
  2
DIMSTYLE
  5
A
330
0
100
AcDbSymbolTable
 70
     1
100
AcDbDimStyleTable
  0
DIMSTYLE
105
27
330
A
100
AcDbSymbolTableRecord
100
AcDbDimStyleTableRecord
  2
Standard
 70
     0
178
     0
340
11
  0
ENDTAB
  0
TABLE
  2
BLOCK_RECORD
  5
1
330
0
100
AcDbSymbolTable
 70
     5
  0
BLOCK_RECORD
  5
1F
330
1
100
AcDbSymbolTableRecord
100
AcDbBlockTableRecord
  2
*Model_Space
340
22
 70
     0
280
     1
281
     0
  0
BLOCK_RECORD
  5
1B
330
1
100
AcDbSymbolTableRecord
100
AcDbBlockTableRecord
  2
*Paper_Space
340
1E
 70
     0
280
     1
281
     0
  0
BLOCK_RECORD
  5
23
330
1
100
AcDbSymbolTableRecord
100
AcDbBlockTableRecord
  2
*Paper_Space0
340
26
 70
     0
280
     1
281
     0
  0
BLOCK_RECORD
  5
6E
330
1
100
AcDbSymbolTableRecord
100
AcDbBlockTableRecord
  2
1_129170_4
340
0
102
{BLKREFS
331
6F
102
}
 70
     0
280
     1
281
     0
  0
BLOCK_RECORD
  5
8F
330
1
100
AcDbSymbolTableRecord
100
AcDbBlockTableRecord
  2
2_129524I_0_in_129170_4
340
0
102
{BLKREFS
331
90
102
}
 70
     0
280
     1
281
     0
  0
BLOCK_RECORD
  5
D7
330
1
100
AcDbSymbolTableRecord
100
AcDbBlockTableRecord
  2
3_129920_0_in_129170_4
340
0
102
{BLKREFS
331
D8
102
}
 70
     0
280
     1
281
     0
  0
BLOCK_RECORD
  5
131
330
1
100
AcDbSymbolTableRecord
100
AcDbBlockTableRecord
  2
4_129428I_0_in_129170_4
340
0
102
{BLKREFS
331
132
102
}
 70
     0
280
     1
281
     0
  0
ENDTAB
  0
ENDSEC
  0
SECTION
  2
BLOCKS
  0
BLOCK
  5
20
330
1F
100
AcDbEntity
  8
0
100
AcDbBlockBegin
  2
*Model_Space
 70
     0
 10
0.0
 20
0.0
 30
0.0
  3
*Model_Space
  1

  0
ENDBLK
  5
21
330
1F
100
AcDbEntity
  8
0
100
AcDbBlockEnd
  0
BLOCK
  5
1C
330
1B
100
AcDbEntity
 67
     1
  8
0
100
AcDbBlockBegin
  2
*Paper_Space
 70
     0
 10
0.0
 20
0.0
 30
0.0
  3
*Paper_Space
  1

  0
ENDBLK
  5
1D
330
1B
100
AcDbEntity
 67
     1
  8
0
100
AcDbBlockEnd
  0
BLOCK
  5
24
330
23
100
AcDbEntity
  8
0
100
AcDbBlockBegin
  2
*Paper_Space0
 70
     0
 10
0.0
 20
0.0
 30
0.0
  3
*Paper_Space0
  1

  0
ENDBLK
  5
25
330
23
100
AcDbEntity
  8
0
100
AcDbBlockEnd
  0
BLOCK
  5
70
330
6E
100
AcDbEntity
  8
0
100
AcDbBlockBegin
  2
1_129170_4
 70
     2
 10
0.0
 20
0.0
 30
0.0
  3
1_129170_4
  1

  0
ATTDEF
  5
73
330
6E
100
AcDbEntity
  8
AM_6
100
AcDbText
 10
9.4375
 20
1.271875
 30
0.0
 40
0.5
  1
Grip Tight Two-Bolt Pillow Block Inch Bore
100
AcDbAttributeDefinition
  3

  2
NN
 70
     8
280
     0
  0
ATTDEF
  5
74
330
6E
100
AcDbEntity
  8
AM_6
100
AcDbText
 10
9.4375
 20
0.7718750000000001
 30
0.0
 40
0.5
  1
GT Normal Duty Pillow Blocks
100
AcDbAttributeDefinition
  3

  2
NT
 70
     8
280
     0
  0
ATTDEF
  5
75
330
6E
100
AcDbEntity
  8
AM_6
100
AcDbText
 10
9.4375
 20
0.2718750000000001
 30
0.0
 40
0.5
  1
129170
100
AcDbAttributeDefinition
  3

  2
NB
 70
     8
280
     0
  0
ATTDEF
  5
76
330
6E
100
AcDbEntity
  8
AM_6
100
AcDbText
 10
9.4375
 20
-0.2281249999999999
 30
0.0
 40
0.5
  1
$PN.$LUBE.
100
AcDbAttributeDefinition
  3

  2
NBSYN
 70
     8
280
     0
  0
ATTDEF
  5
77
330
6E
100
AcDbEntity
  8
AM_6
100
AcDbText
 10
9.4375
 20
-0.7281249999999999
 30
0.0
 40
0.5
  1
129170
100
AcDbAttributeDefinition
  3

  2
LINA
 70
     8
280
     0
  0
ATTDEF
  5
78
330
6E
100
AcDbEntity
  8
AM_6
100
AcDbText
 10
9.4375
 20
-1.228125
 30
0.0
 40
0.5
  1
211
100
AcDbAttributeDefinition
  3

  2
SERIES
 70
     8
280
     0
  0
ATTDEF
  5
79
330
6E
100
AcDbEntity
  8
AM_6
100
AcDbText
 10
9.4375
 20
-1.728125
 30
0.0
 40
0.5
  1
2-3/16
100
AcDbAttributeDefinition
  3

  2
SS
 70
     8
280
     0
  0
ATTDEF
  5
7A
330
6E
100
AcDbEntity
  8
AM_6
100
AcDbText
 10
9.4375
 20
-2.228125
 30
0.0
 40
0.5
  1
129170
100
AcDbAttributeDefinition
  3

  2
PN
 70
     8
280
     0
  0
ATTDEF
  5
7B
330
6E
100
AcDbEntity
  8
AM_6
100
AcDbText
 10
9.4375
 20
-2.728125
 30
0.0
 40
0.5
  1
P2B-GT-203
100
AcDbAttributeDefinition
  3

  2
DESCRIPTION
 70
     8
280
     0
  0
ATTDEF
  5
7C
330
6E
100
AcDbEntity
  8
AM_6
100
AcDbText
 10
9.4375
 20
-3.228125
 30
0.0
 40
0.5
  1
1-59/64
100
AcDbAttributeDefinition
  3

  2
A
 70
     8
280
     0
  0
ATTDEF
  5
7D
330
6E
100
AcDbEntity
  8
AM_6
100
AcDbText
 10
9.4375
 20
-3.728125
 30
0.0
 40
0.5
  1
8-7/8
100
AcDbAttributeDefinition
  3

  2
B
 70
     8
280
     0
  0
ATTDEF
  5
7E
330
6E
100
AcDbEntity
  8
AM_6
100
AcDbText
 10
9.4375
 20
-4.228125
 30
0.0
 40
0.5
  1
2-5/16
100
AcDbAttributeDefinition
  3

  2
C
 70
     8
280
     0
  0
ATTDEF
  5
7F
330
6E
100
AcDbEntity
  8
AM_6
100
AcDbText
 10
9.4375
 20
-4.728125
 30
0.0
 40
0.5
  1
6-3/8
100
AcDbAttributeDefinition
  3

  2
DMIN
 70
     8
280
     0
  0
ATTDEF
  5
80
330
6E
100
AcDbEntity
  8
AM_6
100
AcDbText
 10
9.4375
 20
-5.228125
 30
0.0
 40
0.5
  1
7-7/16
100
AcDbAttributeDefinition
  3

  2
DMAX
 70
     8
280
     0
  0
ATTDEF
  5
81
330
6E
100
AcDbEntity
  8
AM_6
100
AcDbText
 10
9.4375
 20
-5.728125
 30
0.0
 40
0.5
  1
5/8
100
AcDbAttributeDefinition
  3

  2
F
 70
     8
280
     0
  0
ATTDEF
  5
82
330
6E
100
AcDbEntity
  8
AM_6
100
AcDbText
 10
9.4375
 20
-6.228125
 30
0.0
 40
0.5
  1
1-7/32
100
AcDbAttributeDefinition
  3

  2
G
 70
     8
280
     0
  0
ATTDEF
  5
83
330
6E
100
AcDbEntity
  8
AM_6
100
AcDbText
 10
9.4375
 20
-6.728125
 30
0.0
 40
0.5
  1
7/8
100
AcDbAttributeDefinition
  3

  2
H
 70
     8
280
     0
  0
ATTDEF
  5
84
330
6E
100
AcDbEntity
  8
AM_6
100
AcDbText
 10
9.4375
 20
-7.228125
 30
0.0
 40
0.5
  1
4-15/16
100
AcDbAttributeDefinition
  3

  2
J
 70
     8
280
     0
  0
ATTDEF
  5
85
330
6E
100
AcDbEntity
  8
AM_6
100
AcDbText
 10
9.4375
 20
-7.728125
 30
0.0
 40
0.5
  1
3-1/4
100
AcDbAttributeDefinition
  3

  2
L
 70
     8
280
     0
  0
ATTDEF
  5
86
330
6E
100
AcDbEntity
  8
AM_6
100
AcDbText
 10
9.4375
 20
-8.228125
 30
0.0
 40
0.5
  1
2-1/2
100
AcDbAttributeDefinition
  3

  2
M
 70
     8
280
     0
  0
ATTDEF
  5
87
330
6E
100
AcDbEntity
  8
AM_6
100
AcDbText
 10
9.4375
 20
-8.728125
 30
0.0
 40
0.5
  1
45/64
100
AcDbAttributeDefinition
  3

  2
R
 70
     8
280
     0
  0
ATTDEF
  5
88
330
6E
100
AcDbEntity
  8
AM_6
100
AcDbText
 10
9.4375
 20
-9.228125
 30
0.0
 40
0.5
  1
1-7/32
100
AcDbAttributeDefinition
  3

  2
S
 70
     8
280
     0
  0
ATTDEF
  5
89
330
6E
100
AcDbEntity
  8
AM_6
100
AcDbText
 10
9.4375
 20
-9.728125
 30
0.0
 40
0.5
  1
3-15/16
100
AcDbAttributeDefinition
  3

  2
U
 70
     8
280
     0
  0
ATTDEF
  5
8A
330
6E
100
AcDbEntity
  8
AM_6
100
AcDbText
 10
9.4375
 20
-10.228125
 30
0.0
 40
0.5
  1
7-7/8
100
AcDbAttributeDefinition
  3

  2
V
 70
     8
280
     0
  0
ATTDEF
  5
8B
330
6E
100
AcDbEntity
  8
AM_6
100
AcDbText
 10
9.4375
 20
-10.728125
 30
0.0
 40
0.5
  1
13/16
100
AcDbAttributeDefinition
  3

  2
W
 70
     8
280
     0
  0
ATTDEF
  5
8C
330
6E
100
AcDbEntity
  8
AM_6
100
AcDbText
 10
9.4375
 20
-11.228125
 30
0.0
 40
0.5
  1
3/16
100
AcDbAttributeDefinition
  3

  2
X
 70
     8
280
     0
  0
ATTDEF
  5
8D
330
6E
100
AcDbEntity
  8
AM_6
100
AcDbText
 10
9.4375
 20
-11.728125
 30
0.0
 40
0.5
  1
1-3/16
100
AcDbAttributeDefinition
  3

  2
Z
 70
     8
280
     0
  0
ATTDEF
  5
8E
330
6E
100
AcDbEntity
  8
AM_6
100
AcDbText
 10
9.4375
 20
-12.228125
 30
0.0
 40
0.5
  1
baldor
100
AcDbAttributeDefinition
  3

  2
COMPANY
 70
     8
280
     0
  0
INSERT
  5
90
330
6E
100
AcDbEntity
  8
0
100
AcDbBlockReference
  2
2_129524I_0_in_129170_4
 10
0.0
 20
0.0
 30
0.0
  0
INSERT
  5
D8
330
6E
100
AcDbEntity
  8
0
100
AcDbBlockReference
  2
3_129920_0_in_129170_4
 10
0.0
 20
0.0
 30
0.0
  0
INSERT
  5
132
330
6E
100
AcDbEntity
  8
0
100
AcDbBlockReference
  2
4_129428I_0_in_129170_4
 10
0.0
 20
0.0
 30
0.0
  0
ENDBLK
  5
71
330
6E
100
AcDbEntity
  8
0
100
AcDbBlockEnd
  0
BLOCK
  5
91
330
8F
100
AcDbEntity
  8
0
100
AcDbBlockBegin
  2
2_129524I_0_in_129170_4
 70
     2
 10
0.0
 20
0.0
 30
0.0
  3
2_129524I_0_in_129170_4
  1

  0
ATTDEF
  5
93
330
8F
100
AcDbEntity
  8
AM_6
100
AcDbText
 10
6.968362852357559
 20
0.6030000000000002
 30
0.0
 40
0.5
  1
INS-GT B
100
AcDbAttributeDefinition
  3

  2
NN
 70
     8
280
     0
  0
ATTDEF
  5
94
330
8F
100
AcDbEntity
  8
AM_6
100
AcDbText
 10
6.968362852357559
 20
0.1030000000000002
 30
0.0
 40
0.5
  1
GT Normal Duty Bearing Inserts
100
AcDbAttributeDefinition
  3

  2
NT
 70
     8
280
     0
  0
ATTDEF
  5
95
330
8F
100
AcDbEntity
  8
AM_6
100
AcDbText
 10
6.968362852357559
 20
-0.3969999999999998
 30
0.0
 40
0.5
  1
129524I
100
AcDbAttributeDefinition
  3

  2
NB
 70
     8
280
     0
  0
ATTDEF
  5
96
330
8F
100
AcDbEntity
  8
AM_6
100
AcDbText
 10
6.968362852357559
 20
-0.8969999999999998
 30
0.0
 40
0.5
  1
$PN.I
100
AcDbAttributeDefinition
  3

  2
NBSYN
 70
     8
280
     0
  0
ATTDEF
  5
97
330
8F
100
AcDbEntity
  8
AM_6
100
AcDbText
 10
6.968362852357559
 20
-1.397
 30
0.0
 40
0.5
  1
129524
100
AcDbAttributeDefinition
  3

  2
LINA
 70
     8
280
     0
  0
ATTDEF
  5
98
330
8F
100
AcDbEntity
  8
AM_6
100
AcDbText
 10
6.968362852357559
 20
-1.897
 30
0.0
 40
0.5
  1
211
100
AcDbAttributeDefinition
  3

  2
SERIES
 70
     8
280
     0
  0
ATTDEF
  5
99
330
8F
100
AcDbEntity
  8
AM_6
100
AcDbText
 10
6.968362852357559
 20
-2.397
 30
0.0
 40
0.5
  1
129524
100
AcDbAttributeDefinition
  3

  2
PN
 70
     8
280
     0
  0
ATTDEF
  5
9A
330
8F
100
AcDbEntity
  8
AM_6
100
AcDbText
 10
6.968362852357559
 20
-2.897
 30
0.0
 40
0.5
  1
INS-GT-11
100
AcDbAttributeDefinition
  3

  2
DESCRIPTION
 70
     8
280
     0
  0
ATTDEF
  5
9B
330
8F
100
AcDbEntity
  8
AM_6
100
AcDbText
 10
6.968362852357559
 20
-3.397
 30
0.0
 40
0.5
  1
1.93
100
AcDbAttributeDefinition
  3

  2
A
 70
     8
280
     0
  0
ATTDEF
  5
9C
330
8F
100
AcDbEntity
  8
AM_6
100
AcDbText
 10
6.968362852357559
 20
-3.897
 30
0.0
 40
0.5
  1
0.87
100
AcDbAttributeDefinition
  3

  2
C
 70
     8
280
     0
  0
ATTDEF
  5
9D
330
8F
100
AcDbEntity
  8
AM_6
100
AcDbText
 10
6.968362852357559
 20
-4.397
 30
0.0
 40
0.5
  1
3.9370
100
AcDbAttributeDefinition
  3

  2
D
 70
     8
280
     0
  0
ATTDEF
  5
9E
330
8F
100
AcDbEntity
  8
AM_6
100
AcDbText
 10
6.968362852357559
 20
-4.897
 30
0.0
 40
0.5
  1
0.25
100
AcDbAttributeDefinition
  3

  2
J
 70
     8
280
     0
  0
ATTDEF
  5
9F
330
8F
100
AcDbEntity
  8
AM_6
100
AcDbText
 10
6.968362852357559
 20
-5.397
 30
0.0
 40
0.5
  1
3.43
100
AcDbAttributeDefinition
  3

  2
L
 70
     8
280
     0
  0
ATTDEF
  5
A0
330
8F
100
AcDbEntity
  8
AM_6
100
AcDbText
 10
6.968362852357559
 20
-5.897
 30
0.0
 40
0.5
  1
#10 - 32 x 1/4
100
AcDbAttributeDefinition
  3

  2
N
 70
     8
280
     0
  0
ATTDEF
  5
A1
330
8F
100
AcDbEntity
  8
AM_6
100
AcDbText
 10
6.968362852357559
 20
-6.397
 30
0.0
 40
0.5
  1
0.67000
100
AcDbAttributeDefinition
  3

  2
W
 70
     8
280
     0
  0
ATTDEF
  5
A2
330
8F
100
AcDbEntity
  8
AM_6
100
AcDbText
 10
6.968362852357559
 20
-6.897
 30
0.0
 40
0.5
  1
1.32
100
AcDbAttributeDefinition
  3

  2
X
 70
     8
280
     0
  0
ATTDEF
  5
A3
330
8F
100
AcDbEntity
  8
AM_6
100
AcDbText
 10
6.968362852357559
 20
-7.397
 30
0.0
 40
0.5
  1
1.26
100
AcDbAttributeDefinition
  3

  2
Y
 70
     8
280
     0
  0
ATTDEF
  5
A4
330
8F
100
AcDbEntity
  8
AM_6
100
AcDbText
 10
6.968362852357559
 20
-7.897
 30
0.0
 40
0.5
  1
baldor
100
AcDbAttributeDefinition
  3

  2
COMPANY
 70
     8
280
     0
  0
LINE
  5
A7
330
8F
100
AcDbEntity
  8
AM_9
100
AcDbLine
 10
1.279444346444444
 20
-0.9899991617983235
 30
0.0
 11
1.279444346444444
 21
-0.4949991617983232
 31
0.0
  0
LINE
  5
A8
330
8F
100
AcDbEntity
  8
AM_9
100
AcDbLine
 10
-1.279444346444444
 20
-0.4949991617983232
 30
0.0
 11
-1.279444346444444
 21
-0.9899991617983235
 31
0.0
  0
LINE
  5
A9
330
8F
100
AcDbEntity
  8
AM_9
100
AcDbLine
 10
-1.279444346444444
 20
-0.4949991617983232
 30
0.0
 11
1.279444346444444
 21
-0.4949991617983232
 31
0.0
  0
LINE
  5
AA
330
8F
100
AcDbEntity
  8
AM_9
100
AcDbLine
 10
1.279444346444444
 20
-0.4949991617983232
 30
0.0
 11
1.317787322075736
 21
0.6030000000000002
 31
0.0
  0
LINE
  5
AB
330
8F
100
AcDbEntity
  8
AM_9
100
AcDbLine
 10
-1.317787322075736
 20
0.6030000000000002
 30
0.0
 11
-1.279444346444444
 21
-0.4949991617983232
 31
0.0
  0
LINE
  5
AC
330
8F
100
AcDbEntity
  8
AM_9
100
AcDbLine
 10
1.401944395444444
 20
-0.8249991617983236
 30
0.0
 11
1.401944395444444
 21
-0.6599991617983235
 31
0.0
  0
LINE
  5
AD
330
8F
100
AcDbEntity
  8
AM_9
100
AcDbLine
 10
-1.401944395444444
 20
-0.6599991617983235
 30
0.0
 11
-1.401944395444444
 21
-0.8249991617983236
 31
0.0
  0
LINE
  5
AE
330
8F
100
AcDbEntity
  8
AM_9
100
AcDbLine
 10
1.524444444444444
 20
-0.9551991617983236
 30
0.0
 11
1.524444444444444
 21
-0.8249991617983236
 31
0.0
  0
LINE
  5
AF
330
8F
100
AcDbEntity
  8
AM_9
100
AcDbLine
 10
-1.524444444444444
 20
-0.8249991617983236
 30
0.0
 11
-1.524444444444444
 21
-0.9551991617983236
 31
0.0
  0
LINE
  5
B0
330
8F
100
AcDbEntity
  8
AM_9
100
AcDbLine
 10
-1.524444444444444
 20
-0.8249991617983236
 30
0.0
 11
1.524444444444444
 21
-0.8249991617983236
 31
0.0
  0
LINE
  5
B1
330
8F
100
AcDbEntity
  8
AM_9
100
AcDbLine
 10
-1.489644444444445
 20
0.603
 30
0.0
 11
1.489644444444445
 21
0.603
 31
0.0
  0
LINE
  5
B2
330
8F
100
AcDbEntity
  8
AM_9
100
AcDbLine
 10
-1.489644444444445
 20
0.603
 30
0.0
 11
-1.524444444444444
 21
0.5682
 31
0.0
  0
LINE
  5
B3
330
8F
100
AcDbEntity
  8
AM_9
100
AcDbLine
 10
1.524444444444444
 20
0.5682
 30
0.0
 11
1.489644444444445
 21
0.603
 31
0.0
  0
LINE
  5
B4
330
8F
100
AcDbEntity
  8
AM_9
100
AcDbLine
 10
1.524444444444444
 20
-0.6599991617983235
 30
0.0
 11
1.524444444444444
 21
-0.435
 31
0.0
  0
LINE
  5
B5
330
8F
100
AcDbEntity
  8
AM_9
100
AcDbLine
 10
-1.524444444444444
 20
-0.435
 30
0.0
 11
-1.524444444444444
 21
-0.6599991617983235
 31
0.0
  0
LINE
  5
B6
330
8F
100
AcDbEntity
  8
AM_9
100
AcDbLine
 10
-1.524444444444444
 20
-0.6599991617983235
 30
0.0
 11
1.524444444444444
 21
-0.6599991617983235
 31
0.0
  0
LINE
  5
B7
330
8F
100
AcDbEntity
  8
AM_9
100
AcDbLine
 10
-0.6941390818815557
 20
-0.9551991617983235
 30
0.0
 11
1.524444444444444
 21
-0.9551991617983236
 31
0.0
  0
LINE
  5
B8
330
8F
100
AcDbEntity
  8
AM_9
100
AcDbLine
 10
1.489644444444445
 20
-0.9899991617983235
 30
0.0
 11
1.524444444444444
 21
-0.9551991617983236
 31
0.0
  0
LINE
  5
B9
330
8F
100
AcDbEntity
  8
AM_9
100
AcDbLine
 10
-1.524444444444444
 20
-0.9551991617983236
 30
0.0
 11
-1.489644444444445
 21
-0.9899991617983235
 31
0.0
  0
LINE
  5
BA
330
8F
100
AcDbEntity
  8
AM_9
100
AcDbLine
 10
-1.489644444444445
 20
-0.9899991617983235
 30
0.0
 11
1.489644444444445
 21
-0.9899991617983235
 31
0.0
  0
LINE
  5
BB
330
8F
100
AcDbEntity
  8
AM_9
100
AcDbLine
 10
-1.524444444444444
 20
-0.9551991617983236
 30
0.0
 11
-0.8749082433159197
 21
-0.9551991617983235
 31
0.0
  0
LINE
  5
BC
330
8F
100
AcDbEntity
  8
AM_9
100
AcDbLine
 10
-1.524444444444444
 20
0.5682
 30
0.0
 11
1.524444444444444
 21
0.5682
 31
0.0
  0
LINE
  5
BD
330
8F
100
AcDbEntity
  8
AM_9
100
AcDbLine
 10
1.524444444444444
 20
0.435
 30
0.0
 11
1.524444444444444
 21
0.5682
 31
0.0
  0
LINE
  5
BE
330
8F
100
AcDbEntity
  8
AM_9
100
AcDbLine
 10
-1.524444444444444
 20
0.5682
 30
0.0
 11
-1.524444444444444
 21
0.435
 31
0.0
  0
LINE
  5
BF
330
8F
100
AcDbEntity
  8
AM_9
100
AcDbLine
 10
1.8815
 20
-0.3000000000000001
 30
0.0
 11
1.8815
 21
-0.2
 31
0.0
  0
LINE
  5
C0
330
8F
100
AcDbEntity
  8
AM_9
100
AcDbLine
 10
-1.8815
 20
-0.2
 30
0.0
 11
-1.8815
 21
-0.3000000000000001
 31
0.0
  0
LINE
  5
C1
330
8F
100
AcDbEntity
  8
AM_9
100
AcDbLine
 10
-1.858036329583617
 20
-0.4349999999999997
 30
0.0
 11
1.858036329583617
 21
-0.4349999999999997
 31
0.0
  0
ARC
  5
C2
330
8F
100
AcDbEntity
  8
AM_9
100
AcDbCircle
 10
1.858036329583617
 20
-0.4002000000000005
 30
0.0
 40
0.0347999999999992
100
AcDbArc
 50
270.0
 51
338.5875329531165
  0
ARC
  5
C3
330
8F
100
AcDbEntity
  8
AM_9
100
AcDbCircle
 10
-1.858036329583617
 20
-0.4002000000000005
 30
0.0
 40
0.0347999999999993
100
AcDbArc
 50
201.4124670468835
 51
270.0
  0
LINE
  5
C4
330
8F
100
AcDbEntity
  8
AM_9
100
AcDbLine
 10
-1.858036329583617
 20
0.435
 30
0.0
 11
1.858036329583617
 21
0.435
 31
0.0
  0
ARC
  5
C5
330
8F
100
AcDbEntity
  8
AM_9
100
AcDbCircle
 10
1.858036329583617
 20
0.4001999999999993
 30
0.0
 40
0.0348000000000007
100
AcDbArc
 50
21.41245945715055
 51
90.0
  0
ARC
  5
C6
330
8F
100
AcDbEntity
  8
AM_9
100
AcDbCircle
 10
-1.858036329583617
 20
0.4001999999999993
 30
0.0
 40
0.0348000000000007
100
AcDbArc
 50
90.0
 51
158.5875405428494
  0
LINE
  5
C7
330
8F
100
AcDbEntity
  8
AM_9
100
AcDbLine
 10
-1.890434308300557
 20
-0.4129047619047618
 30
0.0
 11
1.890434308300557
 21
-0.4129047619047618
 31
0.0
  0
ARC
  5
C8
330
8F
100
AcDbEntity
  8
AM_9
100
AcDbCircle
 10
0.8374999999999113
 20
0.0000000000000283
 30
0.0
 40
1.131000000000093
100
AcDbArc
 50
338.5875329531162
 51
344.0344016634139
  0
ARC
  5
C9
330
8F
100
AcDbEntity
  8
AM_9
100
AcDbCircle
 10
-0.8374999999999888
 20
0.0000000000000013
 30
0.0
 40
1.131000000000011
100
AcDbArc
 50
195.9655983365858
 51
201.4124670468839
  0
LINE
  5
CA
330
8F
100
AcDbEntity
  8
AM_9
100
AcDbLine
 10
-1.924873961284066
 20
-0.3110930219747757
 30
0.0
 11
1.924873961284066
 21
-0.3110930219747757
 31
0.0
  0
LINE
  5
CB
330
8F
100
AcDbEntity
  8
AM_9
100
AcDbLine
 10
-1.916509545833586
 20
-0.3000000000000001
 30
0.0
 11
1.916509545833586
 21
-0.3000000000000001
 31
0.0
  0
ARC
  5
CC
330
8F
100
AcDbEntity
  8
AM_9
100
AcDbCircle
 10
1.916509545833585
 20
-0.3087000000000003
 30
0.0
 40
0.0087000000000001
100
AcDbArc
 50
344.0344103709567
 51
90.0
  0
ARC
  5
CD
330
8F
100
AcDbEntity
  8
AM_9
100
AcDbCircle
 10
-1.916509545833585
 20
-0.3087000000000003
 30
0.0
 40
0.0087000000000002
100
AcDbArc
 50
90.0
 51
195.9655896290433
  0
LINE
  5
CE
330
8F
100
AcDbEntity
  8
AM_9
100
AcDbLine
 10
-1.943375942409455
 20
-0.2
 30
0.0
 11
1.943375942409455
 21
-0.2
 31
0.0
  0
ARC
  5
CF
330
8F
100
AcDbEntity
  8
AM_9
100
AcDbCircle
 10
1.943375942409454
 20
-0.1912999999999994
 30
0.0
 40
0.0087000000000006
100
AcDbArc
 50
270.0
 51
350.1858105424271
  0
ARC
  5
D0
330
8F
100
AcDbEntity
  8
AM_9
100
AcDbCircle
 10
-1.943375942409454
 20
-0.1912999999999994
 30
0.0
 40
0.0087000000000007
100
AcDbArc
 50
189.8141894575729
 51
270.0
  0
LINE
  5
D1
330
8F
100
AcDbEntity
  8
AM_9
100
AcDbLine
 10
-1.951948624133559
 20
-0.192782945736434
 30
0.0
 11
1.951948624133559
 21
-0.192782945736434
 31
0.0
  0
LINE
  5
D2
330
8F
100
AcDbEntity
  8
AM_9
100
AcDbLine
 10
-1.890434309983504
 20
0.412904757613136
 30
0.0
 11
1.890434309983504
 21
0.412904757613136
 31
0.0
  0
ARC
  5
D3
330
8F
100
AcDbEntity
  8
AM_9
100
AcDbCircle
 10
0.8374999999999859
 20
-0.000000000000001
 30
0.0
 40
1.131000000000014
100
AcDbArc
 50
350.1858105424295
 51
21.41246681335356
  0
ARC
  5
D4
330
8F
100
AcDbEntity
  8
AM_9
100
AcDbCircle
 10
-0.8374999999999839
 20
-0.0000000000000013
 30
0.0
 40
1.131000000000016
100
AcDbArc
 50
158.5875331866465
 51
189.8141894575704
  0
LINE
  5
D6
330
8F
100
AcDbEntity
  8
AM_4
100
AcDbLine
 10
-0.8749082433159197
 20
-0.9551991617983235
 30
0.0
 11
-0.6941390818815557
 21
-0.9551991617983235
 31
0.0
  0
ENDBLK
  5
92
330
8F
100
AcDbEntity
  8
0
100
AcDbBlockEnd
  0
BLOCK
  5
D9
330
D7
100
AcDbEntity
  8
0
100
AcDbBlockBegin
  2
3_129920_0_in_129170_4
 70
     2
 10
0.0
 20
0.0
 30
0.0
  3
3_129920_0_in_129170_4
  1

  0
ATTDEF
  5
DB
330
D7
100
AcDbEntity
  8
AM_6
100
AcDbText
 10
6.619506946573555
 20
0.7031250000000001
 30
0.0
 40
0.5
  1
Grip Tight Normal Duty Adapter and Nut Inch Bore
100
AcDbAttributeDefinition
  3

  2
NN
 70
     8
280
     0
  0
ATTDEF
  5
DC
330
D7
100
AcDbEntity
  8
AM_6
100
AcDbText
 10
6.619506946573555
 20
0.2031250000000001
 30
0.0
 40
0.5
  1
GT and GTM Adapter & Lock Nut Assemblies
100
AcDbAttributeDefinition
  3

  2
NT
 70
     8
280
     0
  0
ATTDEF
  5
DD
330
D7
100
AcDbEntity
  8
AM_6
100
AcDbText
 10
6.619506946573555
 20
-0.2968749999999999
 30
0.0
 40
0.5
  1
129920
100
AcDbAttributeDefinition
  3

  2
NB
 70
     8
280
     0
  0
ATTDEF
  5
DE
330
D7
100
AcDbEntity
  8
AM_6
100
AcDbText
 10
6.619506946573555
 20
-0.7968749999999999
 30
0.0
 40
0.5
  1
$PN.
100
AcDbAttributeDefinition
  3

  2
NBSYN
 70
     8
280
     0
  0
ATTDEF
  5
DF
330
D7
100
AcDbEntity
  8
AM_6
100
AcDbText
 10
6.619506946573555
 20
-1.296875
 30
0.0
 40
0.5
  1
129920
100
AcDbAttributeDefinition
  3

  2
LINA
 70
     8
280
     0
  0
ATTDEF
  5
E0
330
D7
100
AcDbEntity
  8
AM_6
100
AcDbText
 10
6.619506946573555
 20
-1.796875
 30
0.0
 40
0.5
  1
211
100
AcDbAttributeDefinition
  3

  2
SERIES
 70
     8
280
     0
  0
ATTDEF
  5
E1
330
D7
100
AcDbEntity
  8
AM_6
100
AcDbText
 10
6.619506946573555
 20
-2.296875
 30
0.0
 40
0.5
  1
2-3/16
100
AcDbAttributeDefinition
  3

  2
SS
 70
     8
280
     0
  0
ATTDEF
  5
E2
330
D7
100
AcDbEntity
  8
AM_6
100
AcDbText
 10
6.619506946573555
 20
-2.796875
 30
0.0
 40
0.5
  1
129920
100
AcDbAttributeDefinition
  3

  2
PN
 70
     8
280
     0
  0
ATTDEF
  5
E3
330
D7
100
AcDbEntity
  8
AM_6
100
AcDbText
 10
6.619506946573555
 20
-3.296875
 30
0.0
 40
0.5
  1
AN-GT-11-203
100
AcDbAttributeDefinition
  3

  2
DESCRIPTION
 70
     8
280
     0
  0
ATTDEF
  5
E4
330
D7
100
AcDbEntity
  8
AM_6
100
AcDbText
 10
6.619506946573555
 20
-3.796875
 30
0.0
 40
0.5
  1
1-59/64
100
AcDbAttributeDefinition
  3

  2
A
 70
     8
280
     0
  0
ATTDEF
  5
E5
330
D7
100
AcDbEntity
  8
AM_6
100
AcDbText
 10
6.619506946573555
 20
-4.296875
 30
0.0
 40
0.5
  1
0.9449
100
AcDbAttributeDefinition
  3

  2
C
 70
     8
280
     0
  0
ATTDEF
  5
E6
330
D7
100
AcDbEntity
  8
AM_6
100
AcDbText
 10
6.619506946573555
 20
-4.796875
 30
0.0
 40
0.5
  1
3.9370
100
AcDbAttributeDefinition
  3

  2
D
 70
     8
280
     0
  0
ATTDEF
  5
E7
330
D7
100
AcDbEntity
  8
AM_6
100
AcDbText
 10
6.619506946573555
 20
-5.296875
 30
0.0
 40
0.5
  1
0.267
100
AcDbAttributeDefinition
  3

  2
J
 70
     8
280
     0
  0
ATTDEF
  5
E8
330
D7
100
AcDbEntity
  8
AM_6
100
AcDbText
 10
6.619506946573555
 20
-5.796875
 30
0.0
 40
0.5
  1
3-1/4
100
AcDbAttributeDefinition
  3

  2
L
 70
     8
280
     0
  0
ATTDEF
  5
E9
330
D7
100
AcDbEntity
  8
AM_6
100
AcDbText
 10
6.619506946573555
 20
-6.296875
 30
0.0
 40
0.5
  1
10 - 32 x 1/4
100
AcDbAttributeDefinition
  3

  2
N
 70
     8
280
     0
  0
ATTDEF
  5
EA
330
D7
100
AcDbEntity
  8
AM_6
100
AcDbText
 10
6.619506946573555
 20
-6.796875
 30
0.0
 40
0.5
  1
45/64
100
AcDbAttributeDefinition
  3

  2
W
 70
     8
280
     0
  0
ATTDEF
  5
EB
330
D7
100
AcDbEntity
  8
AM_6
100
AcDbText
 10
6.619506946573555
 20
-7.296875
 30
0.0
 40
0.5
  1
1-3/16
100
AcDbAttributeDefinition
  3

  2
X
 70
     8
280
     0
  0
ATTDEF
  5
EC
330
D7
100
AcDbEntity
  8
AM_6
100
AcDbText
 10
6.619506946573555
 20
-7.796875
 30
0.0
 40
0.5
  1
1-7/32
100
AcDbAttributeDefinition
  3

  2
Y
 70
     8
280
     0
  0
ATTDEF
  5
ED
330
D7
100
AcDbEntity
  8
AM_6
100
AcDbText
 10
6.619506946573555
 20
-8.296875
 30
0.0
 40
0.5
  1
baldor
100
AcDbAttributeDefinition
  3

  2
COMPANY
 70
     8
280
     0
  0
LINE
  5
EE
330
D7
100
AcDbEntity
  8
AM_9
100
AcDbLine
 10
-1.60245
 20
-1.1521168666709
 30
0.0
 11
-1.2413
 21
-1.1521168666709
 31
0.0
  0
LINE
  5
EF
330
D7
100
AcDbEntity
  8
AM_9
100
AcDbLine
 10
-1.2413
 20
-1.0072168666709
 30
0.0
 11
-1.60245
 21
-1.0072168666709
 31
0.0
  0
LINE
  5
F0
330
D7
100
AcDbEntity
  8
AM_9
100
AcDbLine
 10
-1.2413
 20
-1.1521168666709
 30
0.0
 11
-1.21875
 21
-1.1746668666709
 31
0.0
  0
LINE
  5
F1
330
D7
100
AcDbEntity
  8
AM_9
100
AcDbLine
 10
-1.21875
 20
-0.9846668666709001
 30
0.0
 11
-1.2413
 21
-1.0072168666709
 31
0.0
  0
LINE
  5
F2
330
D7
100
AcDbEntity
  8
AM_9
100
AcDbLine
 10
-1.21875
 20
-0.9846668666709001
 30
0.0
 11
-1.21875
 21
-1.1746668666709
 31
0.0
  0
LINE
  5
F3
330
D7
100
AcDbEntity
  8
AM_9
100
AcDbLine
 10
-1.2413
 20
-1.0072168666709
 30
0.0
 11
-1.2413
 21
-1.1521168666709
 31
0.0
  0
LINE
  5
F4
330
D7
100
AcDbEntity
  8
AM_9
100
AcDbLine
 10
-1.60245
 20
-1.0072168666709
 30
0.0
 11
-1.624935737986615
 21
-0.9847311286842853
 31
0.0
  0
LINE
  5
F5
330
D7
100
AcDbEntity
  8
AM_9
100
AcDbLine
 10
-1.612501539600675
 20
-1.162168406271575
 30
0.0
 11
-1.60245
 21
-1.1521168666709
 31
0.0
  0
LINE
  5
F6
330
D7
100
AcDbEntity
  8
AM_9
100
AcDbLine
 10
-1.60245
 20
-1.0072168666709
 30
0.0
 11
-1.60245
 21
-1.1521168666709
 31
0.0
  0
LINE
  5
F7
330
D7
100
AcDbEntity
  8
AM_9
100
AcDbLine
 10
1.51666639149945
 20
-0.59375
 30
0.0
 11
1.51666639149945
 21
-1.1875
 31
0.0
  0
LINE
  5
F8
330
D7
100
AcDbEntity
  8
AM_9
100
AcDbLine
 10
1.09375
 20
-1.15625
 30
0.0
 11
1.09375
 21
0.7031249999999999
 31
0.0
  0
LINE
  5
F9
330
D7
100
AcDbEntity
  8
AM_9
100
AcDbLine
 10
-1.09375
 20
0.7031249999999999
 30
0.0
 11
-1.09375
 21
-1.15625
 31
0.0
  0
LINE
  5
FA
330
D7
100
AcDbEntity
  8
AM_9
100
AcDbLine
 10
1.212301587301587
 20
-0.8906249999999999
 30
0.0
 11
1.212301587301587
 21
-0.4453124999999991
 31
0.0
  0
LINE
  5
FB
330
D7
100
AcDbEntity
  8
AM_9
100
AcDbLine
 10
-1.212301587301587
 20
-0.4453124999999991
 30
0.0
 11
-1.212301587301587
 21
-0.8906249999999999
 31
0.0
  0
LINE
  5
FC
330
D7
100
AcDbEntity
  8
AM_9
100
AcDbLine
 10
0.05
 20
-0.3946875000000001
 30
0.0
 11
-0.05
 21
-0.3946875000000001
 31
0.0
  0
LINE
  5
FD
330
D7
100
AcDbEntity
  8
AM_9
100
AcDbLine
 10
-0.05
 20
0.7031250000000001
 30
0.0
 11
-0.05
 21
-1.15625
 31
0.0
  0
LINE
  5
FE
330
D7
100
AcDbEntity
  8
AM_9
100
AcDbLine
 10
0.05
 20
0.7031250000000001
 30
0.0
 11
0.05
 21
-1.15625
 31
0.0
  0
LINE
  5
FF
330
D7
100
AcDbEntity
  8
AM_9
100
AcDbLine
 10
-1.212301587301587
 20
-1.15625
 30
0.0
 11
1.212301587301587
 21
-1.15625
 31
0.0
  0
LINE
  5
100
330
D7
100
AcDbEntity
  8
AM_9
100
AcDbLine
 10
1.212301587301587
 20
-1.1875
 30
0.0
 11
1.212301587301587
 21
-1.15625
 31
0.0
  0
LINE
  5
101
330
D7
100
AcDbEntity
  8
AM_9
100
AcDbLine
 10
-1.212301587301587
 20
-1.15625
 30
0.0
 11
-1.212301587301587
 21
-1.1875
 31
0.0
  0
LINE
  5
102
330
D7
100
AcDbEntity
  8
AM_9
100
AcDbLine
 10
-1.212301587301587
 20
-0.4453124999999991
 30
0.0
 11
1.212301587301587
 21
-0.4453124999999991
 31
0.0
  0
LWPOLYLINE
  5
103
330
D7
100
AcDbEntity
  8
AM_9
100
AcDbPolyline
 90
        3
 70
     0
 43
0.0
 10
0.0294633422367174
 20
-0.4350612829317201
 10
0.0398979081404014
 20
-0.4265168120313995
 10
0.05
 20
-0.4157983036560034
  0
LWPOLYLINE
  5
104
330
D7
100
AcDbEntity
  8
AM_9
100
AcDbPolyline
 90
        7
 70
     0
 43
0.0
 10
-0.0294246839025765
 20
-0.4350881622099583
 10
-0.0277390460576482
 20
-0.4362258931915974
 10
-0.018253764731548
 20
-0.4413773996705316
 10
-0.0034080042444542
 20
-0.4451753250149604
 10
0.0119009332089721
 20
-0.4436397651760361
 10
0.0286850905166228
 20
-0.4355956119323751
 10
0.0294633422367174
 20
-0.4350612829317201
  0
LWPOLYLINE
  5
105
330
D7
100
AcDbEntity
  8
AM_9
100
AcDbPolyline
 90
        3
 70
     0
 43
0.0
 10
-0.05
 20
-0.4157983036560034
 10
-0.0361819243695612
 20
-0.4298541844771532
 10
-0.0294246839025765
 20
-0.4350881622099583
  0
LWPOLYLINE
  5
106
330
D7
100
AcDbEntity
  8
AM_9
100
AcDbPolyline
 90
        4
 70
     0
 43
0.0
 10
-0.05
 20
-0.3901623581268892
 10
-0.026302628250111
 20
-0.3885707174256557
 10
0.0117887571342884
 20
-0.3881863488489035
 10
0.05
 20
-0.3901623581268892
  0
LINE
  5
107
330
D7
100
AcDbEntity
  8
AM_9
100
AcDbLine
 10
1.212301587301587
 20
-0.4453124999999991
 30
0.0
 11
1.252405908514766
 21
0.703125
 31
0.0
  0
LINE
  5
108
330
D7
100
AcDbEntity
  8
AM_9
100
AcDbLine
 10
-1.252405908514766
 20
0.703125
 30
0.0
 11
-1.212301587301587
 21
-0.4453124999999991
 31
0.0
  0
LINE
  5
109
330
D7
100
AcDbEntity
  8
AM_9
100
AcDbLine
 10
-1.252405908514766
 20
0.703125
 30
0.0
 11
1.252405908514766
 21
0.703125
 31
0.0
  0
LINE
  5
10A
330
D7
100
AcDbEntity
  8
AM_9
100
AcDbLine
 10
1.328373015873015
 20
-0.7421875
 30
0.0
 11
1.328373015873015
 21
-0.59375
 31
0.0
  0
LINE
  5
10B
330
D7
100
AcDbEntity
  8
AM_9
100
AcDbLine
 10
-1.328373015873015
 20
-0.59375
 30
0.0
 11
-1.328373015873015
 21
-0.7421875
 31
0.0
  0
LINE
  5
10C
330
D7
100
AcDbEntity
  8
AM_9
100
AcDbLine
 10
-0.9253678646920002
 20
-0.6315459999999998
 30
0.0
 11
-0.9253678646920004
 21
-0.8372489495240237
 31
0.0
  0
LINE
  5
10D
330
D7
100
AcDbEntity
  8
AM_9
100
AcDbLine
 10
-1.625
 20
-0.6315459999999999
 30
0.0
 11
-1.625
 21
-0.8966782753901534
 31
0.0
  0
LINE
  5
10E
330
D7
100
AcDbEntity
  8
AM_9
100
AcDbLine
 10
-0.9064042319469435
 20
-0.59375
 30
0.0
 11
-0.9253678646920002
 21
-0.6315459999999998
 31
0.0
  0
LINE
  5
10F
330
D7
100
AcDbEntity
  8
AM_9
100
AcDbLine
 10
-1.587204
 20
-0.59375
 30
0.0
 11
-1.625
 21
-0.6315459999999999
 31
0.0
  0
LINE
  5
110
330
D7
100
AcDbEntity
  8
AM_9
100
AcDbLine
 10
-1.625
 20
-0.6315459999999999
 30
0.0
 11
-0.9253678646920002
 21
-0.6315459999999998
 31
0.0
  0
LINE
  5
111
330
D7
100
AcDbEntity
  8
AM_9
100
AcDbLine
 10
-0.6427188043445029
 20
-0.5937499999999999
 30
0.0
 11
-0.6427188043445029
 21
-1.1875
 31
0.0
  0
LINE
  5
112
330
D7
100
AcDbEntity
  8
AM_9
100
AcDbLine
 10
-0.8739475871549478
 20
-0.5937499999999999
 30
0.0
 11
-0.8739475871549478
 21
-0.9571130833618762
 31
0.0
  0
LINE
  5
113
330
D7
100
AcDbEntity
  8
AM_9
100
AcDbLine
 10
-1.444444444444444
 20
-0.7421875
 30
0.0
 11
1.444444444444444
 21
-0.7421875
 31
0.0
  0
LINE
  5
114
330
D7
100
AcDbEntity
  8
AM_9
100
AcDbLine
 10
-1.444444444444444
 20
-0.8906249999999999
 30
0.0
 11
1.444444444444444
 21
-0.8906249999999999
 31
0.0
  0
LINE
  5
115
330
D7
100
AcDbEntity
  8
AM_9
100
AcDbLine
 10
1.444444444444444
 20
-0.8906249999999999
 30
0.0
 11
1.444444444444444
 21
-0.7421875
 31
0.0
  0
LINE
  5
116
330
D7
100
AcDbEntity
  8
AM_9
100
AcDbLine
 10
-1.444444444444444
 20
-0.7421875
 30
0.0
 11
-1.444444444444444
 21
-0.8906249999999999
 31
0.0
  0
LINE
  5
117
330
D7
100
AcDbEntity
  8
AM_9
100
AcDbLine
 10
1.581579681083441
 20
-0.59375
 30
0.0
 11
1.619506946573555
 21
-0.6315459999999999
 31
0.0
  0
LINE
  5
118
330
D7
100
AcDbEntity
  8
AM_9
100
AcDbLine
 10
-1.587204
 20
-0.59375
 30
0.0
 11
1.581579681083441
 21
-0.59375
 31
0.0
  0
LINE
  5
119
330
D7
100
AcDbEntity
  8
AM_9
100
AcDbLine
 10
-0.6941390818815556
 20
-0.6315459999999998
 30
0.0
 11
-0.6751754491364987
 21
-0.5937500000000001
 31
0.0
  0
LINE
  5
11A
330
D7
100
AcDbEntity
  8
AM_9
100
AcDbLine
 10
1.619506946573555
 20
-0.6315459999999999
 30
0.0
 11
1.619506946573555
 21
-0.895920066066959
 31
0.0
  0
LINE
  5
11B
330
D7
100
AcDbEntity
  8
AM_9
100
AcDbLine
 10
-0.6941390818815556
 20
-0.6315459999999998
 30
0.0
 11
1.619506946573555
 21
-0.6315459999999999
 31
0.0
  0
LINE
  5
11C
330
D7
100
AcDbEntity
  8
AM_9
100
AcDbLine
 10
-0.6941390818815556
 20
-0.8273236999140959
 30
0.0
 11
-0.6941390818815556
 21
-0.6315459999999998
 31
0.0
  0
LINE
  5
11E
330
D7
100
AcDbEntity
  8
AM_5
100
AcDbLine
 10
-1.6000371333291
 20
-1.1746668666709
 30
0.0
 11
-1.21875
 21
-1.1746668666709
 31
0.0
  0
LINE
  5
11F
330
D7
100
AcDbEntity
  8
AM_5
100
AcDbLine
 10
-1.494976739571868
 20
-0.9846668666708999
 30
0.0
 11
-1.279444346444444
 21
-0.9846668666708999
 31
0.0
  0
LINE
  5
122
330
D7
100
AcDbEntity
  8
AM_7
100
AcDbLine
 10
-1.1984375
 20
-1.0796668666709
 30
0.0
 11
-1.6453125
 21
-1.0796668666709
 31
0.0
  0
LINE
  5
123
330
D7
100
AcDbEntity
  8
AM_4
100
AcDbLine
 10
-0.9253678646920004
 20
-0.8372489495240237
 30
0.0
 11
-0.9253678646920004
 21
-1.149704
 31
0.0
  0
LINE
  5
124
330
D7
100
AcDbEntity
  8
AM_4
100
AcDbLine
 10
-1.625
 20
-0.8966782753901534
 30
0.0
 11
-1.625
 21
-0.9847889221243933
 31
0.0
  0
LWPOLYLINE
  5
125
330
D7
100
AcDbEntity
  8
AM_4
100
AcDbPolyline
 90
       16
 70
     0
 43
0.0
 10
-1.625
 20
-0.9846668666709036
 10
-1.624945788316334
 20
-0.9856534756778929
 10
-1.624754639650975
 20
-0.9892175394055438
 10
-1.624457792814973
 20
-0.9950477479046858
 10
-1.624071857854355
 20
-1.003286804385852
 10
-1.623650566431669
 20
-1.013435526152573
 10
-1.62322376320328
 20
-1.025620077186234
 10
-1.62284911571802
 20
-1.039229128401069
 10
-1.622559890306301
 20
-1.054310784080917
 10
-1.622399552884704
 20
-1.07002391205202
 10
-1.622385851953697
 20
-1.08644906843248
 10
-1.622523481622864
 20
-1.102427426180705
 10
-1.622805509726163
 20
-1.118210154453928
 10
-1.623183301404218
 20
-1.132413028788031
 10
-1.623634698209531
 20
-1.145485480593903
 10
-1.623801548684257
 20
-1.149704000000003
  0
LINE
  5
126
330
D7
100
AcDbEntity
  8
AM_4
100
AcDbLine
 10
-1.623801548684257
 20
-1.149704
 30
0.0
 11
-0.9253678646920004
 21
-1.149704
 31
0.0
  0
LINE
  5
127
330
D7
100
AcDbEntity
  8
AM_4
100
AcDbLine
 10
-1.623801548684258
 20
-1.149703999999999
 30
0.0
 11
-1.612518566664556
 21
-1.162185433335443
 31
0.0
  0
LINE
  5
128
330
D7
100
AcDbEntity
  8
AM_4
100
AcDbLine
 10
-0.9253678646920004
 20
-1.149704
 30
0.0
 11
-0.9064042319469438
 21
-1.1875
 31
0.0
  0
LINE
  5
129
330
D7
100
AcDbEntity
  8
AM_4
100
AcDbLine
 10
-1.612851984837318
 20
-1.161852015162683
 30
0.0
 11
-1.587204
 21
-1.1875
 31
0.0
  0
LINE
  5
12A
330
D7
100
AcDbEntity
  8
AM_4
100
AcDbLine
 10
-0.8739475871549478
 20
-0.9571130833618762
 30
0.0
 11
-0.8739475871549478
 21
-1.1875
 31
0.0
  0
LINE
  5
12B
330
D7
100
AcDbEntity
  8
AM_4
100
AcDbLine
 10
1.619506946573555
 20
-0.895920066066959
 30
0.0
 11
1.619506946573555
 21
-1.149704
 31
0.0
  0
LINE
  5
12C
330
D7
100
AcDbEntity
  8
AM_4
100
AcDbLine
 10
-0.6941390818815556
 20
-1.149704
 30
0.0
 11
-0.6941390818815556
 21
-0.8273236999140959
 31
0.0
  0
LINE
  5
12D
330
D7
100
AcDbEntity
  8
AM_4
100
AcDbLine
 10
1.619506946573555
 20
-1.149704
 30
0.0
 11
1.581579681083441
 21
-1.1875
 31
0.0
  0
LINE
  5
12E
330
D7
100
AcDbEntity
  8
AM_4
100
AcDbLine
 10
-0.6941390818815556
 20
-1.149704
 30
0.0
 11
1.619506946573555
 21
-1.149704
 31
0.0
  0
LINE
  5
12F
330
D7
100
AcDbEntity
  8
AM_4
100
AcDbLine
 10
-0.6751754491364989
 20
-1.1875
 30
0.0
 11
-0.6941390818815556
 21
-1.149704
 31
0.0
  0
LINE
  5
130
330
D7
100
AcDbEntity
  8
AM_4
100
AcDbLine
 10
-1.587204
 20
-1.1875
 30
0.0
 11
1.581579681083441
 21
-1.1875
 31
0.0
  0
ENDBLK
  5
DA
330
D7
100
AcDbEntity
  8
0
100
AcDbBlockEnd
  0
BLOCK
  5
133
330
131
100
AcDbEntity
  8
0
100
AcDbBlockBegin
  2
4_129428I_0_in_129170_4
 70
     2
 10
0.0
 20
0.0
 30
0.0
  3
4_129428I_0_in_129170_4
  1

  0
ATTDEF
  5
135
330
131
100
AcDbEntity
  8
AM_6
100
AcDbText
 10
9.4375
 20
1.271875
 30
0.0
 40
0.5
  1
GT-I
100
AcDbAttributeDefinition
  3

  2
NN
 70
     8
280
     0
  0
ATTDEF
  5
136
330
131
100
AcDbEntity
  8
AM_6
100
AcDbText
 10
9.4375
 20
0.7718750000000001
 30
0.0
 40
0.5
  1
GT Normal and Medium Duty Pillow Blocks
100
AcDbAttributeDefinition
  3

  2
NT
 70
     8
280
     0
  0
ATTDEF
  5
137
330
131
100
AcDbEntity
  8
AM_6
100
AcDbText
 10
9.4375
 20
0.2718750000000001
 30
0.0
 40
0.5
  1
129428I
100
AcDbAttributeDefinition
  3

  2
NB
 70
     8
280
     0
  0
ATTDEF
  5
138
330
131
100
AcDbEntity
  8
AM_6
100
AcDbText
 10
9.4375
 20
-0.2281249999999999
 30
0.0
 40
0.5
  1
$PN.$LUBE.I
100
AcDbAttributeDefinition
  3

  2
NBSYN
 70
     8
280
     0
  0
ATTDEF
  5
139
330
131
100
AcDbEntity
  8
AM_6
100
AcDbText
 10
9.4375
 20
-0.7281249999999999
 30
0.0
 40
0.5
  1
129428
100
AcDbAttributeDefinition
  3

  2
LINA
 70
     8
280
     0
  0
ATTDEF
  5
13A
330
131
100
AcDbEntity
  8
AM_6
100
AcDbText
 10
9.4375
 20
-1.228125
 30
0.0
 40
0.5
  1
211
100
AcDbAttributeDefinition
  3

  2
SERIES
 70
     8
280
     0
  0
ATTDEF
  5
13B
330
131
100
AcDbEntity
  8
AM_6
100
AcDbText
 10
9.4375
 20
-1.728125
 30
0.0
 40
0.5
  1
129428
100
AcDbAttributeDefinition
  3

  2
PN
 70
     8
280
     0
  0
ATTDEF
  5
13C
330
131
100
AcDbEntity
  8
AM_6
100
AcDbText
 10
9.4375
 20
-2.228125
 30
0.0
 40
0.5
  1
P2B-GT-11
100
AcDbAttributeDefinition
  3

  2
DESCRIPTION
 70
     8
280
     0
  0
ATTDEF
  5
13D
330
131
100
AcDbEntity
  8
AM_6
100
AcDbText
 10
9.4375
 20
-2.728125
 30
0.0
 40
0.5
  1
1-59/64
100
AcDbAttributeDefinition
  3

  2
A
 70
     8
280
     0
  0
ATTDEF
  5
13E
330
131
100
AcDbEntity
  8
AM_6
100
AcDbText
 10
9.4375
 20
-3.228125
 30
0.0
 40
0.5
  1
8-7/8
100
AcDbAttributeDefinition
  3

  2
B
 70
     8
280
     0
  0
ATTDEF
  5
13F
330
131
100
AcDbEntity
  8
AM_6
100
AcDbText
 10
9.4375
 20
-3.728125
 30
0.0
 40
0.5
  1
2-5/16
100
AcDbAttributeDefinition
  3

  2
C
 70
     8
280
     0
  0
ATTDEF
  5
140
330
131
100
AcDbEntity
  8
AM_6
100
AcDbText
 10
9.4375
 20
-4.228125
 30
0.0
 40
0.5
  1
6-3/8
100
AcDbAttributeDefinition
  3

  2
DMIN
 70
     8
280
     0
  0
ATTDEF
  5
141
330
131
100
AcDbEntity
  8
AM_6
100
AcDbText
 10
9.4375
 20
-4.728125
 30
0.0
 40
0.5
  1
7-7/16
100
AcDbAttributeDefinition
  3

  2
DMAX
 70
     8
280
     0
  0
ATTDEF
  5
142
330
131
100
AcDbEntity
  8
AM_6
100
AcDbText
 10
9.4375
 20
-5.228125
 30
0.0
 40
0.5
  1
5/8
100
AcDbAttributeDefinition
  3

  2
F
 70
     8
280
     0
  0
ATTDEF
  5
143
330
131
100
AcDbEntity
  8
AM_6
100
AcDbText
 10
9.4375
 20
-5.728125
 30
0.0
 40
0.5
  1
1-7/32
100
AcDbAttributeDefinition
  3

  2
G
 70
     8
280
     0
  0
ATTDEF
  5
144
330
131
100
AcDbEntity
  8
AM_6
100
AcDbText
 10
9.4375
 20
-6.228125
 30
0.0
 40
0.5
  1
7/8
100
AcDbAttributeDefinition
  3

  2
H
 70
     8
280
     0
  0
ATTDEF
  5
145
330
131
100
AcDbEntity
  8
AM_6
100
AcDbText
 10
9.4375
 20
-6.728125
 30
0.0
 40
0.5
  1
4-15/16
100
AcDbAttributeDefinition
  3

  2
J
 70
     8
280
     0
  0
ATTDEF
  5
146
330
131
100
AcDbEntity
  8
AM_6
100
AcDbText
 10
9.4375
 20
-7.228125
 30
0.0
 40
0.5
  1
3-1/4
100
AcDbAttributeDefinition
  3

  2
L
 70
     8
280
     0
  0
ATTDEF
  5
147
330
131
100
AcDbEntity
  8
AM_6
100
AcDbText
 10
9.4375
 20
-7.728125
 30
0.0
 40
0.5
  1
2-1/2
100
AcDbAttributeDefinition
  3

  2
M
 70
     8
280
     0
  0
ATTDEF
  5
148
330
131
100
AcDbEntity
  8
AM_6
100
AcDbText
 10
9.4375
 20
-8.228125
 30
0.0
 40
0.5
  1
45/64
100
AcDbAttributeDefinition
  3

  2
R
 70
     8
280
     0
  0
ATTDEF
  5
149
330
131
100
AcDbEntity
  8
AM_6
100
AcDbText
 10
9.4375
 20
-8.728125
 30
0.0
 40
0.5
  1
1-7/32
100
AcDbAttributeDefinition
  3

  2
S
 70
     8
280
     0
  0
ATTDEF
  5
14A
330
131
100
AcDbEntity
  8
AM_6
100
AcDbText
 10
9.4375
 20
-9.228125
 30
0.0
 40
0.5
  1
3-15/16
100
AcDbAttributeDefinition
  3

  2
U
 70
     8
280
     0
  0
ATTDEF
  5
14B
330
131
100
AcDbEntity
  8
AM_6
100
AcDbText
 10
9.4375
 20
-9.728125
 30
0.0
 40
0.5
  1
7-7/8
100
AcDbAttributeDefinition
  3

  2
V
 70
     8
280
     0
  0
ATTDEF
  5
14C
330
131
100
AcDbEntity
  8
AM_6
100
AcDbText
 10
9.4375
 20
-10.228125
 30
0.0
 40
0.5
  1
13/16
100
AcDbAttributeDefinition
  3

  2
W
 70
     8
280
     0
  0
ATTDEF
  5
14D
330
131
100
AcDbEntity
  8
AM_6
100
AcDbText
 10
9.4375
 20
-10.728125
 30
0.0
 40
0.5
  1
3/16
100
AcDbAttributeDefinition
  3

  2
X
 70
     8
280
     0
  0
ATTDEF
  5
14E
330
131
100
AcDbEntity
  8
AM_6
100
AcDbText
 10
9.4375
 20
-11.228125
 30
0.0
 40
0.5
  1
1-3/16
100
AcDbAttributeDefinition
  3

  2
Z
 70
     8
280
     0
  0
ATTDEF
  5
14F
330
131
100
AcDbEntity
  8
AM_6
100
AcDbText
 10
9.4375
 20
-11.728125
 30
0.0
 40
0.5
  1
baldor
100
AcDbAttributeDefinition
  3

  2
COMPANY
 70
     8
280
     0
  0
LINE
  5
150
330
131
100
AcDbEntity
  8
AM_9
100
AcDbLine
 10
-1.7248199
 20
-0.9866667437500003
 30
0.0
 11
-1.7248199
 21
0.9866667437499996
 31
0.0
  0
LINE
  5
151
330
131
100
AcDbEntity
  8
AM_9
100
AcDbLine
 10
-1.783875
 20
-1.15625
 30
0.0
 11
-1.783875
 21
1.15625
 31
0.0
  0
LINE
  5
152
330
131
100
AcDbEntity
  8
AM_9
100
AcDbLine
 10
1.7248199
 20
-0.9866667437500001
 30
0.0
 11
1.7248199
 21
0.9866667437499999
 31
0.0
  0
LINE
  5
153
330
131
100
AcDbEntity
  8
AM_9
100
AcDbLine
 10
1.783875
 20
-1.15625
 30
0.0
 11
1.783875
 21
1.15625
 31
0.0
  0
LWPOLYLINE
  5
154
330
131
100
AcDbEntity
  8
AM_9
100
AcDbPolyline
 90
        5
 70
     0
 43
0.0
 10
1.853463732200367
 20
-0.0909214090671168
 10
1.850099903543988
 20
-0.0460980447457686
 10
1.848848295695346
 20
-0.0008744807129145
 10
1.850043198880487
 20
0.0450211226067941
 10
1.853463732200367
 20
0.090921409067117
  0
LINE
  5
155
330
131
100
AcDbEntity
  8
AM_9
100
AcDbLine
 10
1.853463732200367
 20
-0.0909214090671168
 30
0.0
 11
1.941668235699721
 21
-0.0909214090671168
 31
0.0
  0
LINE
  5
156
330
131
100
AcDbEntity
  8
AM_9
100
AcDbLine
 10
1.853463732200367
 20
0.090921409067117
 30
0.0
 11
1.941668235699721
 21
0.090921409067117
 31
0.0
  0
LINE
  5
157
330
131
100
AcDbEntity
  8
AM_9
100
AcDbLine
 10
1.737492211485206
 20
0.1102359999999999
 30
0.0
 11
1.723561524813685
 21
0.1102359999999999
 31
0.0
  0
LINE
  5
158
330
131
100
AcDbEntity
  8
AM_9
100
AcDbLine
 10
1.723570191886066
 20
-0.1102359999999997
 30
0.0
 11
1.737492211485206
 21
-0.1102359999999997
 31
0.0
  0
LWPOLYLINE
  5
159
330
131
100
AcDbEntity
  8
AM_9
100
AcDbPolyline
 90
       20
 70
     0
 43
0.0
 10
1.723580285877775
 20
0.1102359994888119
 10
1.714562159147923
 20
0.1095008518891714
 10
1.701589746575103
 20
0.1058074369134946
 10
1.689150285803789
 20
0.0991380025073268
 10
1.677617824568286
 20
0.0896376127080664
 10
1.667330807340056
 20
0.0776149921400907
 10
1.658617191803729
 20
0.0633636993060225
 10
1.651734480901871
 20
0.0473251711330741
 10
1.646927892509203
 20
0.0299315423549141
 10
1.644320208691492
 20
0.0116925262102701
 10
1.644027364444881
 20
-0.0068650513062851
 10
1.646021923693415
 20
-0.0252289820912474
 10
1.650270598762267
 20
-0.0428642641315897
 10
1.656606759591224
 20
-0.0592925829374365
 10
1.664865256450296
 20
-0.0740387069046263
 10
1.674759135422903
 20
-0.0866996325688603
 10
1.686012882330144
 20
-0.0968915379990079
 10
1.698262022668607
 20
-0.1043512574795148
 10
1.711146093478912
 20
-0.1088251560142438
 10
1.723577122974945
 20
-0.1102359998288321
  0
LWPOLYLINE
  5
15A
330
131
100
AcDbEntity
  8
AM_9
100
AcDbPolyline
 90
       11
 70
     0
 43
0.0
 10
1.723577122974945
 20
-0.1102359998288321
 10
1.724286782847085
 20
-0.1102313733508816
 10
1.737294820241432
 20
-0.1084890505149331
 10
1.749822819927828
 20
-0.1036940109239093
 10
1.761517567133493
 20
-0.0959408794309498
 10
1.772081626881205
 20
-0.085489327554519
 10
1.781228628761251
 20
-0.0725871200211721
 10
1.788735917482508
 20
-0.057639177685854
 10
1.794392299158617
 20
-0.0410359962568198
 10
1.798079441716302
 20
-0.0232739504147564
 10
1.799757885840313
 20
0.0000000000000001
  0
LWPOLYLINE
  5
15B
330
131
100
AcDbEntity
  8
AM_9
100
AcDbPolyline
 90
        5
 70
     0
 43
0.0
 10
1.853463732200367
 20
0.090921409067117
 10
1.822651310758444
 20
0.1133330912277909
 10
1.793706038852159
 20
0.1359448732442179
 10
1.766795739644681
 20
0.1588926749040724
 10
1.74210820274572
 20
0.1818428181342338
  0
LWPOLYLINE
  5
15C
330
131
100
AcDbEntity
  8
AM_9
100
AcDbPolyline
 90
        5
 70
     0
 43
0.0
 10
1.74210820274572
 20
-0.1818428181342336
 10
1.766192966874884
 20
-0.1594311359735596
 10
1.792635023083886
 20
-0.1368193539571327
 10
1.821935128661644
 20
-0.1138715522972783
 10
1.853463732200367
 20
-0.0909214090671168
  0
ELLIPSE
  5
15D
330
131
100
AcDbEntity
  8
AM_9
100
AcDbEllipse
 10
1.737492211485206
 20
0.0000000000000001
 30
0.0
 11
-2.892860668945903E-17
 21
-0.1574800000000014
 31
0.0
210
0.0
220
0.0
230
1.0
 40
0.7071067811865478
 41
0.0
 42
6.283185307179586
  0
ELLIPSE
  5
15E
330
131
100
AcDbEntity
  8
AM_9
100
AcDbEllipse
 10
1.834928697505587
 20
0.0000000000000006
 30
0.0
 11
6.750008227540323E-18
 21
0.110235999999999
 31
0.0
210
0.0
220
0.0
230
1.0
 40
0.7071067811865506
 41
3.141592653589793
 42
6.283185307179586
  0
ELLIPSE
  5
15F
330
131
100
AcDbEntity
  8
AM_9
100
AcDbEllipse
 10
1.84884809449399
 20
-0.0000000000000076
 30
0.0
 11
6.750008227555033E-18
 21
0.1102360000002393
 31
0.0
210
0.0
220
0.0
230
1.0
 40
0.7071067811782438
 41
4.71238898038469
 42
4.734414387733271
  0
ELLIPSE
  5
160
330
131
100
AcDbEntity
  8
AM_9
100
AcDbEllipse
 10
1.848848094493244
 20
-0.0000000000000009
 30
0.0
 11
6.750008227540370E-18
 21
0.1102359999999998
 31
0.0
210
0.0
220
0.0
230
1.0
 40
0.7071067811865476
 41
5.214229589008946
 42
5.690408029522375
  0
LINE
  5
161
330
131
100
AcDbEntity
  8
AM_9
100
AcDbLine
 10
1.619506946573555
 20
-0.9866667437500001
 30
0.0
 11
-1.625072280592917
 21
-0.9866667437500002
 31
0.0
  0
LINE
  5
162
330
131
100
AcDbEntity
  8
AM_9
100
AcDbLine
 10
1.9685
 20
-1.002083025
 30
0.0
 11
1.9685
 21
1.002083025
 31
0.0
  0
LINE
  5
163
330
131
100
AcDbEntity
  8
AM_9
100
AcDbLine
 10
-1.9685
 20
1.002083025
 30
0.0
 11
-1.9685
 21
-1.002083025
 31
0.0
  0
LINE
  5
164
330
131
100
AcDbEntity
  8
AM_9
100
AcDbLine
 10
1.941668235699721
 20
-0.0909214090671168
 30
0.0
 11
1.926282942541889
 21
-0.1054386295108841
 31
0.0
  0
LWPOLYLINE
  5
165
330
131
100
AcDbEntity
  8
AM_9
100
AcDbPolyline
 90
        5
 70
     0
 43
0.0
 10
1.941668235699721
 20
0.090921409067117
 10
1.9450320643561
 20
0.0460980447457689
 10
1.946283672204742
 20
0.0008744807129147
 10
1.945088769019601
 20
-0.0450211226067939
 10
1.941668235699721
 20
-0.0909214090671168
  0
LINE
  5
166
330
131
100
AcDbEntity
  8
AM_9
100
AcDbLine
 10
1.926280032511067
 20
0.1054413087207173
 30
0.0
 11
1.941668235699721
 21
0.090921409067117
 31
0.0
  0
ELLIPSE
  5
167
330
131
100
AcDbEntity
  8
AM_9
100
AcDbEllipse
 10
1.834928697505584
 20
-0.0000000000000008
 30
0.0
 11
9.642868896486368E-18
 21
0.1574800000000018
 31
0.0
210
0.0
220
0.0
230
1.0
 40
0.707106781186563
 41
3.987813156562202
 42
5.437663881985405
  0
ELLIPSE
  5
168
330
131
100
AcDbEntity
  8
AM_9
100
AcDbEllipse
 10
1.84884809449324
 20
0.0000000000000015
 30
0.0
 11
6.750008227540412E-18
 21
0.1102360000000005
 31
0.0
210
0.0
220
0.0
230
1.0
 40
0.7071067811865754
 41
3.734797210429853
 42
4.223127167323973
  0
LWPOLYLINE
  5
169
330
131
100
AcDbEntity
  8
AM_9
100
AcDbPolyline
 90
       23
 70
     0
 43
0.0
 10
1.926791506335687
 20
0.0000000000000001
 10
1.926683784831696
 20
-0.00577551399443
 10
1.925782393118465
 20
-0.0176115889702625
 10
1.92400158886895
 20
-0.029066136967054
 10
1.921422844401172
 20
-0.0398750329080529
 10
1.91816786376175
 20
-0.0498049887669335
 10
1.914396093494739
 20
-0.0586559941327217
 10
1.910299889756341
 20
-0.0662724320111416
 10
1.906097059206238
 20
-0.0725539790660069
 10
1.902026766008003
 20
-0.0774583665753254
 10
1.898331200956612
 20
-0.0810197438671502
 10
1.89522828250419
 20
-0.0833594184252069
 10
1.892891896250143
 20
-0.0846768397982304
 10
1.891416452317836
 20
-0.0852424157322898
 10
1.890734785207963
 20
-0.0853795166385018
 10
1.890266015922329
 20
-0.0853516168228568
 10
1.88915151510338
 20
-0.0850284071326495
 10
1.887203152613741
 20
-0.0841006766723345
 10
1.884490001026301
 20
-0.0823098426328258
 10
1.880787880758557
 20
-0.0791039307180491
 10
1.876714413301277
 20
-0.0746087230169299
 10
1.872489954459117
 20
-0.0687902188519231
 10
1.87091047076081
 20
-0.0662689926870423
  0
LWPOLYLINE
  5
16A
330
131
100
AcDbEntity
  8
AM_9
100
AcDbPolyline
 90
       21
 70
     0
 43
0.0
 10
1.880041247431323
 20
0.0783565156104037
 10
1.88158312428585
 20
0.0798629490106677
 10
1.884926625222074
 20
0.0826317903543919
 10
1.887560481136027
 20
0.0842964638656687
 10
1.889355440902987
 20
0.0851025183897765
 10
1.890303062178029
 20
0.0853577645796705
 10
1.890703031851109
 20
0.0853818867631928
 10
1.891338700503948
 20
0.0852637827261158
 10
1.8927889847752
 20
0.0847242794990405
 10
1.895082747605488
 20
0.0834535817698007
 10
1.898072731918416
 20
0.0812378315865647
 10
1.901938852353012
 20
0.0775527174503271
 10
1.906094245662123
 20
0.072557746513404
 10
1.91032108988638
 20
0.0662371727459927
 10
1.914411559510761
 20
0.0586238063648646
 10
1.918164009639358
 20
0.0498152353508928
 10
1.921399507836054
 20
0.0399575159385382
 10
1.923969513786053
 20
0.0292287728577771
 10
1.925755439996909
 20
0.017843248694376
 10
1.926673577614478
 20
0.0060427007987155
 10
1.926791506335687
 20
0.0000000000000001
  0
LWPOLYLINE
  5
16B
330
131
100
AcDbEntity
  8
AM_9
100
AcDbPolyline
 90
        4
 70
     0
 43
0.0
 10
1.87118233169588
 20
0.0667177566222466
 10
1.873574721397446
 20
0.070406920623056
 10
1.877723208475595
 20
0.0758185804533333
 10
1.880041247431323
 20
0.0783565156104037
  0
ELLIPSE
  5
16C
330
131
100
AcDbEntity
  8
AM_9
100
AcDbEllipse
 10
1.925930292097537
 20
-0.0000000000000001
 30
0.0
 11
6.258279876480415E-18
 21
0.1022054666020876
 31
0.0
210
0.0
220
0.0
230
1.0
 40
0.7071067811865486
 41
2.425835505204611
 42
6.929105605621116
  0
ELLIPSE
  5
16D
330
131
100
AcDbEntity
  8
AM_9
100
AcDbEllipse
 10
1.94081945638439
 20
0.0000000000000004
 30
0.0
 11
6.365617546288434E-18
 21
0.1039584237793366
 31
0.0
210
0.0
220
0.0
230
1.0
 40
0.7071067811865486
 41
3.694304707716633
 42
5.730473253052743
  0
ELLIPSE
  5
16E
330
131
100
AcDbEntity
  8
AM_9
100
AcDbEllipse
 10
1.985062370974259
 20
0.00000000000002
 30
0.0
 11
4.354225479597370E-18
 21
0.07110989850508655
 31
0.0
210
0.0
220
0.0
230
1.0
 40
0.7071067811879505
 41
3.921243464834028
 42
5.558765342550706
  0
LWPOLYLINE
  5
16F
330
131
100
AcDbEntity
  8
AM_9
100
AcDbPolyline
 90
       11
 70
     0
 43
0.0
 10
1.799757885840313
 20
0.0000000000000001
 10
1.798695388411508
 20
0.0184945879176487
 10
1.795562153287911
 20
0.0364675912344456
 10
1.790408123912427
 20
0.0533975373956248
 10
1.783387366708473
 20
0.0688234763872615
 10
1.774645210871614
 20
0.0822927980736811
 10
1.764430490513118
 20
0.0934435001977827
 10
1.752984097668978
 20
0.1019275998841949
 10
1.740630284288773
 20
0.1075370975225976
 10
1.727703272980609
 20
0.1100695462263225
 10
1.723580285877775
 20
0.1102359994888119
  0
ELLIPSE
  5
170
330
131
100
AcDbEntity
  8
AM_9
100
AcDbEllipse
 10
1.737492211485206
 20
-0.0000000000000001
 30
0.0
 11
6.750008227540353E-18
 21
0.1102359999999995
 31
0.0
210
0.0
220
0.0
230
1.0
 40
0.7071067811865493
 41
0.0
 42
6.283185307179586
  0
LINE
  5
171
330
131
100
AcDbEntity
  8
AM_7
100
AcDbLine
 10
-4.035937499999999
 20
-0.8125000000000004
 30
0.0
 11
-3.839062499999999
 21
-0.8125000000000004
 31
0.0
  0
LINE
  5
172
330
131
100
AcDbEntity
  8
AM_7
100
AcDbLine
 10
-3.9375
 20
-0.9109375000000004
 30
0.0
 11
-3.9375
 21
-0.7140625000000005
 31
0.0
  0
LINE
  5
173
330
131
100
AcDbEntity
  8
AM_7
100
AcDbLine
 10
3.839062499999999
 20
-0.8124999999999999
 30
0.0
 11
4.035937499999999
 21
-0.8124999999999999
 31
0.0
  0
LINE
  5
174
330
131
100
AcDbEntity
  8
AM_7
100
AcDbLine
 10
3.9375
 20
-0.9109374999999998
 30
0.0
 11
3.9375
 21
-0.7140624999999999
 31
0.0
  0
LINE
  5
175
330
131
100
AcDbEntity
  8
AM_7
100
AcDbLine
 10
0.0
 20
1.271875
 30
0.0
 11
0.0
 21
-1.28203125
 31
0.0
  0
LINE
  5
176
330
131
100
AcDbEntity
  8
AM_7
100
AcDbLine
 10
2.8265625
 20
0.0000000000000001
 30
0.0
 11
4.0796875
 21
0.0000000000000004
 31
0.0
  0
LINE
  5
177
330
131
100
AcDbEntity
  8
AM_7
100
AcDbLine
 10
3.71875
 20
-0.3609374999999997
 30
0.0
 11
3.71875
 21
0.3609375000000004
 31
0.0
  0
LINE
  5
178
330
131
100
AcDbEntity
  8
AM_7
100
AcDbLine
 10
-4.0796875
 20
0.0000000000000002
 30
0.0
 11
-2.8265625
 21
0.0000000000000001
 31
0.0
  0
LINE
  5
179
330
131
100
AcDbEntity
  8
AM_7
100
AcDbLine
 10
-3.71875
 20
-0.3609374999999998
 30
0.0
 11
-3.71875
 21
0.3609375000000002
 31
0.0
  0
LINE
  5
17A
330
131
100
AcDbEntity
  8
AM_7
100
AcDbLine
 10
3.1875
 20
-0.3609374999999999
 30
0.0
 11
3.1875
 21
0.3609375000000001
 31
0.0
  0
LINE
  5
17B
330
131
100
AcDbEntity
  8
AM_7
100
AcDbLine
 10
-3.1875
 20
-0.3609375
 30
0.0
 11
-3.1875
 21
0.3609375000000001
 31
0.0
  0
LINE
  5
17C
330
131
100
AcDbEntity
  8
AM_4
100
AcDbLine
 10
-1.774999999999995
 20
1.15625
 30
0.0
 11
-4.202500000000001
 21
1.15625
 31
0.0
  0
LINE
  5
17D
330
131
100
AcDbEntity
  8
AM_4
100
AcDbLine
 10
-4.4375
 20
0.9212500000000006
 30
0.0
 11
-4.4375
 21
-0.9212500000000005
 31
0.0
  0
LINE
  5
17E
330
131
100
AcDbEntity
  8
AM_4
100
AcDbLine
 10
-4.202500000000001
 20
1.15625
 30
0.0
 11
-4.4375
 21
0.9212500000000006
 31
0.0
  0
LINE
  5
17F
330
131
100
AcDbEntity
  8
AM_4
100
AcDbLine
 10
4.202500000000001
 20
1.15625
 30
0.0
 11
1.775
 21
1.15625
 31
0.0
  0
LINE
  5
180
330
131
100
AcDbEntity
  8
AM_4
100
AcDbLine
 10
4.4375
 20
-0.92125
 30
0.0
 11
4.4375
 21
0.9212500000000003
 31
0.0
  0
LINE
  5
181
330
131
100
AcDbEntity
  8
AM_4
100
AcDbLine
 10
4.4375
 20
0.9212500000000003
 30
0.0
 11
4.202500000000001
 21
1.15625
 31
0.0
  0
LINE
  5
182
330
131
100
AcDbEntity
  8
AM_4
100
AcDbLine
 10
-4.437499999999999
 20
-0.9212500000000009
 30
0.0
 11
-4.202500000000001
 21
-1.15625
 31
0.0
  0
LWPOLYLINE
  5
183
330
131
100
AcDbEntity
  8
AM_4
100
AcDbPolyline
 90
       10
 70
     0
 43
0.0
 10
-4.3784449
 20
0.2853142152329444
 10
-4.389636998727227
 20
0.2578962667661115
 10
-4.399656823187716
 20
0.2301466068322798
 10
-4.408626153929256
 20
0.2016727156208964
 10
-4.41636182433592
 20
0.1730297808087108
 10
-4.425542150629905
 20
0.1305593496223807
 10
-4.432102592741359
 20
0.0879183765158425
 10
-4.436121366589468
 20
0.0444951264986497
 10
-4.437499272381459
 20
0.0010227175181166
 10
-4.4375
 20
0.0000000000000012
  0
CIRCLE
  5
184
330
131
100
AcDbEntity
  8
AM_4
100
AcDbCircle
 10
-3.9375
 20
-0.8125000000000004
 30
0.0
 40
0.09375
  0
LINE
  5
185
330
131
100
AcDbEntity
  8
AM_4
100
AcDbLine
 10
-3.1875
 20
0.3437500000000001
 30
0.0
 11
-3.71875
 21
0.3437500000000002
 31
0.0
  0
ARC
  5
186
330
131
100
AcDbEntity
  8
AM_4
100
AcDbCircle
 10
-3.1875
 20
0.0
 30
0.0
 40
0.3437499999999999
100
AcDbArc
 50
270.0
 51
90.0
  0
LINE
  5
187
330
131
100
AcDbEntity
  8
AM_4
100
AcDbLine
 10
-3.71875
 20
-0.3437499999999998
 30
0.0
 11
-3.1875
 21
-0.3437499999999999
 31
0.0
  0
ARC
  5
188
330
131
100
AcDbEntity
  8
AM_4
100
AcDbCircle
 10
-3.71875
 20
0.0000000000000002
 30
0.0
 40
0.3437499999999999
100
AcDbArc
 50
90.0
 51
270.0
  0
LINE
  5
189
330
131
100
AcDbEntity
  8
AM_4
100
AcDbLine
 10
-3.71875
 20
0.7187500000000008
 30
0.0
 11
-3.011240199999997
 21
0.7187500000000002
 31
0.0
  0
ARC
  5
18A
330
131
100
AcDbEntity
  8
AM_4
100
AcDbCircle
 10
-3.718749999999999
 20
0.0
 30
0.0
 40
0.7187500000000008
100
AcDbArc
 50
90.0
 51
156.6117977247461
  0
LINE
  5
18B
330
131
100
AcDbEntity
  8
AM_4
100
AcDbLine
 10
-4.3784449
 20
-0.9803051000000005
 30
0.0
 11
-4.3784449
 21
0.2853142152329444
 31
0.0
  0
LINE
  5
18C
330
131
100
AcDbEntity
  8
AM_4
100
AcDbLine
 10
-1.775
 20
-1.156250000000001
 30
0.0
 11
-4.202500000000001
 21
-1.15625
 31
0.0
  0
ARC
  5
18D
330
131
100
AcDbEntity
  8
AM_4
100
AcDbCircle
 10
-3.011240199999998
 20
0.7974901999999977
 30
0.0
 40
0.0787401999999975
100
AcDbArc
 50
270.0
 51
0.0
  0
LINE
  5
18E
330
131
100
AcDbEntity
  8
AM_4
100
AcDbLine
 10
4.202500000000001
 20
-1.15625
 30
0.0
 11
4.4375
 21
-0.92125
 31
0.0
  0
LWPOLYLINE
  5
18F
330
131
100
AcDbEntity
  8
AM_4
100
AcDbPolyline
 90
        9
 70
     0
 43
0.0
 10
4.4375
 20
0.0000000000000002
 10
4.43749927238146
 20
0.0010227175181086
 10
4.436166589704765
 20
0.0437607051632473
 10
4.432264277909832
 20
0.0865964070779571
 10
4.425681656668893
 20
0.1298044502294679
 10
4.41636182433592
 20
0.1730297808087127
 10
4.399968999414387
 20
0.2292209356425834
 10
4.389843917602612
 20
0.2573606734852442
 10
4.378444899999999
 20
0.2853142152329471
  0
CIRCLE
  5
190
330
131
100
AcDbEntity
  8
AM_4
100
AcDbCircle
 10
3.9375
 20
-0.8124999999999999
 30
0.0
 40
0.09375
  0
LINE
  5
191
330
131
100
AcDbEntity
  8
AM_4
100
AcDbLine
 10
3.71875
 20
0.3437500000000001
 30
0.0
 11
3.1875
 21
0.3437500000000001
 31
0.0
  0
ARC
  5
192
330
131
100
AcDbEntity
  8
AM_4
100
AcDbCircle
 10
3.71875
 20
0.0000000000000002
 30
0.0
 40
0.3437500000000001
100
AcDbArc
 50
270.0
 51
90.0
  0
LINE
  5
193
330
131
100
AcDbEntity
  8
AM_4
100
AcDbLine
 10
3.1875
 20
-0.3437499999999998
 30
0.0
 11
3.71875
 21
-0.3437499999999999
 31
0.0
  0
ARC
  5
194
330
131
100
AcDbEntity
  8
AM_4
100
AcDbCircle
 10
3.1875
 20
0.0000000000000001
 30
0.0
 40
0.34375
100
AcDbArc
 50
90.0
 51
270.0
  0
ARC
  5
195
330
131
100
AcDbEntity
  8
AM_4
100
AcDbCircle
 10
3.0112402
 20
0.7974902000000005
 30
0.0
 40
0.0787401999999999
100
AcDbArc
 50
180.0
 51
270.0
  0
LINE
  5
196
330
131
100
AcDbEntity
  8
AM_4
100
AcDbLine
 10
4.202500000000001
 20
-1.15625
 30
0.0
 11
1.775000000000002
 21
-1.15625
 31
0.0
  0
LINE
  5
197
330
131
100
AcDbEntity
  8
AM_4
100
AcDbLine
 10
4.378444899999999
 20
-0.9803051000000016
 30
0.0
 11
4.378444899999999
 21
0.2853142152329471
 31
0.0
  0
ARC
  5
198
330
131
100
AcDbEntity
  8
AM_4
100
AcDbCircle
 10
3.718750000000002
 20
0.0000000000000015
 30
0.0
 40
0.7187499999999986
100
AcDbArc
 50
23.38820227525414
 51
90.0
  0
LINE
  5
199
330
131
100
AcDbEntity
  8
AM_4
100
AcDbLine
 10
3.0112402
 20
0.7187500000000003
 30
0.0
 11
3.71875
 21
0.7187500000000003
 31
0.0
  0
LWPOLYLINE
  5
19A
330
131
100
AcDbEntity
  8
AM_4
100
AcDbPolyline
 90
       29
 70
     0
 43
0.0
 10
2.9325
 20
0.671994466123048
 10
2.874902175169334
 20
0.6472126098981208
 10
2.819683408537358
 20
0.61750507491421
 10
2.767263948260142
 20
0.5830979534504438
 10
2.718042738082132
 20
0.5442531044767489
 10
2.672394381133362
 20
0.5012661607489766
 10
2.630666288973444
 20
0.4544642788651212
 10
2.593176037579826
 20
0.4042036494060681
 10
2.560208950402845
 20
0.3508667861101982
 10
2.53201592688199
 20
0.2948596147128719
 10
2.508811532949668
 20
0.2366083836064775
 10
2.490772368054899
 20
0.1765564198327896
 10
2.478035721134879
 20
0.1151607550964931
 10
2.470698525763267
 20
0.0528886474779471
 10
2.46881662242716
 20
-0.0097859746829444
 10
2.472404333547271
 20
-0.0723861196675657
 10
2.481434354475655
 20
-0.1344353625735828
 10
2.495837961300574
 20
-0.1954614711961236
 10
2.515505533876951
 20
-0.2549999999999987
 10
2.540287390101879
 20
-0.312597824830664
 10
2.569994925085789
 20
-0.3678165914626407
 10
2.604402046549556
 20
-0.4202360517398565
 10
2.64324689552325
 20
-0.4694572619178665
 10
2.686233839251023
 20
-0.5151056188666364
 10
2.733035721134878
 20
-0.5568337110265549
 10
2.783296350593931
 20
-0.5943239624201735
 10
2.836633213889801
 20
-0.6272910495971546
 10
2.892640385287128
 20
-0.6554840731180096
 10
2.9325
 20
-0.6719944661230478
  0
LINE
  5
19B
330
131
100
AcDbEntity
  8
AM_4
100
AcDbLine
 10
2.9325
 20
0.6719944661230478
 30
0.0
 11
2.932499999999999
 21
1.15625
 31
0.0
  0
LINE
  5
19C
330
131
100
AcDbEntity
  8
AM_4
100
AcDbLine
 10
2.932499999999999
 20
-1.15625
 30
0.0
 11
2.9325
 21
-0.6719944661230478
 31
0.0
  0
LWPOLYLINE
  5
19D
330
131
100
AcDbEntity
  8
AM_4
100
AcDbPolyline
 90
       29
 70
     0
 43
0.0
 10
-2.9325
 20
-0.6719944661230481
 10
-2.874902175169335
 20
-0.647212609898121
 10
-2.819683408537358
 20
-0.6175050749142104
 10
-2.767263948260142
 20
-0.583097953450444
 10
-2.718042738082132
 20
-0.5442531044767492
 10
-2.672394381133363
 20
-0.5012661607489769
 10
-2.630666288973444
 20
-0.4544642788651215
 10
-2.593176037579826
 20
-0.4042036494060683
 10
-2.560208950402845
 20
-0.3508667861101985
 10
-2.53201592688199
 20
-0.2948596147128723
 10
-2.508811532949667
 20
-0.2366083836064778
 10
-2.490772368054899
 20
-0.1765564198327899
 10
-2.478035721134879
 20
-0.1151607550964933
 10
-2.470698525763267
 20
-0.0528886474779474
 10
-2.46881662242716
 20
0.0097859746829441
 10
-2.472404333547271
 20
0.0723861196675654
 10
-2.481434354475655
 20
0.1344353625735825
 10
-2.495837961300573
 20
0.1954614711961233
 10
-2.515505533876951
 20
0.2549999999999983
 10
-2.540287390101879
 20
0.3125978248306637
 10
-2.569994925085789
 20
0.3678165914626404
 10
-2.604402046549555
 20
0.4202360517398562
 10
-2.64324689552325
 20
0.4694572619178661
 10
-2.686233839251022
 20
0.5151056188666361
 10
-2.733035721134877
 20
0.5568337110265543
 10
-2.78329635059393
 20
0.5943239624201732
 10
-2.8366332138898
 20
0.6272910495971542
 10
-2.892640385287126
 20
0.6554840731180093
 10
-2.9325
 20
0.6719944661230476
  0
LINE
  5
19E
330
131
100
AcDbEntity
  8
AM_4
100
AcDbLine
 10
-2.932499999999995
 20
-1.15625
 30
0.0
 11
-2.9325
 21
-0.671994466123048
 31
0.0
  0
LINE
  5
19F
330
131
100
AcDbEntity
  8
AM_4
100
AcDbLine
 10
-2.9325
 20
0.6719944661230475
 30
0.0
 11
-2.932499999999999
 21
1.15625
 31
0.0
  0
LINE
  5
1A0
330
131
100
AcDbEntity
  8
AM_4
100
AcDbLine
 10
1.848848094493245
 20
0.1102359999999996
 30
0.0
 11
1.834928697505587
 21
0.1102359999999996
 31
0.0
  0
LINE
  5
1A1
330
131
100
AcDbEntity
  8
AM_4
100
AcDbLine
 10
1.834928697505587
 20
-0.1102359999999993
 30
0.0
 11
1.848848094493245
 21
-0.1102359999999993
 31
0.0
  0
ELLIPSE
  5
1A2
330
131
100
AcDbEntity
  8
AM_4
100
AcDbEllipse
 10
1.834928697505587
 20
0.0000000000000001
 30
0.0
 11
6.750008227540352E-18
 21
0.1102359999999995
 31
0.0
210
0.0
220
0.0
230
1.0
 40
0.7071067811865476
 41
0.0
 42
3.141592653589793
  0
ELLIPSE
  5
1A3
330
131
100
AcDbEntity
  8
AM_4
100
AcDbEllipse
 10
1.848848094493245
 20
0.0000000000000001
 30
0.0
 11
6.750008227540352E-18
 21
0.1102359999999995
 31
0.0
210
0.0
220
0.0
230
1.0
 40
0.7071067811865495
 41
5.690408029522384
 42
10.01798251760941
  0
LWPOLYLINE
  5
1A4
330
131
100
AcDbEntity
  8
AM_4
100
AcDbPolyline
 90
        5
 70
     0
 43
0.0
 10
1.630752673291071
 20
-0.0909214090671168
 10
1.654837437420235
 20
-0.1133330912277907
 10
1.681279493629238
 20
-0.135944873244218
 10
1.710579599206997
 20
-0.1588926749040724
 10
1.74210820274572
 20
-0.1818428181342336
  0
LINE
  5
1A5
330
131
100
AcDbEntity
  8
AM_4
100
AcDbLine
 10
1.74210820274572
 20
-0.1818428181342336
 30
0.0
 11
1.830312706245073
 21
-0.1818428181342336
 31
0.0
  0
LINE
  5
1A6
330
131
100
AcDbEntity
  8
AM_4
100
AcDbLine
 10
1.74210820274572
 20
0.1818428181342338
 30
0.0
 11
1.830312706245073
 21
0.1818428181342338
 31
0.0
  0
LWPOLYLINE
  5
1A7
330
131
100
AcDbEntity
  8
AM_4
100
AcDbPolyline
 90
        5
 70
     0
 43
0.0
 10
1.74210820274572
 20
0.1818428181342338
 10
1.711295781303796
 20
0.1594311359735599
 10
1.682350509397511
 20
0.1368193539571327
 10
1.655440210190033
 20
0.1138715522972783
 10
1.630752673291071
 20
0.090921409067117
  0
LINE
  5
1A8
330
131
100
AcDbEntity
  8
AM_4
100
AcDbLine
 10
1.630752673291071
 20
0.090921409067117
 30
0.0
 11
1.718957176790425
 21
0.090921409067117
 31
0.0
  0
LWPOLYLINE
  5
1A9
330
131
100
AcDbEntity
  8
AM_4
100
AcDbPolyline
 90
        5
 70
     0
 43
0.0
 10
1.630752673291071
 20
0.090921409067117
 10
1.627388844634692
 20
0.0460980447457689
 10
1.62613723678605
 20
0.0008744807129147
 10
1.627332139971191
 20
-0.0450211226067939
 10
1.630752673291071
 20
-0.0909214090671168
  0
LINE
  5
1AA
330
131
100
AcDbEntity
  8
AM_4
100
AcDbLine
 10
1.630752673291071
 20
-0.0909214090671168
 30
0.0
 11
1.718957176790425
 21
-0.0909214090671167
 31
0.0
  0
LINE
  5
1AB
330
131
100
AcDbEntity
  8
AM_4
100
AcDbLine
 10
-1.774999999999995
 20
1.15625
 30
0.0
 11
-1.775
 21
0.9866667437499999
 31
0.0
  0
LINE
  5
1AC
330
131
100
AcDbEntity
  8
AM_4
100
AcDbLine
 10
1.775
 20
0.9866667437500002
 30
0.0
 11
1.775
 21
1.15625
 31
0.0
  0
LINE
  5
1AD
330
131
100
AcDbEntity
  8
AM_4
100
AcDbLine
 10
-1.775
 20
0.9866667437499999
 30
0.0
 11
1.775
 21
0.9866667437500002
 31
0.0
  0
LINE
  5
1AE
330
131
100
AcDbEntity
  8
AM_4
100
AcDbLine
 10
1.775000000000002
 20
-1.15625
 30
0.0
 11
1.775
 21
-0.9866667437499999
 31
0.0
  0
LINE
  5
1AF
330
131
100
AcDbEntity
  8
AM_4
100
AcDbLine
 10
-1.775
 20
-0.9866667437500002
 30
0.0
 11
-1.775
 21
-1.156250000000001
 31
0.0
  0
LINE
  5
1B0
330
131
100
AcDbEntity
  8
AM_4
100
AcDbLine
 10
-1.625072280592917
 20
-0.9866667437500002
 30
0.0
 11
-1.775
 21
-0.9866667437500002
 31
0.0
  0
LINE
  5
1B1
330
131
100
AcDbEntity
  8
AM_4
100
AcDbLine
 10
1.775
 20
-0.9866667437499999
 30
0.0
 11
1.619506946573555
 21
-0.9866667437500001
 31
0.0
  0
LWPOLYLINE
  5
1B2
330
131
100
AcDbEntity
  8
AM_4
100
AcDbPolyline
 90
       37
 70
     0
 43
0.0
 10
-1.9685
 20
1.002083025
 10
-1.961009263193601
 20
0.9858062105357845
 10
-1.938594061804531
 20
0.9696532724578507
 10
-1.901424989050031
 20
0.9537471443783826
 10
-1.849784924017061
 20
0.9382088815364475
 10
-1.784066878781646
 20
0.9231567394945326
 10
-1.704771007349668
 20
0.9087052741423084
 10
-1.612500799182881
 20
0.8949644698571388
 10
-1.507958486279709
 20
0.8820389024565582
 10
-1.39193969876572
 20
0.8700269433131564
 10
-1.265327409667954
 20
0.8590200106890338
 10
-1.129085214957036
 20
0.8491018739876272
 10
-0.9842500000000021
 20
0.8403480162179694
 10
-0.8319240482365693
 20
0.8328250595234113
 10
-0.6732666521365817
 20
0.8265902581468839
 10
-0.5094852902843151
 20
0.8216910626915385
 10
-0.3418264377373557
 20
0.8181647589930053
 10
-0.1715660795987686
 20
0.8160381843516709
 10
-0.0000000000000037
 20
0.8153275232846161
 10
0.1715660795987612
 20
0.8160381843516709
 10
0.3418264377373483
 20
0.8181647589930052
 10
0.5094852902843079
 20
0.8216910626915382
 10
0.6732666521365746
 20
0.8265902581468836
 10
0.8319240482365624
 20
0.832825059523411
 10
0.9842499999999956
 20
0.8403480162179692
 10
1.12908521495703
 20
0.8491018739876268
 10
1.265327409667949
 20
0.8590200106890332
 10
1.391939698765715
 20
0.870026943313156
 10
1.507958486279704
 20
0.8820389024565577
 10
1.612500799182877
 20
0.8949644698571383
 10
1.704771007349664
 20
0.9087052741423078
 10
1.784066878781642
 20
0.9231567394945319
 10
1.849784924017058
 20
0.9382088815364469
 10
1.901424989050029
 20
0.9537471443783819
 10
1.93859406180453
 20
0.96965327245785
 10
1.9610092631936
 20
0.9858062105357839
 10
1.9685
 20
1.002083025
  0
LWPOLYLINE
  5
1B3
330
131
100
AcDbEntity
  8
AM_4
100
AcDbPolyline
 90
        7
 70
     0
 43
0.0
 10
1.9685
 20
1.002083025
 10
1.961009263193601
 20
1.018359839464216
 10
1.938594061804531
 20
1.03451277754215
 10
1.901424989050031
 20
1.050418905621618
 10
1.849784924017061
 20
1.065957168463553
 10
1.784066878781646
 20
1.081009310505468
 10
1.775000000000001
 20
1.08282835039556
  0
LWPOLYLINE
  5
1B4
330
131
100
AcDbEntity
  8
AM_4
100
AcDbPolyline
 90
       37
 70
     0
 43
0.0
 10
1.9685
 20
-1.002083025
 10
1.961009263193602
 20
-0.9858062105357841
 10
1.938594061804532
 20
-0.9696532724578503
 10
1.901424989050032
 20
-0.953747144378382
 10
1.849784924017061
 20
-0.9382088815364471
 10
1.784066878781646
 20
-0.923156739494532
 10
1.704771007349668
 20
-0.9087052741423078
 10
1.612500799182881
 20
-0.8949644698571381
 10
1.50795848627971
 20
-0.8820389024565576
 10
1.39193969876572
 20
-0.8700269433131558
 10
1.265327409667955
 20
-0.859020010689033
 10
1.129085214957037
 20
-0.8491018739876265
 10
0.9842500000000026
 20
-0.8403480162179687
 10
0.8319240482365697
 20
-0.8328250595234106
 10
0.673266652136582
 20
-0.826590258146883
 10
0.5094852902843154
 20
-0.8216910626915377
 10
0.3418264377373559
 20
-0.8181647589930046
 10
0.1715660795987689
 20
-0.81603818435167
 10
0.000000000000004
 20
-0.8153275232846153
 10
-0.171566079598761
 20
-0.8160381843516699
 10
-0.3418264377373481
 20
-0.8181647589930043
 10
-0.5094852902843078
 20
-0.8216910626915374
 10
-0.6732666521365744
 20
-0.8265902581468828
 10
-0.8319240482365624
 20
-0.8328250595234102
 10
-0.9842499999999956
 20
-0.8403480162179683
 10
-1.12908521495703
 20
-0.8491018739876262
 10
-1.265327409667949
 20
-0.8590200106890326
 10
-1.391939698765715
 20
-0.8700269433131552
 10
-1.507958486279705
 20
-0.882038902456557
 10
-1.612500799182877
 20
-0.8949644698571375
 10
-1.704771007349664
 20
-0.9087052741423072
 10
-1.784066878781643
 20
-0.9231567394945314
 10
-1.849784924017059
 20
-0.9382088815364463
 10
-1.901424989050029
 20
-0.9537471443783814
 10
-1.938594061804531
 20
-0.9696532724578495
 10
-1.961009263193601
 20
-0.9858062105357834
 10
-1.9685
 20
-1.002083024999999
  0
LWPOLYLINE
  5
1B5
330
131
100
AcDbEntity
  8
AM_4
100
AcDbPolyline
 90
        7
 70
     0
 43
0.0
 10
-1.9685
 20
-1.002083025
 10
-1.961009263193602
 20
-1.018359839464216
 10
-1.938594061804532
 20
-1.03451277754215
 10
-1.901424989050032
 20
-1.050418905621618
 10
-1.849784924017061
 20
-1.065957168463553
 10
-1.784066878781646
 20
-1.081009310505468
 10
-1.775
 20
-1.08282835039556
  0
LWPOLYLINE
  5
1B6
330
131
100
AcDbEntity
  8
AM_4
100
AcDbPolyline
 90
        5
 70
     0
 43
0.0
 10
1.926282942541889
 20
-0.1054386295108841
 10
1.917583471570557
 20
-0.113333091227791
 10
1.891141415361554
 20
-0.135944873244218
 10
1.861841309783796
 20
-0.1588926749040722
 10
1.830312706245073
 20
-0.1818428181342336
  0
LWPOLYLINE
  5
1B7
330
131
100
AcDbEntity
  8
AM_4
100
AcDbPolyline
 90
        5
 70
     0
 43
0.0
 10
1.830312706245073
 20
0.1818428181342338
 10
1.861125127686996
 20
0.1594311359735598
 10
1.890070399593281
 20
0.1368193539571326
 10
1.916980698800759
 20
0.1138715522972783
 10
1.926280032511067
 20
0.1054413087207173
  0
LWPOLYLINE
  5
1B8
330
131
100
AcDbEntity
  8
AM_4
100
AcDbPolyline
 90
        5
 70
     0
 43
0.0
 10
1.718957176790425
 20
0.090921409067117
 10
1.749769598232348
 20
0.1133330912277907
 10
1.778714870138633
 20
0.1359448732442179
 10
1.805625169346111
 20
0.1588926749040723
 10
1.830312706245073
 20
0.1818428181342338
  0
LWPOLYLINE
  5
1B9
330
131
100
AcDbEntity
  8
AM_4
100
AcDbPolyline
 90
        5
 70
     0
 43
0.0
 10
1.718957176790425
 20
-0.0909214090671167
 10
1.722321005446804
 20
-0.0460980447457686
 10
1.723572613295445
 20
-0.0008744807129145
 10
1.722377710110305
 20
0.0450211226067941
 10
1.718957176790425
 20
0.090921409067117
  0
LWPOLYLINE
  5
1BA
330
131
100
AcDbEntity
  8
AM_4
100
AcDbPolyline
 90
        5
 70
     0
 43
0.0
 10
1.830312706245073
 20
-0.1818428181342336
 10
1.806227942115908
 20
-0.1594311359735596
 10
1.779785885906906
 20
-0.1368193539571325
 10
1.750485780329148
 20
-0.1138715522972782
 10
1.718957176790425
 20
-0.0909214090671167
  0
ELLIPSE
  5
1BB
330
131
100
AcDbEntity
  8
AM_4
100
AcDbEllipse
 10
1.834928697505587
 20
0.0000000000000002
 30
0.0
 11
9.642868896486249E-18
 21
0.1574799999999998
 31
0.0
210
0.0
220
0.0
230
1.0
 40
0.7071067811865478
 41
5.43766388198541
 42
10.27099846374178
  0
ELLIPSE
  5
1BC
330
131
100
AcDbEntity
  8
AM_4
100
AcDbEllipse
 10
1.925930292097537
 20
-0.0000000000000001
 30
0.0
 11
6.258279876480423E-18
 21
0.1022054666020877
 31
0.0
210
0.0
220
0.0
230
1.0
 40
0.7071067811865455
 41
0.6459202984415278
 42
2.425835505204612
  0
LWPOLYLINE
  5
1BD
330
131
100
AcDbEntity
  8
AM_4
100
AcDbPolyline
 90
       11
 70
     0
 43
0.0
 10
1.969248212577302
 20
0.0960037019564486
 10
1.961282708244529
 20
0.1002696596684769
 10
1.951086022278632
 20
0.1039630589360073
 10
1.94070030034704
 20
0.1058934314736671
 10
1.930318954349841
 20
0.1060852409605609
 10
1.920101654306295
 20
0.104588234140671
 10
1.910202402018156
 20
0.1014662705151348
 10
1.90073249286684
 20
0.0967795207576085
 10
1.891796895033636
 20
0.0905816264817068
 10
1.883511108346269
 20
0.082934566210873
 10
1.882477654766035
 20
0.0818266585085642
  0
LWPOLYLINE
  5
1BE
330
131
100
AcDbEntity
  8
AM_4
100
AcDbPolyline
 90
        4
 70
     0
 43
0.0
 10
1.982328852781104
 20
0.0858097477178465
 10
1.980226078314008
 20
0.0877596079101155
 10
1.971070555074367
 20
0.0948384127970962
 10
1.969248212577302
 20
0.0960037019564486
  0
LWPOLYLINE
  5
1BF
330
131
100
AcDbEntity
  8
AM_4
100
AcDbPolyline
 90
        3
 70
     0
 43
0.0
 10
1.976781622941421
 20
-0.0906778710968353
 10
1.980264694910751
 20
-0.0877249917359191
 10
1.981349824364982
 20
-0.0867342320166503
  0
LWPOLYLINE
  5
1C0
330
131
100
AcDbEntity
  8
AM_4
100
AcDbPolyline
 90
       12
 70
     0
 43
0.0
 10
1.878904948859482
 20
-0.0776867107477487
 10
1.883332357868213
 20
-0.0827456399963321
 10
1.892007186456271
 20
-0.0907499956595705
 10
1.901438695229001
 20
-0.0971916902941881
 10
1.911415536959515
 20
-0.1019421149096654
 10
1.92171221327393
 20
-0.1049374245812336
 10
1.932117448732041
 20
-0.1061747755245224
 10
1.942451169242933
 20
-0.1056915489712589
 10
1.952558428972966
 20
-0.1035436515106963
 10
1.962300154104906
 20
-0.0997959328874375
 10
1.971571577380531
 20
-0.0945048233165763
 10
1.97495762273456
 20
-0.0920943451470391
  0
LINE
  5
1C1
330
131
100
AcDbEntity
  8
AM_4
100
AcDbLine
 10
2.011460443071797
 20
0.0605219071451572
 30
0.0
 11
1.979411860870286
 21
0.0884794128974545
 31
0.0
  0
LINE
  5
1C2
330
131
100
AcDbEntity
  8
AM_4
100
AcDbLine
 10
1.979411860870286
 20
-0.0884794128974542
 30
0.0
 11
2.011460443071797
 21
-0.0605219071451569
 31
0.0
  0
ELLIPSE
  5
1C3
330
131
100
AcDbEntity
  8
AM_4
100
AcDbEllipse
 10
1.940819456384389
 20
0.0000000000000001
 30
0.0
 11
6.365617546288473E-18
 21
0.1039584237793373
 31
0.0
210
0.0
220
0.0
230
1.0
 40
0.7071067811865465
 41
5.730473253052741
 42
9.977490014896224
  0
ELLIPSE
  5
1C4
330
131
100
AcDbEntity
  8
AM_4
100
AcDbEllipse
 10
1.985062370974384
 20
0.0000000000000001
 30
0.0
 11
4.354225479598972E-18
 21
0.07110989850511271
 31
0.0
210
0.0
220
0.0
230
1.0
 40
0.7071067811865475
 41
5.73047325305274
 42
9.977490014896226
  0
ELLIPSE
  5
1C5
330
131
100
AcDbEntity
  8
AM_4
100
AcDbEllipse
 10
1.985062370974388
 20
-0.0000000000000207
 30
0.0
 11
4.354225479600561E-18
 21
0.07110989850513866
 31
0.0
210
0.0
220
0.0
230
1.0
 40
0.7071067811864018
 41
5.55876534255193
 42
5.730473253052872
  0
ELLIPSE
  5
1C6
330
131
100
AcDbEntity
  8
AM_4
100
AcDbEllipse
 10
1.988042064369816
 20
0.0000000000000001
 30
0.0
 11
-1.178200542891334E-17
 21
-0.06413825024007702
 31
0.0
210
0.0
220
0.0
230
1.0
 40
0.7071067811865491
 41
0.0
 42
6.283185307179586
  0
LINE
  5
1C7
330
131
100
AcDbEntity
  8
AM_4
100
AcDbLine
 10
2.021357676234287
 20
0.0493481409290208
 30
0.0
 11
2.018700129023024
 21
0.0529233680050227
 31
0.0
  0
LWPOLYLINE
  5
1C8
330
131
100
AcDbEntity
  8
AM_4
100
AcDbPolyline
 90
        7
 70
     0
 43
0.0
 10
2.035700903110816
 20
0.0000000000000001
 10
2.035522173767077
 20
0.0059309914931639
 10
2.034236350975047
 20
0.0168710588458655
 10
2.031728501910882
 20
0.0274397626817192
 10
2.028041412977078
 20
0.0373876051928355
 10
2.023238041712359
 20
0.0464807740588442
 10
2.021898135572996
 20
0.0485554057739566
  0
LWPOLYLINE
  5
1C9
330
131
100
AcDbEntity
  8
AM_4
100
AcDbPolyline
 90
        7
 70
     0
 43
0.0
 10
2.020770869642672
 20
-0.0501822729113698
 10
2.025401361926741
 20
-0.0427529549000856
 10
2.029708172951372
 20
-0.0333575477679991
 10
2.032902369725489
 20
-0.0231674982187832
 10
2.034910453548909
 20
-0.0124356114390329
 10
2.035680884645894
 20
-0.0019864639905996
 10
2.035700903110816
 20
0.0000000000000001
  0
ELLIPSE
  5
1CA
330
131
100
AcDbEntity
  8
AM_4
100
AcDbEllipse
 10
1.985062370974379
 20
0.0000000000000106
 30
0.0
 11
4.354225479599761E-18
 21
0.0711098985051256
 31
0.0
210
0.0
220
0.0
230
1.0
 40
0.7071067811865474
 41
3.694304707716647
 42
3.921243464833409
  0
LINE
  5
1CB
330
131
100
AcDbEntity
  8
AM_4
100
AcDbLine
 10
-0.2433398951830001
 20
-0.0218508779412002
 30
0.0
 11
-0.246400920458
 21
-0.0335047031318997
 31
0.0
  0
LINE
  5
1CC
330
131
100
AcDbEntity
  8
AM_4
100
AcDbLine
 10
-0.243339895183
 20
0.0218509000000002
 30
0.0
 11
-0.243339895183
 21
-0.0218508779411998
 31
0.0
  0
LINE
  5
1CD
330
131
100
AcDbEntity
  8
AM_4
100
AcDbLine
 10
-0.3290446658729999
 20
-0.0509854606029999
 30
0.0
 11
-0.3290446658729999
 21
0.0509854000000001
 31
0.0
  0
LINE
  5
1CE
330
131
100
AcDbEntity
  8
AM_4
100
AcDbLine
 10
-0.273948573129
 20
-0.0509854606029999
 30
0.0
 11
-0.3290446658729999
 21
-0.0509854606029999
 31
0.0
  0
LINE
  5
1CF
330
131
100
AcDbEntity
  8
AM_4
100
AcDbLine
 10
-0.2617052594309999
 20
-0.0480720732029998
 30
0.0
 11
-0.273948573129
 21
-0.0509854606029998
 31
0.0
  0
LINE
  5
1D0
330
131
100
AcDbEntity
  8
AM_4
100
AcDbLine
 10
-0.2525225773070001
 20
-0.0422449047019998
 30
0.0
 11
-0.2617052594309999
 21
-0.0480720732029997
 31
0.0
  0
LINE
  5
1D1
330
131
100
AcDbEntity
  8
AM_4
100
AcDbLine
 10
-0.246400920458
 20
-0.0335047031318997
 30
0.0
 11
-0.2525225773070001
 21
-0.042244904702
 31
0.0
  0
LINE
  5
1D2
330
131
100
AcDbEntity
  8
AM_4
100
AcDbLine
 10
-0.2464009204580003
 20
0.0335047000000014
 30
0.0
 11
-0.2433398951829999
 21
0.0218508999999997
 31
0.0
  0
LINE
  5
1D3
330
131
100
AcDbEntity
  8
AM_4
100
AcDbLine
 10
-0.2525225773069998
 20
0.0422449
 30
0.0
 11
-0.2464009204579997
 21
0.0335046999999997
 31
0.0
  0
LINE
  5
1D4
330
131
100
AcDbEntity
  8
AM_4
100
AcDbLine
 10
-0.2617052594310001
 20
0.0480720000000003
 30
0.0
 11
-0.2525225773069998
 21
0.0422449000000001
 31
0.0
  0
LINE
  5
1D5
330
131
100
AcDbEntity
  8
AM_4
100
AcDbLine
 10
-0.2739485731290002
 20
0.0509854000000002
 30
0.0
 11
-0.2617052594310001
 21
0.0480720000000001
 31
0.0
  0
LINE
  5
1D6
330
131
100
AcDbEntity
  8
AM_4
100
AcDbLine
 10
-0.3290446658729999
 20
0.0509854000000001
 30
0.0
 11
-0.273948573129
 21
0.0509854000000001
 31
0.0
  0
LINE
  5
1D7
330
131
100
AcDbEntity
  8
AM_4
100
AcDbLine
 10
-0.0964177686009998
 20
-0.0218508779411994
 30
0.0
 11
-0.0994784001749999
 21
-0.0335047031318999
 31
0.0
  0
LINE
  5
1D8
330
131
100
AcDbEntity
  8
AM_4
100
AcDbLine
 10
-0.0994784001750003
 20
0.0335047000000013
 30
0.0
 11
-0.0964177686010001
 21
0.0218509000000007
 31
0.0
  0
LINE
  5
1D9
330
131
100
AcDbEntity
  8
AM_4
100
AcDbLine
 10
-0.1821221455900011
 20
0.0218508999999956
 30
0.0
 11
-0.179061514016001
 21
0.0335046999999963
 31
0.0
  0
LINE
  5
1DA
330
131
100
AcDbEntity
  8
AM_4
100
AcDbLine
 10
-0.18212214559
 20
-0.0218508779411998
 30
0.0
 11
-0.18212214559
 21
0.0218509000000001
 31
0.0
  0
LINE
  5
1DB
330
131
100
AcDbEntity
  8
AM_4
100
AcDbLine
 10
-0.179061514016
 20
-0.0335047031318995
 30
0.0
 11
-0.1821221455899981
 21
-0.0218508779412069
 31
0.0
  0
LINE
  5
1DC
330
131
100
AcDbEntity
  8
AM_4
100
AcDbLine
 10
-0.1729394634660004
 20
-0.0422449047019991
 30
0.0
 11
-0.179061514016
 21
-0.0335047031318997
 31
0.0
  0
LINE
  5
1DD
330
131
100
AcDbEntity
  8
AM_4
100
AcDbLine
 10
-0.1637571750430006
 20
-0.0480720732029995
 30
0.0
 11
-0.1729394634660004
 21
-0.0422449047019996
 31
0.0
  0
LINE
  5
1DE
330
131
100
AcDbEntity
  8
AM_4
100
AcDbLine
 10
-0.151513467643999
 20
-0.050985460603
 30
0.0
 11
-0.1637571750430006
 21
-0.0480720732029997
 31
0.0
  0
LINE
  5
1DF
330
131
100
AcDbEntity
  8
AM_4
100
AcDbLine
 10
-0.127026446547
 20
-0.0509854606029999
 30
0.0
 11
-0.151513467644
 21
-0.0509854606029998
 31
0.0
  0
LINE
  5
1E0
330
131
100
AcDbEntity
  8
AM_4
100
AcDbLine
 10
-0.1147831328490001
 20
-0.0480720732029998
 30
0.0
 11
-0.127026446547
 21
-0.0509854606029998
 31
0.0
  0
LINE
  5
1E1
330
131
100
AcDbEntity
  8
AM_4
100
AcDbLine
 10
-0.1056004507249999
 20
-0.0422449047019997
 30
0.0
 11
-0.114783132849
 21
-0.0480720732029998
 31
0.0
  0
LINE
  5
1E2
330
131
100
AcDbEntity
  8
AM_4
100
AcDbLine
 10
-0.099478400175
 20
-0.0335047031318999
 30
0.0
 11
-0.1056004507249999
 21
-0.0422449047019998
 31
0.0
  0
LINE
  5
1E3
330
131
100
AcDbEntity
  8
AM_4
100
AcDbLine
 10
-0.096417768601
 20
0.0218509000000002
 30
0.0
 11
-0.096417768601
 21
-0.0218508779411998
 31
0.0
  0
LINE
  5
1E4
330
131
100
AcDbEntity
  8
AM_4
100
AcDbLine
 10
-0.1056004507250002
 20
0.0422449000000003
 30
0.0
 11
-0.0994784001750002
 21
0.0335047000000004
 31
0.0
  0
LINE
  5
1E5
330
131
100
AcDbEntity
  8
AM_4
100
AcDbLine
 10
-0.1147831328489998
 20
0.048072
 30
0.0
 11
-0.1056004507250002
 21
0.0422449000000003
 31
0.0
  0
LINE
  5
1E6
330
131
100
AcDbEntity
  8
AM_4
100
AcDbLine
 10
-0.1270264465470002
 20
0.0509854
 30
0.0
 11
-0.1147831328489998
 21
0.0480719999999999
 31
0.0
  0
LINE
  5
1E7
330
131
100
AcDbEntity
  8
AM_4
100
AcDbLine
 10
-0.151513467644
 20
0.0509854000000001
 30
0.0
 11
-0.127026446547
 21
0.0509854000000001
 31
0.0
  0
LINE
  5
1E8
330
131
100
AcDbEntity
  8
AM_4
100
AcDbLine
 10
-0.1637571750430015
 20
0.0480719999999998
 30
0.0
 11
-0.1515134676439998
 21
0.0509854000000001
 31
0.0
  0
LINE
  5
1E9
330
131
100
AcDbEntity
  8
AM_4
100
AcDbLine
 10
-0.1729394634660013
 20
0.0422448999999993
 30
0.0
 11
-0.1637571750430015
 21
0.0480719999999992
 31
0.0
  0
LINE
  5
1EA
330
131
100
AcDbEntity
  8
AM_4
100
AcDbLine
 10
-0.179061514016001
 20
0.0335046999999989
 30
0.0
 11
-0.1729394634660014
 21
0.0422448999999983
 31
0.0
  0
LINE
  5
1EB
330
131
100
AcDbEntity
  8
AM_4
100
AcDbLine
 10
0.0198957
 20
-0.0509854606029999
 30
0.0
 11
-0.0352000977482
 21
-0.0509854606029999
 31
0.0
  0
LINE
  5
1EC
330
131
100
AcDbEntity
  8
AM_4
100
AcDbLine
 10
-0.0352000977482
 20
0.0509854000000001
 30
0.0
 11
0.0198957
 21
0.0509854000000001
 31
0.0
  0
LINE
  5
1ED
330
131
100
AcDbEntity
  8
AM_4
100
AcDbLine
 10
0.0321392000000003
 20
-0.048072073203
 30
0.0
 11
0.0198957000000003
 21
-0.050985460603
 31
0.0
  0
LINE
  5
1EE
330
131
100
AcDbEntity
  8
AM_4
100
AcDbLine
 10
0.0413217000000001
 20
-0.0422449047019998
 30
0.0
 11
0.0321391999999997
 21
-0.048072073203
 31
0.0
  0
LINE
  5
1EF
330
131
100
AcDbEntity
  8
AM_4
100
AcDbLine
 10
0.0474436999999999
 20
-0.0335047031318999
 30
0.0
 11
0.0413217000000001
 21
-0.0422449047019996
 31
0.0
  0
LINE
  5
1F0
330
131
100
AcDbEntity
  8
AM_4
100
AcDbLine
 10
0.0505043000000001
 20
-0.0218508779411993
 30
0.0
 11
0.0474436999999999
 21
-0.0335047031319003
 31
0.0
  0
LINE
  5
1F1
330
131
100
AcDbEntity
  8
AM_4
100
AcDbLine
 10
0.0505043
 20
0.0218509000000002
 30
0.0
 11
0.0505043
 21
-0.0218508779411998
 31
0.0
  0
LINE
  5
1F2
330
131
100
AcDbEntity
  8
AM_4
100
AcDbLine
 10
0.0474437000000001
 20
0.0335046999999994
 30
0.0
 11
0.0505042999999999
 21
0.0218509000000004
 31
0.0
  0
LINE
  5
1F3
330
131
100
AcDbEntity
  8
AM_4
100
AcDbLine
 10
0.0413216999999998
 20
0.0422449000000004
 30
0.0
 11
0.0474437000000001
 21
0.0335047
 31
0.0
  0
LINE
  5
1F4
330
131
100
AcDbEntity
  8
AM_4
100
AcDbLine
 10
0.0321392
 20
0.0480720000000002
 30
0.0
 11
0.0413216999999998
 21
0.0422449000000003
 31
0.0
  0
LINE
  5
1F5
330
131
100
AcDbEntity
  8
AM_4
100
AcDbLine
 10
0.0198957
 20
0.0509854000000001
 30
0.0
 11
0.0321392
 21
0.0480720000000001
 31
0.0
  0
LINE
  5
1F6
330
131
100
AcDbEntity
  8
AM_4
100
AcDbLine
 10
-0.0352000977482
 20
-0.0509854606029999
 30
0.0
 11
-0.0352000977482
 21
0.0509854000000001
 31
0.0
  0
LINE
  5
1F7
330
131
100
AcDbEntity
  8
AM_4
100
AcDbLine
 10
2.361250435006831
 20
0.9446950694758711
 30
0.0
 11
2.932499999999999
 21
1.15625
 31
0.0
  0
LWPOLYLINE
  5
1F8
330
131
100
AcDbEntity
  8
AM_4
100
AcDbPolyline
 90
        7
 70
     0
 43
0.0
 10
-1.775
 20
1.08282835039556
 10
-1.842423639005885
 20
1.067844257098701
 10
-1.895825321633125
 20
1.052359681117852
 10
-1.93479862883211
 20
1.036492469426072
 10
-1.959046950202329
 20
1.020363381085219
 10
-1.968385741376618
 20
1.004095168196576
 10
-1.9685
 20
1.002083025
  0
LINE
  5
1F9
330
131
100
AcDbEntity
  8
AM_4
100
AcDbLine
 10
-2.932499999999999
 20
1.15625
 30
0.0
 11
-2.36125043500683
 21
0.9446950694758715
 31
0.0
  0
LINE
  5
1FA
330
131
100
AcDbEntity
  8
AM_4
100
AcDbLine
 10
0.0198957
 20
-0.0684661787039998
 30
0.0
 11
-0.053565383256
 21
-0.0684661787039999
 31
0.0
  0
LINE
  5
1FB
330
131
100
AcDbEntity
  8
AM_4
100
AcDbLine
 10
0.347409
 20
-0.0684661787039998
 30
0.0
 11
0.237218
 21
-0.0684661787039999
 31
0.0
  0
LINE
  5
1FC
330
131
100
AcDbEntity
  8
AM_4
100
AcDbLine
 10
0.237218
 20
-0.0684661787039999
 30
0.0
 11
0.237218
 21
0.0684661000000001
 31
0.0
  0
LINE
  5
1FD
330
131
100
AcDbEntity
  8
AM_4
100
AcDbLine
 10
0.237218
 20
0.0684661000000001
 30
0.0
 11
0.347409
 21
0.0684661000000001
 31
0.0
  0
LINE
  5
1FE
330
131
100
AcDbEntity
  8
AM_4
100
AcDbLine
 10
0.347409
 20
0.0684661000000001
 30
0.0
 11
0.347409
 21
0.0509854000000001
 31
0.0
  0
LINE
  5
1FF
330
131
100
AcDbEntity
  8
AM_4
100
AcDbLine
 10
0.347409
 20
0.0509854000000001
 30
0.0
 11
0.255583
 21
0.0509854000000001
 31
0.0
  0
LINE
  5
200
330
131
100
AcDbEntity
  8
AM_4
100
AcDbLine
 10
0.255583
 20
0.0509854000000001
 30
0.0
 11
0.255583
 21
0.0131105000000001
 31
0.0
  0
LINE
  5
201
330
131
100
AcDbEntity
  8
AM_4
100
AcDbLine
 10
0.255583
 20
0.0131105000000001
 30
0.0
 11
0.335166
 21
0.0131105000000001
 31
0.0
  0
LINE
  5
202
330
131
100
AcDbEntity
  8
AM_4
100
AcDbLine
 10
0.335166
 20
0.0131105000000001
 30
0.0
 11
0.335166
 21
-0.0043701598401999
 31
0.0
  0
LINE
  5
203
330
131
100
AcDbEntity
  8
AM_4
100
AcDbLine
 10
0.335166
 20
-0.0043701598401999
 30
0.0
 11
0.255583
 21
-0.0043701598401998
 31
0.0
  0
LINE
  5
204
330
131
100
AcDbEntity
  8
AM_4
100
AcDbLine
 10
0.255583
 20
-0.0043701598401998
 30
0.0
 11
0.255583
 21
-0.0509854606029998
 31
0.0
  0
LINE
  5
205
330
131
100
AcDbEntity
  8
AM_4
100
AcDbLine
 10
0.255583
 20
-0.0509854606029998
 30
0.0
 11
0.347409
 21
-0.0509854606029999
 31
0.0
  0
LINE
  5
206
330
131
100
AcDbEntity
  8
AM_4
100
AcDbLine
 10
0.347409
 20
-0.0509854606029999
 30
0.0
 11
0.347409
 21
-0.0684661787039998
 31
0.0
  0
LINE
  5
207
330
131
100
AcDbEntity
  8
AM_4
100
AcDbLine
 10
0.0933567
 20
-0.0218508779411999
 30
0.0
 11
0.0933567
 21
0.0218509000000001
 31
0.0
  0
LINE
  5
208
330
131
100
AcDbEntity
  8
AM_4
100
AcDbLine
 10
0.0933566999999989
 20
0.0218508999999951
 30
0.0
 11
0.0964177000000007
 21
0.0364181000000036
 31
0.0
  0
LINE
  5
209
330
131
100
AcDbEntity
  8
AM_4
100
AcDbLine
 10
0.0964176999999986
 20
0.0364180999999975
 30
0.0
 11
0.1025389999999989
 21
0.0480719999999981
 31
0.0
  0
LINE
  5
20A
330
131
100
AcDbEntity
  8
AM_4
100
AcDbLine
 10
0.1025389999999989
 20
0.048071999999999
 30
0.0
 11
0.1147829999999993
 21
0.0597255999999994
 31
0.0
  0
LINE
  5
20B
330
131
100
AcDbEntity
  8
AM_4
100
AcDbLine
 10
0.1147829999999993
 20
0.0597255999999997
 30
0.0
 11
0.1270260000000007
 21
0.0655528000000004
 31
0.0
  0
LINE
  5
20C
330
131
100
AcDbEntity
  8
AM_4
100
AcDbLine
 10
0.1270260000000007
 20
0.0655528000000002
 30
0.0
 11
0.1423309999999998
 21
0.0684661000000001
 31
0.0
  0
LINE
  5
20D
330
131
100
AcDbEntity
  8
AM_4
100
AcDbLine
 10
0.142331
 20
0.0684661000000001
 30
0.0
 11
0.169879
 21
0.0684661000000001
 31
0.0
  0
LINE
  5
20E
330
131
100
AcDbEntity
  8
AM_4
100
AcDbLine
 10
0.1698789999999998
 20
0.0684661000000002
 30
0.0
 11
0.1851830000000001
 21
0.0655528000000002
 31
0.0
  0
LINE
  5
20F
330
131
100
AcDbEntity
  8
AM_4
100
AcDbLine
 10
0.1851830000000001
 20
0.0655528000000002
 30
0.0
 11
0.1974270000000001
 21
0.0597256000000002
 31
0.0
  0
LINE
  5
210
330
131
100
AcDbEntity
  8
AM_4
100
AcDbLine
 10
0.1974270000000002
 20
0.0597256
 30
0.0
 11
0.2096699999999999
 21
0.0480720000000002
 31
0.0
  0
LINE
  5
211
330
131
100
AcDbEntity
  8
AM_4
100
AcDbLine
 10
0.2096699999999999
 20
0.0480720000000004
 30
0.0
 11
0.2127310000000003
 21
0.0335046999999989
 31
0.0
  0
LINE
  5
212
330
131
100
AcDbEntity
  8
AM_4
100
AcDbLine
 10
0.212731
 20
0.0335047000000002
 30
0.0
 11
0.194366
 21
0.0335047000000001
 31
0.0
  0
LINE
  5
213
330
131
100
AcDbEntity
  8
AM_4
100
AcDbLine
 10
0.194366000000001
 20
0.0335046999999974
 30
0.0
 11
0.1913050000000009
 21
0.0422448999999977
 31
0.0
  0
LINE
  5
214
330
131
100
AcDbEntity
  8
AM_4
100
AcDbLine
 10
0.1913050000000009
 20
0.0422448999999997
 30
0.0
 11
0.182122
 21
0.0480720000000003
 31
0.0
  0
LINE
  5
215
330
131
100
AcDbEntity
  8
AM_4
100
AcDbLine
 10
0.182122
 20
0.0480719999999999
 30
0.0
 11
0.1698790000000004
 21
0.0509853999999998
 31
0.0
  0
LINE
  5
216
330
131
100
AcDbEntity
  8
AM_4
100
AcDbLine
 10
0.169879
 20
0.0509854000000001
 30
0.0
 11
0.142331
 21
0.0509854000000001
 31
0.0
  0
LINE
  5
217
330
131
100
AcDbEntity
  8
AM_4
100
AcDbLine
 10
0.1423309999999998
 20
0.0509854000000001
 30
0.0
 11
0.1300869999999998
 21
0.0480720000000001
 31
0.0
  0
LINE
  5
218
330
131
100
AcDbEntity
  8
AM_4
100
AcDbLine
 10
0.1300869999999998
 20
0.0480720000000001
 30
0.0
 11
0.120905
 21
0.0422449000000002
 31
0.0
  0
LINE
  5
219
330
131
100
AcDbEntity
  8
AM_4
100
AcDbLine
 10
0.120905
 20
0.0422449
 30
0.0
 11
0.1147829999999999
 21
0.0335047
 31
0.0
  0
LINE
  5
21A
330
131
100
AcDbEntity
  8
AM_4
100
AcDbLine
 10
0.1147829999999999
 20
0.0335047
 30
0.0
 11
0.1117220000000003
 21
0.0218509000000012
 31
0.0
  0
LINE
  5
21B
330
131
100
AcDbEntity
  8
AM_4
100
AcDbLine
 10
0.111722
 20
0.0218509000000002
 30
0.0
 11
0.111722
 21
-0.0218508779411998
 31
0.0
  0
LINE
  5
21C
330
131
100
AcDbEntity
  8
AM_4
100
AcDbLine
 10
0.1117219999999999
 20
-0.0218508779411998
 30
0.0
 11
0.1147830000000002
 21
-0.0335047031319007
 31
0.0
  0
LINE
  5
21D
330
131
100
AcDbEntity
  8
AM_4
100
AcDbLine
 10
0.1147830000000002
 20
-0.0335047031319
 30
0.0
 11
0.1209050000000002
 21
-0.0422449047020001
 31
0.0
  0
LINE
  5
21E
330
131
100
AcDbEntity
  8
AM_4
100
AcDbLine
 10
0.1209050000000002
 20
-0.0422449047020001
 30
0.0
 11
0.1300870000000001
 21
-0.048072073203
 31
0.0
  0
LINE
  5
21F
330
131
100
AcDbEntity
  8
AM_4
100
AcDbLine
 10
0.130087
 20
-0.0480720732029999
 30
0.0
 11
0.1423310000000001
 21
-0.0509854606029999
 31
0.0
  0
LINE
  5
220
330
131
100
AcDbEntity
  8
AM_4
100
AcDbLine
 10
0.142331
 20
-0.0509854606029998
 30
0.0
 11
0.169879
 21
-0.0509854606029999
 31
0.0
  0
LINE
  5
221
330
131
100
AcDbEntity
  8
AM_4
100
AcDbLine
 10
0.1698789999999995
 20
-0.0509854606029999
 30
0.0
 11
0.1821219999999991
 21
-0.0480720732030001
 31
0.0
  0
LINE
  5
222
330
131
100
AcDbEntity
  8
AM_4
100
AcDbLine
 10
0.1821219999999991
 20
-0.0480720732030003
 30
0.0
 11
0.1913050000000001
 21
-0.0422449047019998
 31
0.0
  0
LINE
  5
223
330
131
100
AcDbEntity
  8
AM_4
100
AcDbLine
 10
0.191305
 20
-0.0422449047019999
 30
0.0
 11
0.1943660000000001
 21
-0.0335047031318997
 31
0.0
  0
LINE
  5
224
330
131
100
AcDbEntity
  8
AM_4
100
AcDbLine
 10
0.194366
 20
-0.0335047031318998
 30
0.0
 11
0.194366
 21
-0.0101970921205999
 31
0.0
  0
LINE
  5
225
330
131
100
AcDbEntity
  8
AM_4
100
AcDbLine
 10
0.194366
 20
-0.0101970921205999
 30
0.0
 11
0.166818
 21
-0.0101970921205999
 31
0.0
  0
LINE
  5
226
330
131
100
AcDbEntity
  8
AM_4
100
AcDbLine
 10
0.166818
 20
-0.0101970921205999
 30
0.0
 11
0.166818
 21
0.0072836200000001
 31
0.0
  0
LINE
  5
227
330
131
100
AcDbEntity
  8
AM_4
100
AcDbLine
 10
0.166818
 20
0.0072836200000001
 30
0.0
 11
0.212731
 21
0.0072836200000002
 31
0.0
  0
LINE
  5
228
330
131
100
AcDbEntity
  8
AM_4
100
AcDbLine
 10
0.212731
 20
0.0072836200000002
 30
0.0
 11
0.212731
 21
-0.0364181299019998
 31
0.0
  0
LINE
  5
229
330
131
100
AcDbEntity
  8
AM_4
100
AcDbLine
 10
0.212731
 20
-0.0364181299019997
 30
0.0
 11
0.2096700000000002
 21
-0.048072073202999
 31
0.0
  0
LINE
  5
22A
330
131
100
AcDbEntity
  8
AM_4
100
AcDbLine
 10
0.2096700000000002
 20
-0.0480720732029997
 30
0.0
 11
0.1974269999999999
 21
-0.059725622803
 31
0.0
  0
LINE
  5
22B
330
131
100
AcDbEntity
  8
AM_4
100
AcDbLine
 10
0.1974269999999999
 20
-0.0597256228029999
 30
0.0
 11
0.1851829999999999
 21
-0.0655527913039999
 31
0.0
  0
LINE
  5
22C
330
131
100
AcDbEntity
  8
AM_4
100
AcDbLine
 10
0.1851829999999999
 20
-0.0655527913039999
 30
0.0
 11
0.1698790000000001
 21
-0.0684661787039998
 31
0.0
  0
LINE
  5
22D
330
131
100
AcDbEntity
  8
AM_4
100
AcDbLine
 10
0.169879
 20
-0.0684661787039998
 30
0.0
 11
0.142331
 21
-0.0684661787039999
 31
0.0
  0
LINE
  5
22E
330
131
100
AcDbEntity
  8
AM_4
100
AcDbLine
 10
0.1423310000000007
 20
-0.0684661787040001
 30
0.0
 11
0.1270260000000017
 21
-0.0655527913040003
 31
0.0
  0
LINE
  5
22F
330
131
100
AcDbEntity
  8
AM_4
100
AcDbLine
 10
0.1270260000000016
 20
-0.0655527913040006
 30
0.0
 11
0.1147830000000002
 21
-0.0597256228029999
 31
0.0
  0
LINE
  5
230
330
131
100
AcDbEntity
  8
AM_4
100
AcDbLine
 10
0.1147830000000002
 20
-0.0597256228029999
 30
0.0
 11
0.1025390000000019
 21
-0.0480720732030015
 31
0.0
  0
LINE
  5
231
330
131
100
AcDbEntity
  8
AM_4
100
AcDbLine
 10
0.1025390000000019
 20
-0.0480720732030036
 30
0.0
 11
0.0964177000000016
 21
-0.036418129902003
 31
0.0
  0
LINE
  5
232
330
131
100
AcDbEntity
  8
AM_4
100
AcDbLine
 10
0.0964177000000016
 20
-0.0364181299020076
 30
0.0
 11
0.0933566999999999
 21
-0.0218508779411992
 31
0.0
  0
LINE
  5
233
330
131
100
AcDbEntity
  8
AM_4
100
AcDbLine
 10
-0.053565383256
 20
-0.0684661787039999
 30
0.0
 11
-0.053565383256
 21
0.0684661000000001
 31
0.0
  0
LINE
  5
234
330
131
100
AcDbEntity
  8
AM_4
100
AcDbLine
 10
-0.053565383256
 20
0.0684661000000001
 30
0.0
 11
0.0198957
 21
0.0684661000000001
 31
0.0
  0
LINE
  5
235
330
131
100
AcDbEntity
  8
AM_4
100
AcDbLine
 10
0.0198957
 20
0.0684661
 30
0.0
 11
0.0352001000000001
 21
0.0655528
 31
0.0
  0
LINE
  5
236
330
131
100
AcDbEntity
  8
AM_4
100
AcDbLine
 10
0.0352001000000001
 20
0.0655528
 30
0.0
 11
0.0474437000000001
 21
0.0597256
 31
0.0
  0
LINE
  5
237
330
131
100
AcDbEntity
  8
AM_4
100
AcDbLine
 10
0.0474437000000001
 20
0.0597255999999999
 30
0.0
 11
0.059687
 21
0.048072
 31
0.0
  0
LINE
  5
238
330
131
100
AcDbEntity
  8
AM_4
100
AcDbLine
 10
0.059687
 20
0.0480720000000003
 30
0.0
 11
0.0658090999999998
 21
0.0364181000000005
 31
0.0
  0
LINE
  5
239
330
131
100
AcDbEntity
  8
AM_4
100
AcDbLine
 10
0.0658090999999998
 20
0.0364181000000009
 30
0.0
 11
0.0688696999999998
 21
0.0218509000000011
 31
0.0
  0
LINE
  5
23A
330
131
100
AcDbEntity
  8
AM_4
100
AcDbLine
 10
0.0688697
 20
0.0218509000000002
 30
0.0
 11
0.0688697
 21
-0.0218508779411998
 31
0.0
  0
LINE
  5
23B
330
131
100
AcDbEntity
  8
AM_4
100
AcDbLine
 10
0.0688697000000001
 20
-0.0218508779411992
 30
0.0
 11
0.0658091000000001
 21
-0.0364181299019991
 31
0.0
  0
LINE
  5
23C
330
131
100
AcDbEntity
  8
AM_4
100
AcDbLine
 10
0.0658091000000001
 20
-0.0364181299019996
 30
0.0
 11
0.0596870000000003
 21
-0.0480720732029994
 31
0.0
  0
LINE
  5
23D
330
131
100
AcDbEntity
  8
AM_4
100
AcDbLine
 10
0.0596870000000003
 20
-0.0480720732029997
 30
0.0
 11
0.0474436999999999
 21
-0.0597256228030001
 31
0.0
  0
LINE
  5
23E
330
131
100
AcDbEntity
  8
AM_4
100
AcDbLine
 10
0.0474436999999999
 20
-0.0597256228029998
 30
0.0
 11
0.0352000999999998
 21
-0.0655527913039999
 31
0.0
  0
LINE
  5
23F
330
131
100
AcDbEntity
  8
AM_4
100
AcDbLine
 10
0.0352000999999998
 20
-0.0655527913040001
 30
0.0
 11
0.0198957000000003
 21
-0.068466178704
 31
0.0
  0
LINE
  5
240
330
131
100
AcDbEntity
  8
AM_4
100
AcDbLine
 10
-0.200487509838
 20
-0.0218508779411999
 30
0.0
 11
-0.200487509838
 21
0.0218509000000001
 31
0.0
  0
LINE
  5
241
330
131
100
AcDbEntity
  8
AM_4
100
AcDbLine
 10
-0.2004875098380013
 20
0.0218508999999944
 30
0.0
 11
-0.1974268782640008
 21
0.0364180999999965
 31
0.0
  0
LINE
  5
242
330
131
100
AcDbEntity
  8
AM_4
100
AcDbLine
 10
-0.1974268782640008
 20
0.0364180999999983
 30
0.0
 11
-0.191304827714001
 21
0.0480719999999979
 31
0.0
  0
LINE
  5
243
330
131
100
AcDbEntity
  8
AM_4
100
AcDbLine
 10
-0.1913048277140011
 20
0.0480719999999992
 30
0.0
 11
-0.179061514016001
 21
0.0597255999999993
 31
0.0
  0
LINE
  5
244
330
131
100
AcDbEntity
  8
AM_4
100
AcDbLine
 10
-0.179061514016001
 20
0.0597255999999996
 30
0.0
 11
-0.166817806617001
 21
0.0655527999999996
 31
0.0
  0
LINE
  5
245
330
131
100
AcDbEntity
  8
AM_4
100
AcDbLine
 10
-0.166817806617001
 20
0.0655527999999999
 30
0.0
 11
-0.1515134676439999
 21
0.0684661000000001
 31
0.0
  0
LINE
  5
246
330
131
100
AcDbEntity
  8
AM_4
100
AcDbLine
 10
-0.151513467644
 20
0.0684661000000001
 30
0.0
 11
-0.127026446547
 21
0.0684661000000001
 31
0.0
  0
LINE
  5
247
330
131
100
AcDbEntity
  8
AM_4
100
AcDbLine
 10
-0.1270264465470003
 20
0.0684661
 30
0.0
 11
-0.1117221075739998
 21
0.0655527999999999
 31
0.0
  0
LINE
  5
248
330
131
100
AcDbEntity
  8
AM_4
100
AcDbLine
 10
-0.1117221075739998
 20
0.0655528
 30
0.0
 11
-0.0994784001750002
 21
0.0597256000000002
 31
0.0
  0
LINE
  5
249
330
131
100
AcDbEntity
  8
AM_4
100
AcDbLine
 10
-0.0994784001750002
 20
0.0597256000000003
 30
0.0
 11
-0.0872350864769998
 21
0.0480719999999999
 31
0.0
  0
LINE
  5
24A
330
131
100
AcDbEntity
  8
AM_4
100
AcDbLine
 10
-0.0872350864769998
 20
0.0480719999999999
 30
0.0
 11
-0.0811134296279997
 21
0.0364180999999998
 31
0.0
  0
LINE
  5
24B
330
131
100
AcDbEntity
  8
AM_4
100
AcDbLine
 10
-0.0811134296279997
 20
0.0364180999999989
 30
0.0
 11
-0.078052404353
 21
0.0218509
 31
0.0
  0
LINE
  5
24C
330
131
100
AcDbEntity
  8
AM_4
100
AcDbLine
 10
-0.078052404353
 20
0.0218509000000002
 30
0.0
 11
-0.078052404353
 21
-0.0218508779411999
 31
0.0
  0
LINE
  5
24D
330
131
100
AcDbEntity
  8
AM_4
100
AcDbLine
 10
-0.0780524043530002
 20
-0.0218508779412007
 30
0.0
 11
-0.081113429628
 21
-0.0364181299019996
 31
0.0
  0
LINE
  5
24E
330
131
100
AcDbEntity
  8
AM_4
100
AcDbLine
 10
-0.081113429628
 20
-0.0364181299019996
 30
0.0
 11
-0.087235086477
 21
-0.0480720732029998
 31
0.0
  0
LINE
  5
24F
330
131
100
AcDbEntity
  8
AM_4
100
AcDbLine
 10
-0.087235086477
 20
-0.048072073203
 30
0.0
 11
-0.099478400175
 21
-0.0597256228029999
 31
0.0
  0
LINE
  5
250
330
131
100
AcDbEntity
  8
AM_4
100
AcDbLine
 10
-0.099478400175
 20
-0.0597256228029999
 30
0.0
 11
-0.1117221075740001
 21
-0.065552791304
 31
0.0
  0
LINE
  5
251
330
131
100
AcDbEntity
  8
AM_4
100
AcDbLine
 10
-0.1117221075740001
 20
-0.065552791304
 30
0.0
 11
-0.1270264465469999
 21
-0.068466178704
 31
0.0
  0
LINE
  5
252
330
131
100
AcDbEntity
  8
AM_4
100
AcDbLine
 10
-0.127026446547
 20
-0.0684661787039998
 30
0.0
 11
-0.151513467644
 21
-0.0684661787039999
 31
0.0
  0
LINE
  5
253
330
131
100
AcDbEntity
  8
AM_4
100
AcDbLine
 10
-0.151513467643999
 20
-0.068466178704
 30
0.0
 11
-0.1668178066170001
 21
-0.0655527913039998
 31
0.0
  0
LINE
  5
254
330
131
100
AcDbEntity
  8
AM_4
100
AcDbLine
 10
-0.166817806617
 20
-0.0655527913039997
 30
0.0
 11
-0.179061514016
 21
-0.0597256228029998
 31
0.0
  0
LINE
  5
255
330
131
100
AcDbEntity
  8
AM_4
100
AcDbLine
 10
-0.1790615140160001
 20
-0.0597256228029999
 30
0.0
 11
-0.1913048277140002
 21
-0.0480720732029997
 31
0.0
  0
LINE
  5
256
330
131
100
AcDbEntity
  8
AM_4
100
AcDbLine
 10
-0.1913048277140001
 20
-0.0480720732029996
 30
0.0
 11
-0.1974268782639999
 21
-0.036418129902
 31
0.0
  0
LINE
  5
257
330
131
100
AcDbEntity
  8
AM_4
100
AcDbLine
 10
-0.197426878264
 20
-0.0364181299019998
 30
0.0
 11
-0.2004875098379983
 21
-0.0218508779412081
 31
0.0
  0
LINE
  5
258
330
131
100
AcDbEntity
  8
AM_4
100
AcDbLine
 10
-0.3474096364199999
 20
-0.0684661787039999
 30
0.0
 11
-0.3474096364199999
 21
0.0684661000000001
 31
0.0
  0
LINE
  5
259
330
131
100
AcDbEntity
  8
AM_4
100
AcDbLine
 10
-0.3474096364199999
 20
0.0684661000000001
 30
0.0
 11
-0.273948573129
 21
0.0684661000000001
 31
0.0
  0
LINE
  5
25A
330
131
100
AcDbEntity
  8
AM_4
100
AcDbLine
 10
-0.2739485731289997
 20
0.0684661
 30
0.0
 11
-0.258644234156
 21
0.0655528000000001
 31
0.0
  0
LINE
  5
25B
330
131
100
AcDbEntity
  8
AM_4
100
AcDbLine
 10
-0.2586442341560001
 20
0.0655528000000002
 30
0.0
 11
-0.2464009204580003
 21
0.0597256000000003
 31
0.0
  0
LINE
  5
25C
330
131
100
AcDbEntity
  8
AM_4
100
AcDbLine
 10
-0.2464009204580002
 20
0.0597256000000003
 30
0.0
 11
-0.2341572130590002
 21
0.0480720000000004
 31
0.0
  0
LINE
  5
25D
330
131
100
AcDbEntity
  8
AM_4
100
AcDbLine
 10
-0.2341572130589997
 20
0.0480719999999997
 30
0.0
 11
-0.2280355562099998
 21
0.0364180999999999
 31
0.0
  0
LINE
  5
25E
330
131
100
AcDbEntity
  8
AM_4
100
AcDbLine
 10
-0.2280355562099997
 20
0.0364180999999988
 30
0.0
 11
-0.2249745309349997
 21
0.0218508999999989
 31
0.0
  0
LINE
  5
25F
330
131
100
AcDbEntity
  8
AM_4
100
AcDbLine
 10
-0.224974530935
 20
0.0218509000000002
 30
0.0
 11
-0.224974530935
 21
-0.0218508779411998
 31
0.0
  0
LINE
  5
260
330
131
100
AcDbEntity
  8
AM_4
100
AcDbLine
 10
-0.2249745309350001
 20
-0.0218508779412004
 30
0.0
 11
-0.22803555621
 21
-0.0364181299020004
 31
0.0
  0
LINE
  5
261
330
131
100
AcDbEntity
  8
AM_4
100
AcDbLine
 10
-0.22803555621
 20
-0.0364181299019998
 30
0.0
 11
-0.234157213059
 21
-0.0480720732029998
 31
0.0
  0
LINE
  5
262
330
131
100
AcDbEntity
  8
AM_4
100
AcDbLine
 10
-0.234157213059
 20
-0.0480720732029998
 30
0.0
 11
-0.246400920458
 21
-0.0597256228029998
 31
0.0
  0
LINE
  5
263
330
131
100
AcDbEntity
  8
AM_4
100
AcDbLine
 10
-0.246400920458
 20
-0.0597256228029998
 30
0.0
 11
-0.2586442341559998
 21
-0.0655527913039997
 31
0.0
  0
LINE
  5
264
330
131
100
AcDbEntity
  8
AM_4
100
AcDbLine
 10
-0.2586442341559998
 20
-0.0655527913039999
 30
0.0
 11
-0.273948573129
 21
-0.0684661787039999
 31
0.0
  0
LINE
  5
265
330
131
100
AcDbEntity
  8
AM_4
100
AcDbLine
 10
-0.273948573129
 20
-0.0684661787039998
 30
0.0
 11
-0.3474096364199999
 21
-0.0684661787039999
 31
0.0
  0
LINE
  5
266
330
131
100
AcDbEntity
  8
AM_4
100
AcDbLine
 10
2.361250435006831
 20
-0.9446950694758709
 30
0.0
 11
2.361250435006831
 21
0.9446950694758711
 31
0.0
  0
LWPOLYLINE
  5
267
330
131
100
AcDbEntity
  8
AM_4
100
AcDbPolyline
 90
       32
 70
     0
 43
0.0
 10
-2.36125043500683
 20
0.9446950694758715
 10
-2.299544754620768
 20
0.9253891222249357
 10
-2.220338150148956
 20
0.9066668618831633
 10
-2.124233431677681
 20
0.8886707761565642
 10
-2.011962014144122
 20
0.8715378261238518
 10
-1.884378350827049
 20
0.8553984038799333
 10
-1.742453430441423
 20
0.8403753401733343
 10
-1.587267387327992
 20
0.826582969590036
 10
-1.420001280978742
 20
0.8141262603982382
 10
-1.241928107461027
 20
0.8031000156764573
 10
-1.05440311114884
 20
0.7935881518048546
 10
-0.8588534704948042
 20
0.7856630598109133
 10
-0.6567674363403991
 20
0.7793850544300088
 10
-0.4496830054284229
 20
0.7748019150738533
 10
-0.2391762153191141
 20
0.7719485222003221
 10
-0.0268491497926794
 20
0.7708465918521084
 10
0.1856822539756376
 20
0.7715045103845257
 10
0.3968005036731895
 20
0.7739172706402809
 10
0.6048988619430936
 20
0.7780665100569625
 10
0.8083935746256916
 20
0.7839206504172308
 10
1.005735924084002
 20
0.7914351381781173
 10
1.195424015880079
 20
0.8005527835503901
 10
1.376014209098553
 20
0.8112041957473811
 10
1.54613210332569
 20
0.8233083110907728
 10
1.70448299866643
 20
0.8367730099541376
 10
1.849861749192345
 20
0.8514958178489175
 10
1.981161934829842
 20
0.8673646853171587
 10
2.097384281885002
 20
0.8842588406955442
 10
2.197644268119761
 20
0.902049709260674
 10
2.281178854500239
 20
0.9206018917603475
 10
2.347352292384519
 20
0.9397741948836283
 10
2.361250435006831
 20
0.9446950694758715
  0
LINE
  5
268
330
131
100
AcDbEntity
  8
AM_4
100
AcDbLine
 10
-2.36125043500683
 20
-0.9446950694758709
 30
0.0
 11
-2.36125043500683
 21
0.9446950694758715
 31
0.0
  0
LINE
  5
269
330
131
100
AcDbEntity
  8
AM_4
100
AcDbLine
 10
2.932499999999999
 20
-1.15625
 30
0.0
 11
2.361250435006831
 21
-0.9446950694758709
 31
0.0
  0
LWPOLYLINE
  5
26A
330
131
100
AcDbEntity
  8
AM_4
100
AcDbPolyline
 90
       32
 70
     0
 43
0.0
 10
2.361250435006832
 20
-0.9446950694758709
 10
2.299544754620769
 20
-0.9253891222249354
 10
2.220338150148958
 20
-0.9066668618831627
 10
2.124233431677682
 20
-0.8886707761565636
 10
2.011962014144125
 20
-0.8715378261238513
 10
1.88437835082705
 20
-0.8553984038799327
 10
1.742453430441425
 20
-0.8403753401733337
 10
1.587267387327994
 20
-0.8265829695900353
 10
1.420001280978743
 20
-0.8141262603982374
 10
1.241928107461029
 20
-0.8031000156764564
 10
1.054403111148842
 20
-0.7935881518048538
 10
0.8588534704948061
 20
-0.7856630598109124
 10
0.6567674363404011
 20
-0.779385054430008
 10
0.4496830054284249
 20
-0.7748019150738523
 10
0.2391762153191161
 20
-0.7719485222003211
 10
0.0268491497926813
 20
-0.7708465918521072
 10
-0.1856822539756356
 20
-0.7715045103845248
 10
-0.3968005036731876
 20
-0.7739172706402798
 10
-0.6048988619430918
 20
-0.7780665100569616
 10
-0.8083935746256901
 20
-0.7839206504172298
 10
-1.005735924084001
 20
-0.7914351381781164
 10
-1.195424015880077
 20
-0.8005527835503891
 10
-1.376014209098551
 20
-0.8112041957473801
 10
-1.546132103325688
 20
-0.823308311090772
 10
-1.704482998666428
 20
-0.8367730099541366
 10
-1.849861749192343
 20
-0.8514958178489166
 10
-1.981161934829841
 20
-0.8673646853171579
 10
-2.097384281885001
 20
-0.8842588406955432
 10
-2.19764426811976
 20
-0.9020497092606731
 10
-2.281178854500239
 20
-0.9206018917603467
 10
-2.347352292384518
 20
-0.9397741948836275
 10
-2.361250435006831
 20
-0.9446950694758708
  0
LINE
  5
26B
330
131
100
AcDbEntity
  8
AM_4
100
AcDbLine
 10
-2.36125043500683
 20
-0.9446950694758709
 30
0.0
 11
-2.932499999999995
 21
-1.15625
 31
0.0
  0
LWPOLYLINE
  5
26C
330
131
100
AcDbEntity
  8
AM_4
100
AcDbPolyline
 90
        7
 70
     0
 43
0.0
 10
1.775000000000001
 20
-1.08282835039556
 10
1.842423639005885
 20
-1.0678442570987
 10
1.895825321633126
 20
-1.052359681117852
 10
1.934798628832111
 20
-1.036492469426072
 10
1.95904695020233
 20
-1.020363381085218
 10
1.968385741376619
 20
-1.004095168196576
 10
1.9685
 20
-1.002083025
  0
ENDBLK
  5
134
330
131
100
AcDbEntity
  8
0
100
AcDbBlockEnd
  0
ENDSEC
  0
SECTION
  2
ENTITIES
  0
INSERT
  5
6F
330
1F
100
AcDbEntity
  8
0
100
AcDbBlockReference
  2
1_129170_4
 10
0.0
 20
0.0
 30
0.0
  0
POINT
  5
26E
330
1F
100
AcDbEntity
  8
ConnectionPoints
100
AcDbPoint
 10
0.0
 20
0.0
 30
0.0
  0
POINT
  5
26F
330
1F
100
AcDbEntity
  8
ConnectionPoints
100
AcDbPoint
 10
0.0
 20
0.703125
 30
0.0
  0
POINT
  5
270
330
1F
100
AcDbEntity
  8
ConnectionPoints
100
AcDbPoint
 10
0.0
 20
0.0
 30
0.0
  0
POINT
  5
271
330
1F
100
AcDbEntity
  8
ConnectionPoints
100
AcDbPoint
 10
0.0
 20
0.0
 30
0.0
  0
ENDSEC
  0
SECTION
  2
OBJECTS
  0
DICTIONARY
  5
C
330
0
100
AcDbDictionary
281
     1
  3
ACAD_DETAILVIEWSTYLE
350
279
  3
ACAD_GROUP
350
D
  3
ACAD_LAYOUT
350
1A
  3
ACAD_MATERIAL
350
43
  3
ACAD_MLEADERSTYLE
350
6B
  3
ACAD_MLINESTYLE
350
17
  3
ACAD_PLOTSETTINGS
350
19
  3
ACAD_PLOTSTYLENAME
350
E
  3
ACAD_SCALELIST
350
47
  3
ACAD_SECTIONVIEWSTYLE
350
27A
  3
ACAD_TABLESTYLE
350
69
  3
ACAD_VISUALSTYLE
350
2A
  3
ACDB_RECOMPOSE_DATA
350
276
  3
AcDbVariableDictionary
350
272
  0
SUN
  5
6D
330
29
100
AcDbSun
 90
        1
290
     0
 63
     7
421
 16777215
 40
1.0
291
     1
 91
  2455826
 92
 54000000
292
     0
 70
     2
 71
   256
280
     1
  0
DICTIONARY
  5
279
102
{ACAD_REACTORS
330
C
102
}
330
C
100
AcDbDictionary
281
     1
  0
DICTIONARY
  5
D
102
{ACAD_REACTORS
330
C
102
}
330
C
100
AcDbDictionary
281
     1
  0
DICTIONARY
  5
1A
102
{ACAD_REACTORS
330
C
102
}
330
C
100
AcDbDictionary
281
     1
  3
Layout1
350
1E
  3
Layout2
350
26
  3
Model
350
22
  0
DICTIONARY
  5
43
102
{ACAD_REACTORS
330
C
102
}
330
C
100
AcDbDictionary
281
     1
  3
ByBlock
350
45
  3
ByLayer
350
44
  3
Global
350
46
  0
DICTIONARY
  5
6B
102
{ACAD_REACTORS
330
C
102
}
330
C
100
AcDbDictionary
281
     1
  3
Standard
350
6C
  0
DICTIONARY
  5
17
102
{ACAD_REACTORS
330
C
102
}
330
C
100
AcDbDictionary
281
     1
  3
Standard
350
18
  0
DICTIONARY
  5
19
102
{ACAD_REACTORS
330
C
102
}
330
C
100
AcDbDictionary
281
     1
  0
ACDBDICTIONARYWDFLT
  5
E
102
{ACAD_REACTORS
330
C
102
}
330
C
100
AcDbDictionary
281
     1
  3
Normal
350
F
100
AcDbDictionaryWithDefault
340
F
  0
DICTIONARY
  5
47
102
{ACAD_REACTORS
330
C
102
}
330
C
100
AcDbDictionary
281
     1
  3
A0
350
48
  3
A1
350
49
  3
A2
350
4A
  3
A3
350
4B
  3
A4
350
4C
  3
A5
350
4D
  3
A6
350
4E
  3
A7
350
4F
  3
A8
350
50
  3
A9
350
51
  3
B0
350
52
  3
B1
350
53
  3
B2
350
54
  3
B3
350
55
  3
B4
350
56
  3
B5
350
57
  3
B6
350
58
  3
B7
350
59
  3
B8
350
5A
  3
B9
350
5B
  3
C0
350
5C
  3
C1
350
5D
  3
C2
350
5E
  3
C3
350
5F
  3
C4
350
60
  3
C5
350
61
  3
C6
350
62
  3
C7
350
63
  3
C8
350
64
  3
C9
350
65
  3
D0
350
66
  3
D1
350
67
  3
D2
350
68
  0
DICTIONARY
  5
27A
102
{ACAD_REACTORS
330
C
102
}
330
C
100
AcDbDictionary
281
     1
  0
DICTIONARY
  5
69
102
{ACAD_REACTORS
330
C
102
}
330
C
100
AcDbDictionary
281
     1
  3
Standard
350
6A
  0
DICTIONARY
  5
2A
102
{ACAD_REACTORS
330
C
102
}
330
C
100
AcDbDictionary
281
     1
  3
2dWireframe
350
2F
  3
Basic
350
32
  3
Brighten
350
36
  3
ColorChange
350
3A
  3
Conceptual
350
34
  3
Dim
350
35
  3
EdgeColorOff
350
3D
  3
Facepattern
350
39
  3
Flat
350
2B
  3
FlatWithEdges
350
2C
  3
Gouraud
350
2D
  3
GouraudWithEdges
350
2E
  3
Hidden
350
31
  3
JitterOff
350
3B
  3
Linepattern
350
38
  3
OverhangOff
350
3C
  3
Realistic
350
33
  3
Shaded
350
42
  3
Shaded with edges
350
41
  3
Shades of Gray
350
3E
  3
Sketchy
350
3F
  3
Thicken
350
37
  3
Wireframe
350
30
  3
X-Ray
350
40
  0
XRECORD
  5
276
102
{ACAD_REACTORS
330
C
102
}
330
C
100
AcDbXrecord
280
     1
 90
        1
330
6A
  0
DICTIONARY
  5
272
102
{ACAD_REACTORS
330
C
102
}
330
C
100
AcDbDictionary
281
     1
  3
CANNOSCALE
350
273
  3
CMLEADERSTYLE
350
278
  3
CTABLESTYLE
350
277
  0
LAYOUT
  5
1E
102
{ACAD_REACTORS
330
1A
102
}
330
1A
100
AcDbPlotSettings
  1

  2
none_device
  4

  6

 40
0.0
 41
0.0
 42
0.0
 43
0.0
 44
0.0
 45
0.0
 46
0.0
 47
0.0
 48
0.0
 49
0.0
140
0.0
141
0.0
142
1.0
143
1.0
 70
   688
 72
     0
 73
     0
 74
     5
  7

 75
    16
 76
     0
 77
     2
 78
   300
147
1.0
148
0.0
149
0.0
100
AcDbLayout
  1
Layout1
 70
     1
 71
     1
 10
0.0
 20
0.0
 11
12.0
 21
9.0
 12
0.0
 22
0.0
 32
0.0
 14
1.000000000000000E+20
 24
1.000000000000000E+20
 34
1.000000000000000E+20
 15
-1.000000000000000E+20
 25
-1.000000000000000E+20
 35
-1.000000000000000E+20
146
0.0
 13
0.0
 23
0.0
 33
0.0
 16
1.0
 26
0.0
 36
0.0
 17
0.0
 27
1.0
 37
0.0
 76
     0
330
1B
  0
LAYOUT
  5
26
102
{ACAD_REACTORS
330
1A
102
}
330
1A
100
AcDbPlotSettings
  1

  2
none_device
  4

  6

 40
0.0
 41
0.0
 42
0.0
 43
0.0
 44
0.0
 45
0.0
 46
0.0
 47
0.0
 48
0.0
 49
0.0
140
0.0
141
0.0
142
1.0
143
1.0
 70
   688
 72
     0
 73
     0
 74
     5
  7

 75
    16
 76
     0
 77
     2
 78
   300
147
1.0
148
0.0
149
0.0
100
AcDbLayout
  1
Layout2
 70
     1
 71
     2
 10
0.0
 20
0.0
 11
0.0
 21
0.0
 12
0.0
 22
0.0
 32
0.0
 14
0.0
 24
0.0
 34
0.0
 15
0.0
 25
0.0
 35
0.0
146
0.0
 13
0.0
 23
0.0
 33
0.0
 16
1.0
 26
0.0
 36
0.0
 17
0.0
 27
1.0
 37
0.0
 76
     0
330
23
  0
LAYOUT
  5
22
102
{ACAD_REACTORS
330
1A
102
}
330
1A
100
AcDbPlotSettings
  1

  2
none_device
  4
Letter_(8.50_x_11.00_Inches)
  6

 40
6.35
 41
6.35
 42
6.35000508
 43
6.35000508
 44
215.9
 45
279.4
 46
0.0
 47
0.0
 48
0.0
 49
0.0
140
0.0
141
0.0
142
1.0
143
1.0
 70
  1712
 72
     0
 73
     0
 74
     0
  7

 75
     0
 76
     0
 77
     2
 78
   300
147
1.0
148
0.0
149
0.0
100
AcDbLayout
  1
Model
 70
     1
 71
     0
 10
0.0
 20
0.0
 11
12.0
 21
9.0
 12
0.0
 22
0.0
 32
0.0
 14
1.000000000000000E+20
 24
1.000000000000000E+20
 34
1.000000000000000E+20
 15
-1.000000000000000E+20
 25
-1.000000000000000E+20
 35
-1.000000000000000E+20
146
0.0
 13
0.0
 23
0.0
 33
0.0
 16
1.0
 26
0.0
 36
0.0
 17
0.0
 27
1.0
 37
0.0
 76
     0
330
1F
331
29
  0
MATERIAL
  5
45
102
{ACAD_REACTORS
330
43
102
}
330
43
100
AcDbMaterial
  1
ByBlock
 72
     1
 94
      127
  0
MATERIAL
  5
44
102
{ACAD_REACTORS
330
43
102
}
330
43
100
AcDbMaterial
  1
ByLayer
 72
     1
 94
      127
  0
MATERIAL
  5
46
102
{ACAD_REACTORS
330
43
102
}
330
43
100
AcDbMaterial
  1
Global
 72
     1
 94
      127
  0
MLEADERSTYLE
  5
6C
102
{ACAD_REACTORS
330
6B
102
}
330
6B
100
AcDbMLeaderStyle
179
     2
170
     2
171
     1
172
     0
 90
        2
 40
0.0
 41
0.0
173
     1
 91
-1056964608
340
14
 92
       -2
290
     1
 42
0.09
291
     1
 43
0.36
  3
Standard
341
0
 44
0.18
300

342
11
174
     1
178
     6
175
     1
176
     0
 93
-1056964608
 45
0.18
292
     0
297
     0
 46
0.18
343
0
 94
-1056964608
 47
1.0
 49
1.0
140
1.0
293
     1
141
0.0
294
     1
177
     0
142
1.0
295
     0
296
     0
143
0.125
271
     0
272
     9
273
     9
298
     0
  0
MLINESTYLE
  5
18
102
{ACAD_REACTORS
330
17
102
}
330
17
100
AcDbMlineStyle
  2
Standard
 70
     0
  3

 62
   256
 51
90.0
 52
90.0
 71
     2
 49
0.5
 62
   256
  6
BYLAYER
 49
-0.5
 62
   256
  6
BYLAYER
  0
ACDBPLACEHOLDER
  5
F
102
{ACAD_REACTORS
330
E
102
}
330
E
  0
SCALE
  5
48
102
{ACAD_REACTORS
330
47
102
}
330
47
100
AcDbScale
 70
     0
300
1:1
140
1.0
141
1.0
290
     1
  0
SCALE
  5
49
102
{ACAD_REACTORS
330
47
102
}
330
47
100
AcDbScale
 70
     0
300
1:2
140
1.0
141
2.0
290
     0
  0
SCALE
  5
4A
102
{ACAD_REACTORS
330
47
102
}
330
47
100
AcDbScale
 70
     0
300
1:4
140
1.0
141
4.0
290
     0
  0
SCALE
  5
4B
102
{ACAD_REACTORS
330
47
102
}
330
47
100
AcDbScale
 70
     0
300
1:5
140
1.0
141
5.0
290
     0
  0
SCALE
  5
4C
102
{ACAD_REACTORS
330
47
102
}
330
47
100
AcDbScale
 70
     0
300
1:8
140
1.0
141
8.0
290
     0
  0
SCALE
  5
4D
102
{ACAD_REACTORS
330
47
102
}
330
47
100
AcDbScale
 70
     0
300
1:10
140
1.0
141
10.0
290
     0
  0
SCALE
  5
4E
102
{ACAD_REACTORS
330
47
102
}
330
47
100
AcDbScale
 70
     0
300
1:16
140
1.0
141
16.0
290
     0
  0
SCALE
  5
4F
102
{ACAD_REACTORS
330
47
102
}
330
47
100
AcDbScale
 70
     0
300
1:20
140
1.0
141
20.0
290
     0
  0
SCALE
  5
50
102
{ACAD_REACTORS
330
47
102
}
330
47
100
AcDbScale
 70
     0
300
1:30
140
1.0
141
30.0
290
     0
  0
SCALE
  5
51
102
{ACAD_REACTORS
330
47
102
}
330
47
100
AcDbScale
 70
     0
300
1:40
140
1.0
141
40.0
290
     0
  0
SCALE
  5
52
102
{ACAD_REACTORS
330
47
102
}
330
47
100
AcDbScale
 70
     0
300
1:50
140
1.0
141
50.0
290
     0
  0
SCALE
  5
53
102
{ACAD_REACTORS
330
47
102
}
330
47
100
AcDbScale
 70
     0
300
1:100
140
1.0
141
100.0
290
     0
  0
SCALE
  5
54
102
{ACAD_REACTORS
330
47
102
}
330
47
100
AcDbScale
 70
     0
300
2:1
140
2.0
141
1.0
290
     0
  0
SCALE
  5
55
102
{ACAD_REACTORS
330
47
102
}
330
47
100
AcDbScale
 70
     0
300
4:1
140
4.0
141
1.0
290
     0
  0
SCALE
  5
56
102
{ACAD_REACTORS
330
47
102
}
330
47
100
AcDbScale
 70
     0
300
8:1
140
8.0
141
1.0
290
     0
  0
SCALE
  5
57
102
{ACAD_REACTORS
330
47
102
}
330
47
100
AcDbScale
 70
     0
300
10:1
140
10.0
141
1.0
290
     0
  0
SCALE
  5
58
102
{ACAD_REACTORS
330
47
102
}
330
47
100
AcDbScale
 70
     0
300
100:1
140
100.0
141
1.0
290
     0
  0
SCALE
  5
59
102
{ACAD_REACTORS
330
47
102
}
330
47
100
AcDbScale
 70
     0
300
1/128" = 1'-0"
140
0.0078125
141
12.0
290
     0
  0
SCALE
  5
5A
102
{ACAD_REACTORS
330
47
102
}
330
47
100
AcDbScale
 70
     0
300
1/64" = 1'-0"
140
0.015625
141
12.0
290
     0
  0
SCALE
  5
5B
102
{ACAD_REACTORS
330
47
102
}
330
47
100
AcDbScale
 70
     0
300
1/32" = 1'-0"
140
0.03125
141
12.0
290
     0
  0
SCALE
  5
5C
102
{ACAD_REACTORS
330
47
102
}
330
47
100
AcDbScale
 70
     0
300
1/16" = 1'-0"
140
0.0625
141
12.0
290
     0
  0
SCALE
  5
5D
102
{ACAD_REACTORS
330
47
102
}
330
47
100
AcDbScale
 70
     0
300
3/32" = 1'-0"
140
0.09375
141
12.0
290
     0
  0
SCALE
  5
5E
102
{ACAD_REACTORS
330
47
102
}
330
47
100
AcDbScale
 70
     0
300
1/8" = 1'-0"
140
0.125
141
12.0
290
     0
  0
SCALE
  5
5F
102
{ACAD_REACTORS
330
47
102
}
330
47
100
AcDbScale
 70
     0
300
3/16" = 1'-0"
140
0.1875
141
12.0
290
     0
  0
SCALE
  5
60
102
{ACAD_REACTORS
330
47
102
}
330
47
100
AcDbScale
 70
     0
300
1/4" = 1'-0"
140
0.25
141
12.0
290
     0
  0
SCALE
  5
61
102
{ACAD_REACTORS
330
47
102
}
330
47
100
AcDbScale
 70
     0
300
3/8" = 1'-0"
140
0.375
141
12.0
290
     0
  0
SCALE
  5
62
102
{ACAD_REACTORS
330
47
102
}
330
47
100
AcDbScale
 70
     0
300
1/2" = 1'-0"
140
0.5
141
12.0
290
     0
  0
SCALE
  5
63
102
{ACAD_REACTORS
330
47
102
}
330
47
100
AcDbScale
 70
     0
300
3/4" = 1'-0"
140
0.75
141
12.0
290
     0
  0
SCALE
  5
64
102
{ACAD_REACTORS
330
47
102
}
330
47
100
AcDbScale
 70
     0
300
1" = 1'-0"
140
1.0
141
12.0
290
     0
  0
SCALE
  5
65
102
{ACAD_REACTORS
330
47
102
}
330
47
100
AcDbScale
 70
     0
300
1-1/2" = 1'-0"
140
1.5
141
12.0
290
     0
  0
SCALE
  5
66
102
{ACAD_REACTORS
330
47
102
}
330
47
100
AcDbScale
 70
     0
300
3" = 1'-0"
140
3.0
141
12.0
290
     0
  0
SCALE
  5
67
102
{ACAD_REACTORS
330
47
102
}
330
47
100
AcDbScale
 70
     0
300
6" = 1'-0"
140
6.0
141
12.0
290
     0
  0
SCALE
  5
68
102
{ACAD_REACTORS
330
47
102
}
330
47
100
AcDbScale
 70
     0
300
1'-0" = 1'-0"
140
12.0
141
12.0
290
     0
  0
TABLESTYLE
  5
6A
102
{ACAD_REACTORS
330
69
102
}
102
{ACAD_XDICTIONARY
360
274
102
}
330
69
100
AcDbTableStyle
  3
Standard
 70
     0
 71
     0
 40
0.06
 41
0.06
280
     0
281
     0
  7
Standard
140
0.18
170
     2
 62
     0
 63
   257
283
     0
 90
        4
 91
        0
  1

274
    -2
284
     1
 64
     0
275
    -2
285
     1
 65
     0
276
    -2
286
     1
 66
     0
277
    -2
287
     1
 67
     0
278
    -2
288
     1
 68
     0
279
    -2
289
     1
 69
     0
  7
Standard
140
0.25
170
     5
 62
     0
 63
   257
283
     0
 90
        4
 91
        0
  1

274
    -2
284
     1
 64
     0
275
    -2
285
     1
 65
     0
276
    -2
286
     1
 66
     0
277
    -2
287
     1
 67
     0
278
    -2
288
     1
 68
     0
279
    -2
289
     1
 69
     0
  7
Standard
140
0.18
170
     5
 62
     0
 63
   257
283
     0
 90
        4
 91
        0
  1

274
    -2
284
     1
 64
     0
275
    -2
285
     1
 65
     0
276
    -2
286
     1
 66
     0
277
    -2
287
     1
 67
     0
278
    -2
288
     1
 68
     0
279
    -2
289
     1
 69
     0
  0
VISUALSTYLE
  5
2F
102
{ACAD_REACTORS
330
2A
102
}
330
2A
100
AcDbVisualStyle
  2
2dWireframe
 70
     4
177
     3
291
     0
 70
    58
 90
        0
176
     1
 90
        2
176
     1
 90
        0
176
     1
 90
        0
176
     1
 40
0.6
176
     1
 40
30.0
176
     1
 62
     7
420
 16777215
176
     1
 90
        1
176
     1
 90
        4
176
     1
 62
     7
176
     1
 62
   257
176
     1
 90
        1
176
     1
 90
        1
176
     1
 40
1.0
176
     1
 90
        0
176
     1
 62
   257
176
     1
 40
1.0
176
     1
 90
        1
176
     1
 90
        6
176
     1
 90
        2
176
     1
 62
     7
176
     1
 90
        5
176
     1
 90
        0
176
     1
 90
        0
176
     1
290
     0
176
     1
 90
        1
176
     1
 40
0.0
176
     1
 90
        0
176
     1
290
     1
176
     1
290
     1
176
     1
290
     0
176
     1
290
     0
176
     1
290
     0
176
     1
290
     0
176
     1
290
     0
176
     1
290
     0
176
     1
290
     0
176
     1
 90
       50
176
     1
 40
0.0
176
     1
 40
1.0
176
     1
 90
        0
176
     1
 62
    18
420
        0
176
     1
 90
       50
176
     1
 90
        3
176
     1
 62
     5
420
      255
176
     1
290
     0
176
     1
 90
       50
176
     1
 90
       50
176
     1
 90
       50
176
     1
290
     0
176
     1
 90
       50
176
     1
 62
   256
176
     0
 40
1.0
176
     0
 90
        2
176
     1
  1
strokes_ogs.tif
176
     1
290
     0
176
     1
 40
1.0
176
     1
 40
1.0
176
     1
  0
VISUALSTYLE
  5
32
102
{ACAD_REACTORS
330
2A
102
}
330
2A
100
AcDbVisualStyle
  2
Basic
 70
     7
177
     3
291
     1
 70
    58
 90
        1
176
     1
 90
        0
176
     1
 90
        1
176
     1
 90
        0
176
     1
 40
0.6
176
     1
 40
30.0
176
     1
 62
     7
420
 16777215
176
     1
 90
        0
176
     1
 90
        4
176
     1
 62
     7
176
     1
 62
   257
176
     1
 90
        1
176
     1
 90
        1
176
     1
 40
1.0
176
     1
 90
        8
176
     1
 62
     7
176
     1
 40
1.0
176
     1
 90
        1
176
     1
 90
        6
176
     1
 90
        2
176
     1
 62
     7
176
     1
 90
        5
176
     1
 90
        0
176
     1
 90
        0
176
     1
290
     0
176
     1
 90
        1
176
     1
 40
0.0
176
     1
 90
        0
176
     1
290
     0
176
     1
290
     1
176
     1
290
     1
176
     1
290
     0
176
     1
290
     0
176
     1
290
     0
176
     1
290
     0
176
     1
290
     0
176
     1
290
     0
176
     1
 90
       50
176
     1
 40
0.0
176
     1
 40
1.0
176
     1
 90
        0
176
     1
 62
    18
420
        0
176
     1
 90
       50
176
     1
 90
        3
176
     1
 62
     5
420
      255
176
     1
290
     0
176
     1
 90
       50
176
     1
 90
       50
176
     1
 90
       50
176
     1
290
     0
176
     1
 90
       50
176
     1
 62
   256
176
     0
 40
1.0
176
     0
 90
        2
176
     1
  1
strokes_ogs.tif
176
     1
290
     0
176
     1
 40
1.0
176
     1
 40
1.0
176
     1
  0
VISUALSTYLE
  5
36
102
{ACAD_REACTORS
330
2A
102
}
330
2A
100
AcDbVisualStyle
  2
Brighten
 70
    12
177
     3
291
     1
 70
    58
 90
        2
176
     1
 90
        2
176
     1
 90
        0
176
     1
 90
        0
176
     1
 40
0.6
176
     1
 40
30.0
176
     1
 62
     7
420
 16777215
176
     1
 90
        1
176
     1
 90
        4
176
     1
 62
     7
176
     1
 62
   257
176
     1
 90
        1
176
     1
 90
        1
176
     1
 40
1.0
176
     1
 90
        8
176
     1
 62
     7
176
     1
 40
1.0
176
     1
 90
        1
176
     1
 90
        6
176
     1
 90
        2
176
     1
 62
     7
176
     1
 90
        5
176
     1
 90
        0
176
     1
 90
        0
176
     1
290
     0
176
     1
 90
        1
176
     1
 40
50.0
176
     1
 90
        0
176
     1
290
     0
176
     1
290
     1
176
     1
290
     1
176
     1
290
     0
176
     1
290
     0
176
     1
290
     0
176
     1
290
     0
176
     1
290
     0
176
     1
290
     0
176
     1
 90
       50
176
     1
 40
0.0
176
     1
 40
1.0
176
     1
 90
        0
176
     1
 62
    18
420
        0
176
     1
 90
       50
176
     1
 90
        3
176
     1
 62
     5
420
      255
176
     1
290
     0
176
     1
 90
       50
176
     1
 90
       50
176
     1
 90
       50
176
     1
290
     0
176
     1
 90
       50
176
     1
 62
   256
176
     0
 40
1.0
176
     0
 90
        2
176
     1
  1
strokes_ogs.tif
176
     1
290
     0
176
     1
 40
1.0
176
     1
 40
1.0
176
     1
  0
VISUALSTYLE
  5
3A
102
{ACAD_REACTORS
330
2A
102
}
330
2A
100
AcDbVisualStyle
  2
ColorChange
 70
    16
177
     3
291
     1
 70
    58
 90
        2
176
     1
 90
        2
176
     1
 90
        3
176
     1
 90
        0
176
     1
 40
0.6
176
     1
 40
30.0
176
     1
 62
     8
420
  8421504
176
     1
 90
        1
176
     1
 90
        4
176
     1
 62
     7
176
     1
 62
   257
176
     1
 90
        1
176
     1
 90
        1
176
     1
 40
1.0
176
     1
 90
        8
176
     1
 62
     8
420
  8421504
176
     1
 40
1.0
176
     1
 90
        1
176
     1
 90
        6
176
     1
 90
        2
176
     1
 62
     7
176
     1
 90
        5
176
     1
 90
        0
176
     1
 90
        0
176
     1
290
     0
176
     1
 90
        1
176
     1
 40
0.0
176
     1
 90
        0
176
     1
290
     0
176
     1
290
     1
176
     1
290
     1
176
     1
290
     0
176
     1
290
     0
176
     1
290
     0
176
     1
290
     0
176
     1
290
     0
176
     1
290
     0
176
     1
 90
       50
176
     1
 40
0.0
176
     1
 40
1.0
176
     1
 90
        0
176
     1
 62
    18
420
        0
176
     1
 90
       50
176
     1
 90
        3
176
     1
 62
     5
420
      255
176
     1
290
     0
176
     1
 90
       50
176
     1
 90
       50
176
     1
 90
       50
176
     1
290
     0
176
     1
 90
       50
176
     1
 62
   256
176
     0
 40
1.0
176
     0
 90
        2
176
     1
  1
strokes_ogs.tif
176
     1
290
     0
176
     1
 40
1.0
176
     1
 40
1.0
176
     1
  0
VISUALSTYLE
  5
34
102
{ACAD_REACTORS
330
2A
102
}
330
2A
100
AcDbVisualStyle
  2
Conceptual
 70
     9
177
     3
291
     0
 70
    58
 90
        3
176
     1
 90
        2
176
     1
 90
        0
176
     1
 90
        0
176
     1
 40
0.6
176
     1
 40
30.0
176
     1
 62
     7
420
 16777215
176
     1
 90
        2
176
     1
 90
        2
176
     1
 62
     7
176
     1
 62
   257
176
     1
 90
        1
176
     1
 90
        1
176
     1
 40
179.0
176
     1
 90
        8
176
     1
 62
     7
176
     1
 40
1.0
176
     1
 90
        1
176
     1
 90
        6
176
     1
 90
        2
176
     1
 62
     7
176
     1
 90
        3
176
     1
 90
        0
176
     1
 90
        0
176
     1
290
     0
176
     1
 90
        1
176
     1
 40
0.0
176
     1
 90
        0
176
     1
290
     0
176
     1
290
     1
176
     1
290
     1
176
     1
290
     0
176
     1
290
     0
176
     1
290
     0
176
     1
290
     0
176
     1
290
     0
176
     1
290
     0
176
     1
 90
       50
176
     1
 40
0.0
176
     1
 40
1.0
176
     1
 90
        0
176
     1
 62
    18
420
        0
176
     1
 90
       50
176
     1
 90
        3
176
     1
 62
     5
420
      255
176
     1
290
     0
176
     1
 90
       50
176
     1
 90
       50
176
     1
 90
       50
176
     1
290
     0
176
     1
 90
       50
176
     1
 62
   256
176
     0
 40
1.0
176
     0
 90
        2
176
     1
  1
strokes_ogs.tif
176
     1
290
     0
176
     1
 40
1.0
176
     1
 40
1.0
176
     1
  0
VISUALSTYLE
  5
35
102
{ACAD_REACTORS
330
2A
102
}
330
2A
100
AcDbVisualStyle
  2
Dim
 70
    11
177
     3
291
     1
 70
    58
 90
        2
176
     1
 90
        2
176
     1
 90
        0
176
     1
 90
        0
176
     1
 40
0.6
176
     1
 40
30.0
176
     1
 62
     7
420
 16777215
176
     1
 90
        1
176
     1
 90
        4
176
     1
 62
     7
176
     1
 62
   257
176
     1
 90
        1
176
     1
 90
        1
176
     1
 40
1.0
176
     1
 90
        8
176
     1
 62
     7
176
     1
 40
1.0
176
     1
 90
        1
176
     1
 90
        6
176
     1
 90
        2
176
     1
 62
     7
176
     1
 90
        5
176
     1
 90
        0
176
     1
 90
        0
176
     1
290
     0
176
     1
 90
        1
176
     1
 40
-50.0
176
     1
 90
        0
176
     1
290
     0
176
     1
290
     1
176
     1
290
     1
176
     1
290
     0
176
     1
290
     0
176
     1
290
     0
176
     1
290
     0
176
     1
290
     0
176
     1
290
     0
176
     1
 90
       50
176
     1
 40
0.0
176
     1
 40
1.0
176
     1
 90
        0
176
     1
 62
    18
420
        0
176
     1
 90
       50
176
     1
 90
        3
176
     1
 62
     5
420
      255
176
     1
290
     0
176
     1
 90
       50
176
     1
 90
       50
176
     1
 90
       50
176
     1
290
     0
176
     1
 90
       50
176
     1
 62
   256
176
     0
 40
1.0
176
     0
 90
        2
176
     1
  1
strokes_ogs.tif
176
     1
290
     0
176
     1
 40
1.0
176
     1
 40
1.0
176
     1
  0
VISUALSTYLE
  5
3D
102
{ACAD_REACTORS
330
2A
102
}
330
2A
100
AcDbVisualStyle
  2
EdgeColorOff
 70
    22
177
     3
291
     1
 70
    58
 90
        2
176
     0
 90
        2
176
     0
 90
        0
176
     0
 90
        0
176
     0
 40
0.6
176
     0
 40
30.0
176
     0
 62
     7
420
 16777215
176
     0
 90
        1
176
     0
 90
        4
176
     0
 62
     7
176
     0
 62
   257
176
     0
 90
        1
176
     0
 90
        1
176
     0
 40
1.0
176
     0
 90
        8
176
     2
 62
     7
176
     0
 40
1.0
176
     0
 90
        1
176
     0
 90
        6
176
     0
 90
        2
176
     0
 62
     7
176
     0
 90
        5
176
     0
 90
        0
176
     0
 90
        0
176
     0
290
     0
176
     0
 90
        1
176
     0
 40
0.0
176
     0
 90
        0
176
     0
290
     0
176
     0
290
     1
176
     0
290
     1
176
     0
290
     0
176
     0
290
     0
176
     0
290
     0
176
     0
290
     0
176
     0
290
     0
176
     0
290
     0
176
     0
 90
       50
176
     0
 40
0.0
176
     0
 40
1.0
176
     0
 90
        0
176
     0
 62
    18
420
        0
176
     0
 90
       50
176
     0
 90
        3
176
     0
 62
     5
420
      255
176
     0
290
     0
176
     0
 90
       50
176
     0
 90
       50
176
     0
 90
       50
176
     0
290
     0
176
     0
 90
       50
176
     0
 62
   256
176
     0
 40
1.0
176
     0
 90
        2
176
     0
  1
strokes_ogs.tif
176
     0
290
     0
176
     0
 40
1.0
176
     0
 40
1.0
176
     0
  0
VISUALSTYLE
  5
39
102
{ACAD_REACTORS
330
2A
102
}
330
2A
100
AcDbVisualStyle
  2
Facepattern
 70
    15
177
     3
291
     1
 70
    58
 90
        2
176
     1
 90
        2
176
     1
 90
        0
176
     1
 90
        0
176
     1
 40
0.6
176
     1
 40
30.0
176
     1
 62
     7
420
 16777215
176
     1
 90
        1
176
     1
 90
        4
176
     1
 62
     7
176
     1
 62
   257
176
     1
 90
        1
176
     1
 90
        1
176
     1
 40
1.0
176
     1
 90
        8
176
     1
 62
     7
176
     1
 40
1.0
176
     1
 90
        1
176
     1
 90
        6
176
     1
 90
        2
176
     1
 62
     7
176
     1
 90
        5
176
     1
 90
        0
176
     1
 90
        0
176
     1
290
     0
176
     1
 90
        1
176
     1
 40
0.0
176
     1
 90
        0
176
     1
290
     0
176
     1
290
     1
176
     1
290
     1
176
     1
290
     0
176
     1
290
     0
176
     1
290
     0
176
     1
290
     0
176
     1
290
     0
176
     1
290
     0
176
     1
 90
       50
176
     1
 40
0.0
176
     1
 40
1.0
176
     1
 90
        0
176
     1
 62
    18
420
        0
176
     1
 90
       50
176
     1
 90
        3
176
     1
 62
     5
420
      255
176
     1
290
     0
176
     1
 90
       50
176
     1
 90
       50
176
     1
 90
       50
176
     1
290
     0
176
     1
 90
       50
176
     1
 62
   256
176
     0
 40
1.0
176
     0
 90
        2
176
     1
  1
strokes_ogs.tif
176
     1
290
     0
176
     1
 40
1.0
176
     1
 40
1.0
176
     1
  0
VISUALSTYLE
  5
2B
102
{ACAD_REACTORS
330
2A
102
}
330
2A
100
AcDbVisualStyle
  2
Flat
 70
     0
177
     3
291
     1
 70
    58
 90
        2
176
     1
 90
        1
176
     1
 90
        1
176
     1
 90
        2
176
     1
 40
0.6
176
     1
 40
30.0
176
     1
 62
     7
420
 16777215
176
     1
 90
        0
176
     1
 90
        0
176
     1
 62
     7
176
     1
 62
   257
176
     1
 90
        1
176
     1
 90
        1
176
     1
 40
1.0
176
     1
 90
        8
176
     1
 62
     7
176
     1
 40
1.0
176
     1
 90
        1
176
     1
 90
        6
176
     1
 90
        2
176
     1
 62
     7
176
     1
 90
        5
176
     1
 90
        0
176
     1
 90
        0
176
     1
290
     0
176
     1
 90
       13
176
     1
 40
0.0
176
     1
 90
        0
176
     1
290
     0
176
     1
290
     1
176
     1
290
     1
176
     1
290
     0
176
     1
290
     0
176
     1
290
     0
176
     1
290
     0
176
     1
290
     0
176
     1
290
     0
176
     1
 90
       50
176
     1
 40
0.0
176
     1
 40
1.0
176
     1
 90
        0
176
     1
 62
    18
420
        0
176
     1
 90
       50
176
     1
 90
        3
176
     1
 62
     5
420
      255
176
     1
290
     0
176
     1
 90
       50
176
     1
 90
       50
176
     1
 90
       50
176
     1
290
     0
176
     1
 90
       50
176
     1
 62
   256
176
     0
 40
1.0
176
     0
 90
        2
176
     1
  1
strokes_ogs.tif
176
     1
290
     0
176
     1
 40
1.0
176
     1
 40
1.0
176
     1
  0
VISUALSTYLE
  5
2C
102
{ACAD_REACTORS
330
2A
102
}
330
2A
100
AcDbVisualStyle
  2
FlatWithEdges
 70
     1
177
     3
291
     1
 70
    58
 90
        2
176
     1
 90
        1
176
     1
 90
        1
176
     1
 90
        2
176
     1
 40
0.6
176
     1
 40
30.0
176
     1
 62
     7
420
 16777215
176
     1
 90
        1
176
     1
 90
        0
176
     1
 62
     7
176
     1
 62
   257
176
     1
 90
        1
176
     1
 90
        1
176
     1
 40
1.0
176
     1
 90
        0
176
     1
 62
   257
176
     1
 40
1.0
176
     1
 90
        1
176
     1
 90
        6
176
     1
 90
        2
176
     1
 62
     7
176
     1
 90
        5
176
     1
 90
        0
176
     1
 90
        0
176
     1
290
     0
176
     1
 90
       13
176
     1
 40
0.0
176
     1
 90
        0
176
     1
290
     0
176
     1
290
     1
176
     1
290
     1
176
     1
290
     0
176
     1
290
     0
176
     1
290
     0
176
     1
290
     0
176
     1
290
     0
176
     1
290
     0
176
     1
 90
       50
176
     1
 40
0.0
176
     1
 40
1.0
176
     1
 90
        0
176
     1
 62
    18
420
        0
176
     1
 90
       50
176
     1
 90
        3
176
     1
 62
     5
420
      255
176
     1
290
     0
176
     1
 90
       50
176
     1
 90
       50
176
     1
 90
       50
176
     1
290
     0
176
     1
 90
       50
176
     1
 62
   256
176
     0
 40
1.0
176
     0
 90
        2
176
     1
  1
strokes_ogs.tif
176
     1
290
     0
176
     1
 40
1.0
176
     1
 40
1.0
176
     1
  0
VISUALSTYLE
  5
2D
102
{ACAD_REACTORS
330
2A
102
}
330
2A
100
AcDbVisualStyle
  2
Gouraud
 70
     2
177
     3
291
     1
 70
    58
 90
        2
176
     1
 90
        2
176
     1
 90
        1
176
     1
 90
        2
176
     1
 40
0.6
176
     1
 40
30.0
176
     1
 62
     7
420
 16777215
176
     1
 90
        0
176
     1
 90
        0
176
     1
 62
     7
176
     1
 62
   257
176
     1
 90
        1
176
     1
 90
        1
176
     1
 40
1.0
176
     1
 90
        0
176
     1
 62
     7
176
     1
 40
1.0
176
     1
 90
        1
176
     1
 90
        6
176
     1
 90
        2
176
     1
 62
     7
176
     1
 90
        5
176
     1
 90
        0
176
     1
 90
        0
176
     1
290
     0
176
     1
 90
       13
176
     1
 40
0.0
176
     1
 90
        0
176
     1
290
     0
176
     1
290
     1
176
     1
290
     1
176
     1
290
     0
176
     1
290
     0
176
     1
290
     0
176
     1
290
     0
176
     1
290
     0
176
     1
290
     0
176
     1
 90
       50
176
     1
 40
0.0
176
     1
 40
1.0
176
     1
 90
        0
176
     1
 62
    18
420
        0
176
     1
 90
       50
176
     1
 90
        3
176
     1
 62
     5
420
      255
176
     1
290
     0
176
     1
 90
       50
176
     1
 90
       50
176
     1
 90
       50
176
     1
290
     0
176
     1
 90
       50
176
     1
 62
   256
176
     0
 40
1.0
176
     0
 90
        2
176
     1
  1
strokes_ogs.tif
176
     1
290
     0
176
     1
 40
1.0
176
     1
 40
1.0
176
     1
  0
VISUALSTYLE
  5
2E
102
{ACAD_REACTORS
330
2A
102
}
330
2A
100
AcDbVisualStyle
  2
GouraudWithEdges
 70
     3
177
     3
291
     1
 70
    58
 90
        2
176
     1
 90
        2
176
     1
 90
        1
176
     1
 90
        2
176
     1
 40
0.6
176
     1
 40
30.0
176
     1
 62
     7
420
 16777215
176
     1
 90
        1
176
     1
 90
        0
176
     1
 62
     7
176
     1
 62
   257
176
     1
 90
        1
176
     1
 90
        1
176
     1
 40
1.0
176
     1
 90
        0
176
     1
 62
   257
176
     1
 40
1.0
176
     1
 90
        1
176
     1
 90
        6
176
     1
 90
        2
176
     1
 62
     7
176
     1
 90
        5
176
     1
 90
        0
176
     1
 90
        0
176
     1
290
     0
176
     1
 90
       13
176
     1
 40
0.0
176
     1
 90
        0
176
     1
290
     0
176
     1
290
     1
176
     1
290
     1
176
     1
290
     0
176
     1
290
     0
176
     1
290
     0
176
     1
290
     0
176
     1
290
     0
176
     1
290
     0
176
     1
 90
       50
176
     1
 40
0.0
176
     1
 40
1.0
176
     1
 90
        0
176
     1
 62
    18
420
        0
176
     1
 90
       50
176
     1
 90
        3
176
     1
 62
     5
420
      255
176
     1
290
     0
176
     1
 90
       50
176
     1
 90
       50
176
     1
 90
       50
176
     1
290
     0
176
     1
 90
       50
176
     1
 62
   256
176
     0
 40
1.0
176
     0
 90
        2
176
     1
  1
strokes_ogs.tif
176
     1
290
     0
176
     1
 40
1.0
176
     1
 40
1.0
176
     1
  0
VISUALSTYLE
  5
31
102
{ACAD_REACTORS
330
2A
102
}
330
2A
100
AcDbVisualStyle
  2
Hidden
 70
     6
177
     3
291
     0
 70
    58
 90
        1
176
     1
 90
        2
176
     1
 90
        2
176
     1
 90
        0
176
     1
 40
0.6
176
     1
 40
30.0
176
     1
 62
     7
420
 16777215
176
     1
 90
        2
176
     1
 90
        2
176
     1
 62
     7
176
     1
 62
   257
176
     1
 90
        2
176
     1
 90
        1
176
     1
 40
40.0
176
     1
 90
        0
176
     1
 62
   257
176
     1
 40
1.0
176
     1
 90
        1
176
     1
 90
        6
176
     1
 90
        2
176
     1
 62
     7
176
     1
 90
        3
176
     1
 90
        0
176
     1
 90
        0
176
     1
290
     0
176
     1
 90
        1
176
     1
 40
0.0
176
     1
 90
        0
176
     1
290
     0
176
     1
290
     1
176
     1
290
     1
176
     1
290
     0
176
     1
290
     0
176
     1
290
     0
176
     1
290
     0
176
     1
290
     0
176
     1
290
     0
176
     1
 90
       50
176
     1
 40
0.0
176
     1
 40
1.0
176
     1
 90
        0
176
     1
 62
    18
420
        0
176
     1
 90
       50
176
     1
 90
        3
176
     1
 62
     5
420
      255
176
     1
290
     0
176
     1
 90
       50
176
     1
 90
       50
176
     1
 90
       50
176
     1
290
     0
176
     1
 90
       50
176
     1
 62
   256
176
     0
 40
1.0
176
     0
 90
        2
176
     1
  1
strokes_ogs.tif
176
     1
290
     0
176
     1
 40
1.0
176
     1
 40
1.0
176
     1
  0
VISUALSTYLE
  5
3B
102
{ACAD_REACTORS
330
2A
102
}
330
2A
100
AcDbVisualStyle
  2
JitterOff
 70
    20
177
     3
291
     1
 70
    58
 90
        2
176
     0
 90
        2
176
     0
 90
        0
176
     0
 90
        0
176
     0
 40
0.6
176
     0
 40
30.0
176
     0
 62
     7
420
 16777215
176
     0
 90
        1
176
     0
 90
        4
176
     0
 62
     7
176
     0
 62
   257
176
     0
 90
        1
176
     0
 90
        1
176
     0
 40
1.0
176
     0
 90
       10
176
     2
 62
     7
176
     0
 40
1.0
176
     0
 90
        1
176
     0
 90
        6
176
     0
 90
        2
176
     0
 62
     7
176
     0
 90
        5
176
     0
 90
        0
176
     0
 90
        0
176
     0
290
     0
176
     0
 90
        1
176
     0
 40
0.0
176
     0
 90
        0
176
     0
290
     0
176
     0
290
     1
176
     0
290
     1
176
     0
290
     0
176
     0
290
     0
176
     0
290
     0
176
     0
290
     0
176
     0
290
     0
176
     0
290
     0
176
     0
 90
       50
176
     0
 40
0.0
176
     0
 40
1.0
176
     0
 90
        0
176
     0
 62
    18
420
        0
176
     0
 90
       50
176
     0
 90
        3
176
     0
 62
     5
420
      255
176
     0
290
     0
176
     0
 90
       50
176
     0
 90
       50
176
     0
 90
       50
176
     0
290
     0
176
     0
 90
       50
176
     0
 62
   256
176
     0
 40
1.0
176
     0
 90
        2
176
     0
  1
strokes_ogs.tif
176
     0
290
     0
176
     0
 40
1.0
176
     0
 40
1.0
176
     0
  0
VISUALSTYLE
  5
38
102
{ACAD_REACTORS
330
2A
102
}
330
2A
100
AcDbVisualStyle
  2
Linepattern
 70
    14
177
     3
291
     1
 70
    58
 90
        2
176
     1
 90
        2
176
     1
 90
        0
176
     1
 90
        0
176
     1
 40
0.6
176
     1
 40
30.0
176
     1
 62
     7
420
 16777215
176
     1
 90
        1
176
     1
 90
        4
176
     1
 62
     7
176
     1
 62
   257
176
     1
 90
        7
176
     1
 90
        7
176
     1
 40
1.0
176
     1
 90
        8
176
     1
 62
     7
176
     1
 40
1.0
176
     1
 90
        1
176
     1
 90
        6
176
     1
 90
        2
176
     1
 62
     7
176
     1
 90
        5
176
     1
 90
        0
176
     1
 90
        0
176
     1
290
     0
176
     1
 90
        1
176
     1
 40
0.0
176
     1
 90
        0
176
     1
290
     0
176
     1
290
     1
176
     1
290
     1
176
     1
290
     0
176
     1
290
     0
176
     1
290
     0
176
     1
290
     0
176
     1
290
     0
176
     1
290
     0
176
     1
 90
       50
176
     1
 40
0.0
176
     1
 40
1.0
176
     1
 90
        0
176
     1
 62
    18
420
        0
176
     1
 90
       50
176
     1
 90
        3
176
     1
 62
     5
420
      255
176
     1
290
     0
176
     1
 90
       50
176
     1
 90
       50
176
     1
 90
       50
176
     1
290
     0
176
     1
 90
       50
176
     1
 62
   256
176
     0
 40
1.0
176
     0
 90
        2
176
     1
  1
strokes_ogs.tif
176
     1
290
     0
176
     1
 40
1.0
176
     1
 40
1.0
176
     1
  0
VISUALSTYLE
  5
3C
102
{ACAD_REACTORS
330
2A
102
}
330
2A
100
AcDbVisualStyle
  2
OverhangOff
 70
    21
177
     3
291
     1
 70
    58
 90
        2
176
     0
 90
        2
176
     0
 90
        0
176
     0
 90
        0
176
     0
 40
0.6
176
     0
 40
30.0
176
     0
 62
     7
420
 16777215
176
     0
 90
        1
176
     0
 90
        4
176
     0
 62
     7
176
     0
 62
   257
176
     0
 90
        1
176
     0
 90
        1
176
     0
 40
1.0
176
     0
 90
        9
176
     2
 62
     7
176
     0
 40
1.0
176
     0
 90
        1
176
     0
 90
        6
176
     0
 90
        2
176
     0
 62
     7
176
     0
 90
        5
176
     0
 90
        0
176
     0
 90
        0
176
     0
290
     0
176
     0
 90
        1
176
     0
 40
0.0
176
     0
 90
        0
176
     0
290
     0
176
     0
290
     1
176
     0
290
     1
176
     0
290
     0
176
     0
290
     0
176
     0
290
     0
176
     0
290
     0
176
     0
290
     0
176
     0
290
     0
176
     0
 90
       50
176
     0
 40
0.0
176
     0
 40
1.0
176
     0
 90
        0
176
     0
 62
    18
420
        0
176
     0
 90
       50
176
     0
 90
        3
176
     0
 62
     5
420
      255
176
     0
290
     0
176
     0
 90
       50
176
     0
 90
       50
176
     0
 90
       50
176
     0
290
     0
176
     0
 90
       50
176
     0
 62
   256
176
     0
 40
1.0
176
     0
 90
        2
176
     0
  1
strokes_ogs.tif
176
     0
290
     0
176
     0
 40
1.0
176
     0
 40
1.0
176
     0
  0
VISUALSTYLE
  5
33
102
{ACAD_REACTORS
330
2A
102
}
330
2A
100
AcDbVisualStyle
  2
Realistic
 70
     8
177
     3
291
     0
 70
    58
 90
        2
176
     1
 90
        3
176
     1
 90
        0
176
     1
 90
        2
176
     1
 40
0.6
176
     1
 40
30.0
176
     1
 62
     7
420
 16777215
176
     1
 90
        0
176
     1
 90
        0
176
     1
 62
     7
176
     1
 62
   257
176
     1
 90
        1
176
     1
 90
        1
176
     1
 40
1.0
176
     1
 90
        8
176
     1
 62
   257
176
     1
 40
1.0
176
     1
 90
        1
176
     1
 90
        6
176
     1
 90
        2
176
     1
 62
     7
176
     1
 90
        3
176
     1
 90
        0
176
     1
 90
        0
176
     1
290
     0
176
     1
 90
       13
176
     1
 40
0.0
176
     1
 90
        0
176
     1
290
     0
176
     1
290
     1
176
     1
290
     1
176
     1
290
     0
176
     1
290
     0
176
     1
290
     0
176
     1
290
     0
176
     1
290
     0
176
     1
290
     0
176
     1
 90
       50
176
     1
 40
0.0
176
     1
 40
1.0
176
     1
 90
        0
176
     1
 62
    18
420
        0
176
     1
 90
       50
176
     1
 90
        3
176
     1
 62
     5
420
      255
176
     1
290
     0
176
     1
 90
       50
176
     1
 90
       50
176
     1
 90
       50
176
     1
290
     0
176
     1
 90
       50
176
     1
 62
   256
176
     0
 40
1.0
176
     0
 90
        2
176
     1
  1
strokes_ogs.tif
176
     1
290
     0
176
     1
 40
1.0
176
     1
 40
1.0
176
     1
  0
VISUALSTYLE
  5
42
102
{ACAD_REACTORS
330
2A
102
}
330
2A
100
AcDbVisualStyle
  2
Shaded
 70
    27
177
     3
291
     0
 70
    58
 90
        2
176
     1
 90
        2
176
     1
 90
        1
176
     1
 90
        2
176
     1
 40
0.6
176
     1
 40
30.0
176
     1
 62
     7
420
 16777215
176
     1
 90
        0
176
     1
 90
        4
176
     1
 62
     7
176
     1
 62
   257
176
     1
 90
        1
176
     1
 90
        1
176
     1
 40
1.0
176
     1
 90
        8
176
     1
 62
   257
176
     1
 40
1.0
176
     1
 90
        1
176
     1
 90
        6
176
     1
 90
        2
176
     1
 62
     8
420
  7895160
176
     1
 90
        3
176
     1
 90
        0
176
     1
 90
        0
176
     1
290
     0
176
     1
 90
        5
176
     1
 40
0.0
176
     1
 90
        0
176
     1
290
     0
176
     1
290
     1
176
     1
290
     1
176
     1
290
     0
176
     1
290
     0
176
     1
290
     0
176
     1
290
     0
176
     1
290
     0
176
     1
290
     0
176
     1
 90
       50
176
     1
 40
0.0
176
     1
 40
1.0
176
     1
 90
        0
176
     1
 62
    18
420
        0
176
     1
 90
       50
176
     1
 90
        3
176
     1
 62
     5
420
      255
176
     1
290
     0
176
     1
 90
       50
176
     1
 90
       50
176
     1
 90
       50
176
     1
290
     0
176
     1
 90
       50
176
     1
 62
   256
176
     0
 40
1.0
176
     0
 90
        2
176
     1
  1
strokes_ogs.tif
176
     1
290
     0
176
     1
 40
1.0
176
     1
 40
1.0
176
     1
  0
VISUALSTYLE
  5
41
102
{ACAD_REACTORS
330
2A
102
}
330
2A
100
AcDbVisualStyle
  2
Shaded with edges
 70
    26
177
     3
291
     0
 70
    58
 90
        2
176
     1
 90
        2
176
     1
 90
        1
176
     1
 90
        2
176
     1
 40
0.6
176
     1
 40
30.0
176
     1
 62
     7
420
 16777215
176
     1
 90
        1
176
     1
 90
       10
176
     1
 62
     7
176
     1
 62
   257
176
     1
 90
        2
176
     1
 90
        1
176
     1
 40
1.0
176
     1
 90
        8
176
     1
 62
   257
176
     1
 40
1.0
176
     1
 90
        1
176
     1
 90
        6
176
     1
 90
        2
176
     1
 62
     7
176
     1
 90
        3
176
     1
 90
        0
176
     1
 90
        0
176
     1
290
     0
176
     1
 90
        5
176
     1
 40
0.0
176
     1
 90
        0
176
     1
290
     0
176
     1
290
     1
176
     1
290
     1
176
     1
290
     0
176
     1
290
     0
176
     1
290
     0
176
     1
290
     0
176
     1
290
     0
176
     1
290
     0
176
     1
 90
       50
176
     1
 40
0.0
176
     1
 40
1.0
176
     1
 90
        0
176
     1
 62
    18
420
        0
176
     1
 90
       50
176
     1
 90
        3
176
     1
 62
     5
420
      255
176
     1
290
     0
176
     1
 90
       50
176
     1
 90
       50
176
     1
 90
       50
176
     1
290
     0
176
     1
 90
       50
176
     1
 62
   256
176
     0
 40
1.0
176
     0
 90
        2
176
     1
  1
strokes_ogs.tif
176
     1
290
     0
176
     1
 40
1.0
176
     1
 40
1.0
176
     1
  0
VISUALSTYLE
  5
3E
102
{ACAD_REACTORS
330
2A
102
}
330
2A
100
AcDbVisualStyle
  2
Shades of Gray
 70
    23
177
     3
291
     0
 70
    58
 90
        2
176
     1
 90
        2
176
     1
 90
        3
176
     1
 90
        0
176
     1
 40
0.6
176
     1
 40
30.0
176
     1
 62
     7
420
 16777215
176
     1
 90
        2
176
     1
 90
        2
176
     1
 62
     7
176
     1
 62
     7
176
     1
 90
        1
176
     1
 90
        1
176
     1
 40
40.0
176
     1
 90
        8
176
     1
 62
     7
176
     1
 40
1.0
176
     1
 90
        1
176
     1
 90
        6
176
     1
 90
        2
176
     1
 62
     7
176
     1
 90
        3
176
     1
 90
        0
176
     1
 90
        0
176
     1
290
     0
176
     1
 90
        1
176
     1
 40
0.0
176
     1
 90
        0
176
     1
290
     0
176
     1
290
     1
176
     1
290
     1
176
     1
290
     0
176
     1
290
     0
176
     1
290
     0
176
     1
290
     0
176
     1
290
     0
176
     1
290
     0
176
     1
 90
       50
176
     1
 40
0.0
176
     1
 40
1.0
176
     1
 90
        0
176
     1
 62
    18
420
        0
176
     1
 90
       50
176
     1
 90
        3
176
     1
 62
     5
420
      255
176
     1
290
     0
176
     1
 90
       50
176
     1
 90
       50
176
     1
 90
       50
176
     1
290
     0
176
     1
 90
       50
176
     1
 62
   256
176
     0
 40
1.0
176
     0
 90
        2
176
     1
  1
strokes_ogs.tif
176
     1
290
     0
176
     1
 40
1.0
176
     1
 40
1.0
176
     1
  0
VISUALSTYLE
  5
3F
102
{ACAD_REACTORS
330
2A
102
}
330
2A
100
AcDbVisualStyle
  2
Sketchy
 70
    24
177
     3
291
     0
 70
    58
 90
        1
176
     1
 90
        2
176
     1
 90
        2
176
     1
 90
        0
176
     1
 40
0.6
176
     1
 40
30.0
176
     1
 62
     7
420
 16777215
176
     1
 90
        2
176
     1
 90
        2
176
     1
 62
     7
176
     1
 62
     7
176
     1
 90
        1
176
     1
 90
        1
176
     1
 40
40.0
176
     1
 90
       11
176
     1
 62
     7
176
     1
 40
1.0
176
     1
 90
        1
176
     1
 90
        6
176
     1
 90
        2
176
     1
 62
     7
176
     1
 90
        6
176
     1
 90
        0
176
     1
 90
        0
176
     1
290
     0
176
     1
 90
        1
176
     1
 40
0.0
176
     1
 90
        0
176
     1
290
     0
176
     1
290
     1
176
     1
290
     1
176
     1
290
     0
176
     1
290
     0
176
     1
290
     0
176
     1
290
     0
176
     1
290
     0
176
     1
290
     0
176
     1
 90
       50
176
     1
 40
0.0
176
     1
 40
1.0
176
     1
 90
        0
176
     1
 62
    18
420
        0
176
     1
 90
       50
176
     1
 90
        3
176
     1
 62
     5
420
      255
176
     1
290
     0
176
     1
 90
       50
176
     1
 90
       50
176
     1
 90
       50
176
     1
290
     0
176
     1
 90
       50
176
     1
 62
   256
176
     0
 40
1.0
176
     0
 90
        2
176
     1
  1
strokes_ogs.tif
176
     1
290
     0
176
     1
 40
1.0
176
     1
 40
1.0
176
     1
  0
VISUALSTYLE
  5
37
102
{ACAD_REACTORS
330
2A
102
}
330
2A
100
AcDbVisualStyle
  2
Thicken
 70
    13
177
     3
291
     1
 70
    58
 90
        2
176
     1
 90
        2
176
     1
 90
        0
176
     1
 90
        0
176
     1
 40
0.6
176
     1
 40
30.0
176
     1
 62
     7
420
 16777215
176
     1
 90
        1
176
     1
 90
        4
176
     1
 62
     7
176
     1
 62
   257
176
     1
 90
        1
176
     1
 90
        1
176
     1
 40
1.0
176
     1
 90
       12
176
     1
 62
     7
176
     1
 40
1.0
176
     1
 90
        1
176
     1
 90
        6
176
     1
 90
        2
176
     1
 62
     7
176
     1
 90
        5
176
     1
 90
        0
176
     1
 90
        0
176
     1
290
     0
176
     1
 90
        1
176
     1
 40
0.0
176
     1
 90
        0
176
     1
290
     0
176
     1
290
     1
176
     1
290
     1
176
     1
290
     0
176
     1
290
     0
176
     1
290
     0
176
     1
290
     0
176
     1
290
     0
176
     1
290
     0
176
     1
 90
       50
176
     1
 40
0.0
176
     1
 40
1.0
176
     1
 90
        0
176
     1
 62
    18
420
        0
176
     1
 90
       50
176
     1
 90
        3
176
     1
 62
     5
420
      255
176
     1
290
     0
176
     1
 90
       50
176
     1
 90
       50
176
     1
 90
       50
176
     1
290
     0
176
     1
 90
       50
176
     1
 62
   256
176
     0
 40
1.0
176
     0
 90
        2
176
     1
  1
strokes_ogs.tif
176
     1
290
     0
176
     1
 40
1.0
176
     1
 40
1.0
176
     1
  0
VISUALSTYLE
  5
30
102
{ACAD_REACTORS
330
2A
102
}
330
2A
100
AcDbVisualStyle
  2
Wireframe
 70
     5
177
     3
291
     0
 70
    58
 90
        0
176
     1
 90
        2
176
     1
 90
        0
176
     1
 90
        0
176
     1
 40
0.6
176
     1
 40
30.0
176
     1
 62
     7
420
 16777215
176
     1
 90
        1
176
     1
 90
        4
176
     1
 62
     7
176
     1
 62
   257
176
     1
 90
        1
176
     1
 90
        1
176
     1
 40
1.0
176
     1
 90
        0
176
     1
 62
   257
176
     1
 40
1.0
176
     1
 90
        1
176
     1
 90
        6
176
     1
 90
        2
176
     1
 62
     7
176
     1
 90
        3
176
     1
 90
        0
176
     1
 90
        0
176
     1
290
     0
176
     1
 90
        1
176
     1
 40
0.0
176
     1
 90
        0
176
     1
290
     0
176
     1
290
     1
176
     1
290
     1
176
     1
290
     0
176
     1
290
     0
176
     1
290
     0
176
     1
290
     0
176
     1
290
     0
176
     1
290
     0
176
     1
 90
       50
176
     1
 40
0.0
176
     1
 40
1.0
176
     1
 90
        0
176
     1
 62
    18
420
        0
176
     1
 90
       50
176
     1
 90
        3
176
     1
 62
     5
420
      255
176
     1
290
     0
176
     1
 90
       50
176
     1
 90
       50
176
     1
 90
       50
176
     1
290
     0
176
     1
 90
       50
176
     1
 62
   256
176
     0
 40
1.0
176
     0
 90
        2
176
     1
  1
strokes_ogs.tif
176
     1
290
     0
176
     1
 40
1.0
176
     1
 40
1.0
176
     1
  0
VISUALSTYLE
  5
40
102
{ACAD_REACTORS
330
2A
102
}
330
2A
100
AcDbVisualStyle
  2
X-Ray
 70
    25
177
     3
291
     0
 70
    58
 90
        2
176
     1
 90
        2
176
     1
 90
        1
176
     1
 90
        1
176
     1
 40
0.5
176
     1
 40
30.0
176
     1
 62
     7
420
 16777215
176
     1
 90
        1
176
     1
 90
        0
176
     1
 62
     7
176
     1
 62
   257
176
     1
 90
        1
176
     1
 90
        1
176
     1
 40
1.0
176
     1
 90
        8
176
     1
 62
     7
176
     1
 40
1.0
176
     1
 90
        1
176
     1
 90
        6
176
     1
 90
        2
176
     1
 62
     7
176
     1
 90
        3
176
     1
 90
        0
176
     1
 90
        0
176
     1
290
     0
176
     1
 90
       13
176
     1
 40
0.0
176
     1
 90
        0
176
     1
290
     0
176
     1
290
     1
176
     1
290
     1
176
     1
290
     0
176
     1
290
     0
176
     1
290
     0
176
     1
290
     0
176
     1
290
     0
176
     1
290
     0
176
     1
 90
       50
176
     1
 40
0.0
176
     1
 40
1.0
176
     1
 90
        0
176
     1
 62
    18
420
        0
176
     1
 90
       50
176
     1
 90
        3
176
     1
 62
     5
420
      255
176
     1
290
     0
176
     1
 90
       50
176
     1
 90
       50
176
     1
 90
       50
176
     1
290
     0
176
     1
 90
       50
176
     1
 62
   256
176
     0
 40
1.0
176
     0
 90
        2
176
     1
  1
strokes_ogs.tif
176
     1
290
     0
176
     1
 40
1.0
176
     1
 40
1.0
176
     1
  0
DICTIONARYVAR
  5
273
102
{ACAD_REACTORS
330
272
102
}
330
272
100
DictionaryVariables
280
     0
  1
1:1
  0
DICTIONARYVAR
  5
278
102
{ACAD_REACTORS
330
272
102
}
330
272
100
DictionaryVariables
280
     0
  1
Standard
  0
DICTIONARYVAR
  5
277
102
{ACAD_REACTORS
330
272
102
}
330
272
100
DictionaryVariables
280
     0
  1
Standard
  0
DICTIONARY
  5
274
330
6A
100
AcDbDictionary
280
     1
281
     1
  3
ACAD_ROUNDTRIP_2008_TABLESTYLE_CELLSTYLEMAP
360
275
  0
CELLSTYLEMAP
  5
275
102
{ACAD_REACTORS
330
274
102
}
330
274
100
AcDbCellStyleMap
 90
        3
300
CELLSTYLE
  1
TABLEFORMAT_BEGIN
 90
        5
170
     1
 91
        0
 92
    32768
 62
   257
 93
        1
300
CONTENTFORMAT
  1
CONTENTFORMAT_BEGIN
 90
        0
 91
        0
 92
        4
 93
        0
300

 40
0.0
140
1.0
 94
        5
 62
     0
340
11
144
0.25
309
CONTENTFORMAT_END
171
     1
301
MARGIN
  1
CELLMARGIN_BEGIN
 40
0.06
 40
0.06
 40
0.06
 40
0.06
 40
0.06
 40
0.06
309
CELLMARGIN_END
 94
        6
 95
        1
302
GRIDFORMAT
  1
GRIDFORMAT_BEGIN
 90
        0
 91
        1
 62
     0
 92
       -2
340
14
 93
        0
 40
0.045
309
GRIDFORMAT_END
 95
        2
302
GRIDFORMAT
  1
GRIDFORMAT_BEGIN
 90
        0
 91
        1
 62
     0
 92
       -2
340
14
 93
        0
 40
0.045
309
GRIDFORMAT_END
 95
        4
302
GRIDFORMAT
  1
GRIDFORMAT_BEGIN
 90
        0
 91
        1
 62
     0
 92
       -2
340
14
 93
        0
 40
0.045
309
GRIDFORMAT_END
 95
        8
302
GRIDFORMAT
  1
GRIDFORMAT_BEGIN
 90
        0
 91
        1
 62
     0
 92
       -2
340
14
 93
        0
 40
0.045
309
GRIDFORMAT_END
 95
       16
302
GRIDFORMAT
  1
GRIDFORMAT_BEGIN
 90
        0
 91
        1
 62
     0
 92
       -2
340
14
 93
        0
 40
0.045
309
GRIDFORMAT_END
 95
       32
302
GRIDFORMAT
  1
GRIDFORMAT_BEGIN
 90
        0
 91
        1
 62
     0
 92
       -2
340
14
 93
        0
 40
0.045
309
GRIDFORMAT_END
309
TABLEFORMAT_END
  1
CELLSTYLE_BEGIN
 90
        1
 91
        1
300
_TITLE
309
CELLSTYLE_END
300
CELLSTYLE
  1
TABLEFORMAT_BEGIN
 90
        5
170
     1
 91
        0
 92
        0
 62
   257
 93
        1
300
CONTENTFORMAT
  1
CONTENTFORMAT_BEGIN
 90
        0
 91
        0
 92
        4
 93
        0
300

 40
0.0
140
1.0
 94
        5
 62
     0
340
11
144
0.18
309
CONTENTFORMAT_END
171
     1
301
MARGIN
  1
CELLMARGIN_BEGIN
 40
0.06
 40
0.06
 40
0.06
 40
0.06
 40
0.06
 40
0.06
309
CELLMARGIN_END
 94
        6
 95
        1
302
GRIDFORMAT
  1
GRIDFORMAT_BEGIN
 90
        0
 91
        1
 62
     0
 92
       -2
340
14
 93
        0
 40
0.045
309
GRIDFORMAT_END
 95
        2
302
GRIDFORMAT
  1
GRIDFORMAT_BEGIN
 90
        0
 91
        1
 62
     0
 92
       -2
340
14
 93
        0
 40
0.045
309
GRIDFORMAT_END
 95
        4
302
GRIDFORMAT
  1
GRIDFORMAT_BEGIN
 90
        0
 91
        1
 62
     0
 92
       -2
340
14
 93
        0
 40
0.045
309
GRIDFORMAT_END
 95
        8
302
GRIDFORMAT
  1
GRIDFORMAT_BEGIN
 90
        0
 91
        1
 62
     0
 92
       -2
340
14
 93
        0
 40
0.045
309
GRIDFORMAT_END
 95
       16
302
GRIDFORMAT
  1
GRIDFORMAT_BEGIN
 90
        0
 91
        1
 62
     0
 92
       -2
340
14
 93
        0
 40
0.045
309
GRIDFORMAT_END
 95
       32
302
GRIDFORMAT
  1
GRIDFORMAT_BEGIN
 90
        0
 91
        1
 62
     0
 92
       -2
340
14
 93
        0
 40
0.045
309
GRIDFORMAT_END
309
TABLEFORMAT_END
  1
CELLSTYLE_BEGIN
 90
        2
 91
        1
300
_HEADER
309
CELLSTYLE_END
300
CELLSTYLE
  1
TABLEFORMAT_BEGIN
 90
        5
170
     1
 91
        0
 92
        0
 62
   257
 93
        1
300
CONTENTFORMAT
  1
CONTENTFORMAT_BEGIN
 90
        0
 91
        0
 92
        4
 93
        0
300

 40
0.0
140
1.0
 94
        2
 62
     0
340
11
144
0.18
309
CONTENTFORMAT_END
171
     1
301
MARGIN
  1
CELLMARGIN_BEGIN
 40
0.06
 40
0.06
 40
0.06
 40
0.06
 40
0.06
 40
0.06
309
CELLMARGIN_END
 94
        6
 95
        1
302
GRIDFORMAT
  1
GRIDFORMAT_BEGIN
 90
        0
 91
        1
 62
     0
 92
       -2
340
14
 93
        0
 40
0.045
309
GRIDFORMAT_END
 95
        2
302
GRIDFORMAT
  1
GRIDFORMAT_BEGIN
 90
        0
 91
        1
 62
     0
 92
       -2
340
14
 93
        0
 40
0.045
309
GRIDFORMAT_END
 95
        4
302
GRIDFORMAT
  1
GRIDFORMAT_BEGIN
 90
        0
 91
        1
 62
     0
 92
       -2
340
14
 93
        0
 40
0.045
309
GRIDFORMAT_END
 95
        8
302
GRIDFORMAT
  1
GRIDFORMAT_BEGIN
 90
        0
 91
        1
 62
     0
 92
       -2
340
14
 93
        0
 40
0.045
309
GRIDFORMAT_END
 95
       16
302
GRIDFORMAT
  1
GRIDFORMAT_BEGIN
 90
        0
 91
        1
 62
     0
 92
       -2
340
14
 93
        0
 40
0.045
309
GRIDFORMAT_END
 95
       32
302
GRIDFORMAT
  1
GRIDFORMAT_BEGIN
 90
        0
 91
        1
 62
     0
 92
       -2
340
14
 93
        0
 40
0.045
309
GRIDFORMAT_END
309
TABLEFORMAT_END
  1
CELLSTYLE_BEGIN
 90
        3
 91
        2
300
_DATA
309
CELLSTYLE_END
  0
ENDSEC
  0
EOF