0
SECTION
  2
HEADER
  9
$ACADVER
  1
AC1027
  9
$ACADMAINTVER
 70
     8
  9
$DWGCODEPAGE
  3
ANSI_1252
  9
$REQUIREDVERSIONS
160
                 0
  9
$COMMENTS
  1
File was created by Cadenas
  9
$CUSTOMPROPERTYTAG
  1
NN
  9
$CUSTOMPROPERTY
  1
Grip Tight Two-Bolt Pillow Block Inch Bore
  9
$CUSTOMPROPERTYTAG
  1
NT
  9
$CUSTOMPROPERTY
  1
GT Normal Duty Pillow Blocks
  9
$CUSTOMPROPERTYTAG
  1
NB
  9
$CUSTOMPROPERTY
  1
129168
  9
$CUSTOMPROPERTYTAG
  1
NBSYN
  9
$CUSTOMPROPERTY
  1
$PN.$LUBE.
  9
$CUSTOMPROPERTYTAG
  1
LINA
  9
$CUSTOMPROPERTY
  1
129168
  9
$CUSTOMPROPERTYTAG
  1
SERIES
  9
$CUSTOMPROPERTY
  1
210
  9
$CUSTOMPROPERTYTAG
  1
SS
  9
$CUSTOMPROPERTY
  1
1-15/16
  9
$CUSTOMPROPERTYTAG
  1
PN
  9
$CUSTOMPROPERTY
  1
129168
  9
$CUSTOMPROPERTYTAG
  1
DESCRIPTION
  9
$CUSTOMPROPERTY
  1
P2B-GT-115
  9
$CUSTOMPROPERTYTAG
  1
A
  9
$CUSTOMPROPERTY
  1
1-55/64
  9
$CUSTOMPROPERTYTAG
  1
B
  9
$CUSTOMPROPERTY
  1
8-1/8
  9
$CUSTOMPROPERTYTAG
  1
C
  9
$CUSTOMPROPERTY
  1
2-1/4
  9
$CUSTOMPROPERTYTAG
  1
DMIN
  9
$CUSTOMPROPERTY
  1
6
  9
$CUSTOMPROPERTYTAG
  1
DMAX
  9
$CUSTOMPROPERTY
  1
6-11/16
  9
$CUSTOMPROPERTYTAG
  1
F
  9
$CUSTOMPROPERTY
  1
5/8
  9
$CUSTOMPROPERTYTAG
  1
G
  9
$CUSTOMPROPERTY
  1
1-1/64
  9
$CUSTOMPROPERTYTAG
  1
H
  9
$CUSTOMPROPERTY
  1
3/4
  9
$CUSTOMPROPERTYTAG
  1
J
  9
$CUSTOMPROPERTY
  1
4-17/32
  9
$CUSTOMPROPERTYTAG
  1
L
  9
$CUSTOMPROPERTY
  1
2-15/16
  9
$CUSTOMPROPERTYTAG
  1
M
  9
$CUSTOMPROPERTY
  1
2-1/4
  9
$CUSTOMPROPERTYTAG
  1
R
  9
$CUSTOMPROPERTY
  1
21/32
  9
$CUSTOMPROPERTYTAG
  1
S
  9
$CUSTOMPROPERTY
  1
1-13/64
  9
$CUSTOMPROPERTYTAG
  1
U
  9
$CUSTOMPROPERTY
  1
3-11/16
  9
$CUSTOMPROPERTYTAG
  1
V
  9
$CUSTOMPROPERTY
  1
7-3/8
  9
$CUSTOMPROPERTYTAG
  1
W
  9
$CUSTOMPROPERTY
  1
13/16
  9
$CUSTOMPROPERTYTAG
  1
X
  9
$CUSTOMPROPERTY
  1
3/16
  9
$CUSTOMPROPERTYTAG
  1
Z
  9
$CUSTOMPROPERTY
  1
1-5/32
  9
$CUSTOMPROPERTYTAG
  1
COMPANY
  9
$CUSTOMPROPERTY
  1
baldor
  9
$INSBASE
 10
0.0
 20
0.0
 30
0.0
  9
$EXTMIN
 10
1.000000000000000E+20
 20
1.000000000000000E+20
 30
1.000000000000000E+20
  9
$EXTMAX
 10
-1.000000000000000E+20
 20
-1.000000000000000E+20
 30
-1.000000000000000E+20
  9
$LIMMIN
 10
0.0
 20
0.0
  9
$LIMMAX
 10
12.0
 20
9.0
  9
$ORTHOMODE
 70
     0
  9
$REGENMODE
 70
     1
  9
$FILLMODE
 70
     1
  9
$QTEXTMODE
 70
     0
  9
$MIRRTEXT
 70
     1
  9
$LTSCALE
 40
1.0
  9
$ATTMODE
 70
     1
  9
$TEXTSIZE
 40
0.2
  9
$TRACEWID
 40
0.05
  9
$TEXTSTYLE
  7
Standard
  9
$CLAYER
  8
0
  9
$CELTYPE
  6
ByLayer
  9
$CECOLOR
 62
   256
  9
$CELTSCALE
 40
1.0
  9
$DISPSILH
 70
     0
  9
$DIMSCALE
 40
1.0
  9
$DIMASZ
 40
0.18
  9
$DIMEXO
 40
0.0625
  9
$DIMDLI
 40
0.38
  9
$DIMRND
 40
0.0
  9
$DIMDLE
 40
0.0
  9
$DIMEXE
 40
0.18
  9
$DIMTP
 40
0.0
  9
$DIMTM
 40
0.0
  9
$DIMTXT
 40
0.18
  9
$DIMCEN
 40
0.09
  9
$DIMTSZ
 40
0.0
  9
$DIMTOL
 70
     0
  9
$DIMLIM
 70
     0
  9
$DIMTIH
 70
     1
  9
$DIMTOH
 70
     1
  9
$DIMSE1
 70
     0
  9
$DIMSE2
 70
     0
  9
$DIMTAD
 70
     0
  9
$DIMZIN
 70
     0
  9
$DIMBLK
  1

  9
$DIMASO
 70
     1
  9
$DIMSHO
 70
     1
  9
$DIMPOST
  1

  9
$DIMAPOST
  1

  9
$DIMALT
 70
     0
  9
$DIMALTD
 70
     2
  9
$DIMALTF
 40
25.4
  9
$DIMLFAC
 40
1.0
  9
$DIMTOFL
 70
     0
  9
$DIMTVP
 40
0.0
  9
$DIMTIX
 70
     0
  9
$DIMSOXD
 70
     0
  9
$DIMSAH
 70
     0
  9
$DIMBLK1
  1

  9
$DIMBLK2
  1

  9
$DIMSTYLE
  2
Standard
  9
$DIMCLRD
 70
     0
  9
$DIMCLRE
 70
     0
  9
$DIMCLRT
 70
     0
  9
$DIMTFAC
 40
1.0
  9
$DIMGAP
 40
0.09
  9
$DIMJUST
 70
     0
  9
$DIMSD1
 70
     0
  9
$DIMSD2
 70
     0
  9
$DIMTOLJ
 70
     1
  9
$DIMTZIN
 70
     0
  9
$DIMALTZ
 70
     0
  9
$DIMALTTZ
 70
     0
  9
$DIMUPT
 70
     0
  9
$DIMDEC
 70
     4
  9
$DIMTDEC
 70
     4
  9
$DIMALTU
 70
     2
  9
$DIMALTTD
 70
     2
  9
$DIMTXSTY
  7
Standard
  9
$DIMAUNIT
 70
     0
  9
$DIMADEC
 70
     0
  9
$DIMALTRND
 40
0.0
  9
$DIMAZIN
 70
     0
  9
$DIMDSEP
 70
    46
  9
$DIMATFIT
 70
     3
  9
$DIMFRAC
 70
     0
  9
$DIMLDRBLK
  1

  9
$DIMLUNIT
 70
     2
  9
$DIMLWD
 70
    -2
  9
$DIMLWE
 70
    -2
  9
$DIMTMOVE
 70
     0
  9
$DIMFXL
 40
1.0
  9
$DIMFXLON
 70
     0
  9
$DIMJOGANG
 40
0.7853981633974483
  9
$DIMTFILL
 70
     0
  9
$DIMTFILLCLR
 70
     0
  9
$DIMARCSYM
 70
     0
  9
$DIMLTYPE
  6

  9
$DIMLTEX1
  6

  9
$DIMLTEX2
  6

  9
$DIMTXTDIRECTION
 70
     0
  9
$LUNITS
 70
     2
  9
$LUPREC
 70
     4
  9
$SKETCHINC
 40
0.1
  9
$FILLETRAD
 40
0.5
  9
$AUNITS
 70
     0
  9
$AUPREC
 70
     0
  9
$MENU
  1
.
  9
$ELEVATION
 40
0.0
  9
$PELEVATION
 40
0.0
  9
$THICKNESS
 40
0.0
  9
$LIMCHECK
 70
     0
  9
$CHAMFERA
 40
0.0
  9
$CHAMFERB
 40
0.0
  9
$CHAMFERC
 40
0.0
  9
$CHAMFERD
 40
0.0
  9
$SKPOLY
 70
     0
  9
$TDCREATE
 40
2458168.97724125
  9
$TDUCREATE
 40
2458168.935574583
  9
$TDUPDATE
 40
2458168.977241435
  9
$TDUUPDATE
 40
2458168.935574769
  9
$TDINDWG
 40
0.0000000116
  9
$TDUSRTIMER
 40
0.0000000116
  9
$USRTIMER
 70
     1
  9
$ANGBASE
 50
0.0
  9
$ANGDIR
 70
     0
  9
$PDMODE
 70
     0
  9
$PDSIZE
 40
0.0
  9
$PLINEWID
 40
0.0
  9
$SPLFRAME
 70
     0
  9
$SPLINETYPE
 70
     6
  9
$SPLINESEGS
 70
     8
  9
$HANDSEED
  5
277
  9
$SURFTAB1
 70
     6
  9
$SURFTAB2
 70
     6
  9
$SURFTYPE
 70
     6
  9
$SURFU
 70
     6
  9
$SURFV
 70
     6
  9
$UCSBASE
  2

  9
$UCSNAME
  2

  9
$UCSORG
 10
0.0
 20
0.0
 30
0.0
  9
$UCSXDIR
 10
1.0
 20
0.0
 30
0.0
  9
$UCSYDIR
 10
0.0
 20
1.0
 30
0.0
  9
$UCSORTHOREF
  2

  9
$UCSORTHOVIEW
 70
     0
  9
$UCSORGTOP
 10
0.0
 20
0.0
 30
0.0
  9
$UCSORGBOTTOM
 10
0.0
 20
0.0
 30
0.0
  9
$UCSORGLEFT
 10
0.0
 20
0.0
 30
0.0
  9
$UCSORGRIGHT
 10
0.0
 20
0.0
 30
0.0
  9
$UCSORGFRONT
 10
0.0
 20
0.0
 30
0.0
  9
$UCSORGBACK
 10
0.0
 20
0.0
 30
0.0
  9
$PUCSBASE
  2

  9
$PUCSNAME
  2

  9
$PUCSORG
 10
0.0
 20
0.0
 30
0.0
  9
$PUCSXDIR
 10
1.0
 20
0.0
 30
0.0
  9
$PUCSYDIR
 10
0.0
 20
1.0
 30
0.0
  9
$PUCSORTHOREF
  2

  9
$PUCSORTHOVIEW
 70
     0
  9
$PUCSORGTOP
 10
0.0
 20
0.0
 30
0.0
  9
$PUCSORGBOTTOM
 10
0.0
 20
0.0
 30
0.0
  9
$PUCSORGLEFT
 10
0.0
 20
0.0
 30
0.0
  9
$PUCSORGRIGHT
 10
0.0
 20
0.0
 30
0.0
  9
$PUCSORGFRONT
 10
0.0
 20
0.0
 30
0.0
  9
$PUCSORGBACK
 10
0.0
 20
0.0
 30
0.0
  9
$USERI1
 70
     0
  9
$USERI2
 70
     0
  9
$USERI3
 70
     0
  9
$USERI4
 70
     0
  9
$USERI5
 70
     0
  9
$USERR1
 40
0.0
  9
$USERR2
 40
0.0
  9
$USERR3
 40
0.0
  9
$USERR4
 40
0.0
  9
$USERR5
 40
0.0
  9
$WORLDVIEW
 70
     1
  9
$SHADEDGE
 70
     3
  9
$SHADEDIF
 70
    70
  9
$TILEMODE
 70
     1
  9
$MAXACTVP
 70
    64
  9
$PINSBASE
 10
0.0
 20
0.0
 30
0.0
  9
$PLIMCHECK
 70
     0
  9
$PEXTMIN
 10
1.000000000000000E+20
 20
1.000000000000000E+20
 30
1.000000000000000E+20
  9
$PEXTMAX
 10
-1.000000000000000E+20
 20
-1.000000000000000E+20
 30
-1.000000000000000E+20
  9
$PLIMMIN
 10
0.0
 20
0.0
  9
$PLIMMAX
 10
12.0
 20
9.0
  9
$UNITMODE
 70
     0
  9
$VISRETAIN
 70
     1
  9
$PLINEGEN
 70
     0
  9
$PSLTSCALE
 70
     1
  9
$TREEDEPTH
 70
  3020
  9
$CMLSTYLE
  2
Standard
  9
$CMLJUST
 70
     0
  9
$CMLSCALE
 40
1.0
  9
$PROXYGRAPHICS
 70
     1
  9
$MEASUREMENT
 70
     0
  9
$CELWEIGHT
370
    -1
  9
$ENDCAPS
280
     0
  9
$JOINSTYLE
280
     0
  9
$LWDISPLAY
290
     0
  9
$INSUNITS
 70
     1
  9
$HYPERLINKBASE
  1

  9
$STYLESHEET
  1

  9
$XEDIT
290
     1
  9
$CEPSNTYPE
380
     0
  9
$PSTYLEMODE
290
     1
  9
$FINGERPRINTGUID
  2
{78369339-2F8E-4FD5-A1CA-8BC9671CB183}
  9
$VERSIONGUID
  2
{FAEB1C32-E019-11D5-929B-00C0DF256EC4}
  9
$EXTNAMES
290
     1
  9
$PSVPSCALE
 40
0.0
  9
$OLESTARTUP
290
     0
  9
$SORTENTS
280
   127
  9
$INDEXCTL
280
     0
  9
$HIDETEXT
280
     1
  9
$XCLIPFRAME
280
     2
  9
$HALOGAP
280
     0
  9
$OBSCOLOR
 70
   257
  9
$OBSLTYPE
280
     0
  9
$INTERSECTIONDISPLAY
280
     0
  9
$INTERSECTIONCOLOR
 70
   257
  9
$DIMASSOC
280
     2
  9
$PROJECTNAME
  1

  9
$CAMERADISPLAY
290
     0
  9
$LENSLENGTH
 40
50.0
  9
$CAMERAHEIGHT
 40
0.0
  9
$STEPSPERSEC
 40
2.0
  9
$STEPSIZE
 40
6.0
  9
$3DDWFPREC
 40
2.0
  9
$PSOLWIDTH
 40
0.25
  9
$PSOLHEIGHT
 40
4.0
  9
$LOFTANG1
 40
1.570796326794897
  9
$LOFTANG2
 40
1.570796326794897
  9
$LOFTMAG1
 40
0.0
  9
$LOFTMAG2
 40
0.0
  9
$LOFTPARAM
 70
     7
  9
$LOFTNORMALS
280
     1
  9
$LATITUDE
 40
37.795
  9
$LONGITUDE
 40
-122.394
  9
$NORTHDIRECTION
 40
0.0
  9
$TIMEZONE
 70
 -8000
  9
$LIGHTGLYPHDISPLAY
280
     1
  9
$TILEMODELIGHTSYNCH
280
     1
  9
$CMATERIAL
347
44
  9
$SOLIDHIST
280
     0
  9
$SHOWHIST
280
     1
  9
$DWFFRAME
280
     2
  9
$DGNFRAME
280
     2
  9
$REALWORLDSCALE
290
     1
  9
$INTERFERECOLOR
 62
   256
  9
$CSHADOW
280
     0
  9
$SHADOWPLANELOCATION
 40
0.0
  0
ENDSEC
  0
SECTION
  2
CLASSES
  0
CLASS
  1
ACDBDICTIONARYWDFLT
  2
AcDbDictionaryWithDefault
  3
ObjectDBX Classes
 90
        0
 91
        4
280
     0
281
     0
  0
CLASS
  1
VISUALSTYLE
  2
AcDbVisualStyle
  3
ObjectDBX Classes
 90
     4095
 91
        4
280
     0
281
     0
  0
CLASS
  1
MATERIAL
  2
AcDbMaterial
  3
ObjectDBX Classes
 90
     1153
 91
        4
280
     0
281
     0
  0
CLASS
  1
SCALE
  2
AcDbScale
  3
ObjectDBX Classes
 90
     1153
 91
        4
280
     0
281
     0
  0
CLASS
  1
TABLESTYLE
  2
AcDbTableStyle
  3
ObjectDBX Classes
 90
     4095
 91
        4
280
     0
281
     0
  0
CLASS
  1
MLEADERSTYLE
  2
AcDbMLeaderStyle
  3
ACDB_MLEADERSTYLE_CLASS
 90
     4095
 91
        4
280
     0
281
     0
  0
CLASS
  1
SUN
  2
AcDbSun
  3
SCENEOE
 90
     1153
 91
        4
280
     0
281
     0
  0
CLASS
  1
DICTIONARYVAR
  2
AcDbDictionaryVar
  3
ObjectDBX Classes
 90
        0
 91
        4
280
     0
281
     0
  0
CLASS
  1
CELLSTYLEMAP
  2
AcDbCellStyleMap
  3
ObjectDBX Classes
 90
     1152
 91
        4
280
     0
281
     0
  0
ENDSEC
  0
SECTION
  2
TABLES
  0
TABLE
  2
VPORT
  5
8
330
0
100
AcDbSymbolTable
 70
     1
  0
VPORT
  5
29
330
8
100
AcDbSymbolTableRecord
100
AcDbViewportTableRecord
  2
*Active
 70
     0
 10
0.0
 20
0.0
 11
1.0
 21
1.0
 12
0.0
 22
-0.029296875
 13
0.0
 23
0.0
 14
0.5
 24
0.5
 15
0.5
 25
0.5
 16
0.0
 26
0.0
 36
1.0
 17
0.0
 27
0.0
 37
0.0
 40
2.584265625
 41
3.20690718470552
 42
50.0
 43
0.0
 44
0.0
 50
0.0
 51
0.0
 71
     0
 72
   100
 73
     1
 74
     3
 75
     0
 76
     0
 77
     0
 78
     0
281
     0
 65
     1
110
0.0
120
0.0
130
0.0
111
1.0
121
0.0
131
0.0
112
0.0
122
1.0
132
0.0
 79
     0
146
0.0
348
2F
 60
     3
 61
     5
292
     1
282
     1
141
0.0
142
0.0
 63
   250
361
6D
  0
ENDTAB
  0
TABLE
  2
LTYPE
  5
5
330
0
100
AcDbSymbolTable
 70
     3
  0
LTYPE
  5
14
330
5
100
AcDbSymbolTableRecord
100
AcDbLinetypeTableRecord
  2
ByBlock
 70
     0
  3

 72
    65
 73
     0
 40
0.0
  0
LTYPE
  5
15
330
5
100
AcDbSymbolTableRecord
100
AcDbLinetypeTableRecord
  2
ByLayer
 70
     0
  3

 72
    65
 73
     0
 40
0.0
  0
LTYPE
  5
16
330
5
100
AcDbSymbolTableRecord
100
AcDbLinetypeTableRecord
  2
Continuous
 70
     0
  3
Solid line
 72
    65
 73
     0
 40
0.0
  0
LTYPE
  5
A5
330
5
100
AcDbSymbolTableRecord
100
AcDbLinetypeTableRecord
  2
Dashed
 70
     0
  3

 72
    65
 73
     2
 40
2.0
 49
1.0
 74
     0
 49
-1.0
 74
     0
  0
LTYPE
  5
118
330
5
100
AcDbSymbolTableRecord
100
AcDbLinetypeTableRecord
  2
Center
 70
     0
  3

 72
    65
 73
     4
 40
1.5
 49
0.45
 74
     0
 49
-0.5
 74
     0
 49
0.05
 74
     0
 49
-0.5
 74
     0
  0
ENDTAB
  0
TABLE
  2
LAYER
  5
2
330
0
100
AcDbSymbolTable
 70
     7
  0
LAYER
  5
10
330
2
100
AcDbSymbolTableRecord
100
AcDbLayerTableRecord
  2
0
 70
     0
 62
     7
  6
Continuous
370
    -3
390
F
347
46
348
0
  0
LAYER
  5
72
330
2
100
AcDbSymbolTableRecord
100
AcDbLayerTableRecord
  2
AM_6
 70
     0
 62
    -2
  6
Continuous
370
    35
390
F
347
46
348
0
  0
LAYER
  5
A6
330
2
100
AcDbSymbolTableRecord
100
AcDbLayerTableRecord
  2
AM_9
 70
     0
 62
     6
  6
Dashed
370
    25
390
F
347
46
348
0
  0
LAYER
  5
D5
330
2
100
AcDbSymbolTableRecord
100
AcDbLayerTableRecord
  2
AM_4
 70
     0
 62
     7
  6
Continuous
370
    50
390
F
347
46
348
0
  0
LAYER
  5
115
330
2
100
AcDbSymbolTableRecord
100
AcDbLayerTableRecord
  2
AM_5
 70
     0
 62
     3
  6
Continuous
370
    25
390
F
347
46
348
0
  0
LAYER
  5
119
330
2
100
AcDbSymbolTableRecord
100
AcDbLayerTableRecord
  2
AM_7
 70
     0
 62
     7
  6
Center
370
    25
390
F
347
46
348
0
  0
LAYER
  5
269
330
2
100
AcDbSymbolTableRecord
100
AcDbLayerTableRecord
  2
ConnectionPoints
 70
     0
 62
     7
  6
Continuous
370
    50
390
F
347
46
348
0
  0
ENDTAB
  0
TABLE
  2
STYLE
  5
3
330
0
100
AcDbSymbolTable
 70
     1
  0
STYLE
  5
11
330
3
100
AcDbSymbolTableRecord
100
AcDbTextStyleTableRecord
  2
Standard
 70
     0
 40
0.0
 41
1.0
 50
0.0
 71
     0
 42
0.2
  3
txt
  4

  0
ENDTAB
  0
TABLE
  2
VIEW
  5
6
330
0
100
AcDbSymbolTable
 70
     0
  0
ENDTAB
  0
TABLE
  2
UCS
  5
7
330
0
100
AcDbSymbolTable
 70
     0
  0
ENDTAB
  0
TABLE
  2
APPID
  5
9
330
0
100
AcDbSymbolTable
 70
     1
  0
APPID
  5
12
330
9
100
AcDbSymbolTableRecord
100
AcDbRegAppTableRecord
  2
ACAD
 70
     0
  0
ENDTAB
  0
TABLE
  2
DIMSTYLE
  5
A
330
0
100
AcDbSymbolTable
 70
     1
100
AcDbDimStyleTable
  0
DIMSTYLE
105
27
330
A
100
AcDbSymbolTableRecord
100
AcDbDimStyleTableRecord
  2
Standard
 70
     0
178
     0
340
11
  0
ENDTAB
  0
TABLE
  2
BLOCK_RECORD
  5
1
330
0
100
AcDbSymbolTable
 70
     5
  0
BLOCK_RECORD
  5
1F
330
1
100
AcDbSymbolTableRecord
100
AcDbBlockTableRecord
  2
*Model_Space
340
22
 70
     0
280
     1
281
     0
  0
BLOCK_RECORD
  5
1B
330
1
100
AcDbSymbolTableRecord
100
AcDbBlockTableRecord
  2
*Paper_Space
340
1E
 70
     0
280
     1
281
     0
  0
BLOCK_RECORD
  5
23
330
1
100
AcDbSymbolTableRecord
100
AcDbBlockTableRecord
  2
*Paper_Space0
340
26
 70
     0
280
     1
281
     0
  0
BLOCK_RECORD
  5
6E
330
1
100
AcDbSymbolTableRecord
100
AcDbBlockTableRecord
  2
1_129168_4
340
0
102
{BLKREFS
331
6F
102
}
 70
     0
280
     1
281
     0
  0
BLOCK_RECORD
  5
8F
330
1
100
AcDbSymbolTableRecord
100
AcDbBlockTableRecord
  2
2_129523I_0_in_129168_4
340
0
102
{BLKREFS
331
90
102
}
 70
     0
280
     1
281
     0
  0
BLOCK_RECORD
  5
D7
330
1
100
AcDbSymbolTableRecord
100
AcDbBlockTableRecord
  2
3_129918_0_in_129168_4
340
0
102
{BLKREFS
331
D8
102
}
 70
     0
280
     1
281
     0
  0
BLOCK_RECORD
  5
12E
330
1
100
AcDbSymbolTableRecord
100
AcDbBlockTableRecord
  2
4_129427I_0_in_129168_4
340
0
102
{BLKREFS
331
12F
102
}
 70
     0
280
     1
281
     0
  0
ENDTAB
  0
ENDSEC
  0
SECTION
  2
BLOCKS
  0
BLOCK
  5
20
330
1F
100
AcDbEntity
  8
0
100
AcDbBlockBegin
  2
*Model_Space
 70
     0
 10
0.0
 20
0.0
 30
0.0
  3
*Model_Space
  1

  0
ENDBLK
  5
21
330
1F
100
AcDbEntity
  8
0
100
AcDbBlockEnd
  0
BLOCK
  5
1C
330
1B
100
AcDbEntity
 67
     1
  8
0
100
AcDbBlockBegin
  2
*Paper_Space
 70
     0
 10
0.0
 20
0.0
 30
0.0
  3
*Paper_Space
  1

  0
ENDBLK
  5
1D
330
1B
100
AcDbEntity
 67
     1
  8
0
100
AcDbBlockEnd
  0
BLOCK
  5
24
330
23
100
AcDbEntity
  8
0
100
AcDbBlockBegin
  2
*Paper_Space0
 70
     0
 10
0.0
 20
0.0
 30
0.0
  3
*Paper_Space0
  1

  0
ENDBLK
  5
25
330
23
100
AcDbEntity
  8
0
100
AcDbBlockEnd
  0
BLOCK
  5
70
330
6E
100
AcDbEntity
  8
0
100
AcDbBlockBegin
  2
1_129168_4
 70
     2
 10
0.0
 20
0.0
 30
0.0
  3
1_129168_4
  1

  0
ATTDEF
  5
73
330
6E
100
AcDbEntity
  8
AM_6
100
AcDbText
 10
9.0625
 20
1.2375
 30
0.0
 40
0.5
  1
Grip Tight Two-Bolt Pillow Block Inch Bore
100
AcDbAttributeDefinition
  3

  2
NN
 70
     8
280
     0
  0
ATTDEF
  5
74
330
6E
100
AcDbEntity
  8
AM_6
100
AcDbText
 10
9.0625
 20
0.7375
 30
0.0
 40
0.5
  1
GT Normal Duty Pillow Blocks
100
AcDbAttributeDefinition
  3

  2
NT
 70
     8
280
     0
  0
ATTDEF
  5
75
330
6E
100
AcDbEntity
  8
AM_6
100
AcDbText
 10
9.0625
 20
0.2375
 30
0.0
 40
0.5
  1
129168
100
AcDbAttributeDefinition
  3

  2
NB
 70
     8
280
     0
  0
ATTDEF
  5
76
330
6E
100
AcDbEntity
  8
AM_6
100
AcDbText
 10
9.0625
 20
-0.2625
 30
0.0
 40
0.5
  1
$PN.$LUBE.
100
AcDbAttributeDefinition
  3

  2
NBSYN
 70
     8
280
     0
  0
ATTDEF
  5
77
330
6E
100
AcDbEntity
  8
AM_6
100
AcDbText
 10
9.0625
 20
-0.7625
 30
0.0
 40
0.5
  1
129168
100
AcDbAttributeDefinition
  3

  2
LINA
 70
     8
280
     0
  0
ATTDEF
  5
78
330
6E
100
AcDbEntity
  8
AM_6
100
AcDbText
 10
9.0625
 20
-1.2625
 30
0.0
 40
0.5
  1
210
100
AcDbAttributeDefinition
  3

  2
SERIES
 70
     8
280
     0
  0
ATTDEF
  5
79
330
6E
100
AcDbEntity
  8
AM_6
100
AcDbText
 10
9.0625
 20
-1.7625
 30
0.0
 40
0.5
  1
1-15/16
100
AcDbAttributeDefinition
  3

  2
SS
 70
     8
280
     0
  0
ATTDEF
  5
7A
330
6E
100
AcDbEntity
  8
AM_6
100
AcDbText
 10
9.0625
 20
-2.2625
 30
0.0
 40
0.5
  1
129168
100
AcDbAttributeDefinition
  3

  2
PN
 70
     8
280
     0
  0
ATTDEF
  5
7B
330
6E
100
AcDbEntity
  8
AM_6
100
AcDbText
 10
9.0625
 20
-2.7625
 30
0.0
 40
0.5
  1
P2B-GT-115
100
AcDbAttributeDefinition
  3

  2
DESCRIPTION
 70
     8
280
     0
  0
ATTDEF
  5
7C
330
6E
100
AcDbEntity
  8
AM_6
100
AcDbText
 10
9.0625
 20
-3.2625
 30
0.0
 40
0.5
  1
1-55/64
100
AcDbAttributeDefinition
  3

  2
A
 70
     8
280
     0
  0
ATTDEF
  5
7D
330
6E
100
AcDbEntity
  8
AM_6
100
AcDbText
 10
9.0625
 20
-3.7625
 30
0.0
 40
0.5
  1
8-1/8
100
AcDbAttributeDefinition
  3

  2
B
 70
     8
280
     0
  0
ATTDEF
  5
7E
330
6E
100
AcDbEntity
  8
AM_6
100
AcDbText
 10
9.0625
 20
-4.2625
 30
0.0
 40
0.5
  1
2-1/4
100
AcDbAttributeDefinition
  3

  2
C
 70
     8
280
     0
  0
ATTDEF
  5
7F
330
6E
100
AcDbEntity
  8
AM_6
100
AcDbText
 10
9.0625
 20
-4.7625
 30
0.0
 40
0.5
  1
6
100
AcDbAttributeDefinition
  3

  2
DMIN
 70
     8
280
     0
  0
ATTDEF
  5
80
330
6E
100
AcDbEntity
  8
AM_6
100
AcDbText
 10
9.0625
 20
-5.2625
 30
0.0
 40
0.5
  1
6-11/16
100
AcDbAttributeDefinition
  3

  2
DMAX
 70
     8
280
     0
  0
ATTDEF
  5
81
330
6E
100
AcDbEntity
  8
AM_6
100
AcDbText
 10
9.0625
 20
-5.7625
 30
0.0
 40
0.5
  1
5/8
100
AcDbAttributeDefinition
  3

  2
F
 70
     8
280
     0
  0
ATTDEF
  5
82
330
6E
100
AcDbEntity
  8
AM_6
100
AcDbText
 10
9.0625
 20
-6.2625
 30
0.0
 40
0.5
  1
1-1/64
100
AcDbAttributeDefinition
  3

  2
G
 70
     8
280
     0
  0
ATTDEF
  5
83
330
6E
100
AcDbEntity
  8
AM_6
100
AcDbText
 10
9.0625
 20
-6.7625
 30
0.0
 40
0.5
  1
3/4
100
AcDbAttributeDefinition
  3

  2
H
 70
     8
280
     0
  0
ATTDEF
  5
84
330
6E
100
AcDbEntity
  8
AM_6
100
AcDbText
 10
9.0625
 20
-7.2625
 30
0.0
 40
0.5
  1
4-17/32
100
AcDbAttributeDefinition
  3

  2
J
 70
     8
280
     0
  0
ATTDEF
  5
85
330
6E
100
AcDbEntity
  8
AM_6
100
AcDbText
 10
9.0625
 20
-7.7625
 30
0.0
 40
0.5
  1
2-15/16
100
AcDbAttributeDefinition
  3

  2
L
 70
     8
280
     0
  0
ATTDEF
  5
86
330
6E
100
AcDbEntity
  8
AM_6
100
AcDbText
 10
9.0625
 20
-8.2625
 30
0.0
 40
0.5
  1
2-1/4
100
AcDbAttributeDefinition
  3

  2
M
 70
     8
280
     0
  0
ATTDEF
  5
87
330
6E
100
AcDbEntity
  8
AM_6
100
AcDbText
 10
9.0625
 20
-8.7625
 30
0.0
 40
0.5
  1
21/32
100
AcDbAttributeDefinition
  3

  2
R
 70
     8
280
     0
  0
ATTDEF
  5
88
330
6E
100
AcDbEntity
  8
AM_6
100
AcDbText
 10
9.0625
 20
-9.2625
 30
0.0
 40
0.5
  1
1-13/64
100
AcDbAttributeDefinition
  3

  2
S
 70
     8
280
     0
  0
ATTDEF
  5
89
330
6E
100
AcDbEntity
  8
AM_6
100
AcDbText
 10
9.0625
 20
-9.7625
 30
0.0
 40
0.5
  1
3-11/16
100
AcDbAttributeDefinition
  3

  2
U
 70
     8
280
     0
  0
ATTDEF
  5
8A
330
6E
100
AcDbEntity
  8
AM_6
100
AcDbText
 10
9.0625
 20
-10.2625
 30
0.0
 40
0.5
  1
7-3/8
100
AcDbAttributeDefinition
  3

  2
V
 70
     8
280
     0
  0
ATTDEF
  5
8B
330
6E
100
AcDbEntity
  8
AM_6
100
AcDbText
 10
9.0625
 20
-10.7625
 30
0.0
 40
0.5
  1
13/16
100
AcDbAttributeDefinition
  3

  2
W
 70
     8
280
     0
  0
ATTDEF
  5
8C
330
6E
100
AcDbEntity
  8
AM_6
100
AcDbText
 10
9.0625
 20
-11.2625
 30
0.0
 40
0.5
  1
3/16
100
AcDbAttributeDefinition
  3

  2
X
 70
     8
280
     0
  0
ATTDEF
  5
8D
330
6E
100
AcDbEntity
  8
AM_6
100
AcDbText
 10
9.0625
 20
-11.7625
 30
0.0
 40
0.5
  1
1-5/32
100
AcDbAttributeDefinition
  3

  2
Z
 70
     8
280
     0
  0
ATTDEF
  5
8E
330
6E
100
AcDbEntity
  8
AM_6
100
AcDbText
 10
9.0625
 20
-12.2625
 30
0.0
 40
0.5
  1
baldor
100
AcDbAttributeDefinition
  3

  2
COMPANY
 70
     8
280
     0
  0
INSERT
  5
90
330
6E
100
AcDbEntity
  8
0
100
AcDbBlockReference
  2
2_129523I_0_in_129168_4
 10
0.0
 20
0.0
 30
0.0
  0
INSERT
  5
D8
330
6E
100
AcDbEntity
  8
0
100
AcDbBlockReference
  2
3_129918_0_in_129168_4
 10
0.0
 20
0.0
 30
0.0
  0
INSERT
  5
12F
330
6E
100
AcDbEntity
  8
0
100
AcDbBlockReference
  2
4_129427I_0_in_129168_4
 10
0.0
 20
0.0
 30
0.0
  0
ENDBLK
  5
71
330
6E
100
AcDbEntity
  8
0
100
AcDbBlockEnd
  0
BLOCK
  5
91
330
8F
100
AcDbEntity
  8
0
100
AcDbBlockBegin
  2
2_129523I_0_in_129168_4
 70
     2
 10
0.0
 20
0.0
 30
0.0
  3
2_129523I_0_in_129168_4
  1

  0
ATTDEF
  5
93
330
8F
100
AcDbEntity
  8
AM_6
100
AcDbText
 10
6.771512852384948
 20
0.567
 30
0.0
 40
0.5
  1
INS-GT B
100
AcDbAttributeDefinition
  3

  2
NN
 70
     8
280
     0
  0
ATTDEF
  5
94
330
8F
100
AcDbEntity
  8
AM_6
100
AcDbText
 10
6.771512852384948
 20
0.0669999999999999
 30
0.0
 40
0.5
  1
GT Normal Duty Bearing Inserts
100
AcDbAttributeDefinition
  3

  2
NT
 70
     8
280
     0
  0
ATTDEF
  5
95
330
8F
100
AcDbEntity
  8
AM_6
100
AcDbText
 10
6.771512852384948
 20
-0.4330000000000001
 30
0.0
 40
0.5
  1
129523I
100
AcDbAttributeDefinition
  3

  2
NB
 70
     8
280
     0
  0
ATTDEF
  5
96
330
8F
100
AcDbEntity
  8
AM_6
100
AcDbText
 10
6.771512852384948
 20
-0.933
 30
0.0
 40
0.5
  1
$PN.I
100
AcDbAttributeDefinition
  3

  2
NBSYN
 70
     8
280
     0
  0
ATTDEF
  5
97
330
8F
100
AcDbEntity
  8
AM_6
100
AcDbText
 10
6.771512852384948
 20
-1.433
 30
0.0
 40
0.5
  1
129523
100
AcDbAttributeDefinition
  3

  2
LINA
 70
     8
280
     0
  0
ATTDEF
  5
98
330
8F
100
AcDbEntity
  8
AM_6
100
AcDbText
 10
6.771512852384948
 20
-1.933
 30
0.0
 40
0.5
  1
210
100
AcDbAttributeDefinition
  3

  2
SERIES
 70
     8
280
     0
  0
ATTDEF
  5
99
330
8F
100
AcDbEntity
  8
AM_6
100
AcDbText
 10
6.771512852384948
 20
-2.433
 30
0.0
 40
0.5
  1
129523
100
AcDbAttributeDefinition
  3

  2
PN
 70
     8
280
     0
  0
ATTDEF
  5
9A
330
8F
100
AcDbEntity
  8
AM_6
100
AcDbText
 10
6.771512852384948
 20
-2.933
 30
0.0
 40
0.5
  1
INS-GT-10
100
AcDbAttributeDefinition
  3

  2
DESCRIPTION
 70
     8
280
     0
  0
ATTDEF
  5
9B
330
8F
100
AcDbEntity
  8
AM_6
100
AcDbText
 10
6.771512852384948
 20
-3.433
 30
0.0
 40
0.5
  1
1.86
100
AcDbAttributeDefinition
  3

  2
A
 70
     8
280
     0
  0
ATTDEF
  5
9C
330
8F
100
AcDbEntity
  8
AM_6
100
AcDbText
 10
6.771512852384948
 20
-3.933
 30
0.0
 40
0.5
  1
0.87
100
AcDbAttributeDefinition
  3

  2
C
 70
     8
280
     0
  0
ATTDEF
  5
9D
330
8F
100
AcDbEntity
  8
AM_6
100
AcDbText
 10
6.771512852384948
 20
-4.433
 30
0.0
 40
0.5
  1
3.5433
100
AcDbAttributeDefinition
  3

  2
D
 70
     8
280
     0
  0
ATTDEF
  5
9E
330
8F
100
AcDbEntity
  8
AM_6
100
AcDbText
 10
6.771512852384948
 20
-4.933
 30
0.0
 40
0.5
  1
0.25
100
AcDbAttributeDefinition
  3

  2
J
 70
     8
280
     0
  0
ATTDEF
  5
9F
330
8F
100
AcDbEntity
  8
AM_6
100
AcDbText
 10
6.771512852384948
 20
-5.433
 30
0.0
 40
0.5
  1
3.13
100
AcDbAttributeDefinition
  3

  2
L
 70
     8
280
     0
  0
ATTDEF
  5
A0
330
8F
100
AcDbEntity
  8
AM_6
100
AcDbText
 10
6.771512852384948
 20
-5.933
 30
0.0
 40
0.5
  1
#10 - 32 x 1/4
100
AcDbAttributeDefinition
  3

  2
N
 70
     8
280
     0
  0
ATTDEF
  5
A1
330
8F
100
AcDbEntity
  8
AM_6
100
AcDbText
 10
6.771512852384948
 20
-6.433
 30
0.0
 40
0.5
  1
0.63000
100
AcDbAttributeDefinition
  3

  2
W
 70
     8
280
     0
  0
ATTDEF
  5
A2
330
8F
100
AcDbEntity
  8
AM_6
100
AcDbText
 10
6.771512852384948
 20
-6.933
 30
0.0
 40
0.5
  1
1.26
100
AcDbAttributeDefinition
  3

  2
X
 70
     8
280
     0
  0
ATTDEF
  5
A3
330
8F
100
AcDbEntity
  8
AM_6
100
AcDbText
 10
6.771512852384948
 20
-7.433
 30
0.0
 40
0.5
  1
1.23
100
AcDbAttributeDefinition
  3

  2
Y
 70
     8
280
     0
  0
ATTDEF
  5
A4
330
8F
100
AcDbEntity
  8
AM_6
100
AcDbText
 10
6.771512852384948
 20
-7.933
 30
0.0
 40
0.5
  1
baldor
100
AcDbAttributeDefinition
  3

  2
COMPANY
 70
     8
280
     0
  0
LINE
  5
A7
330
8F
100
AcDbEntity
  8
AM_9
100
AcDbLine
 10
1.167539593111111
 20
-0.9449991998983996
 30
0.0
 11
1.167539593111111
 21
-0.4724991998983998
 31
0.0
  0
LINE
  5
A8
330
8F
100
AcDbEntity
  8
AM_9
100
AcDbLine
 10
-1.167539593111111
 20
-0.4724991998983998
 30
0.0
 11
-1.167539593111111
 21
-0.9449991998983996
 31
0.0
  0
LINE
  5
A9
330
8F
100
AcDbEntity
  8
AM_9
100
AcDbLine
 10
-1.167539593111111
 20
-0.4724991998983998
 30
0.0
 11
1.167539593111111
 21
-0.4724991998983998
 31
0.0
  0
LINE
  5
AA
330
8F
100
AcDbEntity
  8
AM_9
100
AcDbLine
 10
1.167539593111111
 20
-0.4724991998983998
 30
0.0
 11
1.203839705057619
 21
0.5669999999999998
 31
0.0
  0
LINE
  5
AB
330
8F
100
AcDbEntity
  8
AM_9
100
AcDbLine
 10
-1.203839705057619
 20
0.5669999999999998
 30
0.0
 11
-1.167539593111111
 21
-0.4724991998983998
 31
0.0
  0
LINE
  5
AC
330
8F
100
AcDbEntity
  8
AM_9
100
AcDbLine
 10
1.279325352111111
 20
-0.7874991998983998
 30
0.0
 11
1.279325352111111
 21
-0.6299991998983996
 31
0.0
  0
LINE
  5
AD
330
8F
100
AcDbEntity
  8
AM_9
100
AcDbLine
 10
-1.279325352111111
 20
-0.6299991998983996
 30
0.0
 11
-1.279325352111111
 21
-0.7874991998983998
 31
0.0
  0
LINE
  5
AE
330
8F
100
AcDbEntity
  8
AM_9
100
AcDbLine
 10
1.391111111111111
 20
0.435
 30
0.0
 11
1.391111111111111
 21
0.5322
 31
0.0
  0
LINE
  5
AF
330
8F
100
AcDbEntity
  8
AM_9
100
AcDbLine
 10
-1.391111111111111
 20
0.5322
 30
0.0
 11
-1.391111111111111
 21
0.435
 31
0.0
  0
LINE
  5
B0
330
8F
100
AcDbEntity
  8
AM_9
100
AcDbLine
 10
1.391111111111111
 20
-0.9101991998983998
 30
0.0
 11
1.391111111111111
 21
-0.7874991998983998
 31
0.0
  0
LINE
  5
B1
330
8F
100
AcDbEntity
  8
AM_9
100
AcDbLine
 10
-1.391111111111111
 20
-0.7874991998983998
 30
0.0
 11
-1.391111111111111
 21
-0.9101991998983998
 31
0.0
  0
LINE
  5
B2
330
8F
100
AcDbEntity
  8
AM_9
100
AcDbLine
 10
-1.391111111111111
 20
-0.7874991998983998
 30
0.0
 11
1.391111111111111
 21
-0.7874991998983998
 31
0.0
  0
LINE
  5
B3
330
8F
100
AcDbEntity
  8
AM_9
100
AcDbLine
 10
-0.6243659781269819
 20
-0.9101991998983997
 30
0.0
 11
1.391111111111111
 21
-0.9101991998983998
 31
0.0
  0
LINE
  5
B4
330
8F
100
AcDbEntity
  8
AM_9
100
AcDbLine
 10
1.356311111111111
 20
-0.9449991998983996
 30
0.0
 11
1.391111111111111
 21
-0.9101991998983998
 31
0.0
  0
LINE
  5
B5
330
8F
100
AcDbEntity
  8
AM_9
100
AcDbLine
 10
-1.391111111111111
 20
-0.9101991998983998
 30
0.0
 11
-1.356311111111111
 21
-0.9449991998983996
 31
0.0
  0
LINE
  5
B6
330
8F
100
AcDbEntity
  8
AM_9
100
AcDbLine
 10
-1.356311111111111
 20
-0.9449991998983996
 30
0.0
 11
1.356311111111111
 21
-0.9449991998983996
 31
0.0
  0
LINE
  5
B7
330
8F
100
AcDbEntity
  8
AM_9
100
AcDbLine
 10
-1.391111111111111
 20
-0.9101991998983998
 30
0.0
 11
-0.8001739360750358
 21
-0.9101991998983997
 31
0.0
  0
LINE
  5
B8
330
8F
100
AcDbEntity
  8
AM_9
100
AcDbLine
 10
-1.391111111111111
 20
0.5322
 30
0.0
 11
1.391111111111111
 21
0.5322
 31
0.0
  0
LINE
  5
B9
330
8F
100
AcDbEntity
  8
AM_9
100
AcDbLine
 10
-1.356311111111111
 20
0.567
 30
0.0
 11
1.356311111111111
 21
0.567
 31
0.0
  0
LINE
  5
BA
330
8F
100
AcDbEntity
  8
AM_9
100
AcDbLine
 10
-1.356311111111111
 20
0.567
 30
0.0
 11
-1.391111111111111
 21
0.5322
 31
0.0
  0
LINE
  5
BB
330
8F
100
AcDbEntity
  8
AM_9
100
AcDbLine
 10
1.391111111111111
 20
0.5322
 30
0.0
 11
1.356311111111111
 21
0.567
 31
0.0
  0
LINE
  5
BC
330
8F
100
AcDbEntity
  8
AM_9
100
AcDbLine
 10
1.391111111111111
 20
-0.6299991998983996
 30
0.0
 11
1.391111111111111
 21
-0.4349999999999999
 31
0.0
  0
LINE
  5
BD
330
8F
100
AcDbEntity
  8
AM_9
100
AcDbLine
 10
-1.391111111111111
 20
-0.4349999999999999
 30
0.0
 11
-1.391111111111111
 21
-0.6299991998983996
 31
0.0
  0
LINE
  5
BE
330
8F
100
AcDbEntity
  8
AM_9
100
AcDbLine
 10
-1.391111111111111
 20
-0.6299991998983996
 30
0.0
 11
1.391111111111111
 21
-0.6299991998983996
 31
0.0
  0
LINE
  5
BF
330
8F
100
AcDbEntity
  8
AM_9
100
AcDbLine
 10
1.68465
 20
-0.3000000000000002
 30
0.0
 11
1.68465
 21
-0.2
 31
0.0
  0
LINE
  5
C0
330
8F
100
AcDbEntity
  8
AM_9
100
AcDbLine
 10
-1.68465
 20
-0.2
 30
0.0
 11
-1.68465
 21
-0.3000000000000002
 31
0.0
  0
LINE
  5
C1
330
8F
100
AcDbEntity
  8
AM_9
100
AcDbLine
 10
-1.661186329583616
 20
0.435
 30
0.0
 11
1.661186329583616
 21
0.435
 31
0.0
  0
ARC
  5
C2
330
8F
100
AcDbEntity
  8
AM_9
100
AcDbCircle
 10
1.661186329583616
 20
0.4001999999999999
 30
0.0
 40
0.0348000000000003
100
AcDbArc
 50
21.41246958967037
 51
90.0
  0
ARC
  5
C3
330
8F
100
AcDbEntity
  8
AM_9
100
AcDbCircle
 10
-1.661186329583616
 20
0.4001999999999999
 30
0.0
 40
0.0348000000000001
100
AcDbArc
 50
90.0
 51
158.5875304103296
  0
LINE
  5
C4
330
8F
100
AcDbEntity
  8
AM_9
100
AcDbLine
 10
-1.661186329583617
 20
-0.4349999999999997
 30
0.0
 11
1.661186329583617
 21
-0.4349999999999997
 31
0.0
  0
ARC
  5
C5
330
8F
100
AcDbEntity
  8
AM_9
100
AcDbCircle
 10
1.661186329583616
 20
-0.4001999999999995
 30
0.0
 40
0.0348000000000002
100
AcDbArc
 50
270.0
 51
338.587532953115
  0
ARC
  5
C6
330
8F
100
AcDbEntity
  8
AM_9
100
AcDbCircle
 10
-1.661186329583616
 20
-0.4001999999999994
 30
0.0
 40
0.0348000000000004
100
AcDbArc
 50
201.412467046885
 51
270.0
  0
LINE
  5
C7
330
8F
100
AcDbEntity
  8
AM_9
100
AcDbLine
 10
-1.693584308300557
 20
-0.4129047619047621
 30
0.0
 11
1.693584308300557
 21
-0.4129047619047621
 31
0.0
  0
ARC
  5
C8
330
8F
100
AcDbEntity
  8
AM_9
100
AcDbCircle
 10
0.6406500000000328
 20
-0.000000000000014
 30
0.0
 40
1.130999999999964
100
AcDbArc
 50
338.587532953116
 51
344.0344017040175
  0
ARC
  5
C9
330
8F
100
AcDbEntity
  8
AM_9
100
AcDbCircle
 10
-0.6406500000001172
 20
-0.0000000000000433
 30
0.0
 40
1.130999999999875
100
AcDbArc
 50
195.9655982959822
 51
201.4124670468842
  0
LINE
  5
CA
330
8F
100
AcDbEntity
  8
AM_9
100
AcDbLine
 10
-1.728023961504525
 20
-0.3110930212041978
 30
0.0
 11
1.728023961504525
 21
-0.3110930212041978
 31
0.0
  0
LINE
  5
CB
330
8F
100
AcDbEntity
  8
AM_9
100
AcDbLine
 10
-1.719659545833585
 20
-0.3000000000000002
 30
0.0
 11
1.719659545833585
 21
-0.3000000000000002
 31
0.0
  0
ARC
  5
CC
330
8F
100
AcDbEntity
  8
AM_9
100
AcDbCircle
 10
1.719659545833585
 20
-0.3087000000000002
 30
0.0
 40
0.0087000000000001
100
AcDbArc
 50
344.0344156493716
 51
90.0
  0
ARC
  5
CD
330
8F
100
AcDbEntity
  8
AM_9
100
AcDbCircle
 10
-1.719659545833585
 20
-0.3087000000000002
 30
0.0
 40
0.0087
100
AcDbArc
 50
90.0
 51
195.9655843506284
  0
LINE
  5
CE
330
8F
100
AcDbEntity
  8
AM_9
100
AcDbLine
 10
-1.746525942539095
 20
-0.2
 30
0.0
 11
1.746525942539095
 21
-0.2
 31
0.0
  0
ARC
  5
CF
330
8F
100
AcDbEntity
  8
AM_9
100
AcDbCircle
 10
1.746525942409454
 20
-0.191299999999999
 30
0.0
 40
0.008700000000001
100
AcDbArc
 50
270.0
 51
350.1858105424222
  0
ARC
  5
D0
330
8F
100
AcDbEntity
  8
AM_9
100
AcDbCircle
 10
-1.746525942409454
 20
-0.191299999999999
 30
0.0
 40
0.0087000000000009
100
AcDbArc
 50
189.8141894575779
 51
270.0
  0
LINE
  5
D1
330
8F
100
AcDbEntity
  8
AM_9
100
AcDbLine
 10
-1.755098624133559
 20
-0.1927829457364343
 30
0.0
 11
1.755098624133559
 21
-0.1927829457364343
 31
0.0
  0
LINE
  5
D2
330
8F
100
AcDbEntity
  8
AM_9
100
AcDbLine
 10
-1.693584307736719
 20
0.412904763342584
 30
0.0
 11
1.693584307736719
 21
0.412904763342584
 31
0.0
  0
ARC
  5
D3
330
8F
100
AcDbEntity
  8
AM_9
100
AcDbCircle
 10
0.6406500000002129
 20
0.0000000000000212
 30
0.0
 40
1.130999999999794
100
AcDbArc
 50
350.1858105424265
 51
21.41246712512658
  0
ARC
  5
D4
330
8F
100
AcDbEntity
  8
AM_9
100
AcDbCircle
 10
-0.6406499999999788
 20
-0.0000000000000026
 30
0.0
 40
1.131000000000021
100
AcDbArc
 50
158.5875328748766
 51
189.8141894575703
  0
LINE
  5
D6
330
8F
100
AcDbEntity
  8
AM_4
100
AcDbLine
 10
-0.8001739360750358
 20
-0.9101991998983997
 30
0.0
 11
-0.6243659781269819
 21
-0.9101991998983997
 31
0.0
  0
ENDBLK
  5
92
330
8F
100
AcDbEntity
  8
0
100
AcDbBlockEnd
  0
BLOCK
  5
D9
330
D7
100
AcDbEntity
  8
0
100
AcDbBlockBegin
  2
3_129918_0_in_129168_4
 70
     2
 10
0.0
 20
0.0
 30
0.0
  3
3_129918_0_in_129168_4
  1

  0
ATTDEF
  5
DB
330
D7
100
AcDbEntity
  8
AM_6
100
AcDbText
 10
6.463506256392503
 20
0.6562500000000001
 30
0.0
 40
0.5
  1
Grip Tight Normal Duty Adapter and Nut Inch Bore
100
AcDbAttributeDefinition
  3

  2
NN
 70
     8
280
     0
  0
ATTDEF
  5
DC
330
D7
100
AcDbEntity
  8
AM_6
100
AcDbText
 10
6.463506256392503
 20
0.1562500000000001
 30
0.0
 40
0.5
  1
GT and GTM Adapter & Lock Nut Assemblies
100
AcDbAttributeDefinition
  3

  2
NT
 70
     8
280
     0
  0
ATTDEF
  5
DD
330
D7
100
AcDbEntity
  8
AM_6
100
AcDbText
 10
6.463506256392503
 20
-0.3437499999999999
 30
0.0
 40
0.5
  1
129918
100
AcDbAttributeDefinition
  3

  2
NB
 70
     8
280
     0
  0
ATTDEF
  5
DE
330
D7
100
AcDbEntity
  8
AM_6
100
AcDbText
 10
6.463506256392503
 20
-0.8437499999999999
 30
0.0
 40
0.5
  1
$PN.
100
AcDbAttributeDefinition
  3

  2
NBSYN
 70
     8
280
     0
  0
ATTDEF
  5
DF
330
D7
100
AcDbEntity
  8
AM_6
100
AcDbText
 10
6.463506256392503
 20
-1.34375
 30
0.0
 40
0.5
  1
129918
100
AcDbAttributeDefinition
  3

  2
LINA
 70
     8
280
     0
  0
ATTDEF
  5
E0
330
D7
100
AcDbEntity
  8
AM_6
100
AcDbText
 10
6.463506256392503
 20
-1.84375
 30
0.0
 40
0.5
  1
210
100
AcDbAttributeDefinition
  3

  2
SERIES
 70
     8
280
     0
  0
ATTDEF
  5
E1
330
D7
100
AcDbEntity
  8
AM_6
100
AcDbText
 10
6.463506256392503
 20
-2.34375
 30
0.0
 40
0.5
  1
1-15/16
100
AcDbAttributeDefinition
  3

  2
SS
 70
     8
280
     0
  0
ATTDEF
  5
E2
330
D7
100
AcDbEntity
  8
AM_6
100
AcDbText
 10
6.463506256392503
 20
-2.84375
 30
0.0
 40
0.5
  1
129918
100
AcDbAttributeDefinition
  3

  2
PN
 70
     8
280
     0
  0
ATTDEF
  5
E3
330
D7
100
AcDbEntity
  8
AM_6
100
AcDbText
 10
6.463506256392503
 20
-3.34375
 30
0.0
 40
0.5
  1
AN-GT-10-115
100
AcDbAttributeDefinition
  3

  2
DESCRIPTION
 70
     8
280
     0
  0
ATTDEF
  5
E4
330
D7
100
AcDbEntity
  8
AM_6
100
AcDbText
 10
6.463506256392503
 20
-3.84375
 30
0.0
 40
0.5
  1
1-55/64
100
AcDbAttributeDefinition
  3

  2
A
 70
     8
280
     0
  0
ATTDEF
  5
E5
330
D7
100
AcDbEntity
  8
AM_6
100
AcDbText
 10
6.463506256392503
 20
-4.34375
 30
0.0
 40
0.5
  1
0.8661
100
AcDbAttributeDefinition
  3

  2
C
 70
     8
280
     0
  0
ATTDEF
  5
E6
330
D7
100
AcDbEntity
  8
AM_6
100
AcDbText
 10
6.463506256392503
 20
-4.84375
 30
0.0
 40
0.5
  1
3.5433
100
AcDbAttributeDefinition
  3

  2
D
 70
     8
280
     0
  0
ATTDEF
  5
E7
330
D7
100
AcDbEntity
  8
AM_6
100
AcDbText
 10
6.463506256392503
 20
-5.34375
 30
0.0
 40
0.5
  1
0.248
100
AcDbAttributeDefinition
  3

  2
J
 70
     8
280
     0
  0
ATTDEF
  5
E8
330
D7
100
AcDbEntity
  8
AM_6
100
AcDbText
 10
6.463506256392503
 20
-5.84375
 30
0.0
 40
0.5
  1
2-15/16
100
AcDbAttributeDefinition
  3

  2
L
 70
     8
280
     0
  0
ATTDEF
  5
E9
330
D7
100
AcDbEntity
  8
AM_6
100
AcDbText
 10
6.463506256392503
 20
-6.34375
 30
0.0
 40
0.5
  1
10 - 32 x 1/4
100
AcDbAttributeDefinition
  3

  2
N
 70
     8
280
     0
  0
ATTDEF
  5
EA
330
D7
100
AcDbEntity
  8
AM_6
100
AcDbText
 10
6.463506256392503
 20
-6.84375
 30
0.0
 40
0.5
  1
21/32
100
AcDbAttributeDefinition
  3

  2
W
 70
     8
280
     0
  0
ATTDEF
  5
EB
330
D7
100
AcDbEntity
  8
AM_6
100
AcDbText
 10
6.463506256392503
 20
-7.34375
 30
0.0
 40
0.5
  1
1-5/32
100
AcDbAttributeDefinition
  3

  2
X
 70
     8
280
     0
  0
ATTDEF
  5
EC
330
D7
100
AcDbEntity
  8
AM_6
100
AcDbText
 10
6.463506256392503
 20
-7.84375
 30
0.0
 40
0.5
  1
1-13/64
100
AcDbAttributeDefinition
  3

  2
Y
 70
     8
280
     0
  0
ATTDEF
  5
ED
330
D7
100
AcDbEntity
  8
AM_6
100
AcDbText
 10
6.463506256392503
 20
-8.34375
 30
0.0
 40
0.5
  1
baldor
100
AcDbAttributeDefinition
  3

  2
COMPANY
 70
     8
280
     0
  0
LINE
  5
EE
330
D7
100
AcDbEntity
  8
AM_9
100
AcDbLine
 10
-1.4462
 20
-1.108356433324867
 30
0.0
 11
-1.1241125
 21
-1.108356433324867
 31
0.0
  0
LINE
  5
EF
330
D7
100
AcDbEntity
  8
AM_9
100
AcDbLine
 10
-1.1241125
 20
-0.9634564333248667
 30
0.0
 11
-1.4462
 21
-0.9634564333248667
 31
0.0
  0
LINE
  5
F0
330
D7
100
AcDbEntity
  8
AM_9
100
AcDbLine
 10
-1.1241125
 20
-1.108356433324867
 30
0.0
 11
-1.1015625
 21
-1.130906433324867
 31
0.0
  0
LINE
  5
F1
330
D7
100
AcDbEntity
  8
AM_9
100
AcDbLine
 10
-1.1015625
 20
-0.9409064333248667
 30
0.0
 11
-1.1241125
 21
-0.9634564333248667
 31
0.0
  0
LINE
  5
F2
330
D7
100
AcDbEntity
  8
AM_9
100
AcDbLine
 10
-1.1015625
 20
-0.9409064333248667
 30
0.0
 11
-1.1015625
 21
-1.130906433324867
 31
0.0
  0
LINE
  5
F3
330
D7
100
AcDbEntity
  8
AM_9
100
AcDbLine
 10
-1.1241125
 20
-0.9634564333248667
 30
0.0
 11
-1.1241125
 21
-1.108356433324867
 31
0.0
  0
LINE
  5
F4
330
D7
100
AcDbEntity
  8
AM_9
100
AcDbLine
 10
-1.4462
 20
-0.9634564333248667
 30
0.0
 11
-1.468697669688398
 21
-0.9409587636364687
 31
0.0
  0
LINE
  5
F5
330
D7
100
AcDbEntity
  8
AM_9
100
AcDbLine
 10
-1.464083848736283
 20
-1.126240282061149
 30
0.0
 11
-1.4462
 21
-1.108356433324867
 31
0.0
  0
LINE
  5
F6
330
D7
100
AcDbEntity
  8
AM_9
100
AcDbLine
 10
-1.4462
 20
-0.9634564333248667
 30
0.0
 11
-1.4462
 21
-1.108356433324867
 31
0.0
  0
LINE
  5
F7
330
D7
100
AcDbEntity
  8
AM_9
100
AcDbLine
 10
1.370833084624502
 20
-0.578125
 30
0.0
 11
1.370833084624502
 21
-1.15625
 31
0.0
  0
LINE
  5
F8
330
D7
100
AcDbEntity
  8
AM_9
100
AcDbLine
 10
0.96875
 20
-1.203125
 30
0.0
 11
0.96875
 21
0.6562499999999999
 31
0.0
  0
LINE
  5
F9
330
D7
100
AcDbEntity
  8
AM_9
100
AcDbLine
 10
-0.96875
 20
0.6562499999999999
 30
0.0
 11
-0.96875
 21
-1.203125
 31
0.0
  0
LINE
  5
FA
330
D7
100
AcDbEntity
  8
AM_9
100
AcDbLine
 10
1.095734126984127
 20
-0.8671874999999999
 30
0.0
 11
1.095734126984127
 21
-0.4335937500000008
 31
0.0
  0
LINE
  5
FB
330
D7
100
AcDbEntity
  8
AM_9
100
AcDbLine
 10
-1.095734126984127
 20
-0.4335937500000008
 30
0.0
 11
-1.095734126984127
 21
-0.8671874999999999
 31
0.0
  0
LINE
  5
FC
330
D7
100
AcDbEntity
  8
AM_9
100
AcDbLine
 10
-0.05
 20
0.6562500000000001
 30
0.0
 11
-0.05
 21
-1.15625
 31
0.0
  0
LINE
  5
FD
330
D7
100
AcDbEntity
  8
AM_9
100
AcDbLine
 10
0.05
 20
0.6562500000000001
 30
0.0
 11
0.05
 21
-1.15625
 31
0.0
  0
LINE
  5
FE
330
D7
100
AcDbEntity
  8
AM_9
100
AcDbLine
 10
-1.095734126984127
 20
-0.4335937500000008
 30
0.0
 11
1.095734126984127
 21
-0.4335937500000008
 31
0.0
  0
LINE
  5
FF
330
D7
100
AcDbEntity
  8
AM_9
100
AcDbLine
 10
1.095734126984127
 20
-0.4335937500000008
 30
0.0
 11
1.133792309359899
 21
0.65625
 31
0.0
  0
LINE
  5
100
330
D7
100
AcDbEntity
  8
AM_9
100
AcDbLine
 10
-1.133792309359899
 20
0.65625
 30
0.0
 11
-1.095734126984127
 21
-0.4335937500000008
 31
0.0
  0
LINE
  5
101
330
D7
100
AcDbEntity
  8
AM_9
100
AcDbLine
 10
-1.133792309359899
 20
0.65625
 30
0.0
 11
1.133792309359899
 21
0.65625
 31
0.0
  0
LINE
  5
102
330
D7
100
AcDbEntity
  8
AM_9
100
AcDbLine
 10
1.200644841269842
 20
-0.7226562500000001
 30
0.0
 11
1.200644841269842
 21
-0.5781249999999999
 31
0.0
  0
LINE
  5
103
330
D7
100
AcDbEntity
  8
AM_9
100
AcDbLine
 10
-1.200644841269842
 20
-0.5781249999999999
 30
0.0
 11
-1.200644841269842
 21
-0.7226562500000001
 31
0.0
  0
LINE
  5
104
330
D7
100
AcDbEntity
  8
AM_9
100
AcDbLine
 10
-1.434106000000001
 20
-0.5781249999999999
 30
0.0
 11
-1.46875
 21
-0.6127689999999999
 31
0.0
  0
LINE
  5
105
330
D7
100
AcDbEntity
  8
AM_9
100
AcDbLine
 10
-1.46875
 20
-0.6127689999999999
 30
0.0
 11
-1.46875
 21
-0.8779864006349445
 31
0.0
  0
LINE
  5
106
330
D7
100
AcDbEntity
  8
AM_9
100
AcDbLine
 10
-1.46875
 20
-0.6127689999999999
 30
0.0
 11
-0.8391402782655228
 21
-0.6127690000000001
 31
0.0
  0
LINE
  5
107
330
D7
100
AcDbEntity
  8
AM_9
100
AcDbLine
 10
-0.8217547058898028
 20
-0.5781249999999998
 30
0.0
 11
-0.8391402782655228
 21
-0.6127690000000001
 31
0.0
  0
LINE
  5
108
330
D7
100
AcDbEntity
  8
AM_9
100
AcDbLine
 10
-0.8391402782655228
 20
-0.6127690000000001
 30
0.0
 11
-0.8391402782655228
 21
-0.821496938583972
 31
0.0
  0
LINE
  5
109
330
D7
100
AcDbEntity
  8
AM_9
100
AcDbLine
 10
-0.5780293922429813
 20
-0.5781249999999999
 30
0.0
 11
-0.5780293922429813
 21
-1.15625
 31
0.0
  0
LINE
  5
10A
330
D7
100
AcDbEntity
  8
AM_9
100
AcDbLine
 10
-0.7928036923815223
 20
-0.5781249999999999
 30
0.0
 11
-0.7928036923815223
 21
-0.9248803832975592
 31
0.0
  0
LINE
  5
10B
330
D7
100
AcDbEntity
  8
AM_9
100
AcDbLine
 10
-1.305555555555557
 20
-0.8671874999999999
 30
0.0
 11
1.305555555555557
 21
-0.8671874999999999
 31
0.0
  0
LINE
  5
10C
330
D7
100
AcDbEntity
  8
AM_9
100
AcDbLine
 10
-1.305555555555557
 20
-0.7226562500000001
 30
0.0
 11
1.305555555555557
 21
-0.7226562500000001
 31
0.0
  0
LINE
  5
10D
330
D7
100
AcDbEntity
  8
AM_9
100
AcDbLine
 10
1.305555555555557
 20
-0.8671874999999999
 30
0.0
 11
1.305555555555557
 21
-0.7226562500000001
 31
0.0
  0
LINE
  5
10E
330
D7
100
AcDbEntity
  8
AM_9
100
AcDbLine
 10
-1.305555555555557
 20
-0.7226562500000001
 30
0.0
 11
-1.305555555555557
 21
-0.8671874999999999
 31
0.0
  0
LINE
  5
10F
330
D7
100
AcDbEntity
  8
AM_9
100
AcDbLine
 10
1.428735111641063
 20
-0.5781249999999998
 30
0.0
 11
1.463506256392504
 21
-0.6127690000000002
 31
0.0
  0
LINE
  5
110
330
D7
100
AcDbEntity
  8
AM_9
100
AcDbLine
 10
-1.434106000000001
 20
-0.5781249999999999
 30
0.0
 11
1.428735111641063
 21
-0.5781249999999998
 31
0.0
  0
LINE
  5
111
330
D7
100
AcDbEntity
  8
AM_9
100
AcDbLine
 10
-0.624365978126982
 20
-0.6127690000000001
 30
0.0
 11
-0.6069804057512619
 21
-0.5781249999999998
 31
0.0
  0
LINE
  5
112
330
D7
100
AcDbEntity
  8
AM_9
100
AcDbLine
 10
1.463506256392504
 20
-0.6127690000000002
 30
0.0
 11
1.463506256392504
 21
-0.8772197981696572
 31
0.0
  0
LINE
  5
113
330
D7
100
AcDbEntity
  8
AM_9
100
AcDbLine
 10
-0.624365978126982
 20
-0.6127690000000001
 30
0.0
 11
1.463506256392504
 21
-0.6127690000000002
 31
0.0
  0
LINE
  5
114
330
D7
100
AcDbEntity
  8
AM_9
100
AcDbLine
 10
-0.624365978126982
 20
-0.8118108806383184
 30
0.0
 11
-0.624365978126982
 21
-0.6127690000000001
 31
0.0
  0
LINE
  5
116
330
D7
100
AcDbEntity
  8
AM_5
100
AcDbLine
 10
-1.459449566675133
 20
-1.130906433324867
 30
0.0
 11
-1.1015625
 21
-1.130906433324867
 31
0.0
  0
LINE
  5
117
330
D7
100
AcDbEntity
  8
AM_5
100
AcDbLine
 10
-1.360403877684644
 20
-0.9409064333248667
 30
0.0
 11
-1.167539593111111
 21
-0.9409064333248667
 31
0.0
  0
LINE
  5
11A
330
D7
100
AcDbEntity
  8
AM_7
100
AcDbLine
 10
-1.083203125
 20
-1.035906433324867
 30
0.0
 11
-1.487109375
 21
-1.035906433324867
 31
0.0
  0
LINE
  5
11B
330
D7
100
AcDbEntity
  8
AM_4
100
AcDbLine
 10
-0.05
 20
-1.203125
 30
0.0
 11
-0.05
 21
-1.15625
 31
0.0
  0
LINE
  5
11C
330
D7
100
AcDbEntity
  8
AM_4
100
AcDbLine
 10
0.05
 20
-1.203125
 30
0.0
 11
0.05
 21
-1.15625
 31
0.0
  0
LINE
  5
11D
330
D7
100
AcDbEntity
  8
AM_4
100
AcDbLine
 10
1.095734126984127
 20
-1.203125
 30
0.0
 11
1.095734126984127
 21
-1.15625
 31
0.0
  0
LINE
  5
11E
330
D7
100
AcDbEntity
  8
AM_4
100
AcDbLine
 10
-1.095734126984127
 20
-1.15625
 30
0.0
 11
-1.095734126984127
 21
-1.203125
 31
0.0
  0
LINE
  5
11F
330
D7
100
AcDbEntity
  8
AM_4
100
AcDbLine
 10
-1.095734126984127
 20
-1.203125
 30
0.0
 11
1.095734126984127
 21
-1.203125
 31
0.0
  0
LINE
  5
120
330
D7
100
AcDbEntity
  8
AM_4
100
AcDbLine
 10
-1.468212458137745
 20
-1.121606000000001
 30
0.0
 11
-1.464099783337579
 21
-1.12625621666242
 31
0.0
  0
LINE
  5
121
330
D7
100
AcDbEntity
  8
AM_4
100
AcDbLine
 10
-1.464358872857403
 20
-1.125997127142597
 30
0.0
 11
-1.434106
 21
-1.15625
 31
0.0
  0
LINE
  5
122
330
D7
100
AcDbEntity
  8
AM_4
100
AcDbLine
 10
-1.468212458137745
 20
-1.121606000000001
 30
0.0
 11
-0.8391402782655228
 21
-1.121606
 31
0.0
  0
LINE
  5
123
330
D7
100
AcDbEntity
  8
AM_4
100
AcDbLine
 10
-1.46875
 20
-0.8779864006349445
 30
0.0
 11
-1.46875
 21
-0.9410053376338692
 31
0.0
  0
LWPOLYLINE
  5
124
330
D7
100
AcDbEntity
  8
AM_4
100
AcDbPolyline
 90
       17
 70
     0
 43
0.0
 10
-1.46875
 20
-0.9409064333248701
 10
-1.468749436055799
 20
-0.94091571659346
 10
-1.468655954284611
 20
-0.9424672032642936
 10
-1.468425131796331
 20
-0.946412378931718
 10
-1.468070037255858
 20
-0.9528441602018515
 10
-1.467642129668022
 20
-0.9613236585703555
 10
-1.467168923284019
 20
-0.9719910034355743
 10
-1.466712315685218
 20
-0.9843269158760666
 10
-1.466310895316392
 20
-0.9983751321839268
 10
-1.466020795075286
 20
-1.013449614382769
 10
-1.465871882133133
 20
-1.029561869014893
 10
-1.465889798407187
 20
-1.045708526202406
 10
-1.466078054355621
 20
-1.062036274201842
 10
-1.466406784050065
 20
-1.077229228953374
 10
-1.466855885270024
 20
-1.09165884603697
 10
-1.467610173913806
 20
-1.109817132638993
 10
-1.468212458137746
 20
-1.121606000000001
  0
LINE
  5
125
330
D7
100
AcDbEntity
  8
AM_4
100
AcDbLine
 10
-0.8391402782655228
 20
-0.821496938583972
 30
0.0
 11
-0.8391402782655228
 21
-1.121606
 31
0.0
  0
LINE
  5
126
330
D7
100
AcDbEntity
  8
AM_4
100
AcDbLine
 10
-0.8391402782655228
 20
-1.121606
 30
0.0
 11
-0.8217547058898027
 21
-1.15625
 31
0.0
  0
LINE
  5
127
330
D7
100
AcDbEntity
  8
AM_4
100
AcDbLine
 10
-0.7928036923815223
 20
-0.9248803832975592
 30
0.0
 11
-0.7928036923815223
 21
-1.15625
 31
0.0
  0
LINE
  5
128
330
D7
100
AcDbEntity
  8
AM_4
100
AcDbLine
 10
1.463506256392503
 20
-1.121606
 30
0.0
 11
1.428735111641063
 21
-1.15625
 31
0.0
  0
LINE
  5
129
330
D7
100
AcDbEntity
  8
AM_4
100
AcDbLine
 10
-0.6069804057512617
 20
-1.15625
 30
0.0
 11
-0.6243659781269819
 21
-1.121606
 31
0.0
  0
LINE
  5
12A
330
D7
100
AcDbEntity
  8
AM_4
100
AcDbLine
 10
-1.434106
 20
-1.15625
 30
0.0
 11
1.428735111641063
 21
-1.15625
 31
0.0
  0
LINE
  5
12B
330
D7
100
AcDbEntity
  8
AM_4
100
AcDbLine
 10
1.463506256392504
 20
-0.8772197981696572
 30
0.0
 11
1.463506256392503
 21
-1.121606
 31
0.0
  0
LINE
  5
12C
330
D7
100
AcDbEntity
  8
AM_4
100
AcDbLine
 10
-0.6243659781269819
 20
-1.121606
 30
0.0
 11
-0.624365978126982
 21
-0.8118108806383184
 31
0.0
  0
LINE
  5
12D
330
D7
100
AcDbEntity
  8
AM_4
100
AcDbLine
 10
-0.6243659781269819
 20
-1.121606
 30
0.0
 11
1.463506256392503
 21
-1.121606
 31
0.0
  0
ENDBLK
  5
DA
330
D7
100
AcDbEntity
  8
0
100
AcDbBlockEnd
  0
BLOCK
  5
130
330
12E
100
AcDbEntity
  8
0
100
AcDbBlockBegin
  2
4_129427I_0_in_129168_4
 70
     2
 10
0.0
 20
0.0
 30
0.0
  3
4_129427I_0_in_129168_4
  1

  0
ATTDEF
  5
132
330
12E
100
AcDbEntity
  8
AM_6
100
AcDbText
 10
9.0625
 20
1.2375
 30
0.0
 40
0.5
  1
GT-I
100
AcDbAttributeDefinition
  3

  2
NN
 70
     8
280
     0
  0
ATTDEF
  5
133
330
12E
100
AcDbEntity
  8
AM_6
100
AcDbText
 10
9.0625
 20
0.7375
 30
0.0
 40
0.5
  1
GT Normal and Medium Duty Pillow Blocks
100
AcDbAttributeDefinition
  3

  2
NT
 70
     8
280
     0
  0
ATTDEF
  5
134
330
12E
100
AcDbEntity
  8
AM_6
100
AcDbText
 10
9.0625
 20
0.2375
 30
0.0
 40
0.5
  1
129427I
100
AcDbAttributeDefinition
  3

  2
NB
 70
     8
280
     0
  0
ATTDEF
  5
135
330
12E
100
AcDbEntity
  8
AM_6
100
AcDbText
 10
9.0625
 20
-0.2625
 30
0.0
 40
0.5
  1
$PN.$LUBE.I
100
AcDbAttributeDefinition
  3

  2
NBSYN
 70
     8
280
     0
  0
ATTDEF
  5
136
330
12E
100
AcDbEntity
  8
AM_6
100
AcDbText
 10
9.0625
 20
-0.7625
 30
0.0
 40
0.5
  1
129427
100
AcDbAttributeDefinition
  3

  2
LINA
 70
     8
280
     0
  0
ATTDEF
  5
137
330
12E
100
AcDbEntity
  8
AM_6
100
AcDbText
 10
9.0625
 20
-1.2625
 30
0.0
 40
0.5
  1
210
100
AcDbAttributeDefinition
  3

  2
SERIES
 70
     8
280
     0
  0
ATTDEF
  5
138
330
12E
100
AcDbEntity
  8
AM_6
100
AcDbText
 10
9.0625
 20
-1.7625
 30
0.0
 40
0.5
  1
129427
100
AcDbAttributeDefinition
  3

  2
PN
 70
     8
280
     0
  0
ATTDEF
  5
139
330
12E
100
AcDbEntity
  8
AM_6
100
AcDbText
 10
9.0625
 20
-2.2625
 30
0.0
 40
0.5
  1
P2B-GT-10
100
AcDbAttributeDefinition
  3

  2
DESCRIPTION
 70
     8
280
     0
  0
ATTDEF
  5
13A
330
12E
100
AcDbEntity
  8
AM_6
100
AcDbText
 10
9.0625
 20
-2.7625
 30
0.0
 40
0.5
  1
1-55/64
100
AcDbAttributeDefinition
  3

  2
A
 70
     8
280
     0
  0
ATTDEF
  5
13B
330
12E
100
AcDbEntity
  8
AM_6
100
AcDbText
 10
9.0625
 20
-3.2625
 30
0.0
 40
0.5
  1
8-1/8
100
AcDbAttributeDefinition
  3

  2
B
 70
     8
280
     0
  0
ATTDEF
  5
13C
330
12E
100
AcDbEntity
  8
AM_6
100
AcDbText
 10
9.0625
 20
-3.7625
 30
0.0
 40
0.5
  1
2-1/4
100
AcDbAttributeDefinition
  3

  2
C
 70
     8
280
     0
  0
ATTDEF
  5
13D
330
12E
100
AcDbEntity
  8
AM_6
100
AcDbText
 10
9.0625
 20
-4.2625
 30
0.0
 40
0.5
  1
6
100
AcDbAttributeDefinition
  3

  2
DMIN
 70
     8
280
     0
  0
ATTDEF
  5
13E
330
12E
100
AcDbEntity
  8
AM_6
100
AcDbText
 10
9.0625
 20
-4.7625
 30
0.0
 40
0.5
  1
6-11/16
100
AcDbAttributeDefinition
  3

  2
DMAX
 70
     8
280
     0
  0
ATTDEF
  5
13F
330
12E
100
AcDbEntity
  8
AM_6
100
AcDbText
 10
9.0625
 20
-5.2625
 30
0.0
 40
0.5
  1
5/8
100
AcDbAttributeDefinition
  3

  2
F
 70
     8
280
     0
  0
ATTDEF
  5
140
330
12E
100
AcDbEntity
  8
AM_6
100
AcDbText
 10
9.0625
 20
-5.7625
 30
0.0
 40
0.5
  1
1-1/64
100
AcDbAttributeDefinition
  3

  2
G
 70
     8
280
     0
  0
ATTDEF
  5
141
330
12E
100
AcDbEntity
  8
AM_6
100
AcDbText
 10
9.0625
 20
-6.2625
 30
0.0
 40
0.5
  1
3/4
100
AcDbAttributeDefinition
  3

  2
H
 70
     8
280
     0
  0
ATTDEF
  5
142
330
12E
100
AcDbEntity
  8
AM_6
100
AcDbText
 10
9.0625
 20
-6.7625
 30
0.0
 40
0.5
  1
4-17/32
100
AcDbAttributeDefinition
  3

  2
J
 70
     8
280
     0
  0
ATTDEF
  5
143
330
12E
100
AcDbEntity
  8
AM_6
100
AcDbText
 10
9.0625
 20
-7.2625
 30
0.0
 40
0.5
  1
2-15/16
100
AcDbAttributeDefinition
  3

  2
L
 70
     8
280
     0
  0
ATTDEF
  5
144
330
12E
100
AcDbEntity
  8
AM_6
100
AcDbText
 10
9.0625
 20
-7.7625
 30
0.0
 40
0.5
  1
2-1/4
100
AcDbAttributeDefinition
  3

  2
M
 70
     8
280
     0
  0
ATTDEF
  5
145
330
12E
100
AcDbEntity
  8
AM_6
100
AcDbText
 10
9.0625
 20
-8.2625
 30
0.0
 40
0.5
  1
21/32
100
AcDbAttributeDefinition
  3

  2
R
 70
     8
280
     0
  0
ATTDEF
  5
146
330
12E
100
AcDbEntity
  8
AM_6
100
AcDbText
 10
9.0625
 20
-8.7625
 30
0.0
 40
0.5
  1
1-13/64
100
AcDbAttributeDefinition
  3

  2
S
 70
     8
280
     0
  0
ATTDEF
  5
147
330
12E
100
AcDbEntity
  8
AM_6
100
AcDbText
 10
9.0625
 20
-9.2625
 30
0.0
 40
0.5
  1
3-11/16
100
AcDbAttributeDefinition
  3

  2
U
 70
     8
280
     0
  0
ATTDEF
  5
148
330
12E
100
AcDbEntity
  8
AM_6
100
AcDbText
 10
9.0625
 20
-9.7625
 30
0.0
 40
0.5
  1
7-3/8
100
AcDbAttributeDefinition
  3

  2
V
 70
     8
280
     0
  0
ATTDEF
  5
149
330
12E
100
AcDbEntity
  8
AM_6
100
AcDbText
 10
9.0625
 20
-10.2625
 30
0.0
 40
0.5
  1
13/16
100
AcDbAttributeDefinition
  3

  2
W
 70
     8
280
     0
  0
ATTDEF
  5
14A
330
12E
100
AcDbEntity
  8
AM_6
100
AcDbText
 10
9.0625
 20
-10.7625
 30
0.0
 40
0.5
  1
3/16
100
AcDbAttributeDefinition
  3

  2
X
 70
     8
280
     0
  0
ATTDEF
  5
14B
330
12E
100
AcDbEntity
  8
AM_6
100
AcDbText
 10
9.0625
 20
-11.2625
 30
0.0
 40
0.5
  1
1-5/32
100
AcDbAttributeDefinition
  3

  2
Z
 70
     8
280
     0
  0
ATTDEF
  5
14C
330
12E
100
AcDbEntity
  8
AM_6
100
AcDbText
 10
9.0625
 20
-11.7625
 30
0.0
 40
0.5
  1
baldor
100
AcDbAttributeDefinition
  3

  2
COMPANY
 70
     8
280
     0
  0
LINE
  5
14D
330
12E
100
AcDbEntity
  8
AM_9
100
AcDbLine
 10
-1.5740699
 20
-0.9600000750000002
 30
0.0
 11
-1.5740699
 21
0.9600000749999995
 31
0.0
  0
LINE
  5
14E
330
12E
100
AcDbEntity
  8
AM_9
100
AcDbLine
 10
-1.633125
 20
-1.125
 30
0.0
 11
-1.633125
 21
1.125
 31
0.0
  0
LINE
  5
14F
330
12E
100
AcDbEntity
  8
AM_9
100
AcDbLine
 10
1.633125
 20
-1.125
 30
0.0
 11
1.633125
 21
1.125
 31
0.0
  0
LINE
  5
150
330
12E
100
AcDbEntity
  8
AM_9
100
AcDbLine
 10
1.5740699
 20
-0.960000075
 30
0.0
 11
1.5740699
 21
0.9600000749999998
 31
0.0
  0
LWPOLYLINE
  5
151
330
12E
100
AcDbEntity
  8
AM_9
100
AcDbPolyline
 90
        5
 70
     0
 43
0.0
 10
1.74297829763997
 20
-0.0909214090671168
 10
1.73961446898359
 20
-0.0460980447457687
 10
1.738362861134949
 20
-0.0008744807129145
 10
1.739557764320089
 20
0.0450211226067941
 10
1.74297829763997
 20
0.090921409067117
  0
LINE
  5
152
330
12E
100
AcDbEntity
  8
AM_9
100
AcDbLine
 10
1.74297829763997
 20
-0.0909214090671168
 30
0.0
 11
1.831182801139325
 21
-0.0909214090671168
 31
0.0
  0
LINE
  5
153
330
12E
100
AcDbEntity
  8
AM_9
100
AcDbLine
 10
1.74297829763997
 20
0.090921409067117
 30
0.0
 11
1.831182801139325
 21
0.090921409067117
 31
0.0
  0
LINE
  5
154
330
12E
100
AcDbEntity
  8
AM_9
100
AcDbLine
 10
1.627006776924808
 20
0.1102360000000005
 30
0.0
 11
1.613075312588593
 21
0.1102360000000005
 31
0.0
  0
LINE
  5
155
330
12E
100
AcDbEntity
  8
AM_9
100
AcDbLine
 10
1.613084645419414
 20
-0.1102360000000003
 30
0.0
 11
1.627006776924808
 21
-0.1102360000000003
 31
0.0
  0
LWPOLYLINE
  5
156
330
12E
100
AcDbEntity
  8
AM_9
100
AcDbPolyline
 90
       20
 70
     0
 43
0.0
 10
1.61309483920304
 20
0.1102359994904609
 10
1.604080582758863
 20
0.1095017434007919
 10
1.59110191773886
 20
0.1058103446471629
 10
1.578650320359338
 20
0.0991437667182082
 10
1.567100478074562
 20
0.0896464932144272
 10
1.556793427494207
 20
0.0776273795087297
 10
1.548058148771895
 20
0.0633778292037773
 10
1.541155812763705
 20
0.0473404898643134
 10
1.536333794346366
 20
0.0299472769083413
 10
1.533716435045661
 20
0.011707995730449
 10
1.533420739613575
 20
-0.0068480696877672
 10
1.535418769406769
 20
-0.0252109485270446
 10
1.539676458647278
 20
-0.0428446247311488
 10
1.546025798037375
 20
-0.0592720760882633
 10
1.554300893500938
 20
-0.0740197152485026
 10
1.564212158456987
 20
-0.0866829526364551
 10
1.57548322670695
 20
-0.0968789805920105
 10
1.587746720988057
 20
-0.1043430413826808
 10
1.600639693345289
 20
-0.1088211116261117
 10
1.613091598804747
 20
-0.110235999835822
  0
LWPOLYLINE
  5
157
330
12E
100
AcDbEntity
  8
AM_9
100
AcDbPolyline
 90
       11
 70
     0
 43
0.0
 10
1.613091598804747
 20
-0.110235999835822
 10
1.613783515602246
 20
-0.1102316015000415
 10
1.626786667127549
 20
-0.108493889565775
 10
1.639304044873553
 20
-0.1037040873788781
 10
1.650983446564738
 20
-0.0959567690398622
 10
1.661529419117991
 20
-0.0855114347515474
 10
1.670658825034797
 20
-0.0726138532209988
 10
1.678149899725265
 20
-0.0576698436570349
 10
1.683793911395073
 20
-0.0410686284308353
 10
1.687473620099503
 20
-0.0233073267258545
 10
1.689151525748052
 20
0.0000000000000001
  0
LWPOLYLINE
  5
158
330
12E
100
AcDbEntity
  8
AM_9
100
AcDbPolyline
 90
        5
 70
     0
 43
0.0
 10
1.74297829763997
 20
0.090921409067117
 10
1.712165876198046
 20
0.113333091227791
 10
1.683220604291762
 20
0.1359448732442181
 10
1.656310305084284
 20
0.1588926749040724
 10
1.631622768185322
 20
0.1818428181342338
  0
LWPOLYLINE
  5
159
330
12E
100
AcDbEntity
  8
AM_9
100
AcDbPolyline
 90
        5
 70
     0
 43
0.0
 10
1.631622768185322
 20
-0.1818428181342336
 10
1.655707532314486
 20
-0.1594311359735598
 10
1.682149588523489
 20
-0.1368193539571325
 10
1.711449694101247
 20
-0.1138715522972782
 10
1.74297829763997
 20
-0.0909214090671168
  0
ELLIPSE
  5
15A
330
12E
100
AcDbEntity
  8
AM_9
100
AcDbEllipse
 10
1.627006776924808
 20
0.0000000000000001
 30
0.0
 11
-2.892860668945894E-17
 21
-0.1574800000000009
 31
0.0
210
0.0
220
0.0
230
1.0
 40
0.7071067811865474
 41
0.0
 42
6.283185307179586
  0
LINE
  5
15B
330
12E
100
AcDbEntity
  8
AM_9
100
AcDbLine
 10
1.463506256392504
 20
-0.960000075
 30
0.0
 11
-1.467823929613795
 21
-0.9600000750000001
 31
0.0
  0
LINE
  5
15C
330
12E
100
AcDbEntity
  8
AM_9
100
AcDbLine
 10
1.77165
 20
-0.9762393719008264
 30
0.0
 11
1.77165
 21
0.9762393719008264
 31
0.0
  0
LINE
  5
15D
330
12E
100
AcDbEntity
  8
AM_9
100
AcDbLine
 10
-1.77165
 20
0.9762393719008264
 30
0.0
 11
-1.77165
 21
-0.9762393719008264
 31
0.0
  0
ELLIPSE
  5
15E
330
12E
100
AcDbEntity
  8
AM_9
100
AcDbEllipse
 10
1.724443262945191
 20
0.0000000000000001
 30
0.0
 11
6.750008227540396E-18
 21
0.1102360000000003
 31
0.0
210
0.0
220
0.0
230
1.0
 40
0.7071067811865448
 41
3.141592653589793
 42
6.283185307179586
  0
ELLIPSE
  5
15F
330
12E
100
AcDbEntity
  8
AM_9
100
AcDbEllipse
 10
1.738362659932505
 20
-0.000000000000005
 30
0.0
 11
6.750008227549937E-18
 21
0.1102360000001561
 31
0.0
210
0.0
220
0.0
230
1.0
 40
0.7071067811886594
 41
4.71238898038469
 42
4.756068618919754
  0
ELLIPSE
  5
160
330
12E
100
AcDbEntity
  8
AM_9
100
AcDbEllipse
 10
1.738362659932847
 20
-0.0000000000000015
 30
0.0
 11
6.750008227540508E-18
 21
0.1102360000000021
 31
0.0
210
0.0
220
0.0
230
1.0
 40
0.7071067811865472
 41
5.228459636988944
 42
5.690759900023677
  0
LINE
  5
161
330
12E
100
AcDbEntity
  8
AM_9
100
AcDbLine
 10
1.831182801139325
 20
-0.0909214090671168
 30
0.0
 11
1.815801208574656
 21
-0.1054352224083537
 31
0.0
  0
LWPOLYLINE
  5
162
330
12E
100
AcDbEntity
  8
AM_9
100
AcDbPolyline
 90
        5
 70
     0
 43
0.0
 10
1.831182801139325
 20
0.090921409067117
 10
1.834546629795704
 20
0.0460980447457688
 10
1.835798237644346
 20
0.0008744807129147
 10
1.834603334459205
 20
-0.0450211226067939
 10
1.831182801139325
 20
-0.0909214090671168
  0
LINE
  5
163
330
12E
100
AcDbEntity
  8
AM_9
100
AcDbLine
 10
1.815797513024096
 20
0.1054386248682316
 30
0.0
 11
1.831182801139325
 21
0.090921409067117
 31
0.0
  0
ELLIPSE
  5
164
330
12E
100
AcDbEntity
  8
AM_9
100
AcDbEllipse
 10
1.724443262945191
 20
0.000000000000001
 30
0.0
 11
9.642868896486098E-18
 21
0.1574799999999974
 31
0.0
210
0.0
220
0.0
230
1.0
 40
0.7071067811865532
 41
3.98748723672454
 42
5.437589785492374
  0
ELLIPSE
  5
165
330
12E
100
AcDbEntity
  8
AM_9
100
AcDbEllipse
 10
1.738362659932846
 20
0.0000000000000031
 30
0.0
 11
6.750008227540614E-18
 21
0.1102360000000038
 31
0.0
210
0.0
220
0.0
230
1.0
 40
0.7071067811865482
 41
3.735831012303432
 42
4.224639185264675
  0
LWPOLYLINE
  5
166
330
12E
100
AcDbEntity
  8
AM_9
100
AcDbPolyline
 90
       23
 70
     0
 43
0.0
 10
1.816306071775292
 20
0.0000000000000001
 10
1.816199065856983
 20
-0.0057563157368099
 10
1.815303630602682
 20
-0.0175537549748732
 10
1.813534346213237
 20
-0.0289734489366832
 10
1.810971603588621
 20
-0.0397538010020873
 10
1.807735503277522
 20
-0.0496635884902434
 10
1.803983424176022
 20
-0.0585043008751209
 10
1.799905300612698
 20
-0.0661210664442727
 10
1.795716333747765
 20
-0.0724133796479385
 10
1.791652797100472
 20
-0.0773380564215041
 10
1.787954854772238
 20
-0.0809264718354405
 10
1.784839187673066
 20
-0.0832962724927957
 10
1.782479968132752
 20
-0.0846423330495945
 10
1.780974731507483
 20
-0.085229922111145
 10
1.780266831721306
 20
-0.0853779714085342
 10
1.779824325317106
 20
-0.0853588261639323
 10
1.778662803455858
 20
-0.0850271729489862
 10
1.776721781154871
 20
-0.0841029604056372
 10
1.77401972945018
 20
-0.0823212288023056
 10
1.770333471092979
 20
-0.0791342581947443
 10
1.76627639552255
 20
-0.0746670612412957
 10
1.762066776202919
 20
-0.0688854537679433
 10
1.76100353686401
 20
-0.0672163844365053
  0
LWPOLYLINE
  5
167
330
12E
100
AcDbEntity
  8
AM_9
100
AcDbPolyline
 90
       21
 70
     0
 43
0.0
 10
1.769068421754584
 20
0.0778503567772384
 10
1.770848682740571
 20
0.079629390620545
 10
1.774223973908529
 20
0.0824731623634492
 10
1.776906421633189
 20
0.0842053562503517
 10
1.778761903545962
 20
0.0850639002831595
 10
1.779769081288217
 20
0.0853496168403441
 10
1.7801837105548
 20
0.0853837422783324
 10
1.780805290918448
 20
0.0852763933211026
 10
1.782202870852769
 20
0.0847696849664018
 10
1.784446208130451
 20
0.0835497693696949
 10
1.787390338239279
 20
0.0814012650496031
 10
1.791220941040452
 20
0.0777999335461372
 10
1.795351438976987
 20
0.0729000712354842
 10
1.799565769635491
 20
0.0666831427855569
 10
1.803657797570978
 20
0.0591781474549574
 10
1.807427329766815
 20
0.0504769899088606
 10
1.810694831250245
 20
0.0407225504634952
 10
1.813311274075197
 20
0.0300883364803016
 10
1.815156789166595
 20
0.018784077979057
 10
1.816145615017426
 20
0.0070473314580242
 10
1.816306071775292
 20
0.0000000000000001
  0
LWPOLYLINE
  5
168
330
12E
100
AcDbEntity
  8
AM_9
100
AcDbPolyline
 90
        4
 70
     0
 43
0.0
 10
1.760757116869627
 20
0.0668163068099124
 10
1.762830305262791
 20
0.0700290622155137
 10
1.766975116637113
 20
0.075509853711302
 10
1.769068421754584
 20
0.0778503567772384
  0
ELLIPSE
  5
169
330
12E
100
AcDbEntity
  8
AM_9
100
AcDbEllipse
 10
1.8154448556192
 20
-0.0000000000000001
 30
0.0
 11
6.258279750336302E-18
 21
0.1022054645419979
 31
0.0
210
0.0
220
0.0
230
1.0
 40
0.707106781186546
 41
2.423980329900631
 42
6.94270384561168
  0
ELLIPSE
  5
16A
330
12E
100
AcDbEntity
  8
AM_9
100
AcDbEllipse
 10
1.830334021823993
 20
0.0000000000000005
 30
0.0
 11
6.365617546288434E-18
 21
0.1039584237793366
 31
0.0
210
0.0
220
0.0
230
1.0
 40
0.707106781186538
 41
3.694304707716611
 42
5.730473253052762
  0
ELLIPSE
  5
16B
330
12E
100
AcDbEntity
  8
AM_9
100
AcDbEllipse
 10
1.874576936413991
 20
-0.0000000000000008
 30
0.0
 11
4.354225479598818E-18
 21
0.07110989850511021
 31
0.0
210
0.0
220
0.0
230
1.0
 40
0.7071067811865286
 41
3.901788878346732
 42
5.443955469794574
  0
LWPOLYLINE
  5
16C
330
12E
100
AcDbEntity
  8
AM_9
100
AcDbPolyline
 90
       11
 70
     0
 43
0.0
 10
1.689151525748052
 20
0.0000000000000001
 10
1.688092655130717
 20
0.0184930864599962
 10
1.684969755158092
 20
0.0364645950038009
 10
1.679831893373332
 20
0.0533930459024029
 10
1.672831284240003
 20
0.0688177840131622
 10
1.66411030324298
 20
0.08228758973052
 10
1.653915929505758
 20
0.09343907677991
 10
1.642485960636022
 20
0.1019247333641008
 10
1.630143448192068
 20
0.1075356671571366
 10
1.617222478993223
 20
0.1100691625265356
 10
1.61309483920304
 20
0.1102359994904609
  0
ELLIPSE
  5
16D
330
12E
100
AcDbEntity
  8
AM_9
100
AcDbEllipse
 10
1.627006776924808
 20
0.0000000000000003
 30
0.0
 11
6.750008227540419E-18
 21
0.1102360000000006
 31
0.0
210
0.0
220
0.0
230
1.0
 40
0.7071067811865505
 41
0.0
 42
6.283185307179586
  0
LINE
  5
16E
330
12E
100
AcDbEntity
  8
AM_7
100
AcDbLine
 10
3.5890625
 20
-0.8124999999999999
 30
0.0
 11
3.7859375
 21
-0.8124999999999999
 31
0.0
  0
LINE
  5
16F
330
12E
100
AcDbEntity
  8
AM_7
100
AcDbLine
 10
3.6875
 20
-0.9109374999999998
 30
0.0
 11
3.6875
 21
-0.7140624999999999
 31
0.0
  0
LINE
  5
170
330
12E
100
AcDbEntity
  8
AM_7
100
AcDbLine
 10
-3.7859375
 20
-0.8125000000000004
 30
0.0
 11
-3.5890625
 21
-0.8125000000000004
 31
0.0
  0
LINE
  5
171
330
12E
100
AcDbEntity
  8
AM_7
100
AcDbLine
 10
-3.6875
 20
-0.9109375000000004
 30
0.0
 11
-3.6875
 21
-0.7140625000000005
 31
0.0
  0
LINE
  5
172
330
12E
100
AcDbEntity
  8
AM_7
100
AcDbLine
 10
0.0
 20
1.2375
 30
0.0
 11
0.0
 21
-1.29609375
 31
0.0
  0
LINE
  5
173
330
12E
100
AcDbEntity
  8
AM_7
100
AcDbLine
 10
2.647265625
 20
0.0000000000000001
 30
0.0
 11
3.696484375
 21
0.0000000000000001
 31
0.0
  0
LINE
  5
174
330
12E
100
AcDbEntity
  8
AM_7
100
AcDbLine
 10
3.34375
 20
-0.3527343749999999
 30
0.0
 11
3.34375
 21
0.3527343750000001
 31
0.0
  0
LINE
  5
175
330
12E
100
AcDbEntity
  8
AM_7
100
AcDbLine
 10
-3.696484375
 20
0.0000000000000001
 30
0.0
 11
-2.647265625
 21
-0.0000000000000001
 31
0.0
  0
LINE
  5
176
330
12E
100
AcDbEntity
  8
AM_7
100
AcDbLine
 10
-3.34375
 20
-0.3527343749999998
 30
0.0
 11
-3.34375
 21
0.3527343750000002
 31
0.0
  0
LINE
  5
177
330
12E
100
AcDbEntity
  8
AM_7
100
AcDbLine
 10
3.0
 20
-0.3527343749999999
 30
0.0
 11
3.0
 21
0.3527343750000001
 31
0.0
  0
LINE
  5
178
330
12E
100
AcDbEntity
  8
AM_7
100
AcDbLine
 10
-3.0
 20
-0.3527343750000002
 30
0.0
 11
-3.0
 21
0.3527343749999998
 31
0.0
  0
LINE
  5
179
330
12E
100
AcDbEntity
  8
AM_4
100
AcDbLine
 10
3.82875
 20
1.125
 30
0.0
 11
1.625
 21
1.125
 31
0.0
  0
LINE
  5
17A
330
12E
100
AcDbEntity
  8
AM_4
100
AcDbLine
 10
4.0625
 20
-0.8912499999999995
 30
0.0
 11
4.0625
 21
0.8912499999999997
 31
0.0
  0
LINE
  5
17B
330
12E
100
AcDbEntity
  8
AM_4
100
AcDbLine
 10
4.0625
 20
0.8912499999999997
 30
0.0
 11
3.82875
 21
1.125
 31
0.0
  0
LINE
  5
17C
330
12E
100
AcDbEntity
  8
AM_4
100
AcDbLine
 10
-1.625
 20
1.125
 30
0.0
 11
-3.828749999999999
 21
1.125
 31
0.0
  0
LINE
  5
17D
330
12E
100
AcDbEntity
  8
AM_4
100
AcDbLine
 10
-4.062500000000001
 20
0.8912499999999977
 30
0.0
 11
-4.0625
 21
-0.89125
 31
0.0
  0
LINE
  5
17E
330
12E
100
AcDbEntity
  8
AM_4
100
AcDbLine
 10
-3.828749999999999
 20
1.125
 30
0.0
 11
-4.062500000000001
 21
0.8912499999999977
 31
0.0
  0
LINE
  5
17F
330
12E
100
AcDbEntity
  8
AM_4
100
AcDbLine
 10
-4.0625
 20
-0.89125
 30
0.0
 11
-3.82875
 21
-1.125
 31
0.0
  0
LWPOLYLINE
  5
180
330
12E
100
AcDbEntity
  8
AM_4
100
AcDbPolyline
 90
       10
 70
     0
 43
0.0
 10
-4.003444899999998
 20
0.2853142152329483
 10
-4.014609200436092
 20
0.2579718893411598
 10
-4.024656823187715
 20
0.2301466068322846
 10
-4.033613390266862
 20
0.201717786200205
 10
-4.041361824335918
 20
0.1730297808087161
 10
-4.050525240267719
 20
0.1306534432937344
 10
-4.05710259274136
 20
0.0879183765158378
 10
-4.061116670673769
 20
0.0445715414410775
 10
-4.06249927238146
 20
0.001022717518061
 10
-4.0625
 20
0.0
  0
LINE
  5
181
330
12E
100
AcDbEntity
  8
AM_4
100
AcDbLine
 10
3.82875
 20
-1.125
 30
0.0
 11
4.0625
 21
-0.8912499999999995
 31
0.0
  0
LWPOLYLINE
  5
182
330
12E
100
AcDbEntity
  8
AM_4
100
AcDbPolyline
 90
        9
 70
     0
 43
0.0
 10
4.062500000000001
 20
0.0000000000000002
 10
4.062499272381461
 20
0.0010227175181393
 10
4.061166589704772
 20
0.043760705163147
 10
4.057264277909853
 20
0.0865964070777934
 10
4.050681656668909
 20
0.1298044502293861
 10
4.04136182433592
 20
0.1730297808087133
 10
4.024968999414388
 20
0.2292209356425836
 10
4.014843917602612
 20
0.2573606734852441
 10
4.0034449
 20
0.2853142152329464
  0
LINE
  5
183
330
12E
100
AcDbEntity
  8
AM_4
100
AcDbLine
 10
3.82875
 20
-1.125
 30
0.0
 11
1.625
 21
-1.125
 31
0.0
  0
CIRCLE
  5
184
330
12E
100
AcDbEntity
  8
AM_4
100
AcDbCircle
 10
3.6875
 20
-0.8124999999999999
 30
0.0
 40
0.09375
  0
LINE
  5
185
330
12E
100
AcDbEntity
  8
AM_4
100
AcDbLine
 10
3.34375
 20
0.3359375000000001
 30
0.0
 11
3.0
 21
0.3359375000000001
 31
0.0
  0
ARC
  5
186
330
12E
100
AcDbEntity
  8
AM_4
100
AcDbCircle
 10
3.34375
 20
0.0000000000000001
 30
0.0
 40
0.3359374999999999
100
AcDbArc
 50
270.0
 51
90.0
  0
LINE
  5
187
330
12E
100
AcDbEntity
  8
AM_4
100
AcDbLine
 10
3.0
 20
-0.3359374999999999
 30
0.0
 11
3.34375
 21
-0.3359374999999998
 31
0.0
  0
ARC
  5
188
330
12E
100
AcDbEntity
  8
AM_4
100
AcDbCircle
 10
3.0
 20
0.0000000000000001
 30
0.0
 40
0.3359375
100
AcDbArc
 50
90.0
 51
270.0
  0
ARC
  5
189
330
12E
100
AcDbEntity
  8
AM_4
100
AcDbCircle
 10
2.838740200000001
 20
0.7974902000000004
 30
0.0
 40
0.0787402000000008
100
AcDbArc
 50
180.0
 51
270.0
  0
LINE
  5
18A
330
12E
100
AcDbEntity
  8
AM_4
100
AcDbLine
 10
4.0034449
 20
-0.9503051000000002
 30
0.0
 11
4.0034449
 21
0.2853142152329464
 31
0.0
  0
ARC
  5
18B
330
12E
100
AcDbEntity
  8
AM_4
100
AcDbCircle
 10
3.34375
 20
-0.0000000000000023
 30
0.0
 40
0.7187500000000018
100
AcDbArc
 50
23.38820227525428
 51
90.0
  0
LINE
  5
18C
330
12E
100
AcDbEntity
  8
AM_4
100
AcDbLine
 10
2.8387402
 20
0.7187499999999998
 30
0.0
 11
3.34375
 21
0.7187499999999997
 31
0.0
  0
CIRCLE
  5
18D
330
12E
100
AcDbEntity
  8
AM_4
100
AcDbCircle
 10
-3.6875
 20
-0.8125000000000004
 30
0.0
 40
0.09375
  0
LINE
  5
18E
330
12E
100
AcDbEntity
  8
AM_4
100
AcDbLine
 10
-3.0
 20
0.3359374999999999
 30
0.0
 11
-3.34375
 21
0.3359375000000001
 31
0.0
  0
ARC
  5
18F
330
12E
100
AcDbEntity
  8
AM_4
100
AcDbCircle
 10
-3.0
 20
-0.0000000000000001
 30
0.0
 40
0.3359374999999997
100
AcDbArc
 50
270.0
 51
90.0
  0
LINE
  5
190
330
12E
100
AcDbEntity
  8
AM_4
100
AcDbLine
 10
-3.34375
 20
-0.3359374999999998
 30
0.0
 11
-3.0
 21
-0.3359374999999998
 31
0.0
  0
ARC
  5
191
330
12E
100
AcDbEntity
  8
AM_4
100
AcDbCircle
 10
-3.34375
 20
0.0000000000000001
 30
0.0
 40
0.3359375
100
AcDbArc
 50
90.0
 51
270.0
  0
LINE
  5
192
330
12E
100
AcDbEntity
  8
AM_4
100
AcDbLine
 10
-3.34375
 20
0.7187499999999994
 30
0.0
 11
-2.8387402
 21
0.7187499999999997
 31
0.0
  0
ARC
  5
193
330
12E
100
AcDbEntity
  8
AM_4
100
AcDbCircle
 10
-3.34375
 20
-0.0000000000000023
 30
0.0
 40
0.7187500000000018
100
AcDbArc
 50
90.0
 51
156.6117977247455
  0
LINE
  5
194
330
12E
100
AcDbEntity
  8
AM_4
100
AcDbLine
 10
-4.003444899999998
 20
-0.9503051000000025
 30
0.0
 11
-4.003444899999998
 21
0.2853142152329483
 31
0.0
  0
LINE
  5
195
330
12E
100
AcDbEntity
  8
AM_4
100
AcDbLine
 10
-1.625
 20
-1.125000000000004
 30
0.0
 11
-3.82875
 21
-1.125
 31
0.0
  0
ARC
  5
196
330
12E
100
AcDbEntity
  8
AM_4
100
AcDbCircle
 10
-2.838740200000001
 20
0.7974901999999999
 30
0.0
 40
0.0787402000000003
100
AcDbArc
 50
270.0
 51
0.0
  0
LWPOLYLINE
  5
197
330
12E
100
AcDbEntity
  8
AM_4
100
AcDbPolyline
 90
       30
 70
     0
 43
0.0
 10
2.760000000000001
 20
0.6774965405815742
 10
2.701865558254626
 20
0.6540010834434253
 10
2.646000099629431
 20
0.6255282831636212
 10
2.59282879399704
 20
0.5922948349446376
 10
2.542756307099028
 20
0.5545536653943259
 10
2.496163720795283
 20
0.5125920076017051
 10
2.453405632800948
 20
0.4667292151197189
 10
2.414807457983701
 20
0.4173143314918664
 10
2.380662951760116
 20
0.3647234338200778
 10
2.351231974439571
 20
0.309356770590888
 10
2.326738513530385
 20
0.2516357155427763
 10
2.307368979059633
 20
0.1919995607575848
 10
2.293270784880282
 20
0.1309021733825236
 10
2.28455122676276
 20
0.0688085414271281
 10
2.281276665809354
 20
0.0061912349237388
 10
2.283472023406153
 20
-0.05647319061579
 10
2.291120591556252
 20
-0.1187078210752878
 10
2.304164160037698
 20
-0.1800390133386605
 10
2.322503459418425
 20
-0.2399999999999976
 10
2.345998916556574
 20
-0.2981344417453726
 10
2.374471716836378
 20
-0.3539999003705673
 10
2.407705165055361
 20
-0.4071712060029583
 10
2.445446334605673
 20
-0.4572436929009704
 10
2.487407992398294
 20
-0.5038362792047159
 10
2.53327078488028
 20
-0.5465943671990502
 10
2.582685668508132
 20
-0.5851925420162971
 10
2.63527656617992
 20
-0.6193370482398823
 10
2.690643229409111
 20
-0.6487680255604278
 10
2.748364284457222
 20
-0.6732614864696139
 10
2.760000000000001
 20
-0.6774965405815738
  0
LINE
  5
198
330
12E
100
AcDbEntity
  8
AM_4
100
AcDbLine
 10
2.760000000000001
 20
0.677496540581574
 30
0.0
 11
2.76
 21
1.125
 31
0.0
  0
LINE
  5
199
330
12E
100
AcDbEntity
  8
AM_4
100
AcDbLine
 10
2.760000000000001
 20
-1.125
 30
0.0
 11
2.760000000000001
 21
-0.677496540581574
 31
0.0
  0
LWPOLYLINE
  5
19A
330
12E
100
AcDbEntity
  8
AM_4
100
AcDbPolyline
 90
       30
 70
     0
 43
0.0
 10
-2.759999999999999
 20
-0.6774965405815738
 10
-2.701865558254624
 20
-0.654001083443425
 10
-2.64600009962943
 20
-0.6255282831636205
 10
-2.592828793997039
 20
-0.5922948349446369
 10
-2.542756307099027
 20
-0.554553665394325
 10
-2.496163720795281
 20
-0.5125920076017041
 10
-2.453405632800947
 20
-0.4667292151197178
 10
-2.4148074579837
 20
-0.4173143314918651
 10
-2.380662951760116
 20
-0.3647234338200765
 10
-2.35123197443957
 20
-0.3093567705908866
 10
-2.326738513530384
 20
-0.2516357155427748
 10
-2.307368979059633
 20
-0.1919995607575833
 10
-2.293270784880282
 20
-0.130902173382522
 10
-2.28455122676276
 20
-0.0688085414271264
 10
-2.281276665809354
 20
-0.0061912349237372
 10
-2.283472023406153
 20
0.0564731906157916
 10
-2.291120591556252
 20
0.1187078210752894
 10
-2.304164160037698
 20
0.1800390133386622
 10
-2.322503459418426
 20
0.2399999999999992
 10
-2.345998916556574
 20
0.298134441745374
 10
-2.374471716836378
 20
0.3539999003705688
 10
-2.407705165055362
 20
0.4071712060029595
 10
-2.445446334605674
 20
0.4572436929009716
 10
-2.487407992398295
 20
0.5038362792047169
 10
-2.533270784880281
 20
0.5465943671990514
 10
-2.582685668508134
 20
0.5851925420162982
 10
-2.635276566179922
 20
0.6193370482398831
 10
-2.690643229409112
 20
0.6487680255604285
 10
-2.748364284457224
 20
0.6732614864696145
 10
-2.759999999999998
 20
0.677496540581573
  0
LINE
  5
19B
330
12E
100
AcDbEntity
  8
AM_4
100
AcDbLine
 10
-2.759999999999999
 20
-1.125
 30
0.0
 11
-2.759999999999999
 21
-0.6774965405815737
 31
0.0
  0
LINE
  5
19C
330
12E
100
AcDbEntity
  8
AM_4
100
AcDbLine
 10
-2.759999999999999
 20
0.6774965405815732
 30
0.0
 11
-2.760000000000001
 21
1.125
 31
0.0
  0
LINE
  5
19D
330
12E
100
AcDbEntity
  8
AM_4
100
AcDbLine
 10
-1.625
 20
1.125
 30
0.0
 11
-1.625
 21
0.9600000749999998
 31
0.0
  0
LINE
  5
19E
330
12E
100
AcDbEntity
  8
AM_4
100
AcDbLine
 10
1.625
 20
0.9600000750000001
 30
0.0
 11
1.625
 21
1.125
 31
0.0
  0
LINE
  5
19F
330
12E
100
AcDbEntity
  8
AM_4
100
AcDbLine
 10
-1.625
 20
0.9600000749999998
 30
0.0
 11
1.625
 21
0.9600000750000001
 31
0.0
  0
LINE
  5
1A0
330
12E
100
AcDbEntity
  8
AM_4
100
AcDbLine
 10
1.625
 20
-1.125
 30
0.0
 11
1.625
 21
-0.9600000749999998
 31
0.0
  0
LINE
  5
1A1
330
12E
100
AcDbEntity
  8
AM_4
100
AcDbLine
 10
-1.625
 20
-0.9600000750000001
 30
0.0
 11
-1.625
 21
-1.125000000000004
 31
0.0
  0
LINE
  5
1A2
330
12E
100
AcDbEntity
  8
AM_4
100
AcDbLine
 10
-1.467823929613795
 20
-0.9600000750000001
 30
0.0
 11
-1.625
 21
-0.9600000750000001
 31
0.0
  0
LINE
  5
1A3
330
12E
100
AcDbEntity
  8
AM_4
100
AcDbLine
 10
1.625
 20
-0.9600000749999998
 30
0.0
 11
1.463506256392504
 21
-0.960000075
 31
0.0
  0
LWPOLYLINE
  5
1A4
330
12E
100
AcDbEntity
  8
AM_4
100
AcDbPolyline
 90
       37
 70
     0
 43
0.0
 10
-1.77165
 20
0.9762393719008264
 10
-1.764908336874241
 20
0.9609260052438515
 10
-1.744734655624078
 20
0.9457291825535996
 10
-1.711282490145028
 20
0.9307645608268362
 10
-1.664806431615355
 20
0.9161460298707875
 10
-1.605660190903481
 20
0.9019848455329393
 10
-1.534293906614701
 20
0.8883887829768597
 10
-1.451250719264593
 20
0.8754613164481274
 10
-1.357162637651738
 20
0.8633008317728438
 10
-1.252745728889148
 20
0.8519998775820891
 10
-1.138794668701159
 20
0.8416444609609577
 10
-1.016176693461333
 20
0.832313392882708
 10
-0.8858250000000019
 20
0.8240776884096683
 10
-0.7487316434129123
 20
0.8170000262257329
 10
-0.6059399869229235
 20
0.8111342716137308
 10
-0.4585367612558836
 20
0.8065250665080986
 10
-0.3076437939636201
 20
0.8032074897428045
 10
-0.1544094716388918
 20
0.8012067900802401
 10
-0.0000000000000034
 20
0.8005381940528927
 10
0.154409471638885
 20
0.80120679008024
 10
0.3076437939636135
 20
0.8032074897428044
 10
0.4585367612558771
 20
0.8065250665080984
 10
0.6059399869229171
 20
0.8111342716137304
 10
0.7487316434129063
 20
0.8170000262257326
 10
0.8858249999999962
 20
0.824077688409668
 10
1.016176693461327
 20
0.8323133928827076
 10
1.138794668701154
 20
0.8416444609609572
 10
1.252745728889143
 20
0.8519998775820886
 10
1.357162637651734
 20
0.8633008317728432
 10
1.451250719264589
 20
0.8754613164481269
 10
1.534293906614698
 20
0.8883887829768591
 10
1.605660190903478
 20
0.9019848455329387
 10
1.664806431615352
 20
0.9161460298707867
 10
1.711282490145026
 20
0.9307645608268355
 10
1.744734655624077
 20
0.945729182553599
 10
1.76490833687424
 20
0.9609260052438509
 10
1.77165
 20
0.9762393719008258
  0
LWPOLYLINE
  5
1A5
330
12E
100
AcDbEntity
  8
AM_4
100
AcDbPolyline
 90
        6
 70
     0
 43
0.0
 10
1.77165
 20
0.9762393719008264
 10
1.764908336874241
 20
0.9915527385578015
 10
1.744734655624078
 20
1.006749561248053
 10
1.711282490145028
 20
1.021714182974817
 10
1.664806431615355
 20
1.036332713930866
 10
1.625
 20
1.046233752892761
  0
LWPOLYLINE
  5
1A6
330
12E
100
AcDbEntity
  8
AM_4
100
AcDbPolyline
 90
       37
 70
     0
 43
0.0
 10
1.77165
 20
-0.9762393719008264
 10
1.764908336874241
 20
-0.9609260052438515
 10
1.744734655624078
 20
-0.9457291825535996
 10
1.711282490145028
 20
-0.9307645608268362
 10
1.664806431615355
 20
-0.9161460298707875
 10
1.605660190903481
 20
-0.9019848455329392
 10
1.534293906614701
 20
-0.8883887829768596
 10
1.451250719264593
 20
-0.8754613164481272
 10
1.357162637651739
 20
-0.8633008317728436
 10
1.252745728889148
 20
-0.851999877582089
 10
1.138794668701159
 20
-0.8416444609609576
 10
1.016176693461333
 20
-0.8323133928827079
 10
0.8858250000000022
 20
-0.8240776884096682
 10
0.7487316434129127
 20
-0.8170000262257328
 10
0.6059399869229237
 20
-0.8111342716137305
 10
0.4585367612558838
 20
-0.8065250665080984
 10
0.3076437939636203
 20
-0.8032074897428043
 10
0.154409471638892
 20
-0.8012067900802399
 10
0.0000000000000036
 20
-0.8005381940528926
 10
-0.1544094716388849
 20
-0.8012067900802399
 10
-0.3076437939636132
 20
-0.8032074897428043
 10
-0.4585367612558769
 20
-0.8065250665080982
 10
-0.605939986922917
 20
-0.8111342716137303
 10
-0.7487316434129061
 20
-0.8170000262257324
 10
-0.8858249999999959
 20
-0.8240776884096678
 10
-1.016176693461327
 20
-0.8323133928827074
 10
-1.138794668701153
 20
-0.8416444609609571
 10
-1.252745728889143
 20
-0.8519998775820885
 10
-1.357162637651734
 20
-0.863300831772843
 10
-1.451250719264589
 20
-0.8754613164481267
 10
-1.534293906614698
 20
-0.8883887829768591
 10
-1.605660190903478
 20
-0.9019848455329387
 10
-1.664806431615352
 20
-0.9161460298707867
 10
-1.711282490145026
 20
-0.9307645608268355
 10
-1.744734655624077
 20
-0.945729182553599
 10
-1.76490833687424
 20
-0.9609260052438507
 10
-1.77165
 20
-0.9762393719008258
  0
LWPOLYLINE
  5
1A7
330
12E
100
AcDbEntity
  8
AM_4
100
AcDbPolyline
 90
        6
 70
     0
 43
0.0
 10
-1.77165
 20
-0.9762393719008264
 10
-1.764908336874241
 20
-0.9915527385578015
 10
-1.744734655624078
 20
-1.006749561248053
 10
-1.711282490145028
 20
-1.021714182974817
 10
-1.664806431615355
 20
-1.036332713930866
 10
-1.625
 20
-1.046233752892761
  0
LINE
  5
1A8
330
12E
100
AcDbEntity
  8
AM_4
100
AcDbLine
 10
1.738362659932848
 20
0.1102360000000002
 30
0.0
 11
1.72444326294519
 21
0.1102360000000002
 31
0.0
  0
LINE
  5
1A9
330
12E
100
AcDbEntity
  8
AM_4
100
AcDbLine
 10
1.72444326294519
 20
-0.110236
 30
0.0
 11
1.738362659932848
 21
-0.110236
 31
0.0
  0
ELLIPSE
  5
1AA
330
12E
100
AcDbEntity
  8
AM_4
100
AcDbEllipse
 10
1.72444326294519
 20
0.0000000000000001
 30
0.0
 11
6.750008227540382E-18
 21
0.110236
 31
0.0
210
0.0
220
0.0
230
1.0
 40
0.7071067811865465
 41
0.0
 42
3.141592653589793
  0
ELLIPSE
  5
1AB
330
12E
100
AcDbEntity
  8
AM_4
100
AcDbEllipse
 10
1.738362659932849
 20
0.0000000000000001
 30
0.0
 11
6.750008227540390E-18
 21
0.1102360000000001
 31
0.0
210
0.0
220
0.0
230
1.0
 40
0.7071067811865496
 41
5.690759900023687
 42
10.019016319483
  0
LWPOLYLINE
  5
1AC
330
12E
100
AcDbEntity
  8
AM_4
100
AcDbPolyline
 90
        5
 70
     0
 43
0.0
 10
1.520267238730673
 20
-0.0909214090671166
 10
1.544352002859838
 20
-0.1133330912277905
 10
1.57079405906884
 20
-0.1359448732442178
 10
1.600094164646598
 20
-0.1588926749040721
 10
1.631622768185322
 20
-0.1818428181342336
  0
LINE
  5
1AD
330
12E
100
AcDbEntity
  8
AM_4
100
AcDbLine
 10
1.631622768185322
 20
-0.1818428181342336
 30
0.0
 11
1.719827271684677
 21
-0.1818428181342336
 31
0.0
  0
LINE
  5
1AE
330
12E
100
AcDbEntity
  8
AM_4
100
AcDbLine
 10
1.631622768185322
 20
0.1818428181342338
 30
0.0
 11
1.719827271684677
 21
0.1818428181342338
 31
0.0
  0
LWPOLYLINE
  5
1AF
330
12E
100
AcDbEntity
  8
AM_4
100
AcDbPolyline
 90
        5
 70
     0
 43
0.0
 10
1.631622768185322
 20
0.1818428181342338
 10
1.600810346743398
 20
0.1594311359735597
 10
1.571865074837113
 20
0.1368193539571325
 10
1.544954775629635
 20
0.1138715522972782
 10
1.520267238730673
 20
0.090921409067117
  0
LINE
  5
1B0
330
12E
100
AcDbEntity
  8
AM_4
100
AcDbLine
 10
1.520267238730673
 20
0.090921409067117
 30
0.0
 11
1.608471742230028
 21
0.090921409067117
 31
0.0
  0
LWPOLYLINE
  5
1B1
330
12E
100
AcDbEntity
  8
AM_4
100
AcDbPolyline
 90
        5
 70
     0
 43
0.0
 10
1.520267238730673
 20
0.090921409067117
 10
1.516903410074294
 20
0.0460980447457689
 10
1.515651802225653
 20
0.0008744807129148
 10
1.516846705410793
 20
-0.0450211226067938
 10
1.520267238730673
 20
-0.0909214090671166
  0
LINE
  5
1B2
330
12E
100
AcDbEntity
  8
AM_4
100
AcDbLine
 10
1.520267238730673
 20
-0.0909214090671166
 30
0.0
 11
1.608471742230028
 21
-0.0909214090671167
 31
0.0
  0
LWPOLYLINE
  5
1B3
330
12E
100
AcDbEntity
  8
AM_4
100
AcDbPolyline
 90
        5
 70
     0
 43
0.0
 10
1.815801208574656
 20
-0.1054352224083537
 10
1.80709803701016
 20
-0.1133330912277908
 10
1.780655980801158
 20
-0.135944873244218
 10
1.7513558752234
 20
-0.1588926749040724
 10
1.719827271684677
 20
-0.1818428181342336
  0
LWPOLYLINE
  5
1B4
330
12E
100
AcDbEntity
  8
AM_4
100
AcDbPolyline
 90
        5
 70
     0
 43
0.0
 10
1.719827271684677
 20
0.1818428181342338
 10
1.7506396931266
 20
0.1594311359735597
 10
1.779584965032885
 20
0.1368193539571327
 10
1.806495264240363
 20
0.1138715522972784
 10
1.815797513024096
 20
0.1054386248682316
  0
LWPOLYLINE
  5
1B5
330
12E
100
AcDbEntity
  8
AM_4
100
AcDbPolyline
 90
        5
 70
     0
 43
0.0
 10
1.608471742230028
 20
0.090921409067117
 10
1.639284163671952
 20
0.113333091227791
 10
1.668229435578237
 20
0.135944873244218
 10
1.695139734785714
 20
0.1588926749040725
 10
1.719827271684677
 20
0.1818428181342338
  0
LWPOLYLINE
  5
1B6
330
12E
100
AcDbEntity
  8
AM_4
100
AcDbPolyline
 90
        5
 70
     0
 43
0.0
 10
1.608471742230028
 20
-0.0909214090671167
 10
1.611835570886408
 20
-0.0460980447457686
 10
1.61308717873505
 20
-0.0008744807129144
 10
1.611892275549909
 20
0.0450211226067941
 10
1.608471742230028
 20
0.090921409067117
  0
LWPOLYLINE
  5
1B7
330
12E
100
AcDbEntity
  8
AM_4
100
AcDbPolyline
 90
        5
 70
     0
 43
0.0
 10
1.719827271684677
 20
-0.1818428181342336
 10
1.695742507555512
 20
-0.1594311359735595
 10
1.66930045134651
 20
-0.1368193539571323
 10
1.640000345768751
 20
-0.113871552297278
 10
1.608471742230028
 20
-0.0909214090671167
  0
ELLIPSE
  5
1B8
330
12E
100
AcDbEntity
  8
AM_4
100
AcDbEllipse
 10
1.72444326294519
 20
0.0
 30
0.0
 11
9.642868896486237E-18
 21
0.1574799999999996
 31
0.0
210
0.0
220
0.0
230
1.0
 40
0.7071067811865486
 41
5.43758978549237
 42
10.27067254390414
  0
ELLIPSE
  5
1B9
330
12E
100
AcDbEntity
  8
AM_4
100
AcDbEllipse
 10
1.8154448556192
 20
0.0000000000000001
 30
0.0
 11
6.258279750336301E-18
 21
0.1022054645419979
 31
0.0
210
0.0
220
0.0
230
1.0
 40
0.7071067811865485
 41
0.6595185384320912
 42
2.423980329900635
  0
LWPOLYLINE
  5
1BA
330
12E
100
AcDbEntity
  8
AM_4
100
AcDbPolyline
 90
       11
 70
     0
 43
0.0
 10
1.857777282870623
 20
0.0966031878365425
 10
1.851119772699954
 20
0.1001216666110495
 10
1.840968058579933
 20
0.1038618670296156
 10
1.830621041819242
 20
0.1058509904511992
 10
1.820271234033457
 20
0.1061117756245288
 10
1.810077944414974
 20
0.1046927545501091
 10
1.800193734867662
 20
0.1016564965486356
 10
1.790730652909029
 20
0.0970629148512617
 10
1.781792557993454
 20
0.090965101730378
 10
1.773493236850759
 20
0.0834235060593352
 10
1.771679556123095
 20
0.0814839070729499
  0
LWPOLYLINE
  5
1BB
330
12E
100
AcDbEntity
  8
AM_4
100
AcDbPolyline
 90
        4
 70
     0
 43
0.0
 10
1.871573252599616
 20
0.0860678197827455
 10
1.869962593568717
 20
0.0875600543721794
 10
1.860858206145378
 20
0.0946573049170308
 10
1.857777282870623
 20
0.0966031878365425
  0
LWPOLYLINE
  5
1BC
330
12E
100
AcDbEntity
  8
AM_4
100
AcDbPolyline
 90
        3
 70
     0
 43
0.0
 10
1.866321302239101
 20
-0.0906577653403427
 10
1.868609818501524
 20
-0.0887541815368168
 10
1.870080836950051
 20
-0.0874531512428981
  0
LWPOLYLINE
  5
1BD
330
12E
100
AcDbEntity
  8
AM_4
100
AcDbPolyline
 90
       12
 70
     0
 43
0.0
 10
1.768315143489817
 20
-0.0775580267887084
 10
1.771983327598072
 20
-0.0818169593946163
 10
1.780536838671125
 20
-0.0899512734014242
 10
1.78986259510289
 20
-0.0965506356581537
 10
1.799754710067425
 20
-0.1014814820781283
 10
1.809990189826237
 20
-0.1046731633492351
 10
1.8203572375421
 20
-0.1061166302549251
 10
1.83067363511971
 20
-0.1058453012544963
 10
1.840785578072694
 20
-0.1039124056546125
 10
1.850548894769211
 20
-0.1003822790309112
 10
1.859858937115318
 20
-0.0953117233065394
 10
1.864640561381463
 20
-0.0919671562926167
  0
LINE
  5
1BE
330
12E
100
AcDbEntity
  8
AM_4
100
AcDbLine
 10
1.9009750085114
 20
0.0605219071451575
 30
0.0
 11
1.868926426309888
 21
0.0884794128974549
 31
0.0
  0
LINE
  5
1BF
330
12E
100
AcDbEntity
  8
AM_4
100
AcDbLine
 10
1.868926426309888
 20
-0.0884794128974548
 30
0.0
 11
1.9009750085114
 21
-0.0605219071451574
 31
0.0
  0
ELLIPSE
  5
1C0
330
12E
100
AcDbEntity
  8
AM_4
100
AcDbEllipse
 10
1.830334021823992
 20
0.0
 30
0.0
 11
6.365617546288473E-18
 21
0.1039584237793373
 31
0.0
210
0.0
220
0.0
230
1.0
 40
0.7071067811865465
 41
5.730473253052753
 42
9.97749001489621
  0
ELLIPSE
  5
1C1
330
12E
100
AcDbEntity
  8
AM_4
100
AcDbEllipse
 10
1.874576936413988
 20
-0.0000000000000001
 30
0.0
 11
4.354225479598981E-18
 21
0.07110989850511286
 31
0.0
210
0.0
220
0.0
230
1.0
 40
0.7071067811865491
 41
5.730473253052758
 42
9.977490014896212
  0
ELLIPSE
  5
1C2
330
12E
100
AcDbEntity
  8
AM_4
100
AcDbEllipse
 10
1.874576936413985
 20
0.0000000000000057
 30
0.0
 11
4.354225479598533E-18
 21
0.07110989850510553
 31
0.0
210
0.0
220
0.0
230
1.0
 40
0.7071067811866001
 41
5.443955469794484
 42
5.730473253052708
  0
ELLIPSE
  5
1C3
330
12E
100
AcDbEntity
  8
AM_4
100
AcDbEllipse
 10
1.87755662980942
 20
0.0000000000000001
 30
0.0
 11
-1.178200542891337E-17
 21
-0.06413825024007719
 31
0.0
210
0.0
220
0.0
230
1.0
 40
0.7071067811865472
 41
0.0
 42
6.283185307179586
  0
LWPOLYLINE
  5
1C4
330
12E
100
AcDbEntity
  8
AM_4
100
AcDbPolyline
 90
        7
 70
     0
 43
0.0
 10
1.925215468550419
 20
0.0000000000000001
 10
1.925037921566831
 20
0.0059113751878109
 10
1.923760627699665
 20
0.0168158364606716
 10
1.921269303642256
 20
0.0273526202781512
 10
1.917606177327936
 20
0.0372746655728825
 10
1.91283338049326
 20
0.0463504057122059
 10
1.912351795086162
 20
0.0471184830464439
  0
LWPOLYLINE
  5
1C5
330
12E
100
AcDbEntity
  8
AM_4
100
AcDbPolyline
 90
        7
 70
     0
 43
0.0
 10
1.90956232156057
 20
-0.0511740622378492
 10
1.91431807782368
 20
-0.0438350930789452
 10
1.9187412952753
 20
-0.0345856271303481
 10
1.922070647944988
 20
-0.0245165574761405
 10
1.924229296293214
 20
-0.0138767964602665
 10
1.925172350464981
 20
-0.0029150511569774
 10
1.925215468550419
 20
0.0000000000000001
  0
ELLIPSE
  5
1C6
330
12E
100
AcDbEntity
  8
AM_4
100
AcDbEllipse
 10
1.874576936413977
 20
-0.000000000000001
 30
0.0
 11
4.354225479598931E-18
 21
0.07110989850511204
 31
0.0
210
0.0
220
0.0
230
1.0
 40
0.7071067811866291
 41
3.694304707716761
 42
3.90178887834686
  0
LINE
  5
1C7
330
12E
100
AcDbEntity
  8
AM_4
100
AcDbLine
 10
-0.246400920458
 20
0.0335047000000002
 30
0.0
 11
-0.2433398951829999
 21
0.0218509
 31
0.0
  0
LINE
  5
1C8
330
12E
100
AcDbEntity
  8
AM_4
100
AcDbLine
 10
-0.243339895183
 20
0.0218509000000001
 30
0.0
 11
-0.243339895183
 21
-0.0218508779411999
 31
0.0
  0
LINE
  5
1C9
330
12E
100
AcDbEntity
  8
AM_4
100
AcDbLine
 10
-0.3290446658729999
 20
-0.0509854606029999
 30
0.0
 11
-0.3290446658729999
 21
0.0509854000000001
 31
0.0
  0
LINE
  5
1CA
330
12E
100
AcDbEntity
  8
AM_4
100
AcDbLine
 10
-0.273948573129
 20
-0.0509854606029999
 30
0.0
 11
-0.3290446658729999
 21
-0.0509854606029999
 31
0.0
  0
LINE
  5
1CB
330
12E
100
AcDbEntity
  8
AM_4
100
AcDbLine
 10
-0.2617052594309998
 20
-0.0480720732029999
 30
0.0
 11
-0.2739485731289997
 21
-0.0509854606029999
 31
0.0
  0
LINE
  5
1CC
330
12E
100
AcDbEntity
  8
AM_4
100
AcDbLine
 10
-0.252522577307
 20
-0.042244904702
 30
0.0
 11
-0.2617052594309998
 21
-0.0480720732029998
 31
0.0
  0
LINE
  5
1CD
330
12E
100
AcDbEntity
  8
AM_4
100
AcDbLine
 10
-0.2464009204580002
 20
-0.0335047031319
 30
0.0
 11
-0.252522577307
 21
-0.0422449047019999
 31
0.0
  0
LINE
  5
1CE
330
12E
100
AcDbEntity
  8
AM_4
100
AcDbLine
 10
-0.2433398951830001
 20
-0.0218508779412004
 30
0.0
 11
-0.2464009204580002
 21
-0.0335047031319007
 31
0.0
  0
LINE
  5
1CF
330
12E
100
AcDbEntity
  8
AM_4
100
AcDbLine
 10
-0.2525225773069997
 20
0.0422448999999999
 30
0.0
 11
-0.2464009204579999
 21
0.0335047000000001
 31
0.0
  0
LINE
  5
1D0
330
12E
100
AcDbEntity
  8
AM_4
100
AcDbLine
 10
-0.261705259431
 20
0.0480720000000003
 30
0.0
 11
-0.2525225773069998
 21
0.0422449000000001
 31
0.0
  0
LINE
  5
1D1
330
12E
100
AcDbEntity
  8
AM_4
100
AcDbLine
 10
-0.273948573129
 20
0.0509854
 30
0.0
 11
-0.2617052594310001
 21
0.048072
 31
0.0
  0
LINE
  5
1D2
330
12E
100
AcDbEntity
  8
AM_4
100
AcDbLine
 10
-0.3290446658729999
 20
0.0509854000000001
 30
0.0
 11
-0.273948573129
 21
0.0509854000000001
 31
0.0
  0
LINE
  5
1D3
330
12E
100
AcDbEntity
  8
AM_4
100
AcDbLine
 10
-0.18212214559
 20
0.0218508999999998
 30
0.0
 11
-0.1790615140160003
 21
0.0335046999999988
 31
0.0
  0
LINE
  5
1D4
330
12E
100
AcDbEntity
  8
AM_4
100
AcDbLine
 10
-0.18212214559
 20
-0.0218508779411998
 30
0.0
 11
-0.18212214559
 21
0.0218509000000001
 31
0.0
  0
LINE
  5
1D5
330
12E
100
AcDbEntity
  8
AM_4
100
AcDbLine
 10
-0.1790615140159995
 20
-0.0335047031319019
 30
0.0
 11
-0.1821221455899991
 21
-0.021850877941203
 31
0.0
  0
LINE
  5
1D6
330
12E
100
AcDbEntity
  8
AM_4
100
AcDbLine
 10
-0.1729394634659983
 20
-0.0422449047020024
 30
0.0
 11
-0.1790615140159994
 21
-0.0335047031319008
 31
0.0
  0
LINE
  5
1D7
330
12E
100
AcDbEntity
  8
AM_4
100
AcDbLine
 10
-0.1637571750430006
 20
-0.0480720732029994
 30
0.0
 11
-0.1729394634659983
 21
-0.0422449047020008
 31
0.0
  0
LINE
  5
1D8
330
12E
100
AcDbEntity
  8
AM_4
100
AcDbLine
 10
-0.1515134676439991
 20
-0.0509854606030001
 30
0.0
 11
-0.1637571750430006
 21
-0.0480720732029998
 31
0.0
  0
LINE
  5
1D9
330
12E
100
AcDbEntity
  8
AM_4
100
AcDbLine
 10
-0.127026446547
 20
-0.0509854606029999
 30
0.0
 11
-0.151513467644
 21
-0.0509854606029999
 31
0.0
  0
LINE
  5
1DA
330
12E
100
AcDbEntity
  8
AM_4
100
AcDbLine
 10
-0.1147831328489998
 20
-0.0480720732029999
 30
0.0
 11
-0.1270264465469999
 21
-0.050985460603
 31
0.0
  0
LINE
  5
1DB
330
12E
100
AcDbEntity
  8
AM_4
100
AcDbLine
 10
-0.1056004507249999
 20
-0.0422449047019997
 30
0.0
 11
-0.1147831328490002
 21
-0.0480720732029999
 31
0.0
  0
LINE
  5
1DC
330
12E
100
AcDbEntity
  8
AM_4
100
AcDbLine
 10
-0.099478400175
 20
-0.0335047031319
 30
0.0
 11
-0.105600450725
 21
-0.042244904702
 31
0.0
  0
LINE
  5
1DD
330
12E
100
AcDbEntity
  8
AM_4
100
AcDbLine
 10
-0.096417768601
 20
-0.0218508779412
 30
0.0
 11
-0.099478400175
 21
-0.0335047031319
 31
0.0
  0
LINE
  5
1DE
330
12E
100
AcDbEntity
  8
AM_4
100
AcDbLine
 10
-0.096417768601
 20
0.0218509000000001
 30
0.0
 11
-0.096417768601
 21
-0.0218508779411999
 31
0.0
  0
LINE
  5
1DF
330
12E
100
AcDbEntity
  8
AM_4
100
AcDbLine
 10
-0.0994784001750003
 20
0.0335047000000012
 30
0.0
 11
-0.0964177686010003
 21
0.0218509000000011
 31
0.0
  0
LINE
  5
1E0
330
12E
100
AcDbEntity
  8
AM_4
100
AcDbLine
 10
-0.1056004507250002
 20
0.0422449000000005
 30
0.0
 11
-0.0994784001749998
 21
0.0335046999999998
 31
0.0
  0
LINE
  5
1E1
330
12E
100
AcDbEntity
  8
AM_4
100
AcDbLine
 10
-0.1147831328490001
 20
0.0480720000000002
 30
0.0
 11
-0.1056004507249998
 21
0.0422449
 31
0.0
  0
LINE
  5
1E2
330
12E
100
AcDbEntity
  8
AM_4
100
AcDbLine
 10
-0.1270264465470002
 20
0.0509854000000002
 30
0.0
 11
-0.114783132849
 21
0.0480720000000002
 31
0.0
  0
LINE
  5
1E3
330
12E
100
AcDbEntity
  8
AM_4
100
AcDbLine
 10
-0.151513467644
 20
0.0509854000000001
 30
0.0
 11
-0.127026446547
 21
0.0509854000000001
 31
0.0
  0
LINE
  5
1E4
330
12E
100
AcDbEntity
  8
AM_4
100
AcDbLine
 10
-0.1637571750430014
 20
0.0480719999999997
 30
0.0
 11
-0.1515134676439999
 21
0.0509854000000001
 31
0.0
  0
LINE
  5
1E5
330
12E
100
AcDbEntity
  8
AM_4
100
AcDbLine
 10
-0.1729394634660012
 20
0.0422448999999995
 30
0.0
 11
-0.1637571750430014
 21
0.0480719999999993
 31
0.0
  0
LINE
  5
1E6
330
12E
100
AcDbEntity
  8
AM_4
100
AcDbLine
 10
-0.1790615140160003
 20
0.0335046999999998
 30
0.0
 11
-0.1729394634660012
 21
0.0422448999999985
 31
0.0
  0
LINE
  5
1E7
330
12E
100
AcDbEntity
  8
AM_4
100
AcDbLine
 10
2.760000000000001
 20
-1.125
 30
0.0
 11
2.204477834112336
 21
-0.9180404284188717
 31
0.0
  0
LINE
  5
1E8
330
12E
100
AcDbEntity
  8
AM_4
100
AcDbLine
 10
-2.204477834112335
 20
-0.9180404284188715
 30
0.0
 11
-2.759999999999999
 21
-1.125
 31
0.0
  0
LWPOLYLINE
  5
1E9
330
12E
100
AcDbEntity
  8
AM_4
100
AcDbPolyline
 90
        6
 70
     0
 43
0.0
 10
1.625
 20
-1.046233752892761
 10
1.680328751698124
 20
-1.031921614854814
 10
1.722869186985584
 20
-1.01718570132613
 10
1.752297547463227
 20
-1.00213816150645
 10
1.768389865538486
 20
-0.9868935162597541
 10
1.77165
 20
-0.9762393719008264
  0
LINE
  5
1EA
330
12E
100
AcDbEntity
  8
AM_4
100
AcDbLine
 10
2.204477834112336
 20
0.9180404284188717
 30
0.0
 11
2.76
 21
1.125
 31
0.0
  0
LWPOLYLINE
  5
1EB
330
12E
100
AcDbEntity
  8
AM_4
100
AcDbPolyline
 90
        6
 70
     0
 43
0.0
 10
-1.625
 20
1.046233752892761
 10
-1.680328751698124
 20
1.031921614854814
 10
-1.722869186985584
 20
1.01718570132613
 10
-1.752297547463227
 20
1.00213816150645
 10
-1.768389865538486
 20
0.9868935162597541
 10
-1.77165
 20
0.9762393719008264
  0
LINE
  5
1EC
330
12E
100
AcDbEntity
  8
AM_4
100
AcDbLine
 10
-2.760000000000001
 20
1.125
 30
0.0
 11
-2.204477834112335
 21
0.9180404284188715
 31
0.0
  0
LINE
  5
1ED
330
12E
100
AcDbEntity
  8
AM_4
100
AcDbLine
 10
-0.053565383256
 20
0.0684661000000001
 30
0.0
 11
0.0198957
 21
0.0684661000000001
 31
0.0
  0
LINE
  5
1EE
330
12E
100
AcDbEntity
  8
AM_4
100
AcDbLine
 10
0.0198957
 20
-0.0684661787039998
 30
0.0
 11
-0.053565383256
 21
-0.0684661787039998
 31
0.0
  0
LINE
  5
1EF
330
12E
100
AcDbEntity
  8
AM_4
100
AcDbLine
 10
0.347409
 20
-0.0684661787039999
 30
0.0
 11
0.237218
 21
-0.0684661787039998
 31
0.0
  0
LINE
  5
1F0
330
12E
100
AcDbEntity
  8
AM_4
100
AcDbLine
 10
0.237218
 20
-0.0684661787039998
 30
0.0
 11
0.237218
 21
0.0684661000000001
 31
0.0
  0
LINE
  5
1F1
330
12E
100
AcDbEntity
  8
AM_4
100
AcDbLine
 10
0.237218
 20
0.0684661000000001
 30
0.0
 11
0.347409
 21
0.0684661000000001
 31
0.0
  0
LINE
  5
1F2
330
12E
100
AcDbEntity
  8
AM_4
100
AcDbLine
 10
0.347409
 20
0.0684661000000001
 30
0.0
 11
0.347409
 21
0.0509854000000001
 31
0.0
  0
LINE
  5
1F3
330
12E
100
AcDbEntity
  8
AM_4
100
AcDbLine
 10
0.347409
 20
0.0509854000000001
 30
0.0
 11
0.255583
 21
0.0509854000000001
 31
0.0
  0
LINE
  5
1F4
330
12E
100
AcDbEntity
  8
AM_4
100
AcDbLine
 10
0.255583
 20
0.0509854000000001
 30
0.0
 11
0.255583
 21
0.0131105000000001
 31
0.0
  0
LINE
  5
1F5
330
12E
100
AcDbEntity
  8
AM_4
100
AcDbLine
 10
0.255583
 20
0.0131105000000001
 30
0.0
 11
0.335166
 21
0.0131105000000001
 31
0.0
  0
LINE
  5
1F6
330
12E
100
AcDbEntity
  8
AM_4
100
AcDbLine
 10
0.335166
 20
0.0131105000000001
 30
0.0
 11
0.335166
 21
-0.0043701598401999
 31
0.0
  0
LINE
  5
1F7
330
12E
100
AcDbEntity
  8
AM_4
100
AcDbLine
 10
0.335166
 20
-0.0043701598401999
 30
0.0
 11
0.255583
 21
-0.0043701598401998
 31
0.0
  0
LINE
  5
1F8
330
12E
100
AcDbEntity
  8
AM_4
100
AcDbLine
 10
0.255583
 20
-0.0043701598401998
 30
0.0
 11
0.255583
 21
-0.0509854606029999
 31
0.0
  0
LINE
  5
1F9
330
12E
100
AcDbEntity
  8
AM_4
100
AcDbLine
 10
0.255583
 20
-0.0509854606029999
 30
0.0
 11
0.347409
 21
-0.0509854606029999
 31
0.0
  0
LINE
  5
1FA
330
12E
100
AcDbEntity
  8
AM_4
100
AcDbLine
 10
0.347409
 20
-0.0509854606029999
 30
0.0
 11
0.347409
 21
-0.0684661787039999
 31
0.0
  0
LINE
  5
1FB
330
12E
100
AcDbEntity
  8
AM_4
100
AcDbLine
 10
0.0933567
 20
-0.0218508779411999
 30
0.0
 11
0.0933567
 21
0.0218509000000001
 31
0.0
  0
LINE
  5
1FC
330
12E
100
AcDbEntity
  8
AM_4
100
AcDbLine
 10
0.0933567000000003
 20
0.0218509000000017
 30
0.0
 11
0.0964176999999997
 21
0.0364180999999988
 31
0.0
  0
LINE
  5
1FD
330
12E
100
AcDbEntity
  8
AM_4
100
AcDbLine
 10
0.0964176999999997
 20
0.0364180999999996
 30
0.0
 11
0.1025389999999988
 21
0.0480719999999978
 31
0.0
  0
LINE
  5
1FE
330
12E
100
AcDbEntity
  8
AM_4
100
AcDbLine
 10
0.1025389999999987
 20
0.0480719999999989
 30
0.0
 11
0.1147829999999993
 21
0.0597255999999994
 31
0.0
  0
LINE
  5
1FF
330
12E
100
AcDbEntity
  8
AM_4
100
AcDbLine
 10
0.1147829999999993
 20
0.0597255999999998
 30
0.0
 11
0.1270259999999986
 21
0.0655527999999995
 31
0.0
  0
LINE
  5
200
330
12E
100
AcDbEntity
  8
AM_4
100
AcDbLine
 10
0.1270259999999986
 20
0.0655527999999998
 30
0.0
 11
0.1423309999999986
 21
0.0684660999999998
 31
0.0
  0
LINE
  5
201
330
12E
100
AcDbEntity
  8
AM_4
100
AcDbLine
 10
0.142331
 20
0.0684661000000001
 30
0.0
 11
0.169879
 21
0.0684661000000001
 31
0.0
  0
LINE
  5
202
330
12E
100
AcDbEntity
  8
AM_4
100
AcDbLine
 10
0.169879
 20
0.0684661000000001
 30
0.0
 11
0.1851830000000002
 21
0.0655528
 31
0.0
  0
LINE
  5
203
330
12E
100
AcDbEntity
  8
AM_4
100
AcDbLine
 10
0.1851830000000002
 20
0.0655528000000001
 30
0.0
 11
0.1974270000000001
 21
0.0597256000000001
 31
0.0
  0
LINE
  5
204
330
12E
100
AcDbEntity
  8
AM_4
100
AcDbLine
 10
0.1974270000000002
 20
0.0597256
 30
0.0
 11
0.2096700000000001
 21
0.0480720000000001
 31
0.0
  0
LINE
  5
205
330
12E
100
AcDbEntity
  8
AM_4
100
AcDbLine
 10
0.20967
 20
0.0480720000000001
 30
0.0
 11
0.2127309999999998
 21
0.0335047000000013
 31
0.0
  0
LINE
  5
206
330
12E
100
AcDbEntity
  8
AM_4
100
AcDbLine
 10
0.212731
 20
0.0335047000000001
 30
0.0
 11
0.194366
 21
0.0335047000000002
 31
0.0
  0
LINE
  5
207
330
12E
100
AcDbEntity
  8
AM_4
100
AcDbLine
 10
0.1943660000000018
 20
0.0335046999999949
 30
0.0
 11
0.1913050000000007
 21
0.0422448999999983
 31
0.0
  0
LINE
  5
208
330
12E
100
AcDbEntity
  8
AM_4
100
AcDbLine
 10
0.1913050000000006
 20
0.0422448999999998
 30
0.0
 11
0.1821220000000016
 21
0.0480719999999992
 31
0.0
  0
LINE
  5
209
330
12E
100
AcDbEntity
  8
AM_4
100
AcDbLine
 10
0.1821220000000017
 20
0.0480719999999997
 30
0.0
 11
0.1698790000000001
 21
0.0509854000000001
 31
0.0
  0
LINE
  5
20A
330
12E
100
AcDbEntity
  8
AM_4
100
AcDbLine
 10
0.169879
 20
0.0509854000000001
 30
0.0
 11
0.142331
 21
0.0509854000000001
 31
0.0
  0
LINE
  5
20B
330
12E
100
AcDbEntity
  8
AM_4
100
AcDbLine
 10
0.1423310000000002
 20
0.0509854000000003
 30
0.0
 11
0.130087
 21
0.0480720000000002
 31
0.0
  0
LINE
  5
20C
330
12E
100
AcDbEntity
  8
AM_4
100
AcDbLine
 10
0.130087
 20
0.0480720000000001
 30
0.0
 11
0.1209049999999998
 21
0.0422449
 31
0.0
  0
LINE
  5
20D
330
12E
100
AcDbEntity
  8
AM_4
100
AcDbLine
 10
0.1209049999999998
 20
0.0422448999999999
 30
0.0
 11
0.1147829999999999
 21
0.0335047
 31
0.0
  0
LINE
  5
20E
330
12E
100
AcDbEntity
  8
AM_4
100
AcDbLine
 10
0.1147829999999999
 20
0.0335046999999998
 30
0.0
 11
0.1117220000000003
 21
0.0218509000000012
 31
0.0
  0
LINE
  5
20F
330
12E
100
AcDbEntity
  8
AM_4
100
AcDbLine
 10
0.111722
 20
0.0218509000000001
 30
0.0
 11
0.111722
 21
-0.0218508779411999
 31
0.0
  0
LINE
  5
210
330
12E
100
AcDbEntity
  8
AM_4
100
AcDbLine
 10
0.111722
 20
-0.0218508779411999
 30
0.0
 11
0.1147830000000001
 21
-0.0335047031319004
 31
0.0
  0
LINE
  5
211
330
12E
100
AcDbEntity
  8
AM_4
100
AcDbLine
 10
0.1147830000000001
 20
-0.0335047031318999
 30
0.0
 11
0.120905
 21
-0.0422449047019998
 31
0.0
  0
LINE
  5
212
330
12E
100
AcDbEntity
  8
AM_4
100
AcDbLine
 10
0.120905
 20
-0.0422449047019999
 30
0.0
 11
0.1300870000000002
 21
-0.048072073203
 31
0.0
  0
LINE
  5
213
330
12E
100
AcDbEntity
  8
AM_4
100
AcDbLine
 10
0.1300870000000002
 20
-0.0480720732030001
 30
0.0
 11
0.1423309999999999
 21
-0.050985460603
 31
0.0
  0
LINE
  5
214
330
12E
100
AcDbEntity
  8
AM_4
100
AcDbLine
 10
0.142331
 20
-0.0509854606029999
 30
0.0
 11
0.169879
 21
-0.0509854606029999
 31
0.0
  0
LINE
  5
215
330
12E
100
AcDbEntity
  8
AM_4
100
AcDbLine
 10
0.1698789999999992
 20
-0.050985460603
 30
0.0
 11
0.1821219999999988
 21
-0.0480720732030002
 31
0.0
  0
LINE
  5
216
330
12E
100
AcDbEntity
  8
AM_4
100
AcDbLine
 10
0.1821219999999988
 20
-0.0480720732030006
 30
0.0
 11
0.1913049999999998
 21
-0.042244904702
 31
0.0
  0
LINE
  5
217
330
12E
100
AcDbEntity
  8
AM_4
100
AcDbLine
 10
0.1913049999999998
 20
-0.0422449047020004
 30
0.0
 11
0.194365999999999
 21
-0.0335047031319027
 31
0.0
  0
LINE
  5
218
330
12E
100
AcDbEntity
  8
AM_4
100
AcDbLine
 10
0.194366
 20
-0.0335047031318998
 30
0.0
 11
0.194366
 21
-0.0101970921205999
 31
0.0
  0
LINE
  5
219
330
12E
100
AcDbEntity
  8
AM_4
100
AcDbLine
 10
0.194366
 20
-0.0101970921205999
 30
0.0
 11
0.166818
 21
-0.0101970921205999
 31
0.0
  0
LINE
  5
21A
330
12E
100
AcDbEntity
  8
AM_4
100
AcDbLine
 10
0.166818
 20
-0.0101970921205999
 30
0.0
 11
0.166818
 21
0.0072836200000001
 31
0.0
  0
LINE
  5
21B
330
12E
100
AcDbEntity
  8
AM_4
100
AcDbLine
 10
0.166818
 20
0.0072836200000001
 30
0.0
 11
0.212731
 21
0.0072836200000002
 31
0.0
  0
LINE
  5
21C
330
12E
100
AcDbEntity
  8
AM_4
100
AcDbLine
 10
0.212731
 20
0.0072836200000002
 30
0.0
 11
0.212731
 21
-0.0364181299019999
 31
0.0
  0
LINE
  5
21D
330
12E
100
AcDbEntity
  8
AM_4
100
AcDbLine
 10
0.2127310000000001
 20
-0.0364181299019996
 30
0.0
 11
0.2096699999999998
 21
-0.0480720732030004
 31
0.0
  0
LINE
  5
21E
330
12E
100
AcDbEntity
  8
AM_4
100
AcDbLine
 10
0.2096699999999999
 20
-0.0480720732030001
 30
0.0
 11
0.1974269999999999
 21
-0.059725622803
 31
0.0
  0
LINE
  5
21F
330
12E
100
AcDbEntity
  8
AM_4
100
AcDbLine
 10
0.197427
 20
-0.059725622803
 30
0.0
 11
0.1851830000000001
 21
-0.0655527913039999
 31
0.0
  0
LINE
  5
220
330
12E
100
AcDbEntity
  8
AM_4
100
AcDbLine
 10
0.1851830000000001
 20
-0.0655527913039999
 30
0.0
 11
0.1698790000000003
 21
-0.0684661787039998
 31
0.0
  0
LINE
  5
221
330
12E
100
AcDbEntity
  8
AM_4
100
AcDbLine
 10
0.169879
 20
-0.0684661787039999
 30
0.0
 11
0.142331
 21
-0.0684661787039999
 31
0.0
  0
LINE
  5
222
330
12E
100
AcDbEntity
  8
AM_4
100
AcDbLine
 10
0.1423309999999995
 20
-0.0684661787039998
 30
0.0
 11
0.1270259999999995
 21
-0.0655527913039998
 31
0.0
  0
LINE
  5
223
330
12E
100
AcDbEntity
  8
AM_4
100
AcDbLine
 10
0.1270259999999994
 20
-0.0655527913039996
 30
0.0
 11
0.1147830000000002
 21
-0.059725622803
 31
0.0
  0
LINE
  5
224
330
12E
100
AcDbEntity
  8
AM_4
100
AcDbLine
 10
0.1147830000000002
 20
-0.059725622803
 30
0.0
 11
0.1025390000000016
 21
-0.0480720732030013
 31
0.0
  0
LINE
  5
225
330
12E
100
AcDbEntity
  8
AM_4
100
AcDbLine
 10
0.1025390000000016
 20
-0.0480720732030029
 30
0.0
 11
0.0964177000000006
 21
-0.0364181299020009
 31
0.0
  0
LINE
  5
226
330
12E
100
AcDbEntity
  8
AM_4
100
AcDbLine
 10
0.0964177000000006
 20
-0.0364181299020027
 30
0.0
 11
0.0933567000000012
 21
-0.0218508779412056
 31
0.0
  0
LINE
  5
227
330
12E
100
AcDbEntity
  8
AM_4
100
AcDbLine
 10
-0.053565383256
 20
-0.0684661787039998
 30
0.0
 11
-0.053565383256
 21
0.0684661000000001
 31
0.0
  0
LINE
  5
228
330
12E
100
AcDbEntity
  8
AM_4
100
AcDbLine
 10
0.0198957000000001
 20
0.0684661
 30
0.0
 11
0.0352001000000001
 21
0.0655528
 31
0.0
  0
LINE
  5
229
330
12E
100
AcDbEntity
  8
AM_4
100
AcDbLine
 10
0.0352001000000001
 20
0.0655528
 30
0.0
 11
0.0474436999999999
 21
0.0597256000000001
 31
0.0
  0
LINE
  5
22A
330
12E
100
AcDbEntity
  8
AM_4
100
AcDbLine
 10
0.0474436999999999
 20
0.0597256000000001
 30
0.0
 11
0.0596870000000001
 21
0.0480719999999999
 31
0.0
  0
LINE
  5
22B
330
12E
100
AcDbEntity
  8
AM_4
100
AcDbLine
 10
0.0596870000000001
 20
0.0480720000000001
 30
0.0
 11
0.0658091000000002
 21
0.0364180999999999
 31
0.0
  0
LINE
  5
22C
330
12E
100
AcDbEntity
  8
AM_4
100
AcDbLine
 10
0.0658091000000002
 20
0.0364180999999991
 30
0.0
 11
0.0688697000000001
 21
0.0218508999999996
 31
0.0
  0
LINE
  5
22D
330
12E
100
AcDbEntity
  8
AM_4
100
AcDbLine
 10
0.0688697
 20
0.0218509000000001
 30
0.0
 11
0.0688697
 21
-0.0218508779411999
 31
0.0
  0
LINE
  5
22E
330
12E
100
AcDbEntity
  8
AM_4
100
AcDbLine
 10
0.0688696999999999
 20
-0.0218508779412004
 30
0.0
 11
0.0658091
 21
-0.0364181299019999
 31
0.0
  0
LINE
  5
22F
330
12E
100
AcDbEntity
  8
AM_4
100
AcDbLine
 10
0.0658091
 20
-0.0364181299019997
 30
0.0
 11
0.0596869999999999
 21
-0.048072073203
 31
0.0
  0
LINE
  5
230
330
12E
100
AcDbEntity
  8
AM_4
100
AcDbLine
 10
0.0596869999999999
 20
-0.048072073203
 30
0.0
 11
0.0474437000000002
 21
-0.0597256228029997
 31
0.0
  0
LINE
  5
231
330
12E
100
AcDbEntity
  8
AM_4
100
AcDbLine
 10
0.0474437000000002
 20
-0.0597256228029998
 30
0.0
 11
0.0352000999999999
 21
-0.0655527913039999
 31
0.0
  0
LINE
  5
232
330
12E
100
AcDbEntity
  8
AM_4
100
AcDbLine
 10
0.0352000999999999
 20
-0.0655527913039999
 30
0.0
 11
0.0198956999999999
 21
-0.0684661787039999
 31
0.0
  0
LINE
  5
233
330
12E
100
AcDbEntity
  8
AM_4
100
AcDbLine
 10
-0.200487509838
 20
-0.0218508779411999
 30
0.0
 11
-0.200487509838
 21
0.0218509000000001
 31
0.0
  0
LINE
  5
234
330
12E
100
AcDbEntity
  8
AM_4
100
AcDbLine
 10
-0.2004875098380015
 20
0.0218508999999933
 30
0.0
 11
-0.1974268782640008
 21
0.036418099999996
 31
0.0
  0
LINE
  5
235
330
12E
100
AcDbEntity
  8
AM_4
100
AcDbLine
 10
-0.1974268782640008
 20
0.0364180999999984
 30
0.0
 11
-0.1913048277140003
 21
0.0480719999999994
 31
0.0
  0
LINE
  5
236
330
12E
100
AcDbEntity
  8
AM_4
100
AcDbLine
 10
-0.1913048277140003
 20
0.0480719999999996
 30
0.0
 11
-0.1790615140160003
 21
0.0597255999999996
 31
0.0
  0
LINE
  5
237
330
12E
100
AcDbEntity
  8
AM_4
100
AcDbLine
 10
-0.1790615140160003
 20
0.0597255999999997
 30
0.0
 11
-0.1668178066170006
 21
0.0655527999999996
 31
0.0
  0
LINE
  5
238
330
12E
100
AcDbEntity
  8
AM_4
100
AcDbLine
 10
-0.1668178066170006
 20
0.0655528
 30
0.0
 11
-0.1515134676439999
 21
0.0684661000000002
 31
0.0
  0
LINE
  5
239
330
12E
100
AcDbEntity
  8
AM_4
100
AcDbLine
 10
-0.151513467644
 20
0.0684661000000001
 30
0.0
 11
-0.127026446547
 21
0.0684661000000001
 31
0.0
  0
LINE
  5
23A
330
12E
100
AcDbEntity
  8
AM_4
100
AcDbLine
 10
-0.1270264465470002
 20
0.0684661
 30
0.0
 11
-0.1117221075739999
 21
0.0655527999999999
 31
0.0
  0
LINE
  5
23B
330
12E
100
AcDbEntity
  8
AM_4
100
AcDbLine
 10
-0.1117221075739999
 20
0.0655528
 30
0.0
 11
-0.0994784001750003
 21
0.0597256000000002
 31
0.0
  0
LINE
  5
23C
330
12E
100
AcDbEntity
  8
AM_4
100
AcDbLine
 10
-0.0994784001749998
 20
0.0597256
 30
0.0
 11
-0.0872350864770001
 21
0.0480720000000003
 31
0.0
  0
LINE
  5
23D
330
12E
100
AcDbEntity
  8
AM_4
100
AcDbLine
 10
-0.0872350864770001
 20
0.0480720000000005
 30
0.0
 11
-0.081113429628
 21
0.0364181000000002
 31
0.0
  0
LINE
  5
23E
330
12E
100
AcDbEntity
  8
AM_4
100
AcDbLine
 10
-0.081113429628
 20
0.0364180999999999
 30
0.0
 11
-0.0780524043529999
 21
0.0218508999999994
 31
0.0
  0
LINE
  5
23F
330
12E
100
AcDbEntity
  8
AM_4
100
AcDbLine
 10
-0.078052404353
 20
0.0218509000000001
 30
0.0
 11
-0.078052404353
 21
-0.0218508779411999
 31
0.0
  0
LINE
  5
240
330
12E
100
AcDbEntity
  8
AM_4
100
AcDbLine
 10
-0.0780524043530001
 20
-0.0218508779412004
 30
0.0
 11
-0.0811134296280002
 21
-0.0364181299020009
 31
0.0
  0
LINE
  5
241
330
12E
100
AcDbEntity
  8
AM_4
100
AcDbLine
 10
-0.0811134296280002
 20
-0.0364181299020002
 30
0.0
 11
-0.0872350864769998
 21
-0.0480720732029995
 31
0.0
  0
LINE
  5
242
330
12E
100
AcDbEntity
  8
AM_4
100
AcDbLine
 10
-0.0872350864769999
 20
-0.0480720732029997
 30
0.0
 11
-0.099478400175
 21
-0.0597256228029998
 31
0.0
  0
LINE
  5
243
330
12E
100
AcDbEntity
  8
AM_4
100
AcDbLine
 10
-0.099478400175
 20
-0.0597256228029999
 30
0.0
 11
-0.1117221075740001
 21
-0.0655527913039999
 31
0.0
  0
LINE
  5
244
330
12E
100
AcDbEntity
  8
AM_4
100
AcDbLine
 10
-0.1117221075740001
 20
-0.0655527913039999
 30
0.0
 11
-0.1270264465469999
 21
-0.0684661787039999
 31
0.0
  0
LINE
  5
245
330
12E
100
AcDbEntity
  8
AM_4
100
AcDbLine
 10
-0.127026446547
 20
-0.0684661787039999
 30
0.0
 11
-0.151513467644
 21
-0.0684661787039999
 31
0.0
  0
LINE
  5
246
330
12E
100
AcDbEntity
  8
AM_4
100
AcDbLine
 10
-0.1515134676439991
 20
-0.0684661787040001
 30
0.0
 11
-0.1668178066169998
 21
-0.0655527913039999
 31
0.0
  0
LINE
  5
247
330
12E
100
AcDbEntity
  8
AM_4
100
AcDbLine
 10
-0.1668178066169997
 20
-0.065552791304
 30
0.0
 11
-0.1790615140159994
 21
-0.0597256228030001
 31
0.0
  0
LINE
  5
248
330
12E
100
AcDbEntity
  8
AM_4
100
AcDbLine
 10
-0.1790615140159995
 20
-0.0597256228030003
 30
0.0
 11
-0.1913048277139995
 21
-0.0480720732030003
 31
0.0
  0
LINE
  5
249
330
12E
100
AcDbEntity
  8
AM_4
100
AcDbLine
 10
-0.1913048277139995
 20
-0.0480720732030008
 30
0.0
 11
-0.1974268782640001
 21
-0.0364181299019996
 31
0.0
  0
LINE
  5
24A
330
12E
100
AcDbEntity
  8
AM_4
100
AcDbLine
 10
-0.1974268782640001
 20
-0.0364181299019992
 30
0.0
 11
-0.2004875098380007
 21
-0.0218508779411965
 31
0.0
  0
LINE
  5
24B
330
12E
100
AcDbEntity
  8
AM_4
100
AcDbLine
 10
-0.3474096364199999
 20
-0.0684661787039997
 30
0.0
 11
-0.3474096364199999
 21
0.0684661000000001
 31
0.0
  0
LINE
  5
24C
330
12E
100
AcDbEntity
  8
AM_4
100
AcDbLine
 10
-0.3474096364199999
 20
0.0684661000000001
 30
0.0
 11
-0.273948573129
 21
0.0684661000000001
 31
0.0
  0
LINE
  5
24D
330
12E
100
AcDbEntity
  8
AM_4
100
AcDbLine
 10
-0.273948573129
 20
0.0684661000000001
 30
0.0
 11
-0.2586442341559996
 21
0.0655528
 31
0.0
  0
LINE
  5
24E
330
12E
100
AcDbEntity
  8
AM_4
100
AcDbLine
 10
-0.2586442341560002
 20
0.0655528000000002
 30
0.0
 11
-0.2464009204579999
 21
0.0597256
 31
0.0
  0
LINE
  5
24F
330
12E
100
AcDbEntity
  8
AM_4
100
AcDbLine
 10
-0.2464009204579999
 20
0.0597256
 30
0.0
 11
-0.2341572130589999
 21
0.048072
 31
0.0
  0
LINE
  5
250
330
12E
100
AcDbEntity
  8
AM_4
100
AcDbLine
 10
-0.2341572130589999
 20
0.048072
 30
0.0
 11
-0.2280355562100002
 21
0.0364181000000006
 31
0.0
  0
LINE
  5
251
330
12E
100
AcDbEntity
  8
AM_4
100
AcDbLine
 10
-0.2280355562100001
 20
0.036418100000001
 30
0.0
 11
-0.2249745309349998
 21
0.0218508999999993
 31
0.0
  0
LINE
  5
252
330
12E
100
AcDbEntity
  8
AM_4
100
AcDbLine
 10
-0.224974530935
 20
0.0218509000000001
 30
0.0
 11
-0.224974530935
 21
-0.0218508779411999
 31
0.0
  0
LINE
  5
253
330
12E
100
AcDbEntity
  8
AM_4
100
AcDbLine
 10
-0.2249745309350001
 20
-0.0218508779412005
 30
0.0
 11
-0.22803555621
 21
-0.0364181299019998
 31
0.0
  0
LINE
  5
254
330
12E
100
AcDbEntity
  8
AM_4
100
AcDbLine
 10
-0.22803555621
 20
-0.0364181299019998
 30
0.0
 11
-0.2341572130590002
 21
-0.0480720732030003
 31
0.0
  0
LINE
  5
255
330
12E
100
AcDbEntity
  8
AM_4
100
AcDbLine
 10
-0.2341572130590001
 20
-0.048072073203
 30
0.0
 11
-0.2464009204580002
 21
-0.059725622803
 31
0.0
  0
LINE
  5
256
330
12E
100
AcDbEntity
  8
AM_4
100
AcDbLine
 10
-0.2464009204580002
 20
-0.0597256228029999
 30
0.0
 11
-0.2586442341559999
 21
-0.0655527913039998
 31
0.0
  0
LINE
  5
257
330
12E
100
AcDbEntity
  8
AM_4
100
AcDbLine
 10
-0.258644234156
 20
-0.065552791304
 30
0.0
 11
-0.2739485731290003
 21
-0.068466178704
 31
0.0
  0
LINE
  5
258
330
12E
100
AcDbEntity
  8
AM_4
100
AcDbLine
 10
-0.273948573129
 20
-0.0684661787039999
 30
0.0
 11
-0.3474096364199999
 21
-0.0684661787039997
 31
0.0
  0
LWPOLYLINE
  5
259
330
12E
100
AcDbEntity
  8
AM_4
100
AcDbPolyline
 90
       32
 70
     0
 43
0.0
 10
2.204477834112336
 20
-0.9180404284188718
 10
2.144942813554272
 20
-0.8992073520834184
 10
2.069083483033179
 20
-0.8809605359319808
 10
1.977477177859437
 20
-0.8634388492532002
 10
1.870821077328819
 20
-0.8467756426625858
 10
1.749926898767077
 20
-0.8310977332238114
 10
1.615714719870967
 20
-0.8165244392942868
 10
1.469205976361417
 20
-0.8031666724404108
 10
1.311515688240933
 20
-0.7911260933335819
 10
1.143843973818112
 20
-0.7804943380511032
 10
0.9674669160826593
 20
-0.7713523206703039
 10
0.7837268509433222
 20
-0.763769617463553
 10
0.5940221512410951
 20
-0.7578039373808151
 10
0.3997965842875419
 20
-0.753500682849696
 10
0.2025283239237827
 20
-0.7508926042355534
 10
0.003718700725018
 20
-0.7499995505914423
 10
-0.1951192240316771
 20
-0.7508283185948347
 10
-0.3924721736772823
 20
-0.7533726008208009
 10
-0.5868381731000256
 20
-0.7576130337453216
 10
-0.7767379796829009
 20
-0.7635173451133983
 10
-0.960726341233174
 20
-0.7710405995503987
 10
-1.137402995224237
 20
-0.7801255405473922
 10
-1.305423325638938
 20
-0.7907030262177545
 10
-1.463508596309372
 20
-0.8026925555086734
 10
-1.610455682871239
 20
-0.8160028808627693
 10
-1.745146229266729
 20
-0.8305327026671036
 10
-1.866555159109395
 20
-0.8461714402043987
 10
-1.973758477134418
 20
-0.8628000732390682
 10
-2.065940301360496
 20
-0.8802920478330749
 10
-2.14239907244436
 20
-0.8985142394978155
 10
-2.202552892970993
 20
-0.917327966351861
 10
-2.204477834112335
 20
-0.9180404284188715
  0
LINE
  5
25A
330
12E
100
AcDbEntity
  8
AM_4
100
AcDbLine
 10
2.204477834112336
 20
-0.9180404284188717
 30
0.0
 11
2.204477834112336
 21
0.9180404284188717
 31
0.0
  0
LWPOLYLINE
  5
25B
330
12E
100
AcDbEntity
  8
AM_4
100
AcDbPolyline
 90
       32
 70
     0
 43
0.0
 10
-2.204477834112335
 20
0.9180404284188717
 10
-2.144942813554271
 20
0.8992073520834182
 10
-2.069083483033177
 20
0.8809605359319805
 10
-1.977477177859434
 20
0.8634388492531999
 10
-1.870821077328816
 20
0.8467756426625855
 10
-1.749926898767074
 20
0.8310977332238113
 10
-1.615714719870964
 20
0.8165244392942866
 10
-1.469205976361413
 20
0.8031666724404108
 10
-1.311515688240929
 20
0.7911260933335819
 10
-1.143843973818108
 20
0.7804943380511032
 10
-0.9674669160826554
 20
0.7713523206703041
 10
-0.7837268509433181
 20
0.7637696174635531
 10
-0.594022151241091
 20
0.7578039373808151
 10
-0.3997965842875379
 20
0.753500682849696
 10
-0.2025283239237785
 20
0.7508926042355537
 10
-0.0037187007250138
 20
0.7499995505914425
 10
0.1951192240316812
 20
0.7508283185948349
 10
0.3924721736772864
 20
0.7533726008208013
 10
0.5868381731000297
 20
0.7576130337453221
 10
0.7767379796829048
 20
0.7635173451133986
 10
0.9607263412331778
 20
0.7710405995503989
 10
1.137402995224241
 20
0.7801255405473927
 10
1.305423325638942
 20
0.7907030262177548
 10
1.463508596309375
 20
0.8026925555086737
 10
1.610455682871243
 20
0.8160028808627697
 10
1.745146229266732
 20
0.8305327026671041
 10
1.866555159109398
 20
0.8461714402043993
 10
1.973758477134422
 20
0.8628000732390686
 10
2.065940301360499
 20
0.8802920478330755
 10
2.142399072444362
 20
0.898514239497816
 10
2.202552892970995
 20
0.9173279663518615
 10
2.204477834112336
 20
0.9180404284188718
  0
LINE
  5
25C
330
12E
100
AcDbEntity
  8
AM_4
100
AcDbLine
 10
-2.204477834112335
 20
-0.9180404284188715
 30
0.0
 11
-2.204477834112335
 21
0.9180404284188715
 31
0.0
  0
LINE
  5
25D
330
12E
100
AcDbEntity
  8
AM_4
100
AcDbLine
 10
0.0198957
 20
-0.0509854606029999
 30
0.0
 11
-0.0352000977482
 21
-0.0509854606029999
 31
0.0
  0
LINE
  5
25E
330
12E
100
AcDbEntity
  8
AM_4
100
AcDbLine
 10
-0.0352000977482
 20
0.0509854000000001
 30
0.0
 11
0.0198957
 21
0.0509854000000001
 31
0.0
  0
LINE
  5
25F
330
12E
100
AcDbEntity
  8
AM_4
100
AcDbLine
 10
0.0321391999999998
 20
-0.0480720732029998
 30
0.0
 11
0.0198956999999999
 21
-0.0509854606029998
 31
0.0
  0
LINE
  5
260
330
12E
100
AcDbEntity
  8
AM_4
100
AcDbLine
 10
0.0413217
 20
-0.042244904702
 30
0.0
 11
0.0321391999999998
 21
-0.0480720732030001
 31
0.0
  0
LINE
  5
261
330
12E
100
AcDbEntity
  8
AM_4
100
AcDbLine
 10
0.0474437000000002
 20
-0.0335047031318996
 30
0.0
 11
0.0413217
 21
-0.0422449047019999
 31
0.0
  0
LINE
  5
262
330
12E
100
AcDbEntity
  8
AM_4
100
AcDbLine
 10
0.0505043000000002
 20
-0.0218508779411989
 30
0.0
 11
0.0474437000000002
 21
-0.0335047031318991
 31
0.0
  0
LINE
  5
263
330
12E
100
AcDbEntity
  8
AM_4
100
AcDbLine
 10
0.0505043
 20
0.0218509000000001
 30
0.0
 11
0.0505043
 21
-0.0218508779411999
 31
0.0
  0
LINE
  5
264
330
12E
100
AcDbEntity
  8
AM_4
100
AcDbLine
 10
0.0474436999999999
 20
0.0335047000000004
 30
0.0
 11
0.0505042999999999
 21
0.0218509000000002
 31
0.0
  0
LINE
  5
265
330
12E
100
AcDbEntity
  8
AM_4
100
AcDbLine
 10
0.0413217000000002
 20
0.0422448999999998
 30
0.0
 11
0.0474436999999999
 21
0.0335047000000003
 31
0.0
  0
LINE
  5
266
330
12E
100
AcDbEntity
  8
AM_4
100
AcDbLine
 10
0.0321392000000001
 20
0.0480720000000001
 30
0.0
 11
0.0413217000000002
 21
0.0422449
 31
0.0
  0
LINE
  5
267
330
12E
100
AcDbEntity
  8
AM_4
100
AcDbLine
 10
0.0198957000000002
 20
0.0509854
 30
0.0
 11
0.0321392000000001
 21
0.048072
 31
0.0
  0
LINE
  5
268
330
12E
100
AcDbEntity
  8
AM_4
100
AcDbLine
 10
-0.0352000977482
 20
-0.0509854606029999
 30
0.0
 11
-0.0352000977482
 21
0.0509854000000001
 31
0.0
  0
ENDBLK
  5
131
330
12E
100
AcDbEntity
  8
0
100
AcDbBlockEnd
  0
ENDSEC
  0
SECTION
  2
ENTITIES
  0
INSERT
  5
6F
330
1F
100
AcDbEntity
  8
0
100
AcDbBlockReference
  2
1_129168_4
 10
0.0
 20
0.0
 30
0.0
  0
POINT
  5
26A
330
1F
100
AcDbEntity
  8
ConnectionPoints
100
AcDbPoint
 10
0.0
 20
0.0
 30
0.0
  0
POINT
  5
26B
330
1F
100
AcDbEntity
  8
ConnectionPoints
100
AcDbPoint
 10
0.0
 20
0.65625
 30
0.0
  0
POINT
  5
26C
330
1F
100
AcDbEntity
  8
ConnectionPoints
100
AcDbPoint
 10
0.0
 20
0.0
 30
0.0
  0
POINT
  5
26D
330
1F
100
AcDbEntity
  8
ConnectionPoints
100
AcDbPoint
 10
0.0
 20
0.0
 30
0.0
  0
ENDSEC
  0
SECTION
  2
OBJECTS
  0
DICTIONARY
  5
C
330
0
100
AcDbDictionary
281
     1
  3
ACAD_DETAILVIEWSTYLE
350
275
  3
ACAD_GROUP
350
D
  3
ACAD_LAYOUT
350
1A
  3
ACAD_MATERIAL
350
43
  3
ACAD_MLEADERSTYLE
350
6B
  3
ACAD_MLINESTYLE
350
17
  3
ACAD_PLOTSETTINGS
350
19
  3
ACAD_PLOTSTYLENAME
350
E
  3
ACAD_SCALELIST
350
47
  3
ACAD_SECTIONVIEWSTYLE
350
276
  3
ACAD_TABLESTYLE
350
69
  3
ACAD_VISUALSTYLE
350
2A
  3
ACDB_RECOMPOSE_DATA
350
272
  3
AcDbVariableDictionary
350
26E
  0
SUN
  5
6D
330
29
100
AcDbSun
 90
        1
290
     0
 63
     7
421
 16777215
 40
1.0
291
     1
 91
  2455826
 92
 54000000
292
     0
 70
     2
 71
   256
280
     1
  0
DICTIONARY
  5
275
102
{ACAD_REACTORS
330
C
102
}
330
C
100
AcDbDictionary
281
     1
  0
DICTIONARY
  5
D
102
{ACAD_REACTORS
330
C
102
}
330
C
100
AcDbDictionary
281
     1
  0
DICTIONARY
  5
1A
102
{ACAD_REACTORS
330
C
102
}
330
C
100
AcDbDictionary
281
     1
  3
Layout1
350
1E
  3
Layout2
350
26
  3
Model
350
22
  0
DICTIONARY
  5
43
102
{ACAD_REACTORS
330
C
102
}
330
C
100
AcDbDictionary
281
     1
  3
ByBlock
350
45
  3
ByLayer
350
44
  3
Global
350
46
  0
DICTIONARY
  5
6B
102
{ACAD_REACTORS
330
C
102
}
330
C
100
AcDbDictionary
281
     1
  3
Standard
350
6C
  0
DICTIONARY
  5
17
102
{ACAD_REACTORS
330
C
102
}
330
C
100
AcDbDictionary
281
     1
  3
Standard
350
18
  0
DICTIONARY
  5
19
102
{ACAD_REACTORS
330
C
102
}
330
C
100
AcDbDictionary
281
     1
  0
ACDBDICTIONARYWDFLT
  5
E
102
{ACAD_REACTORS
330
C
102
}
330
C
100
AcDbDictionary
281
     1
  3
Normal
350
F
100
AcDbDictionaryWithDefault
340
F
  0
DICTIONARY
  5
47
102
{ACAD_REACTORS
330
C
102
}
330
C
100
AcDbDictionary
281
     1
  3
A0
350
48
  3
A1
350
49
  3
A2
350
4A
  3
A3
350
4B
  3
A4
350
4C
  3
A5
350
4D
  3
A6
350
4E
  3
A7
350
4F
  3
A8
350
50
  3
A9
350
51
  3
B0
350
52
  3
B1
350
53
  3
B2
350
54
  3
B3
350
55
  3
B4
350
56
  3
B5
350
57
  3
B6
350
58
  3
B7
350
59
  3
B8
350
5A
  3
B9
350
5B
  3
C0
350
5C
  3
C1
350
5D
  3
C2
350
5E
  3
C3
350
5F
  3
C4
350
60
  3
C5
350
61
  3
C6
350
62
  3
C7
350
63
  3
C8
350
64
  3
C9
350
65
  3
D0
350
66
  3
D1
350
67
  3
D2
350
68
  0
DICTIONARY
  5
276
102
{ACAD_REACTORS
330
C
102
}
330
C
100
AcDbDictionary
281
     1
  0
DICTIONARY
  5
69
102
{ACAD_REACTORS
330
C
102
}
330
C
100
AcDbDictionary
281
     1
  3
Standard
350
6A
  0
DICTIONARY
  5
2A
102
{ACAD_REACTORS
330
C
102
}
330
C
100
AcDbDictionary
281
     1
  3
2dWireframe
350
2F
  3
Basic
350
32
  3
Brighten
350
36
  3
ColorChange
350
3A
  3
Conceptual
350
34
  3
Dim
350
35
  3
EdgeColorOff
350
3D
  3
Facepattern
350
39
  3
Flat
350
2B
  3
FlatWithEdges
350
2C
  3
Gouraud
350
2D
  3
GouraudWithEdges
350
2E
  3
Hidden
350
31
  3
JitterOff
350
3B
  3
Linepattern
350
38
  3
OverhangOff
350
3C
  3
Realistic
350
33
  3
Shaded
350
42
  3
Shaded with edges
350
41
  3
Shades of Gray
350
3E
  3
Sketchy
350
3F
  3
Thicken
350
37
  3
Wireframe
350
30
  3
X-Ray
350
40
  0
XRECORD
  5
272
102
{ACAD_REACTORS
330
C
102
}
330
C
100
AcDbXrecord
280
     1
 90
        1
330
6A
  0
DICTIONARY
  5
26E
102
{ACAD_REACTORS
330
C
102
}
330
C
100
AcDbDictionary
281
     1
  3
CANNOSCALE
350
26F
  3
CMLEADERSTYLE
350
274
  3
CTABLESTYLE
350
273
  0
LAYOUT
  5
1E
102
{ACAD_REACTORS
330
1A
102
}
330
1A
100
AcDbPlotSettings
  1

  2
none_device
  4

  6

 40
0.0
 41
0.0
 42
0.0
 43
0.0
 44
0.0
 45
0.0
 46
0.0
 47
0.0
 48
0.0
 49
0.0
140
0.0
141
0.0
142
1.0
143
1.0
 70
   688
 72
     0
 73
     0
 74
     5
  7

 75
    16
 76
     0
 77
     2
 78
   300
147
1.0
148
0.0
149
0.0
100
AcDbLayout
  1
Layout1
 70
     1
 71
     1
 10
0.0
 20
0.0
 11
12.0
 21
9.0
 12
0.0
 22
0.0
 32
0.0
 14
1.000000000000000E+20
 24
1.000000000000000E+20
 34
1.000000000000000E+20
 15
-1.000000000000000E+20
 25
-1.000000000000000E+20
 35
-1.000000000000000E+20
146
0.0
 13
0.0
 23
0.0
 33
0.0
 16
1.0
 26
0.0
 36
0.0
 17
0.0
 27
1.0
 37
0.0
 76
     0
330
1B
  0
LAYOUT
  5
26
102
{ACAD_REACTORS
330
1A
102
}
330
1A
100
AcDbPlotSettings
  1

  2
none_device
  4

  6

 40
0.0
 41
0.0
 42
0.0
 43
0.0
 44
0.0
 45
0.0
 46
0.0
 47
0.0
 48
0.0
 49
0.0
140
0.0
141
0.0
142
1.0
143
1.0
 70
   688
 72
     0
 73
     0
 74
     5
  7

 75
    16
 76
     0
 77
     2
 78
   300
147
1.0
148
0.0
149
0.0
100
AcDbLayout
  1
Layout2
 70
     1
 71
     2
 10
0.0
 20
0.0
 11
0.0
 21
0.0
 12
0.0
 22
0.0
 32
0.0
 14
0.0
 24
0.0
 34
0.0
 15
0.0
 25
0.0
 35
0.0
146
0.0
 13
0.0
 23
0.0
 33
0.0
 16
1.0
 26
0.0
 36
0.0
 17
0.0
 27
1.0
 37
0.0
 76
     0
330
23
  0
LAYOUT
  5
22
102
{ACAD_REACTORS
330
1A
102
}
330
1A
100
AcDbPlotSettings
  1

  2
none_device
  4
Letter_(8.50_x_11.00_Inches)
  6

 40
6.35
 41
6.35
 42
6.35000508
 43
6.35000508
 44
215.9
 45
279.4
 46
0.0
 47
0.0
 48
0.0
 49
0.0
140
0.0
141
0.0
142
1.0
143
1.0
 70
  1712
 72
     0
 73
     0
 74
     0
  7

 75
     0
 76
     0
 77
     2
 78
   300
147
1.0
148
0.0
149
0.0
100
AcDbLayout
  1
Model
 70
     1
 71
     0
 10
0.0
 20
0.0
 11
12.0
 21
9.0
 12
0.0
 22
0.0
 32
0.0
 14
1.000000000000000E+20
 24
1.000000000000000E+20
 34
1.000000000000000E+20
 15
-1.000000000000000E+20
 25
-1.000000000000000E+20
 35
-1.000000000000000E+20
146
0.0
 13
0.0
 23
0.0
 33
0.0
 16
1.0
 26
0.0
 36
0.0
 17
0.0
 27
1.0
 37
0.0
 76
     0
330
1F
331
29
  0
MATERIAL
  5
45
102
{ACAD_REACTORS
330
43
102
}
330
43
100
AcDbMaterial
  1
ByBlock
 72
     1
 94
      127
  0
MATERIAL
  5
44
102
{ACAD_REACTORS
330
43
102
}
330
43
100
AcDbMaterial
  1
ByLayer
 72
     1
 94
      127
  0
MATERIAL
  5
46
102
{ACAD_REACTORS
330
43
102
}
330
43
100
AcDbMaterial
  1
Global
 72
     1
 94
      127
  0
MLEADERSTYLE
  5
6C
102
{ACAD_REACTORS
330
6B
102
}
330
6B
100
AcDbMLeaderStyle
179
     2
170
     2
171
     1
172
     0
 90
        2
 40
0.0
 41
0.0
173
     1
 91
-1056964608
340
14
 92
       -2
290
     1
 42
0.09
291
     1
 43
0.36
  3
Standard
341
0
 44
0.18
300

342
11
174
     1
178
     6
175
     1
176
     0
 93
-1056964608
 45
0.18
292
     0
297
     0
 46
0.18
343
0
 94
-1056964608
 47
1.0
 49
1.0
140
1.0
293
     1
141
0.0
294
     1
177
     0
142
1.0
295
     0
296
     0
143
0.125
271
     0
272
     9
273
     9
298
     0
  0
MLINESTYLE
  5
18
102
{ACAD_REACTORS
330
17
102
}
330
17
100
AcDbMlineStyle
  2
Standard
 70
     0
  3

 62
   256
 51
90.0
 52
90.0
 71
     2
 49
0.5
 62
   256
  6
BYLAYER
 49
-0.5
 62
   256
  6
BYLAYER
  0
ACDBPLACEHOLDER
  5
F
102
{ACAD_REACTORS
330
E
102
}
330
E
  0
SCALE
  5
48
102
{ACAD_REACTORS
330
47
102
}
330
47
100
AcDbScale
 70
     0
300
1:1
140
1.0
141
1.0
290
     1
  0
SCALE
  5
49
102
{ACAD_REACTORS
330
47
102
}
330
47
100
AcDbScale
 70
     0
300
1:2
140
1.0
141
2.0
290
     0
  0
SCALE
  5
4A
102
{ACAD_REACTORS
330
47
102
}
330
47
100
AcDbScale
 70
     0
300
1:4
140
1.0
141
4.0
290
     0
  0
SCALE
  5
4B
102
{ACAD_REACTORS
330
47
102
}
330
47
100
AcDbScale
 70
     0
300
1:5
140
1.0
141
5.0
290
     0
  0
SCALE
  5
4C
102
{ACAD_REACTORS
330
47
102
}
330
47
100
AcDbScale
 70
     0
300
1:8
140
1.0
141
8.0
290
     0
  0
SCALE
  5
4D
102
{ACAD_REACTORS
330
47
102
}
330
47
100
AcDbScale
 70
     0
300
1:10
140
1.0
141
10.0
290
     0
  0
SCALE
  5
4E
102
{ACAD_REACTORS
330
47
102
}
330
47
100
AcDbScale
 70
     0
300
1:16
140
1.0
141
16.0
290
     0
  0
SCALE
  5
4F
102
{ACAD_REACTORS
330
47
102
}
330
47
100
AcDbScale
 70
     0
300
1:20
140
1.0
141
20.0
290
     0
  0
SCALE
  5
50
102
{ACAD_REACTORS
330
47
102
}
330
47
100
AcDbScale
 70
     0
300
1:30
140
1.0
141
30.0
290
     0
  0
SCALE
  5
51
102
{ACAD_REACTORS
330
47
102
}
330
47
100
AcDbScale
 70
     0
300
1:40
140
1.0
141
40.0
290
     0
  0
SCALE
  5
52
102
{ACAD_REACTORS
330
47
102
}
330
47
100
AcDbScale
 70
     0
300
1:50
140
1.0
141
50.0
290
     0
  0
SCALE
  5
53
102
{ACAD_REACTORS
330
47
102
}
330
47
100
AcDbScale
 70
     0
300
1:100
140
1.0
141
100.0
290
     0
  0
SCALE
  5
54
102
{ACAD_REACTORS
330
47
102
}
330
47
100
AcDbScale
 70
     0
300
2:1
140
2.0
141
1.0
290
     0
  0
SCALE
  5
55
102
{ACAD_REACTORS
330
47
102
}
330
47
100
AcDbScale
 70
     0
300
4:1
140
4.0
141
1.0
290
     0
  0
SCALE
  5
56
102
{ACAD_REACTORS
330
47
102
}
330
47
100
AcDbScale
 70
     0
300
8:1
140
8.0
141
1.0
290
     0
  0
SCALE
  5
57
102
{ACAD_REACTORS
330
47
102
}
330
47
100
AcDbScale
 70
     0
300
10:1
140
10.0
141
1.0
290
     0
  0
SCALE
  5
58
102
{ACAD_REACTORS
330
47
102
}
330
47
100
AcDbScale
 70
     0
300
100:1
140
100.0
141
1.0
290
     0
  0
SCALE
  5
59
102
{ACAD_REACTORS
330
47
102
}
330
47
100
AcDbScale
 70
     0
300
1/128" = 1'-0"
140
0.0078125
141
12.0
290
     0
  0
SCALE
  5
5A
102
{ACAD_REACTORS
330
47
102
}
330
47
100
AcDbScale
 70
     0
300
1/64" = 1'-0"
140
0.015625
141
12.0
290
     0
  0
SCALE
  5
5B
102
{ACAD_REACTORS
330
47
102
}
330
47
100
AcDbScale
 70
     0
300
1/32" = 1'-0"
140
0.03125
141
12.0
290
     0
  0
SCALE
  5
5C
102
{ACAD_REACTORS
330
47
102
}
330
47
100
AcDbScale
 70
     0
300
1/16" = 1'-0"
140
0.0625
141
12.0
290
     0
  0
SCALE
  5
5D
102
{ACAD_REACTORS
330
47
102
}
330
47
100
AcDbScale
 70
     0
300
3/32" = 1'-0"
140
0.09375
141
12.0
290
     0
  0
SCALE
  5
5E
102
{ACAD_REACTORS
330
47
102
}
330
47
100
AcDbScale
 70
     0
300
1/8" = 1'-0"
140
0.125
141
12.0
290
     0
  0
SCALE
  5
5F
102
{ACAD_REACTORS
330
47
102
}
330
47
100
AcDbScale
 70
     0
300
3/16" = 1'-0"
140
0.1875
141
12.0
290
     0
  0
SCALE
  5
60
102
{ACAD_REACTORS
330
47
102
}
330
47
100
AcDbScale
 70
     0
300
1/4" = 1'-0"
140
0.25
141
12.0
290
     0
  0
SCALE
  5
61
102
{ACAD_REACTORS
330
47
102
}
330
47
100
AcDbScale
 70
     0
300
3/8" = 1'-0"
140
0.375
141
12.0
290
     0
  0
SCALE
  5
62
102
{ACAD_REACTORS
330
47
102
}
330
47
100
AcDbScale
 70
     0
300
1/2" = 1'-0"
140
0.5
141
12.0
290
     0
  0
SCALE
  5
63
102
{ACAD_REACTORS
330
47
102
}
330
47
100
AcDbScale
 70
     0
300
3/4" = 1'-0"
140
0.75
141
12.0
290
     0
  0
SCALE
  5
64
102
{ACAD_REACTORS
330
47
102
}
330
47
100
AcDbScale
 70
     0
300
1" = 1'-0"
140
1.0
141
12.0
290
     0
  0
SCALE
  5
65
102
{ACAD_REACTORS
330
47
102
}
330
47
100
AcDbScale
 70
     0
300
1-1/2" = 1'-0"
140
1.5
141
12.0
290
     0
  0
SCALE
  5
66
102
{ACAD_REACTORS
330
47
102
}
330
47
100
AcDbScale
 70
     0
300
3" = 1'-0"
140
3.0
141
12.0
290
     0
  0
SCALE
  5
67
102
{ACAD_REACTORS
330
47
102
}
330
47
100
AcDbScale
 70
     0
300
6" = 1'-0"
140
6.0
141
12.0
290
     0
  0
SCALE
  5
68
102
{ACAD_REACTORS
330
47
102
}
330
47
100
AcDbScale
 70
     0
300
1'-0" = 1'-0"
140
12.0
141
12.0
290
     0
  0
TABLESTYLE
  5
6A
102
{ACAD_REACTORS
330
69
102
}
102
{ACAD_XDICTIONARY
360
270
102
}
330
69
100
AcDbTableStyle
  3
Standard
 70
     0
 71
     0
 40
0.06
 41
0.06
280
     0
281
     0
  7
Standard
140
0.18
170
     2
 62
     0
 63
   257
283
     0
 90
        4
 91
        0
  1

274
    -2
284
     1
 64
     0
275
    -2
285
     1
 65
     0
276
    -2
286
     1
 66
     0
277
    -2
287
     1
 67
     0
278
    -2
288
     1
 68
     0
279
    -2
289
     1
 69
     0
  7
Standard
140
0.25
170
     5
 62
     0
 63
   257
283
     0
 90
        4
 91
        0
  1

274
    -2
284
     1
 64
     0
275
    -2
285
     1
 65
     0
276
    -2
286
     1
 66
     0
277
    -2
287
     1
 67
     0
278
    -2
288
     1
 68
     0
279
    -2
289
     1
 69
     0
  7
Standard
140
0.18
170
     5
 62
     0
 63
   257
283
     0
 90
        4
 91
        0
  1

274
    -2
284
     1
 64
     0
275
    -2
285
     1
 65
     0
276
    -2
286
     1
 66
     0
277
    -2
287
     1
 67
     0
278
    -2
288
     1
 68
     0
279
    -2
289
     1
 69
     0
  0
VISUALSTYLE
  5
2F
102
{ACAD_REACTORS
330
2A
102
}
330
2A
100
AcDbVisualStyle
  2
2dWireframe
 70
     4
177
     3
291
     0
 70
    58
 90
        0
176
     1
 90
        2
176
     1
 90
        0
176
     1
 90
        0
176
     1
 40
0.6
176
     1
 40
30.0
176
     1
 62
     7
420
 16777215
176
     1
 90
        1
176
     1
 90
        4
176
     1
 62
     7
176
     1
 62
   257
176
     1
 90
        1
176
     1
 90
        1
176
     1
 40
1.0
176
     1
 90
        0
176
     1
 62
   257
176
     1
 40
1.0
176
     1
 90
        1
176
     1
 90
        6
176
     1
 90
        2
176
     1
 62
     7
176
     1
 90
        5
176
     1
 90
        0
176
     1
 90
        0
176
     1
290
     0
176
     1
 90
        1
176
     1
 40
0.0
176
     1
 90
        0
176
     1
290
     1
176
     1
290
     1
176
     1
290
     0
176
     1
290
     0
176
     1
290
     0
176
     1
290
     0
176
     1
290
     0
176
     1
290
     0
176
     1
290
     0
176
     1
 90
       50
176
     1
 40
0.0
176
     1
 40
1.0
176
     1
 90
        0
176
     1
 62
    18
420
        0
176
     1
 90
       50
176
     1
 90
        3
176
     1
 62
     5
420
      255
176
     1
290
     0
176
     1
 90
       50
176
     1
 90
       50
176
     1
 90
       50
176
     1
290
     0
176
     1
 90
       50
176
     1
 62
   256
176
     0
 40
1.0
176
     0
 90
        2
176
     1
  1
strokes_ogs.tif
176
     1
290
     0
176
     1
 40
1.0
176
     1
 40
1.0
176
     1
  0
VISUALSTYLE
  5
32
102
{ACAD_REACTORS
330
2A
102
}
330
2A
100
AcDbVisualStyle
  2
Basic
 70
     7
177
     3
291
     1
 70
    58
 90
        1
176
     1
 90
        0
176
     1
 90
        1
176
     1
 90
        0
176
     1
 40
0.6
176
     1
 40
30.0
176
     1
 62
     7
420
 16777215
176
     1
 90
        0
176
     1
 90
        4
176
     1
 62
     7
176
     1
 62
   257
176
     1
 90
        1
176
     1
 90
        1
176
     1
 40
1.0
176
     1
 90
        8
176
     1
 62
     7
176
     1
 40
1.0
176
     1
 90
        1
176
     1
 90
        6
176
     1
 90
        2
176
     1
 62
     7
176
     1
 90
        5
176
     1
 90
        0
176
     1
 90
        0
176
     1
290
     0
176
     1
 90
        1
176
     1
 40
0.0
176
     1
 90
        0
176
     1
290
     0
176
     1
290
     1
176
     1
290
     1
176
     1
290
     0
176
     1
290
     0
176
     1
290
     0
176
     1
290
     0
176
     1
290
     0
176
     1
290
     0
176
     1
 90
       50
176
     1
 40
0.0
176
     1
 40
1.0
176
     1
 90
        0
176
     1
 62
    18
420
        0
176
     1
 90
       50
176
     1
 90
        3
176
     1
 62
     5
420
      255
176
     1
290
     0
176
     1
 90
       50
176
     1
 90
       50
176
     1
 90
       50
176
     1
290
     0
176
     1
 90
       50
176
     1
 62
   256
176
     0
 40
1.0
176
     0
 90
        2
176
     1
  1
strokes_ogs.tif
176
     1
290
     0
176
     1
 40
1.0
176
     1
 40
1.0
176
     1
  0
VISUALSTYLE
  5
36
102
{ACAD_REACTORS
330
2A
102
}
330
2A
100
AcDbVisualStyle
  2
Brighten
 70
    12
177
     3
291
     1
 70
    58
 90
        2
176
     1
 90
        2
176
     1
 90
        0
176
     1
 90
        0
176
     1
 40
0.6
176
     1
 40
30.0
176
     1
 62
     7
420
 16777215
176
     1
 90
        1
176
     1
 90
        4
176
     1
 62
     7
176
     1
 62
   257
176
     1
 90
        1
176
     1
 90
        1
176
     1
 40
1.0
176
     1
 90
        8
176
     1
 62
     7
176
     1
 40
1.0
176
     1
 90
        1
176
     1
 90
        6
176
     1
 90
        2
176
     1
 62
     7
176
     1
 90
        5
176
     1
 90
        0
176
     1
 90
        0
176
     1
290
     0
176
     1
 90
        1
176
     1
 40
50.0
176
     1
 90
        0
176
     1
290
     0
176
     1
290
     1
176
     1
290
     1
176
     1
290
     0
176
     1
290
     0
176
     1
290
     0
176
     1
290
     0
176
     1
290
     0
176
     1
290
     0
176
     1
 90
       50
176
     1
 40
0.0
176
     1
 40
1.0
176
     1
 90
        0
176
     1
 62
    18
420
        0
176
     1
 90
       50
176
     1
 90
        3
176
     1
 62
     5
420
      255
176
     1
290
     0
176
     1
 90
       50
176
     1
 90
       50
176
     1
 90
       50
176
     1
290
     0
176
     1
 90
       50
176
     1
 62
   256
176
     0
 40
1.0
176
     0
 90
        2
176
     1
  1
strokes_ogs.tif
176
     1
290
     0
176
     1
 40
1.0
176
     1
 40
1.0
176
     1
  0
VISUALSTYLE
  5
3A
102
{ACAD_REACTORS
330
2A
102
}
330
2A
100
AcDbVisualStyle
  2
ColorChange
 70
    16
177
     3
291
     1
 70
    58
 90
        2
176
     1
 90
        2
176
     1
 90
        3
176
     1
 90
        0
176
     1
 40
0.6
176
     1
 40
30.0
176
     1
 62
     8
420
  8421504
176
     1
 90
        1
176
     1
 90
        4
176
     1
 62
     7
176
     1
 62
   257
176
     1
 90
        1
176
     1
 90
        1
176
     1
 40
1.0
176
     1
 90
        8
176
     1
 62
     8
420
  8421504
176
     1
 40
1.0
176
     1
 90
        1
176
     1
 90
        6
176
     1
 90
        2
176
     1
 62
     7
176
     1
 90
        5
176
     1
 90
        0
176
     1
 90
        0
176
     1
290
     0
176
     1
 90
        1
176
     1
 40
0.0
176
     1
 90
        0
176
     1
290
     0
176
     1
290
     1
176
     1
290
     1
176
     1
290
     0
176
     1
290
     0
176
     1
290
     0
176
     1
290
     0
176
     1
290
     0
176
     1
290
     0
176
     1
 90
       50
176
     1
 40
0.0
176
     1
 40
1.0
176
     1
 90
        0
176
     1
 62
    18
420
        0
176
     1
 90
       50
176
     1
 90
        3
176
     1
 62
     5
420
      255
176
     1
290
     0
176
     1
 90
       50
176
     1
 90
       50
176
     1
 90
       50
176
     1
290
     0
176
     1
 90
       50
176
     1
 62
   256
176
     0
 40
1.0
176
     0
 90
        2
176
     1
  1
strokes_ogs.tif
176
     1
290
     0
176
     1
 40
1.0
176
     1
 40
1.0
176
     1
  0
VISUALSTYLE
  5
34
102
{ACAD_REACTORS
330
2A
102
}
330
2A
100
AcDbVisualStyle
  2
Conceptual
 70
     9
177
     3
291
     0
 70
    58
 90
        3
176
     1
 90
        2
176
     1
 90
        0
176
     1
 90
        0
176
     1
 40
0.6
176
     1
 40
30.0
176
     1
 62
     7
420
 16777215
176
     1
 90
        2
176
     1
 90
        2
176
     1
 62
     7
176
     1
 62
   257
176
     1
 90
        1
176
     1
 90
        1
176
     1
 40
179.0
176
     1
 90
        8
176
     1
 62
     7
176
     1
 40
1.0
176
     1
 90
        1
176
     1
 90
        6
176
     1
 90
        2
176
     1
 62
     7
176
     1
 90
        3
176
     1
 90
        0
176
     1
 90
        0
176
     1
290
     0
176
     1
 90
        1
176
     1
 40
0.0
176
     1
 90
        0
176
     1
290
     0
176
     1
290
     1
176
     1
290
     1
176
     1
290
     0
176
     1
290
     0
176
     1
290
     0
176
     1
290
     0
176
     1
290
     0
176
     1
290
     0
176
     1
 90
       50
176
     1
 40
0.0
176
     1
 40
1.0
176
     1
 90
        0
176
     1
 62
    18
420
        0
176
     1
 90
       50
176
     1
 90
        3
176
     1
 62
     5
420
      255
176
     1
290
     0
176
     1
 90
       50
176
     1
 90
       50
176
     1
 90
       50
176
     1
290
     0
176
     1
 90
       50
176
     1
 62
   256
176
     0
 40
1.0
176
     0
 90
        2
176
     1
  1
strokes_ogs.tif
176
     1
290
     0
176
     1
 40
1.0
176
     1
 40
1.0
176
     1
  0
VISUALSTYLE
  5
35
102
{ACAD_REACTORS
330
2A
102
}
330
2A
100
AcDbVisualStyle
  2
Dim
 70
    11
177
     3
291
     1
 70
    58
 90
        2
176
     1
 90
        2
176
     1
 90
        0
176
     1
 90
        0
176
     1
 40
0.6
176
     1
 40
30.0
176
     1
 62
     7
420
 16777215
176
     1
 90
        1
176
     1
 90
        4
176
     1
 62
     7
176
     1
 62
   257
176
     1
 90
        1
176
     1
 90
        1
176
     1
 40
1.0
176
     1
 90
        8
176
     1
 62
     7
176
     1
 40
1.0
176
     1
 90
        1
176
     1
 90
        6
176
     1
 90
        2
176
     1
 62
     7
176
     1
 90
        5
176
     1
 90
        0
176
     1
 90
        0
176
     1
290
     0
176
     1
 90
        1
176
     1
 40
-50.0
176
     1
 90
        0
176
     1
290
     0
176
     1
290
     1
176
     1
290
     1
176
     1
290
     0
176
     1
290
     0
176
     1
290
     0
176
     1
290
     0
176
     1
290
     0
176
     1
290
     0
176
     1
 90
       50
176
     1
 40
0.0
176
     1
 40
1.0
176
     1
 90
        0
176
     1
 62
    18
420
        0
176
     1
 90
       50
176
     1
 90
        3
176
     1
 62
     5
420
      255
176
     1
290
     0
176
     1
 90
       50
176
     1
 90
       50
176
     1
 90
       50
176
     1
290
     0
176
     1
 90
       50
176
     1
 62
   256
176
     0
 40
1.0
176
     0
 90
        2
176
     1
  1
strokes_ogs.tif
176
     1
290
     0
176
     1
 40
1.0
176
     1
 40
1.0
176
     1
  0
VISUALSTYLE
  5
3D
102
{ACAD_REACTORS
330
2A
102
}
330
2A
100
AcDbVisualStyle
  2
EdgeColorOff
 70
    22
177
     3
291
     1
 70
    58
 90
        2
176
     0
 90
        2
176
     0
 90
        0
176
     0
 90
        0
176
     0
 40
0.6
176
     0
 40
30.0
176
     0
 62
     7
420
 16777215
176
     0
 90
        1
176
     0
 90
        4
176
     0
 62
     7
176
     0
 62
   257
176
     0
 90
        1
176
     0
 90
        1
176
     0
 40
1.0
176
     0
 90
        8
176
     2
 62
     7
176
     0
 40
1.0
176
     0
 90
        1
176
     0
 90
        6
176
     0
 90
        2
176
     0
 62
     7
176
     0
 90
        5
176
     0
 90
        0
176
     0
 90
        0
176
     0
290
     0
176
     0
 90
        1
176
     0
 40
0.0
176
     0
 90
        0
176
     0
290
     0
176
     0
290
     1
176
     0
290
     1
176
     0
290
     0
176
     0
290
     0
176
     0
290
     0
176
     0
290
     0
176
     0
290
     0
176
     0
290
     0
176
     0
 90
       50
176
     0
 40
0.0
176
     0
 40
1.0
176
     0
 90
        0
176
     0
 62
    18
420
        0
176
     0
 90
       50
176
     0
 90
        3
176
     0
 62
     5
420
      255
176
     0
290
     0
176
     0
 90
       50
176
     0
 90
       50
176
     0
 90
       50
176
     0
290
     0
176
     0
 90
       50
176
     0
 62
   256
176
     0
 40
1.0
176
     0
 90
        2
176
     0
  1
strokes_ogs.tif
176
     0
290
     0
176
     0
 40
1.0
176
     0
 40
1.0
176
     0
  0
VISUALSTYLE
  5
39
102
{ACAD_REACTORS
330
2A
102
}
330
2A
100
AcDbVisualStyle
  2
Facepattern
 70
    15
177
     3
291
     1
 70
    58
 90
        2
176
     1
 90
        2
176
     1
 90
        0
176
     1
 90
        0
176
     1
 40
0.6
176
     1
 40
30.0
176
     1
 62
     7
420
 16777215
176
     1
 90
        1
176
     1
 90
        4
176
     1
 62
     7
176
     1
 62
   257
176
     1
 90
        1
176
     1
 90
        1
176
     1
 40
1.0
176
     1
 90
        8
176
     1
 62
     7
176
     1
 40
1.0
176
     1
 90
        1
176
     1
 90
        6
176
     1
 90
        2
176
     1
 62
     7
176
     1
 90
        5
176
     1
 90
        0
176
     1
 90
        0
176
     1
290
     0
176
     1
 90
        1
176
     1
 40
0.0
176
     1
 90
        0
176
     1
290
     0
176
     1
290
     1
176
     1
290
     1
176
     1
290
     0
176
     1
290
     0
176
     1
290
     0
176
     1
290
     0
176
     1
290
     0
176
     1
290
     0
176
     1
 90
       50
176
     1
 40
0.0
176
     1
 40
1.0
176
     1
 90
        0
176
     1
 62
    18
420
        0
176
     1
 90
       50
176
     1
 90
        3
176
     1
 62
     5
420
      255
176
     1
290
     0
176
     1
 90
       50
176
     1
 90
       50
176
     1
 90
       50
176
     1
290
     0
176
     1
 90
       50
176
     1
 62
   256
176
     0
 40
1.0
176
     0
 90
        2
176
     1
  1
strokes_ogs.tif
176
     1
290
     0
176
     1
 40
1.0
176
     1
 40
1.0
176
     1
  0
VISUALSTYLE
  5
2B
102
{ACAD_REACTORS
330
2A
102
}
330
2A
100
AcDbVisualStyle
  2
Flat
 70
     0
177
     3
291
     1
 70
    58
 90
        2
176
     1
 90
        1
176
     1
 90
        1
176
     1
 90
        2
176
     1
 40
0.6
176
     1
 40
30.0
176
     1
 62
     7
420
 16777215
176
     1
 90
        0
176
     1
 90
        0
176
     1
 62
     7
176
     1
 62
   257
176
     1
 90
        1
176
     1
 90
        1
176
     1
 40
1.0
176
     1
 90
        8
176
     1
 62
     7
176
     1
 40
1.0
176
     1
 90
        1
176
     1
 90
        6
176
     1
 90
        2
176
     1
 62
     7
176
     1
 90
        5
176
     1
 90
        0
176
     1
 90
        0
176
     1
290
     0
176
     1
 90
       13
176
     1
 40
0.0
176
     1
 90
        0
176
     1
290
     0
176
     1
290
     1
176
     1
290
     1
176
     1
290
     0
176
     1
290
     0
176
     1
290
     0
176
     1
290
     0
176
     1
290
     0
176
     1
290
     0
176
     1
 90
       50
176
     1
 40
0.0
176
     1
 40
1.0
176
     1
 90
        0
176
     1
 62
    18
420
        0
176
     1
 90
       50
176
     1
 90
        3
176
     1
 62
     5
420
      255
176
     1
290
     0
176
     1
 90
       50
176
     1
 90
       50
176
     1
 90
       50
176
     1
290
     0
176
     1
 90
       50
176
     1
 62
   256
176
     0
 40
1.0
176
     0
 90
        2
176
     1
  1
strokes_ogs.tif
176
     1
290
     0
176
     1
 40
1.0
176
     1
 40
1.0
176
     1
  0
VISUALSTYLE
  5
2C
102
{ACAD_REACTORS
330
2A
102
}
330
2A
100
AcDbVisualStyle
  2
FlatWithEdges
 70
     1
177
     3
291
     1
 70
    58
 90
        2
176
     1
 90
        1
176
     1
 90
        1
176
     1
 90
        2
176
     1
 40
0.6
176
     1
 40
30.0
176
     1
 62
     7
420
 16777215
176
     1
 90
        1
176
     1
 90
        0
176
     1
 62
     7
176
     1
 62
   257
176
     1
 90
        1
176
     1
 90
        1
176
     1
 40
1.0
176
     1
 90
        0
176
     1
 62
   257
176
     1
 40
1.0
176
     1
 90
        1
176
     1
 90
        6
176
     1
 90
        2
176
     1
 62
     7
176
     1
 90
        5
176
     1
 90
        0
176
     1
 90
        0
176
     1
290
     0
176
     1
 90
       13
176
     1
 40
0.0
176
     1
 90
        0
176
     1
290
     0
176
     1
290
     1
176
     1
290
     1
176
     1
290
     0
176
     1
290
     0
176
     1
290
     0
176
     1
290
     0
176
     1
290
     0
176
     1
290
     0
176
     1
 90
       50
176
     1
 40
0.0
176
     1
 40
1.0
176
     1
 90
        0
176
     1
 62
    18
420
        0
176
     1
 90
       50
176
     1
 90
        3
176
     1
 62
     5
420
      255
176
     1
290
     0
176
     1
 90
       50
176
     1
 90
       50
176
     1
 90
       50
176
     1
290
     0
176
     1
 90
       50
176
     1
 62
   256
176
     0
 40
1.0
176
     0
 90
        2
176
     1
  1
strokes_ogs.tif
176
     1
290
     0
176
     1
 40
1.0
176
     1
 40
1.0
176
     1
  0
VISUALSTYLE
  5
2D
102
{ACAD_REACTORS
330
2A
102
}
330
2A
100
AcDbVisualStyle
  2
Gouraud
 70
     2
177
     3
291
     1
 70
    58
 90
        2
176
     1
 90
        2
176
     1
 90
        1
176
     1
 90
        2
176
     1
 40
0.6
176
     1
 40
30.0
176
     1
 62
     7
420
 16777215
176
     1
 90
        0
176
     1
 90
        0
176
     1
 62
     7
176
     1
 62
   257
176
     1
 90
        1
176
     1
 90
        1
176
     1
 40
1.0
176
     1
 90
        0
176
     1
 62
     7
176
     1
 40
1.0
176
     1
 90
        1
176
     1
 90
        6
176
     1
 90
        2
176
     1
 62
     7
176
     1
 90
        5
176
     1
 90
        0
176
     1
 90
        0
176
     1
290
     0
176
     1
 90
       13
176
     1
 40
0.0
176
     1
 90
        0
176
     1
290
     0
176
     1
290
     1
176
     1
290
     1
176
     1
290
     0
176
     1
290
     0
176
     1
290
     0
176
     1
290
     0
176
     1
290
     0
176
     1
290
     0
176
     1
 90
       50
176
     1
 40
0.0
176
     1
 40
1.0
176
     1
 90
        0
176
     1
 62
    18
420
        0
176
     1
 90
       50
176
     1
 90
        3
176
     1
 62
     5
420
      255
176
     1
290
     0
176
     1
 90
       50
176
     1
 90
       50
176
     1
 90
       50
176
     1
290
     0
176
     1
 90
       50
176
     1
 62
   256
176
     0
 40
1.0
176
     0
 90
        2
176
     1
  1
strokes_ogs.tif
176
     1
290
     0
176
     1
 40
1.0
176
     1
 40
1.0
176
     1
  0
VISUALSTYLE
  5
2E
102
{ACAD_REACTORS
330
2A
102
}
330
2A
100
AcDbVisualStyle
  2
GouraudWithEdges
 70
     3
177
     3
291
     1
 70
    58
 90
        2
176
     1
 90
        2
176
     1
 90
        1
176
     1
 90
        2
176
     1
 40
0.6
176
     1
 40
30.0
176
     1
 62
     7
420
 16777215
176
     1
 90
        1
176
     1
 90
        0
176
     1
 62
     7
176
     1
 62
   257
176
     1
 90
        1
176
     1
 90
        1
176
     1
 40
1.0
176
     1
 90
        0
176
     1
 62
   257
176
     1
 40
1.0
176
     1
 90
        1
176
     1
 90
        6
176
     1
 90
        2
176
     1
 62
     7
176
     1
 90
        5
176
     1
 90
        0
176
     1
 90
        0
176
     1
290
     0
176
     1
 90
       13
176
     1
 40
0.0
176
     1
 90
        0
176
     1
290
     0
176
     1
290
     1
176
     1
290
     1
176
     1
290
     0
176
     1
290
     0
176
     1
290
     0
176
     1
290
     0
176
     1
290
     0
176
     1
290
     0
176
     1
 90
       50
176
     1
 40
0.0
176
     1
 40
1.0
176
     1
 90
        0
176
     1
 62
    18
420
        0
176
     1
 90
       50
176
     1
 90
        3
176
     1
 62
     5
420
      255
176
     1
290
     0
176
     1
 90
       50
176
     1
 90
       50
176
     1
 90
       50
176
     1
290
     0
176
     1
 90
       50
176
     1
 62
   256
176
     0
 40
1.0
176
     0
 90
        2
176
     1
  1
strokes_ogs.tif
176
     1
290
     0
176
     1
 40
1.0
176
     1
 40
1.0
176
     1
  0
VISUALSTYLE
  5
31
102
{ACAD_REACTORS
330
2A
102
}
330
2A
100
AcDbVisualStyle
  2
Hidden
 70
     6
177
     3
291
     0
 70
    58
 90
        1
176
     1
 90
        2
176
     1
 90
        2
176
     1
 90
        0
176
     1
 40
0.6
176
     1
 40
30.0
176
     1
 62
     7
420
 16777215
176
     1
 90
        2
176
     1
 90
        2
176
     1
 62
     7
176
     1
 62
   257
176
     1
 90
        2
176
     1
 90
        1
176
     1
 40
40.0
176
     1
 90
        0
176
     1
 62
   257
176
     1
 40
1.0
176
     1
 90
        1
176
     1
 90
        6
176
     1
 90
        2
176
     1
 62
     7
176
     1
 90
        3
176
     1
 90
        0
176
     1
 90
        0
176
     1
290
     0
176
     1
 90
        1
176
     1
 40
0.0
176
     1
 90
        0
176
     1
290
     0
176
     1
290
     1
176
     1
290
     1
176
     1
290
     0
176
     1
290
     0
176
     1
290
     0
176
     1
290
     0
176
     1
290
     0
176
     1
290
     0
176
     1
 90
       50
176
     1
 40
0.0
176
     1
 40
1.0
176
     1
 90
        0
176
     1
 62
    18
420
        0
176
     1
 90
       50
176
     1
 90
        3
176
     1
 62
     5
420
      255
176
     1
290
     0
176
     1
 90
       50
176
     1
 90
       50
176
     1
 90
       50
176
     1
290
     0
176
     1
 90
       50
176
     1
 62
   256
176
     0
 40
1.0
176
     0
 90
        2
176
     1
  1
strokes_ogs.tif
176
     1
290
     0
176
     1
 40
1.0
176
     1
 40
1.0
176
     1
  0
VISUALSTYLE
  5
3B
102
{ACAD_REACTORS
330
2A
102
}
330
2A
100
AcDbVisualStyle
  2
JitterOff
 70
    20
177
     3
291
     1
 70
    58
 90
        2
176
     0
 90
        2
176
     0
 90
        0
176
     0
 90
        0
176
     0
 40
0.6
176
     0
 40
30.0
176
     0
 62
     7
420
 16777215
176
     0
 90
        1
176
     0
 90
        4
176
     0
 62
     7
176
     0
 62
   257
176
     0
 90
        1
176
     0
 90
        1
176
     0
 40
1.0
176
     0
 90
       10
176
     2
 62
     7
176
     0
 40
1.0
176
     0
 90
        1
176
     0
 90
        6
176
     0
 90
        2
176
     0
 62
     7
176
     0
 90
        5
176
     0
 90
        0
176
     0
 90
        0
176
     0
290
     0
176
     0
 90
        1
176
     0
 40
0.0
176
     0
 90
        0
176
     0
290
     0
176
     0
290
     1
176
     0
290
     1
176
     0
290
     0
176
     0
290
     0
176
     0
290
     0
176
     0
290
     0
176
     0
290
     0
176
     0
290
     0
176
     0
 90
       50
176
     0
 40
0.0
176
     0
 40
1.0
176
     0
 90
        0
176
     0
 62
    18
420
        0
176
     0
 90
       50
176
     0
 90
        3
176
     0
 62
     5
420
      255
176
     0
290
     0
176
     0
 90
       50
176
     0
 90
       50
176
     0
 90
       50
176
     0
290
     0
176
     0
 90
       50
176
     0
 62
   256
176
     0
 40
1.0
176
     0
 90
        2
176
     0
  1
strokes_ogs.tif
176
     0
290
     0
176
     0
 40
1.0
176
     0
 40
1.0
176
     0
  0
VISUALSTYLE
  5
38
102
{ACAD_REACTORS
330
2A
102
}
330
2A
100
AcDbVisualStyle
  2
Linepattern
 70
    14
177
     3
291
     1
 70
    58
 90
        2
176
     1
 90
        2
176
     1
 90
        0
176
     1
 90
        0
176
     1
 40
0.6
176
     1
 40
30.0
176
     1
 62
     7
420
 16777215
176
     1
 90
        1
176
     1
 90
        4
176
     1
 62
     7
176
     1
 62
   257
176
     1
 90
        7
176
     1
 90
        7
176
     1
 40
1.0
176
     1
 90
        8
176
     1
 62
     7
176
     1
 40
1.0
176
     1
 90
        1
176
     1
 90
        6
176
     1
 90
        2
176
     1
 62
     7
176
     1
 90
        5
176
     1
 90
        0
176
     1
 90
        0
176
     1
290
     0
176
     1
 90
        1
176
     1
 40
0.0
176
     1
 90
        0
176
     1
290
     0
176
     1
290
     1
176
     1
290
     1
176
     1
290
     0
176
     1
290
     0
176
     1
290
     0
176
     1
290
     0
176
     1
290
     0
176
     1
290
     0
176
     1
 90
       50
176
     1
 40
0.0
176
     1
 40
1.0
176
     1
 90
        0
176
     1
 62
    18
420
        0
176
     1
 90
       50
176
     1
 90
        3
176
     1
 62
     5
420
      255
176
     1
290
     0
176
     1
 90
       50
176
     1
 90
       50
176
     1
 90
       50
176
     1
290
     0
176
     1
 90
       50
176
     1
 62
   256
176
     0
 40
1.0
176
     0
 90
        2
176
     1
  1
strokes_ogs.tif
176
     1
290
     0
176
     1
 40
1.0
176
     1
 40
1.0
176
     1
  0
VISUALSTYLE
  5
3C
102
{ACAD_REACTORS
330
2A
102
}
330
2A
100
AcDbVisualStyle
  2
OverhangOff
 70
    21
177
     3
291
     1
 70
    58
 90
        2
176
     0
 90
        2
176
     0
 90
        0
176
     0
 90
        0
176
     0
 40
0.6
176
     0
 40
30.0
176
     0
 62
     7
420
 16777215
176
     0
 90
        1
176
     0
 90
        4
176
     0
 62
     7
176
     0
 62
   257
176
     0
 90
        1
176
     0
 90
        1
176
     0
 40
1.0
176
     0
 90
        9
176
     2
 62
     7
176
     0
 40
1.0
176
     0
 90
        1
176
     0
 90
        6
176
     0
 90
        2
176
     0
 62
     7
176
     0
 90
        5
176
     0
 90
        0
176
     0
 90
        0
176
     0
290
     0
176
     0
 90
        1
176
     0
 40
0.0
176
     0
 90
        0
176
     0
290
     0
176
     0
290
     1
176
     0
290
     1
176
     0
290
     0
176
     0
290
     0
176
     0
290
     0
176
     0
290
     0
176
     0
290
     0
176
     0
290
     0
176
     0
 90
       50
176
     0
 40
0.0
176
     0
 40
1.0
176
     0
 90
        0
176
     0
 62
    18
420
        0
176
     0
 90
       50
176
     0
 90
        3
176
     0
 62
     5
420
      255
176
     0
290
     0
176
     0
 90
       50
176
     0
 90
       50
176
     0
 90
       50
176
     0
290
     0
176
     0
 90
       50
176
     0
 62
   256
176
     0
 40
1.0
176
     0
 90
        2
176
     0
  1
strokes_ogs.tif
176
     0
290
     0
176
     0
 40
1.0
176
     0
 40
1.0
176
     0
  0
VISUALSTYLE
  5
33
102
{ACAD_REACTORS
330
2A
102
}
330
2A
100
AcDbVisualStyle
  2
Realistic
 70
     8
177
     3
291
     0
 70
    58
 90
        2
176
     1
 90
        3
176
     1
 90
        0
176
     1
 90
        2
176
     1
 40
0.6
176
     1
 40
30.0
176
     1
 62
     7
420
 16777215
176
     1
 90
        0
176
     1
 90
        0
176
     1
 62
     7
176
     1
 62
   257
176
     1
 90
        1
176
     1
 90
        1
176
     1
 40
1.0
176
     1
 90
        8
176
     1
 62
   257
176
     1
 40
1.0
176
     1
 90
        1
176
     1
 90
        6
176
     1
 90
        2
176
     1
 62
     7
176
     1
 90
        3
176
     1
 90
        0
176
     1
 90
        0
176
     1
290
     0
176
     1
 90
       13
176
     1
 40
0.0
176
     1
 90
        0
176
     1
290
     0
176
     1
290
     1
176
     1
290
     1
176
     1
290
     0
176
     1
290
     0
176
     1
290
     0
176
     1
290
     0
176
     1
290
     0
176
     1
290
     0
176
     1
 90
       50
176
     1
 40
0.0
176
     1
 40
1.0
176
     1
 90
        0
176
     1
 62
    18
420
        0
176
     1
 90
       50
176
     1
 90
        3
176
     1
 62
     5
420
      255
176
     1
290
     0
176
     1
 90
       50
176
     1
 90
       50
176
     1
 90
       50
176
     1
290
     0
176
     1
 90
       50
176
     1
 62
   256
176
     0
 40
1.0
176
     0
 90
        2
176
     1
  1
strokes_ogs.tif
176
     1
290
     0
176
     1
 40
1.0
176
     1
 40
1.0
176
     1
  0
VISUALSTYLE
  5
42
102
{ACAD_REACTORS
330
2A
102
}
330
2A
100
AcDbVisualStyle
  2
Shaded
 70
    27
177
     3
291
     0
 70
    58
 90
        2
176
     1
 90
        2
176
     1
 90
        1
176
     1
 90
        2
176
     1
 40
0.6
176
     1
 40
30.0
176
     1
 62
     7
420
 16777215
176
     1
 90
        0
176
     1
 90
        4
176
     1
 62
     7
176
     1
 62
   257
176
     1
 90
        1
176
     1
 90
        1
176
     1
 40
1.0
176
     1
 90
        8
176
     1
 62
   257
176
     1
 40
1.0
176
     1
 90
        1
176
     1
 90
        6
176
     1
 90
        2
176
     1
 62
     8
420
  7895160
176
     1
 90
        3
176
     1
 90
        0
176
     1
 90
        0
176
     1
290
     0
176
     1
 90
        5
176
     1
 40
0.0
176
     1
 90
        0
176
     1
290
     0
176
     1
290
     1
176
     1
290
     1
176
     1
290
     0
176
     1
290
     0
176
     1
290
     0
176
     1
290
     0
176
     1
290
     0
176
     1
290
     0
176
     1
 90
       50
176
     1
 40
0.0
176
     1
 40
1.0
176
     1
 90
        0
176
     1
 62
    18
420
        0
176
     1
 90
       50
176
     1
 90
        3
176
     1
 62
     5
420
      255
176
     1
290
     0
176
     1
 90
       50
176
     1
 90
       50
176
     1
 90
       50
176
     1
290
     0
176
     1
 90
       50
176
     1
 62
   256
176
     0
 40
1.0
176
     0
 90
        2
176
     1
  1
strokes_ogs.tif
176
     1
290
     0
176
     1
 40
1.0
176
     1
 40
1.0
176
     1
  0
VISUALSTYLE
  5
41
102
{ACAD_REACTORS
330
2A
102
}
330
2A
100
AcDbVisualStyle
  2
Shaded with edges
 70
    26
177
     3
291
     0
 70
    58
 90
        2
176
     1
 90
        2
176
     1
 90
        1
176
     1
 90
        2
176
     1
 40
0.6
176
     1
 40
30.0
176
     1
 62
     7
420
 16777215
176
     1
 90
        1
176
     1
 90
       10
176
     1
 62
     7
176
     1
 62
   257
176
     1
 90
        2
176
     1
 90
        1
176
     1
 40
1.0
176
     1
 90
        8
176
     1
 62
   257
176
     1
 40
1.0
176
     1
 90
        1
176
     1
 90
        6
176
     1
 90
        2
176
     1
 62
     7
176
     1
 90
        3
176
     1
 90
        0
176
     1
 90
        0
176
     1
290
     0
176
     1
 90
        5
176
     1
 40
0.0
176
     1
 90
        0
176
     1
290
     0
176
     1
290
     1
176
     1
290
     1
176
     1
290
     0
176
     1
290
     0
176
     1
290
     0
176
     1
290
     0
176
     1
290
     0
176
     1
290
     0
176
     1
 90
       50
176
     1
 40
0.0
176
     1
 40
1.0
176
     1
 90
        0
176
     1
 62
    18
420
        0
176
     1
 90
       50
176
     1
 90
        3
176
     1
 62
     5
420
      255
176
     1
290
     0
176
     1
 90
       50
176
     1
 90
       50
176
     1
 90
       50
176
     1
290
     0
176
     1
 90
       50
176
     1
 62
   256
176
     0
 40
1.0
176
     0
 90
        2
176
     1
  1
strokes_ogs.tif
176
     1
290
     0
176
     1
 40
1.0
176
     1
 40
1.0
176
     1
  0
VISUALSTYLE
  5
3E
102
{ACAD_REACTORS
330
2A
102
}
330
2A
100
AcDbVisualStyle
  2
Shades of Gray
 70
    23
177
     3
291
     0
 70
    58
 90
        2
176
     1
 90
        2
176
     1
 90
        3
176
     1
 90
        0
176
     1
 40
0.6
176
     1
 40
30.0
176
     1
 62
     7
420
 16777215
176
     1
 90
        2
176
     1
 90
        2
176
     1
 62
     7
176
     1
 62
     7
176
     1
 90
        1
176
     1
 90
        1
176
     1
 40
40.0
176
     1
 90
        8
176
     1
 62
     7
176
     1
 40
1.0
176
     1
 90
        1
176
     1
 90
        6
176
     1
 90
        2
176
     1
 62
     7
176
     1
 90
        3
176
     1
 90
        0
176
     1
 90
        0
176
     1
290
     0
176
     1
 90
        1
176
     1
 40
0.0
176
     1
 90
        0
176
     1
290
     0
176
     1
290
     1
176
     1
290
     1
176
     1
290
     0
176
     1
290
     0
176
     1
290
     0
176
     1
290
     0
176
     1
290
     0
176
     1
290
     0
176
     1
 90
       50
176
     1
 40
0.0
176
     1
 40
1.0
176
     1
 90
        0
176
     1
 62
    18
420
        0
176
     1
 90
       50
176
     1
 90
        3
176
     1
 62
     5
420
      255
176
     1
290
     0
176
     1
 90
       50
176
     1
 90
       50
176
     1
 90
       50
176
     1
290
     0
176
     1
 90
       50
176
     1
 62
   256
176
     0
 40
1.0
176
     0
 90
        2
176
     1
  1
strokes_ogs.tif
176
     1
290
     0
176
     1
 40
1.0
176
     1
 40
1.0
176
     1
  0
VISUALSTYLE
  5
3F
102
{ACAD_REACTORS
330
2A
102
}
330
2A
100
AcDbVisualStyle
  2
Sketchy
 70
    24
177
     3
291
     0
 70
    58
 90
        1
176
     1
 90
        2
176
     1
 90
        2
176
     1
 90
        0
176
     1
 40
0.6
176
     1
 40
30.0
176
     1
 62
     7
420
 16777215
176
     1
 90
        2
176
     1
 90
        2
176
     1
 62
     7
176
     1
 62
     7
176
     1
 90
        1
176
     1
 90
        1
176
     1
 40
40.0
176
     1
 90
       11
176
     1
 62
     7
176
     1
 40
1.0
176
     1
 90
        1
176
     1
 90
        6
176
     1
 90
        2
176
     1
 62
     7
176
     1
 90
        6
176
     1
 90
        0
176
     1
 90
        0
176
     1
290
     0
176
     1
 90
        1
176
     1
 40
0.0
176
     1
 90
        0
176
     1
290
     0
176
     1
290
     1
176
     1
290
     1
176
     1
290
     0
176
     1
290
     0
176
     1
290
     0
176
     1
290
     0
176
     1
290
     0
176
     1
290
     0
176
     1
 90
       50
176
     1
 40
0.0
176
     1
 40
1.0
176
     1
 90
        0
176
     1
 62
    18
420
        0
176
     1
 90
       50
176
     1
 90
        3
176
     1
 62
     5
420
      255
176
     1
290
     0
176
     1
 90
       50
176
     1
 90
       50
176
     1
 90
       50
176
     1
290
     0
176
     1
 90
       50
176
     1
 62
   256
176
     0
 40
1.0
176
     0
 90
        2
176
     1
  1
strokes_ogs.tif
176
     1
290
     0
176
     1
 40
1.0
176
     1
 40
1.0
176
     1
  0
VISUALSTYLE
  5
37
102
{ACAD_REACTORS
330
2A
102
}
330
2A
100
AcDbVisualStyle
  2
Thicken
 70
    13
177
     3
291
     1
 70
    58
 90
        2
176
     1
 90
        2
176
     1
 90
        0
176
     1
 90
        0
176
     1
 40
0.6
176
     1
 40
30.0
176
     1
 62
     7
420
 16777215
176
     1
 90
        1
176
     1
 90
        4
176
     1
 62
     7
176
     1
 62
   257
176
     1
 90
        1
176
     1
 90
        1
176
     1
 40
1.0
176
     1
 90
       12
176
     1
 62
     7
176
     1
 40
1.0
176
     1
 90
        1
176
     1
 90
        6
176
     1
 90
        2
176
     1
 62
     7
176
     1
 90
        5
176
     1
 90
        0
176
     1
 90
        0
176
     1
290
     0
176
     1
 90
        1
176
     1
 40
0.0
176
     1
 90
        0
176
     1
290
     0
176
     1
290
     1
176
     1
290
     1
176
     1
290
     0
176
     1
290
     0
176
     1
290
     0
176
     1
290
     0
176
     1
290
     0
176
     1
290
     0
176
     1
 90
       50
176
     1
 40
0.0
176
     1
 40
1.0
176
     1
 90
        0
176
     1
 62
    18
420
        0
176
     1
 90
       50
176
     1
 90
        3
176
     1
 62
     5
420
      255
176
     1
290
     0
176
     1
 90
       50
176
     1
 90
       50
176
     1
 90
       50
176
     1
290
     0
176
     1
 90
       50
176
     1
 62
   256
176
     0
 40
1.0
176
     0
 90
        2
176
     1
  1
strokes_ogs.tif
176
     1
290
     0
176
     1
 40
1.0
176
     1
 40
1.0
176
     1
  0
VISUALSTYLE
  5
30
102
{ACAD_REACTORS
330
2A
102
}
330
2A
100
AcDbVisualStyle
  2
Wireframe
 70
     5
177
     3
291
     0
 70
    58
 90
        0
176
     1
 90
        2
176
     1
 90
        0
176
     1
 90
        0
176
     1
 40
0.6
176
     1
 40
30.0
176
     1
 62
     7
420
 16777215
176
     1
 90
        1
176
     1
 90
        4
176
     1
 62
     7
176
     1
 62
   257
176
     1
 90
        1
176
     1
 90
        1
176
     1
 40
1.0
176
     1
 90
        0
176
     1
 62
   257
176
     1
 40
1.0
176
     1
 90
        1
176
     1
 90
        6
176
     1
 90
        2
176
     1
 62
     7
176
     1
 90
        3
176
     1
 90
        0
176
     1
 90
        0
176
     1
290
     0
176
     1
 90
        1
176
     1
 40
0.0
176
     1
 90
        0
176
     1
290
     0
176
     1
290
     1
176
     1
290
     1
176
     1
290
     0
176
     1
290
     0
176
     1
290
     0
176
     1
290
     0
176
     1
290
     0
176
     1
290
     0
176
     1
 90
       50
176
     1
 40
0.0
176
     1
 40
1.0
176
     1
 90
        0
176
     1
 62
    18
420
        0
176
     1
 90
       50
176
     1
 90
        3
176
     1
 62
     5
420
      255
176
     1
290
     0
176
     1
 90
       50
176
     1
 90
       50
176
     1
 90
       50
176
     1
290
     0
176
     1
 90
       50
176
     1
 62
   256
176
     0
 40
1.0
176
     0
 90
        2
176
     1
  1
strokes_ogs.tif
176
     1
290
     0
176
     1
 40
1.0
176
     1
 40
1.0
176
     1
  0
VISUALSTYLE
  5
40
102
{ACAD_REACTORS
330
2A
102
}
330
2A
100
AcDbVisualStyle
  2
X-Ray
 70
    25
177
     3
291
     0
 70
    58
 90
        2
176
     1
 90
        2
176
     1
 90
        1
176
     1
 90
        1
176
     1
 40
0.5
176
     1
 40
30.0
176
     1
 62
     7
420
 16777215
176
     1
 90
        1
176
     1
 90
        0
176
     1
 62
     7
176
     1
 62
   257
176
     1
 90
        1
176
     1
 90
        1
176
     1
 40
1.0
176
     1
 90
        8
176
     1
 62
     7
176
     1
 40
1.0
176
     1
 90
        1
176
     1
 90
        6
176
     1
 90
        2
176
     1
 62
     7
176
     1
 90
        3
176
     1
 90
        0
176
     1
 90
        0
176
     1
290
     0
176
     1
 90
       13
176
     1
 40
0.0
176
     1
 90
        0
176
     1
290
     0
176
     1
290
     1
176
     1
290
     1
176
     1
290
     0
176
     1
290
     0
176
     1
290
     0
176
     1
290
     0
176
     1
290
     0
176
     1
290
     0
176
     1
 90
       50
176
     1
 40
0.0
176
     1
 40
1.0
176
     1
 90
        0
176
     1
 62
    18
420
        0
176
     1
 90
       50
176
     1
 90
        3
176
     1
 62
     5
420
      255
176
     1
290
     0
176
     1
 90
       50
176
     1
 90
       50
176
     1
 90
       50
176
     1
290
     0
176
     1
 90
       50
176
     1
 62
   256
176
     0
 40
1.0
176
     0
 90
        2
176
     1
  1
strokes_ogs.tif
176
     1
290
     0
176
     1
 40
1.0
176
     1
 40
1.0
176
     1
  0
DICTIONARYVAR
  5
26F
102
{ACAD_REACTORS
330
26E
102
}
330
26E
100
DictionaryVariables
280
     0
  1
1:1
  0
DICTIONARYVAR
  5
274
102
{ACAD_REACTORS
330
26E
102
}
330
26E
100
DictionaryVariables
280
     0
  1
Standard
  0
DICTIONARYVAR
  5
273
102
{ACAD_REACTORS
330
26E
102
}
330
26E
100
DictionaryVariables
280
     0
  1
Standard
  0
DICTIONARY
  5
270
330
6A
100
AcDbDictionary
280
     1
281
     1
  3
ACAD_ROUNDTRIP_2008_TABLESTYLE_CELLSTYLEMAP
360
271
  0
CELLSTYLEMAP
  5
271
102
{ACAD_REACTORS
330
270
102
}
330
270
100
AcDbCellStyleMap
 90
        3
300
CELLSTYLE
  1
TABLEFORMAT_BEGIN
 90
        5
170
     1
 91
        0
 92
    32768
 62
   257
 93
        1
300
CONTENTFORMAT
  1
CONTENTFORMAT_BEGIN
 90
        0
 91
        0
 92
        4
 93
        0
300

 40
0.0
140
1.0
 94
        5
 62
     0
340
11
144
0.25
309
CONTENTFORMAT_END
171
     1
301
MARGIN
  1
CELLMARGIN_BEGIN
 40
0.06
 40
0.06
 40
0.06
 40
0.06
 40
0.06
 40
0.06
309
CELLMARGIN_END
 94
        6
 95
        1
302
GRIDFORMAT
  1
GRIDFORMAT_BEGIN
 90
        0
 91
        1
 62
     0
 92
       -2
340
14
 93
        0
 40
0.045
309
GRIDFORMAT_END
 95
        2
302
GRIDFORMAT
  1
GRIDFORMAT_BEGIN
 90
        0
 91
        1
 62
     0
 92
       -2
340
14
 93
        0
 40
0.045
309
GRIDFORMAT_END
 95
        4
302
GRIDFORMAT
  1
GRIDFORMAT_BEGIN
 90
        0
 91
        1
 62
     0
 92
       -2
340
14
 93
        0
 40
0.045
309
GRIDFORMAT_END
 95
        8
302
GRIDFORMAT
  1
GRIDFORMAT_BEGIN
 90
        0
 91
        1
 62
     0
 92
       -2
340
14
 93
        0
 40
0.045
309
GRIDFORMAT_END
 95
       16
302
GRIDFORMAT
  1
GRIDFORMAT_BEGIN
 90
        0
 91
        1
 62
     0
 92
       -2
340
14
 93
        0
 40
0.045
309
GRIDFORMAT_END
 95
       32
302
GRIDFORMAT
  1
GRIDFORMAT_BEGIN
 90
        0
 91
        1
 62
     0
 92
       -2
340
14
 93
        0
 40
0.045
309
GRIDFORMAT_END
309
TABLEFORMAT_END
  1
CELLSTYLE_BEGIN
 90
        1
 91
        1
300
_TITLE
309
CELLSTYLE_END
300
CELLSTYLE
  1
TABLEFORMAT_BEGIN
 90
        5
170
     1
 91
        0
 92
        0
 62
   257
 93
        1
300
CONTENTFORMAT
  1
CONTENTFORMAT_BEGIN
 90
        0
 91
        0
 92
        4
 93
        0
300

 40
0.0
140
1.0
 94
        5
 62
     0
340
11
144
0.18
309
CONTENTFORMAT_END
171
     1
301
MARGIN
  1
CELLMARGIN_BEGIN
 40
0.06
 40
0.06
 40
0.06
 40
0.06
 40
0.06
 40
0.06
309
CELLMARGIN_END
 94
        6
 95
        1
302
GRIDFORMAT
  1
GRIDFORMAT_BEGIN
 90
        0
 91
        1
 62
     0
 92
       -2
340
14
 93
        0
 40
0.045
309
GRIDFORMAT_END
 95
        2
302
GRIDFORMAT
  1
GRIDFORMAT_BEGIN
 90
        0
 91
        1
 62
     0
 92
       -2
340
14
 93
        0
 40
0.045
309
GRIDFORMAT_END
 95
        4
302
GRIDFORMAT
  1
GRIDFORMAT_BEGIN
 90
        0
 91
        1
 62
     0
 92
       -2
340
14
 93
        0
 40
0.045
309
GRIDFORMAT_END
 95
        8
302
GRIDFORMAT
  1
GRIDFORMAT_BEGIN
 90
        0
 91
        1
 62
     0
 92
       -2
340
14
 93
        0
 40
0.045
309
GRIDFORMAT_END
 95
       16
302
GRIDFORMAT
  1
GRIDFORMAT_BEGIN
 90
        0
 91
        1
 62
     0
 92
       -2
340
14
 93
        0
 40
0.045
309
GRIDFORMAT_END
 95
       32
302
GRIDFORMAT
  1
GRIDFORMAT_BEGIN
 90
        0
 91
        1
 62
     0
 92
       -2
340
14
 93
        0
 40
0.045
309
GRIDFORMAT_END
309
TABLEFORMAT_END
  1
CELLSTYLE_BEGIN
 90
        2
 91
        1
300
_HEADER
309
CELLSTYLE_END
300
CELLSTYLE
  1
TABLEFORMAT_BEGIN
 90
        5
170
     1
 91
        0
 92
        0
 62
   257
 93
        1
300
CONTENTFORMAT
  1
CONTENTFORMAT_BEGIN
 90
        0
 91
        0
 92
        4
 93
        0
300

 40
0.0
140
1.0
 94
        2
 62
     0
340
11
144
0.18
309
CONTENTFORMAT_END
171
     1
301
MARGIN
  1
CELLMARGIN_BEGIN
 40
0.06
 40
0.06
 40
0.06
 40
0.06
 40
0.06
 40
0.06
309
CELLMARGIN_END
 94
        6
 95
        1
302
GRIDFORMAT
  1
GRIDFORMAT_BEGIN
 90
        0
 91
        1
 62
     0
 92
       -2
340
14
 93
        0
 40
0.045
309
GRIDFORMAT_END
 95
        2
302
GRIDFORMAT
  1
GRIDFORMAT_BEGIN
 90
        0
 91
        1
 62
     0
 92
       -2
340
14
 93
        0
 40
0.045
309
GRIDFORMAT_END
 95
        4
302
GRIDFORMAT
  1
GRIDFORMAT_BEGIN
 90
        0
 91
        1
 62
     0
 92
       -2
340
14
 93
        0
 40
0.045
309
GRIDFORMAT_END
 95
        8
302
GRIDFORMAT
  1
GRIDFORMAT_BEGIN
 90
        0
 91
        1
 62
     0
 92
       -2
340
14
 93
        0
 40
0.045
309
GRIDFORMAT_END
 95
       16
302
GRIDFORMAT
  1
GRIDFORMAT_BEGIN
 90
        0
 91
        1
 62
     0
 92
       -2
340
14
 93
        0
 40
0.045
309
GRIDFORMAT_END
 95
       32
302
GRIDFORMAT
  1
GRIDFORMAT_BEGIN
 90
        0
 91
        1
 62
     0
 92
       -2
340
14
 93
        0
 40
0.045
309
GRIDFORMAT_END
309
TABLEFORMAT_END
  1
CELLSTYLE_BEGIN
 90
        3
 91
        2
300
_DATA
309
CELLSTYLE_END
  0
ENDSEC
  0
EOF