0
SECTION
  2
HEADER
  9
$ACADVER
  1
AC1027
  9
$ACADMAINTVER
 70
     8
  9
$DWGCODEPAGE
  3
ANSI_1252
  9
$REQUIREDVERSIONS
160
                 0
  9
$COMMENTS
  1
File was created by Cadenas
  9
$CUSTOMPROPERTYTAG
  1
NN
  9
$CUSTOMPROPERTY
  1
Grip Tight Two-Bolt Pillow Block Inch Bore
  9
$CUSTOMPROPERTYTAG
  1
NT
  9
$CUSTOMPROPERTY
  1
GT Normal Duty Pillow Blocks
  9
$CUSTOMPROPERTYTAG
  1
NB
  9
$CUSTOMPROPERTY
  1
129166
  9
$CUSTOMPROPERTYTAG
  1
NBSYN
  9
$CUSTOMPROPERTY
  1
$PN.$LUBE.
  9
$CUSTOMPROPERTYTAG
  1
LINA
  9
$CUSTOMPROPERTY
  1
129166
  9
$CUSTOMPROPERTYTAG
  1
SERIES
  9
$CUSTOMPROPERTY
  1
209
  9
$CUSTOMPROPERTYTAG
  1
SS
  9
$CUSTOMPROPERTY
  1
1-11/16
  9
$CUSTOMPROPERTYTAG
  1
PN
  9
$CUSTOMPROPERTY
  1
129166
  9
$CUSTOMPROPERTYTAG
  1
DESCRIPTION
  9
$CUSTOMPROPERTY
  1
P2B-GT-111
  9
$CUSTOMPROPERTYTAG
  1
A
  9
$CUSTOMPROPERTY
  1
1-27/32
  9
$CUSTOMPROPERTYTAG
  1
B
  9
$CUSTOMPROPERTY
  1
7-7/16
  9
$CUSTOMPROPERTYTAG
  1
C
  9
$CUSTOMPROPERTY
  1
2
  9
$CUSTOMPROPERTYTAG
  1
DMIN
  9
$CUSTOMPROPERTY
  1
5-1/2
  9
$CUSTOMPROPERTYTAG
  1
DMAX
  9
$CUSTOMPROPERTY
  1
6-3/16
  9
$CUSTOMPROPERTYTAG
  1
F
  9
$CUSTOMPROPERTY
  1
1/2
  9
$CUSTOMPROPERTYTAG
  1
G
  9
$CUSTOMPROPERTY
  1
29/32
  9
$CUSTOMPROPERTYTAG
  1
H
  9
$CUSTOMPROPERTY
  1
3/4
  9
$CUSTOMPROPERTYTAG
  1
J
  9
$CUSTOMPROPERTY
  1
4-9/32
  9
$CUSTOMPROPERTYTAG
  1
L
  9
$CUSTOMPROPERTY
  1
2-43/64
  9
$CUSTOMPROPERTYTAG
  1
M
  9
$CUSTOMPROPERTY
  1
2-1/8
  9
$CUSTOMPROPERTYTAG
  1
R
  9
$CUSTOMPROPERTY
  1
21/32
  9
$CUSTOMPROPERTYTAG
  1
S
  9
$CUSTOMPROPERTY
  1
1-3/16
  9
$CUSTOMPROPERTYTAG
  1
U
  9
$CUSTOMPROPERTY
  1
3-3/8
  9
$CUSTOMPROPERTYTAG
  1
V
  9
$CUSTOMPROPERTY
  1
6-3/4
  9
$CUSTOMPROPERTYTAG
  1
W
  9
$CUSTOMPROPERTY
  1
11/16
  9
$CUSTOMPROPERTYTAG
  1
X
  9
$CUSTOMPROPERTY
  1
3/16
  9
$CUSTOMPROPERTYTAG
  1
Z
  9
$CUSTOMPROPERTY
  1
1-5/32
  9
$CUSTOMPROPERTYTAG
  1
COMPANY
  9
$CUSTOMPROPERTY
  1
baldor
  9
$INSBASE
 10
0.0
 20
0.0
 30
0.0
  9
$EXTMIN
 10
1.000000000000000E+20
 20
1.000000000000000E+20
 30
1.000000000000000E+20
  9
$EXTMAX
 10
-1.000000000000000E+20
 20
-1.000000000000000E+20
 30
-1.000000000000000E+20
  9
$LIMMIN
 10
0.0
 20
0.0
  9
$LIMMAX
 10
12.0
 20
9.0
  9
$ORTHOMODE
 70
     0
  9
$REGENMODE
 70
     1
  9
$FILLMODE
 70
     1
  9
$QTEXTMODE
 70
     0
  9
$MIRRTEXT
 70
     1
  9
$LTSCALE
 40
1.0
  9
$ATTMODE
 70
     1
  9
$TEXTSIZE
 40
0.2
  9
$TRACEWID
 40
0.05
  9
$TEXTSTYLE
  7
Standard
  9
$CLAYER
  8
0
  9
$CELTYPE
  6
ByLayer
  9
$CECOLOR
 62
   256
  9
$CELTSCALE
 40
1.0
  9
$DISPSILH
 70
     0
  9
$DIMSCALE
 40
1.0
  9
$DIMASZ
 40
0.18
  9
$DIMEXO
 40
0.0625
  9
$DIMDLI
 40
0.38
  9
$DIMRND
 40
0.0
  9
$DIMDLE
 40
0.0
  9
$DIMEXE
 40
0.18
  9
$DIMTP
 40
0.0
  9
$DIMTM
 40
0.0
  9
$DIMTXT
 40
0.18
  9
$DIMCEN
 40
0.09
  9
$DIMTSZ
 40
0.0
  9
$DIMTOL
 70
     0
  9
$DIMLIM
 70
     0
  9
$DIMTIH
 70
     1
  9
$DIMTOH
 70
     1
  9
$DIMSE1
 70
     0
  9
$DIMSE2
 70
     0
  9
$DIMTAD
 70
     0
  9
$DIMZIN
 70
     0
  9
$DIMBLK
  1

  9
$DIMASO
 70
     1
  9
$DIMSHO
 70
     1
  9
$DIMPOST
  1

  9
$DIMAPOST
  1

  9
$DIMALT
 70
     0
  9
$DIMALTD
 70
     2
  9
$DIMALTF
 40
25.4
  9
$DIMLFAC
 40
1.0
  9
$DIMTOFL
 70
     0
  9
$DIMTVP
 40
0.0
  9
$DIMTIX
 70
     0
  9
$DIMSOXD
 70
     0
  9
$DIMSAH
 70
     0
  9
$DIMBLK1
  1

  9
$DIMBLK2
  1

  9
$DIMSTYLE
  2
Standard
  9
$DIMCLRD
 70
     0
  9
$DIMCLRE
 70
     0
  9
$DIMCLRT
 70
     0
  9
$DIMTFAC
 40
1.0
  9
$DIMGAP
 40
0.09
  9
$DIMJUST
 70
     0
  9
$DIMSD1
 70
     0
  9
$DIMSD2
 70
     0
  9
$DIMTOLJ
 70
     1
  9
$DIMTZIN
 70
     0
  9
$DIMALTZ
 70
     0
  9
$DIMALTTZ
 70
     0
  9
$DIMUPT
 70
     0
  9
$DIMDEC
 70
     4
  9
$DIMTDEC
 70
     4
  9
$DIMALTU
 70
     2
  9
$DIMALTTD
 70
     2
  9
$DIMTXSTY
  7
Standard
  9
$DIMAUNIT
 70
     0
  9
$DIMADEC
 70
     0
  9
$DIMALTRND
 40
0.0
  9
$DIMAZIN
 70
     0
  9
$DIMDSEP
 70
    46
  9
$DIMATFIT
 70
     3
  9
$DIMFRAC
 70
     0
  9
$DIMLDRBLK
  1

  9
$DIMLUNIT
 70
     2
  9
$DIMLWD
 70
    -2
  9
$DIMLWE
 70
    -2
  9
$DIMTMOVE
 70
     0
  9
$DIMFXL
 40
1.0
  9
$DIMFXLON
 70
     0
  9
$DIMJOGANG
 40
0.7853981633974483
  9
$DIMTFILL
 70
     0
  9
$DIMTFILLCLR
 70
     0
  9
$DIMARCSYM
 70
     0
  9
$DIMLTYPE
  6

  9
$DIMLTEX1
  6

  9
$DIMLTEX2
  6

  9
$DIMTXTDIRECTION
 70
     0
  9
$LUNITS
 70
     2
  9
$LUPREC
 70
     4
  9
$SKETCHINC
 40
0.1
  9
$FILLETRAD
 40
0.5
  9
$AUNITS
 70
     0
  9
$AUPREC
 70
     0
  9
$MENU
  1
.
  9
$ELEVATION
 40
0.0
  9
$PELEVATION
 40
0.0
  9
$THICKNESS
 40
0.0
  9
$LIMCHECK
 70
     0
  9
$CHAMFERA
 40
0.0
  9
$CHAMFERB
 40
0.0
  9
$CHAMFERC
 40
0.0
  9
$CHAMFERD
 40
0.0
  9
$SKPOLY
 70
     0
  9
$TDCREATE
 40
2458168.994651192
  9
$TDUCREATE
 40
2458168.952984525
  9
$TDUPDATE
 40
2458168.994651377
  9
$TDUUPDATE
 40
2458168.952984711
  9
$TDINDWG
 40
0.0000000116
  9
$TDUSRTIMER
 40
0.0000000116
  9
$USRTIMER
 70
     1
  9
$ANGBASE
 50
0.0
  9
$ANGDIR
 70
     0
  9
$PDMODE
 70
     0
  9
$PDSIZE
 40
0.0
  9
$PLINEWID
 40
0.0
  9
$SPLFRAME
 70
     0
  9
$SPLINETYPE
 70
     6
  9
$SPLINESEGS
 70
     8
  9
$HANDSEED
  5
1BB
  9
$SURFTAB1
 70
     6
  9
$SURFTAB2
 70
     6
  9
$SURFTYPE
 70
     6
  9
$SURFU
 70
     6
  9
$SURFV
 70
     6
  9
$UCSBASE
  2

  9
$UCSNAME
  2

  9
$UCSORG
 10
0.0
 20
0.0
 30
0.0
  9
$UCSXDIR
 10
1.0
 20
0.0
 30
0.0
  9
$UCSYDIR
 10
0.0
 20
1.0
 30
0.0
  9
$UCSORTHOREF
  2

  9
$UCSORTHOVIEW
 70
     0
  9
$UCSORGTOP
 10
0.0
 20
0.0
 30
0.0
  9
$UCSORGBOTTOM
 10
0.0
 20
0.0
 30
0.0
  9
$UCSORGLEFT
 10
0.0
 20
0.0
 30
0.0
  9
$UCSORGRIGHT
 10
0.0
 20
0.0
 30
0.0
  9
$UCSORGFRONT
 10
0.0
 20
0.0
 30
0.0
  9
$UCSORGBACK
 10
0.0
 20
0.0
 30
0.0
  9
$PUCSBASE
  2

  9
$PUCSNAME
  2

  9
$PUCSORG
 10
0.0
 20
0.0
 30
0.0
  9
$PUCSXDIR
 10
1.0
 20
0.0
 30
0.0
  9
$PUCSYDIR
 10
0.0
 20
1.0
 30
0.0
  9
$PUCSORTHOREF
  2

  9
$PUCSORTHOVIEW
 70
     0
  9
$PUCSORGTOP
 10
0.0
 20
0.0
 30
0.0
  9
$PUCSORGBOTTOM
 10
0.0
 20
0.0
 30
0.0
  9
$PUCSORGLEFT
 10
0.0
 20
0.0
 30
0.0
  9
$PUCSORGRIGHT
 10
0.0
 20
0.0
 30
0.0
  9
$PUCSORGFRONT
 10
0.0
 20
0.0
 30
0.0
  9
$PUCSORGBACK
 10
0.0
 20
0.0
 30
0.0
  9
$USERI1
 70
     0
  9
$USERI2
 70
     0
  9
$USERI3
 70
     0
  9
$USERI4
 70
     0
  9
$USERI5
 70
     0
  9
$USERR1
 40
0.0
  9
$USERR2
 40
0.0
  9
$USERR3
 40
0.0
  9
$USERR4
 40
0.0
  9
$USERR5
 40
0.0
  9
$WORLDVIEW
 70
     1
  9
$SHADEDGE
 70
     3
  9
$SHADEDIF
 70
    70
  9
$TILEMODE
 70
     1
  9
$MAXACTVP
 70
    64
  9
$PINSBASE
 10
0.0
 20
0.0
 30
0.0
  9
$PLIMCHECK
 70
     0
  9
$PEXTMIN
 10
1.000000000000000E+20
 20
1.000000000000000E+20
 30
1.000000000000000E+20
  9
$PEXTMAX
 10
-1.000000000000000E+20
 20
-1.000000000000000E+20
 30
-1.000000000000000E+20
  9
$PLIMMIN
 10
0.0
 20
0.0
  9
$PLIMMAX
 10
12.0
 20
9.0
  9
$UNITMODE
 70
     0
  9
$VISRETAIN
 70
     1
  9
$PLINEGEN
 70
     0
  9
$PSLTSCALE
 70
     1
  9
$TREEDEPTH
 70
  3020
  9
$CMLSTYLE
  2
Standard
  9
$CMLJUST
 70
     0
  9
$CMLSCALE
 40
1.0
  9
$PROXYGRAPHICS
 70
     1
  9
$MEASUREMENT
 70
     0
  9
$CELWEIGHT
370
    -1
  9
$ENDCAPS
280
     0
  9
$JOINSTYLE
280
     0
  9
$LWDISPLAY
290
     0
  9
$INSUNITS
 70
     1
  9
$HYPERLINKBASE
  1

  9
$STYLESHEET
  1

  9
$XEDIT
290
     1
  9
$CEPSNTYPE
380
     0
  9
$PSTYLEMODE
290
     1
  9
$FINGERPRINTGUID
  2
{577C9444-76A7-49D4-9AB4-561D7CB9894D}
  9
$VERSIONGUID
  2
{FAEB1C32-E019-11D5-929B-00C0DF256EC4}
  9
$EXTNAMES
290
     1
  9
$PSVPSCALE
 40
0.0
  9
$OLESTARTUP
290
     0
  9
$SORTENTS
280
   127
  9
$INDEXCTL
280
     0
  9
$HIDETEXT
280
     1
  9
$XCLIPFRAME
280
     2
  9
$HALOGAP
280
     0
  9
$OBSCOLOR
 70
   257
  9
$OBSLTYPE
280
     0
  9
$INTERSECTIONDISPLAY
280
     0
  9
$INTERSECTIONCOLOR
 70
   257
  9
$DIMASSOC
280
     2
  9
$PROJECTNAME
  1

  9
$CAMERADISPLAY
290
     0
  9
$LENSLENGTH
 40
50.0
  9
$CAMERAHEIGHT
 40
0.0
  9
$STEPSPERSEC
 40
2.0
  9
$STEPSIZE
 40
6.0
  9
$3DDWFPREC
 40
2.0
  9
$PSOLWIDTH
 40
0.25
  9
$PSOLHEIGHT
 40
4.0
  9
$LOFTANG1
 40
1.570796326794897
  9
$LOFTANG2
 40
1.570796326794897
  9
$LOFTMAG1
 40
0.0
  9
$LOFTMAG2
 40
0.0
  9
$LOFTPARAM
 70
     7
  9
$LOFTNORMALS
280
     1
  9
$LATITUDE
 40
37.795
  9
$LONGITUDE
 40
-122.394
  9
$NORTHDIRECTION
 40
0.0
  9
$TIMEZONE
 70
 -8000
  9
$LIGHTGLYPHDISPLAY
280
     1
  9
$TILEMODELIGHTSYNCH
280
     1
  9
$CMATERIAL
347
44
  9
$SOLIDHIST
280
     0
  9
$SHOWHIST
280
     1
  9
$DWFFRAME
280
     2
  9
$DGNFRAME
280
     2
  9
$REALWORLDSCALE
290
     1
  9
$INTERFERECOLOR
 62
   256
  9
$CSHADOW
280
     0
  9
$SHADOWPLANELOCATION
 40
0.0
  0
ENDSEC
  0
SECTION
  2
CLASSES
  0
CLASS
  1
ACDBDICTIONARYWDFLT
  2
AcDbDictionaryWithDefault
  3
ObjectDBX Classes
 90
        0
 91
        4
280
     0
281
     0
  0
CLASS
  1
VISUALSTYLE
  2
AcDbVisualStyle
  3
ObjectDBX Classes
 90
     4095
 91
        4
280
     0
281
     0
  0
CLASS
  1
MATERIAL
  2
AcDbMaterial
  3
ObjectDBX Classes
 90
     1153
 91
        4
280
     0
281
     0
  0
CLASS
  1
SCALE
  2
AcDbScale
  3
ObjectDBX Classes
 90
     1153
 91
        4
280
     0
281
     0
  0
CLASS
  1
TABLESTYLE
  2
AcDbTableStyle
  3
ObjectDBX Classes
 90
     4095
 91
        4
280
     0
281
     0
  0
CLASS
  1
MLEADERSTYLE
  2
AcDbMLeaderStyle
  3
ACDB_MLEADERSTYLE_CLASS
 90
     4095
 91
        4
280
     0
281
     0
  0
CLASS
  1
SUN
  2
AcDbSun
  3
SCENEOE
 90
     1153
 91
        4
280
     0
281
     0
  0
CLASS
  1
DICTIONARYVAR
  2
AcDbDictionaryVar
  3
ObjectDBX Classes
 90
        0
 91
        4
280
     0
281
     0
  0
CLASS
  1
CELLSTYLEMAP
  2
AcDbCellStyleMap
  3
ObjectDBX Classes
 90
     1152
 91
        4
280
     0
281
     0
  0
ENDSEC
  0
SECTION
  2
TABLES
  0
TABLE
  2
VPORT
  5
8
330
0
100
AcDbSymbolTable
 70
     1
  0
VPORT
  5
29
330
8
100
AcDbSymbolTableRecord
100
AcDbViewportTableRecord
  2
*Active
 70
     0
 10
0.0
 20
0.0
 11
1.0
 21
1.0
 12
0.0
 22
0.4976562500000004
 13
0.0
 23
0.0
 14
0.5
 24
0.5
 15
0.5
 25
0.5
 16
0.0
 26
0.0
 36
1.0
 17
0.0
 27
0.0
 37
0.0
 40
5.350218750000001
 41
1.417932677986297
 42
50.0
 43
0.0
 44
0.0
 50
0.0
 51
0.0
 71
     0
 72
   100
 73
     1
 74
     3
 75
     0
 76
     0
 77
     0
 78
     0
281
     0
 65
     1
110
0.0
120
0.0
130
0.0
111
1.0
121
0.0
131
0.0
112
0.0
122
1.0
132
0.0
 79
     0
146
0.0
348
2F
 60
     3
 61
     5
292
     1
282
     1
141
0.0
142
0.0
 63
   250
361
6D
  0
ENDTAB
  0
TABLE
  2
LTYPE
  5
5
330
0
100
AcDbSymbolTable
 70
     3
  0
LTYPE
  5
14
330
5
100
AcDbSymbolTableRecord
100
AcDbLinetypeTableRecord
  2
ByBlock
 70
     0
  3

 72
    65
 73
     0
 40
0.0
  0
LTYPE
  5
15
330
5
100
AcDbSymbolTableRecord
100
AcDbLinetypeTableRecord
  2
ByLayer
 70
     0
  3

 72
    65
 73
     0
 40
0.0
  0
LTYPE
  5
16
330
5
100
AcDbSymbolTableRecord
100
AcDbLinetypeTableRecord
  2
Continuous
 70
     0
  3
Solid line
 72
    65
 73
     0
 40
0.0
  0
LTYPE
  5
A5
330
5
100
AcDbSymbolTableRecord
100
AcDbLinetypeTableRecord
  2
Dashed
 70
     0
  3

 72
    65
 73
     2
 40
2.0
 49
1.0
 74
     0
 49
-1.0
 74
     0
  0
LTYPE
  5
B1
330
5
100
AcDbSymbolTableRecord
100
AcDbLinetypeTableRecord
  2
Center
 70
     0
  3

 72
    65
 73
     4
 40
1.5
 49
0.45
 74
     0
 49
-0.5
 74
     0
 49
0.05
 74
     0
 49
-0.5
 74
     0
  0
ENDTAB
  0
TABLE
  2
LAYER
  5
2
330
0
100
AcDbSymbolTable
 70
     7
  0
LAYER
  5
10
330
2
100
AcDbSymbolTableRecord
100
AcDbLayerTableRecord
  2
0
 70
     0
 62
     7
  6
Continuous
370
    -3
390
F
347
46
348
0
  0
LAYER
  5
72
330
2
100
AcDbSymbolTableRecord
100
AcDbLayerTableRecord
  2
AM_6
 70
     0
 62
    -2
  6
Continuous
370
    35
390
F
347
46
348
0
  0
LAYER
  5
A6
330
2
100
AcDbSymbolTableRecord
100
AcDbLayerTableRecord
  2
AM_9
 70
     0
 62
     6
  6
Dashed
370
    25
390
F
347
46
348
0
  0
LAYER
  5
B2
330
2
100
AcDbSymbolTableRecord
100
AcDbLayerTableRecord
  2
AM_7
 70
     0
 62
     7
  6
Center
370
    25
390
F
347
46
348
0
  0
LAYER
  5
B5
330
2
100
AcDbSymbolTableRecord
100
AcDbLayerTableRecord
  2
AM_4
 70
     0
 62
     3
  6
Continuous
370
    25
390
F
347
46
348
0
  0
LAYER
  5
E6
330
2
100
AcDbSymbolTableRecord
100
AcDbLayerTableRecord
  2
AM_5
 70
     0
 62
     3
  6
Continuous
370
    25
390
F
347
46
348
0
  0
LAYER
  5
1AD
330
2
100
AcDbSymbolTableRecord
100
AcDbLayerTableRecord
  2
ConnectionPoints
 70
     0
 62
     7
  6
Continuous
370
    50
390
F
347
46
348
0
  0
ENDTAB
  0
TABLE
  2
STYLE
  5
3
330
0
100
AcDbSymbolTable
 70
     1
  0
STYLE
  5
11
330
3
100
AcDbSymbolTableRecord
100
AcDbTextStyleTableRecord
  2
Standard
 70
     0
 40
0.0
 41
1.0
 50
0.0
 71
     0
 42
0.2
  3
txt
  4

  0
ENDTAB
  0
TABLE
  2
VIEW
  5
6
330
0
100
AcDbSymbolTable
 70
     0
  0
ENDTAB
  0
TABLE
  2
UCS
  5
7
330
0
100
AcDbSymbolTable
 70
     0
  0
ENDTAB
  0
TABLE
  2
APPID
  5
9
330
0
100
AcDbSymbolTable
 70
     1
  0
APPID
  5
12
330
9
100
AcDbSymbolTableRecord
100
AcDbRegAppTableRecord
  2
ACAD
 70
     0
  0
ENDTAB
  0
TABLE
  2
DIMSTYLE
  5
A
330
0
100
AcDbSymbolTable
 70
     1
100
AcDbDimStyleTable
  0
DIMSTYLE
105
27
330
A
100
AcDbSymbolTableRecord
100
AcDbDimStyleTableRecord
  2
Standard
 70
     0
178
     0
340
11
  0
ENDTAB
  0
TABLE
  2
BLOCK_RECORD
  5
1
330
0
100
AcDbSymbolTable
 70
     5
  0
BLOCK_RECORD
  5
1F
330
1
100
AcDbSymbolTableRecord
100
AcDbBlockTableRecord
  2
*Model_Space
340
22
 70
     0
280
     1
281
     0
  0
BLOCK_RECORD
  5
1B
330
1
100
AcDbSymbolTableRecord
100
AcDbBlockTableRecord
  2
*Paper_Space
340
1E
 70
     0
280
     1
281
     0
  0
BLOCK_RECORD
  5
23
330
1
100
AcDbSymbolTableRecord
100
AcDbBlockTableRecord
  2
*Paper_Space0
340
26
 70
     0
280
     1
281
     0
  0
BLOCK_RECORD
  5
6E
330
1
100
AcDbSymbolTableRecord
100
AcDbBlockTableRecord
  2
1_129166_0
340
0
102
{BLKREFS
331
6F
102
}
 70
     0
280
     1
281
     0
  0
BLOCK_RECORD
  5
8F
330
1
100
AcDbSymbolTableRecord
100
AcDbBlockTableRecord
  2
2_129522I_0_in_129166_0
340
0
102
{BLKREFS
331
90
102
}
 70
     0
280
     1
281
     0
  0
BLOCK_RECORD
  5
BE
330
1
100
AcDbSymbolTableRecord
100
AcDbBlockTableRecord
  2
3_129916_0_in_129166_0
340
0
102
{BLKREFS
331
BF
102
}
 70
     0
280
     1
281
     0
  0
BLOCK_RECORD
  5
100
330
1
100
AcDbSymbolTableRecord
100
AcDbBlockTableRecord
  2
4_129426I_0_in_129166_0
340
0
102
{BLKREFS
331
101
102
}
 70
     0
280
     1
281
     0
  0
ENDTAB
  0
ENDSEC
  0
SECTION
  2
BLOCKS
  0
BLOCK
  5
20
330
1F
100
AcDbEntity
  8
0
100
AcDbBlockBegin
  2
*Model_Space
 70
     0
 10
0.0
 20
0.0
 30
0.0
  3
*Model_Space
  1

  0
ENDBLK
  5
21
330
1F
100
AcDbEntity
  8
0
100
AcDbBlockEnd
  0
BLOCK
  5
1C
330
1B
100
AcDbEntity
 67
     1
  8
0
100
AcDbBlockBegin
  2
*Paper_Space
 70
     0
 10
0.0
 20
0.0
 30
0.0
  3
*Paper_Space
  1

  0
ENDBLK
  5
1D
330
1B
100
AcDbEntity
 67
     1
  8
0
100
AcDbBlockEnd
  0
BLOCK
  5
24
330
23
100
AcDbEntity
  8
0
100
AcDbBlockBegin
  2
*Paper_Space0
 70
     0
 10
0.0
 20
0.0
 30
0.0
  3
*Paper_Space0
  1

  0
ENDBLK
  5
25
330
23
100
AcDbEntity
  8
0
100
AcDbBlockEnd
  0
BLOCK
  5
70
330
6E
100
AcDbEntity
  8
0
100
AcDbBlockBegin
  2
1_129166_0
 70
     2
 10
0.0
 20
0.0
 30
0.0
  3
1_129166_0
  1

  0
ATTDEF
  5
73
330
6E
100
AcDbEntity
  8
AM_6
100
AcDbText
 10
8.71875
 20
3.120312499999999
 30
0.0
 40
0.5
  1
Grip Tight Two-Bolt Pillow Block Inch Bore
100
AcDbAttributeDefinition
  3

  2
NN
 70
     8
280
     0
  0
ATTDEF
  5
74
330
6E
100
AcDbEntity
  8
AM_6
100
AcDbText
 10
8.71875
 20
2.620312499999999
 30
0.0
 40
0.5
  1
GT Normal Duty Pillow Blocks
100
AcDbAttributeDefinition
  3

  2
NT
 70
     8
280
     0
  0
ATTDEF
  5
75
330
6E
100
AcDbEntity
  8
AM_6
100
AcDbText
 10
8.71875
 20
2.120312499999999
 30
0.0
 40
0.5
  1
129166
100
AcDbAttributeDefinition
  3

  2
NB
 70
     8
280
     0
  0
ATTDEF
  5
76
330
6E
100
AcDbEntity
  8
AM_6
100
AcDbText
 10
8.71875
 20
1.620312499999999
 30
0.0
 40
0.5
  1
$PN.$LUBE.
100
AcDbAttributeDefinition
  3

  2
NBSYN
 70
     8
280
     0
  0
ATTDEF
  5
77
330
6E
100
AcDbEntity
  8
AM_6
100
AcDbText
 10
8.71875
 20
1.120312499999999
 30
0.0
 40
0.5
  1
129166
100
AcDbAttributeDefinition
  3

  2
LINA
 70
     8
280
     0
  0
ATTDEF
  5
78
330
6E
100
AcDbEntity
  8
AM_6
100
AcDbText
 10
8.71875
 20
0.6203124999999994
 30
0.0
 40
0.5
  1
209
100
AcDbAttributeDefinition
  3

  2
SERIES
 70
     8
280
     0
  0
ATTDEF
  5
79
330
6E
100
AcDbEntity
  8
AM_6
100
AcDbText
 10
8.71875
 20
0.1203124999999994
 30
0.0
 40
0.5
  1
1-11/16
100
AcDbAttributeDefinition
  3

  2
SS
 70
     8
280
     0
  0
ATTDEF
  5
7A
330
6E
100
AcDbEntity
  8
AM_6
100
AcDbText
 10
8.71875
 20
-0.3796875000000006
 30
0.0
 40
0.5
  1
129166
100
AcDbAttributeDefinition
  3

  2
PN
 70
     8
280
     0
  0
ATTDEF
  5
7B
330
6E
100
AcDbEntity
  8
AM_6
100
AcDbText
 10
8.71875
 20
-0.8796875000000006
 30
0.0
 40
0.5
  1
P2B-GT-111
100
AcDbAttributeDefinition
  3

  2
DESCRIPTION
 70
     8
280
     0
  0
ATTDEF
  5
7C
330
6E
100
AcDbEntity
  8
AM_6
100
AcDbText
 10
8.71875
 20
-1.379687500000001
 30
0.0
 40
0.5
  1
1-27/32
100
AcDbAttributeDefinition
  3

  2
A
 70
     8
280
     0
  0
ATTDEF
  5
7D
330
6E
100
AcDbEntity
  8
AM_6
100
AcDbText
 10
8.71875
 20
-1.879687500000001
 30
0.0
 40
0.5
  1
7-7/16
100
AcDbAttributeDefinition
  3

  2
B
 70
     8
280
     0
  0
ATTDEF
  5
7E
330
6E
100
AcDbEntity
  8
AM_6
100
AcDbText
 10
8.71875
 20
-2.379687500000001
 30
0.0
 40
0.5
  1
2
100
AcDbAttributeDefinition
  3

  2
C
 70
     8
280
     0
  0
ATTDEF
  5
7F
330
6E
100
AcDbEntity
  8
AM_6
100
AcDbText
 10
8.71875
 20
-2.879687500000001
 30
0.0
 40
0.5
  1
5-1/2
100
AcDbAttributeDefinition
  3

  2
DMIN
 70
     8
280
     0
  0
ATTDEF
  5
80
330
6E
100
AcDbEntity
  8
AM_6
100
AcDbText
 10
8.71875
 20
-3.379687500000001
 30
0.0
 40
0.5
  1
6-3/16
100
AcDbAttributeDefinition
  3

  2
DMAX
 70
     8
280
     0
  0
ATTDEF
  5
81
330
6E
100
AcDbEntity
  8
AM_6
100
AcDbText
 10
8.71875
 20
-3.879687500000001
 30
0.0
 40
0.5
  1
1/2
100
AcDbAttributeDefinition
  3

  2
F
 70
     8
280
     0
  0
ATTDEF
  5
82
330
6E
100
AcDbEntity
  8
AM_6
100
AcDbText
 10
8.71875
 20
-4.379687500000001
 30
0.0
 40
0.5
  1
29/32
100
AcDbAttributeDefinition
  3

  2
G
 70
     8
280
     0
  0
ATTDEF
  5
83
330
6E
100
AcDbEntity
  8
AM_6
100
AcDbText
 10
8.71875
 20
-4.879687500000001
 30
0.0
 40
0.5
  1
3/4
100
AcDbAttributeDefinition
  3

  2
H
 70
     8
280
     0
  0
ATTDEF
  5
84
330
6E
100
AcDbEntity
  8
AM_6
100
AcDbText
 10
8.71875
 20
-5.379687500000001
 30
0.0
 40
0.5
  1
4-9/32
100
AcDbAttributeDefinition
  3

  2
J
 70
     8
280
     0
  0
ATTDEF
  5
85
330
6E
100
AcDbEntity
  8
AM_6
100
AcDbText
 10
8.71875
 20
-5.879687500000001
 30
0.0
 40
0.5
  1
2-43/64
100
AcDbAttributeDefinition
  3

  2
L
 70
     8
280
     0
  0
ATTDEF
  5
86
330
6E
100
AcDbEntity
  8
AM_6
100
AcDbText
 10
8.71875
 20
-6.379687500000001
 30
0.0
 40
0.5
  1
2-1/8
100
AcDbAttributeDefinition
  3

  2
M
 70
     8
280
     0
  0
ATTDEF
  5
87
330
6E
100
AcDbEntity
  8
AM_6
100
AcDbText
 10
8.71875
 20
-6.879687500000001
 30
0.0
 40
0.5
  1
21/32
100
AcDbAttributeDefinition
  3

  2
R
 70
     8
280
     0
  0
ATTDEF
  5
88
330
6E
100
AcDbEntity
  8
AM_6
100
AcDbText
 10
8.71875
 20
-7.379687500000001
 30
0.0
 40
0.5
  1
1-3/16
100
AcDbAttributeDefinition
  3

  2
S
 70
     8
280
     0
  0
ATTDEF
  5
89
330
6E
100
AcDbEntity
  8
AM_6
100
AcDbText
 10
8.71875
 20
-7.879687500000001
 30
0.0
 40
0.5
  1
3-3/8
100
AcDbAttributeDefinition
  3

  2
U
 70
     8
280
     0
  0
ATTDEF
  5
8A
330
6E
100
AcDbEntity
  8
AM_6
100
AcDbText
 10
8.71875
 20
-8.379687500000001
 30
0.0
 40
0.5
  1
6-3/4
100
AcDbAttributeDefinition
  3

  2
V
 70
     8
280
     0
  0
ATTDEF
  5
8B
330
6E
100
AcDbEntity
  8
AM_6
100
AcDbText
 10
8.71875
 20
-8.879687500000001
 30
0.0
 40
0.5
  1
11/16
100
AcDbAttributeDefinition
  3

  2
W
 70
     8
280
     0
  0
ATTDEF
  5
8C
330
6E
100
AcDbEntity
  8
AM_6
100
AcDbText
 10
8.71875
 20
-9.379687500000001
 30
0.0
 40
0.5
  1
3/16
100
AcDbAttributeDefinition
  3

  2
X
 70
     8
280
     0
  0
ATTDEF
  5
8D
330
6E
100
AcDbEntity
  8
AM_6
100
AcDbText
 10
8.71875
 20
-9.879687500000001
 30
0.0
 40
0.5
  1
1-5/32
100
AcDbAttributeDefinition
  3

  2
Z
 70
     8
280
     0
  0
ATTDEF
  5
8E
330
6E
100
AcDbEntity
  8
AM_6
100
AcDbText
 10
8.71875
 20
-10.3796875
 30
0.0
 40
0.5
  1
baldor
100
AcDbAttributeDefinition
  3

  2
COMPANY
 70
     8
280
     0
  0
INSERT
  5
90
330
6E
100
AcDbEntity
  8
0
100
AcDbBlockReference
  2
2_129522I_0_in_129166_0
 10
0.0
 20
0.0
 30
0.0
  0
INSERT
  5
BF
330
6E
100
AcDbEntity
  8
0
100
AcDbBlockReference
  2
3_129916_0_in_129166_0
 10
0.0
 20
0.0
 30
0.0
  0
INSERT
  5
101
330
6E
100
AcDbEntity
  8
0
100
AcDbBlockReference
  2
4_129426I_0_in_129166_0
 10
0.0
 20
0.0
 30
0.0
  0
ENDBLK
  5
71
330
6E
100
AcDbEntity
  8
0
100
AcDbBlockEnd
  0
BLOCK
  5
91
330
8F
100
AcDbEntity
  8
0
100
AcDbBlockBegin
  2
2_129522I_0_in_129166_0
 70
     2
 10
0.0
 20
0.0
 30
0.0
  3
2_129522I_0_in_129166_0
  1

  0
ATTDEF
  5
93
330
8F
100
AcDbEntity
  8
AM_6
100
AcDbText
 10
6.739533555340238
 20
1.739533555340237
 30
0.0
 40
0.5
  1
INS-GT B
100
AcDbAttributeDefinition
  3

  2
NN
 70
     8
280
     0
  0
ATTDEF
  5
94
330
8F
100
AcDbEntity
  8
AM_6
100
AcDbText
 10
6.739533555340238
 20
1.239533555340237
 30
0.0
 40
0.5
  1
GT Normal Duty Bearing Inserts
100
AcDbAttributeDefinition
  3

  2
NT
 70
     8
280
     0
  0
ATTDEF
  5
95
330
8F
100
AcDbEntity
  8
AM_6
100
AcDbText
 10
6.739533555340238
 20
0.7395335553402371
 30
0.0
 40
0.5
  1
129522I
100
AcDbAttributeDefinition
  3

  2
NB
 70
     8
280
     0
  0
ATTDEF
  5
96
330
8F
100
AcDbEntity
  8
AM_6
100
AcDbText
 10
6.739533555340238
 20
0.2395335553402371
 30
0.0
 40
0.5
  1
$PN.I
100
AcDbAttributeDefinition
  3

  2
NBSYN
 70
     8
280
     0
  0
ATTDEF
  5
97
330
8F
100
AcDbEntity
  8
AM_6
100
AcDbText
 10
6.739533555340238
 20
-0.2604664446597629
 30
0.0
 40
0.5
  1
129522
100
AcDbAttributeDefinition
  3

  2
LINA
 70
     8
280
     0
  0
ATTDEF
  5
98
330
8F
100
AcDbEntity
  8
AM_6
100
AcDbText
 10
6.739533555340238
 20
-0.7604664446597629
 30
0.0
 40
0.5
  1
209
100
AcDbAttributeDefinition
  3

  2
SERIES
 70
     8
280
     0
  0
ATTDEF
  5
99
330
8F
100
AcDbEntity
  8
AM_6
100
AcDbText
 10
6.739533555340238
 20
-1.260466444659763
 30
0.0
 40
0.5
  1
129522
100
AcDbAttributeDefinition
  3

  2
PN
 70
     8
280
     0
  0
ATTDEF
  5
9A
330
8F
100
AcDbEntity
  8
AM_6
100
AcDbText
 10
6.739533555340238
 20
-1.760466444659763
 30
0.0
 40
0.5
  1
INS-GT-09
100
AcDbAttributeDefinition
  3

  2
DESCRIPTION
 70
     8
280
     0
  0
ATTDEF
  5
9B
330
8F
100
AcDbEntity
  8
AM_6
100
AcDbText
 10
6.739533555340238
 20
-2.260466444659763
 30
0.0
 40
0.5
  1
1.85
100
AcDbAttributeDefinition
  3

  2
A
 70
     8
280
     0
  0
ATTDEF
  5
9C
330
8F
100
AcDbEntity
  8
AM_6
100
AcDbText
 10
6.739533555340238
 20
-2.760466444659763
 30
0.0
 40
0.5
  1
0.87
100
AcDbAttributeDefinition
  3

  2
C
 70
     8
280
     0
  0
ATTDEF
  5
9D
330
8F
100
AcDbEntity
  8
AM_6
100
AcDbText
 10
6.739533555340238
 20
-3.260466444659763
 30
0.0
 40
0.5
  1
3.3465
100
AcDbAttributeDefinition
  3

  2
D
 70
     8
280
     0
  0
ATTDEF
  5
9E
330
8F
100
AcDbEntity
  8
AM_6
100
AcDbText
 10
6.739533555340238
 20
-3.760466444659763
 30
0.0
 40
0.5
  1
0.25
100
AcDbAttributeDefinition
  3

  2
J
 70
     8
280
     0
  0
ATTDEF
  5
9F
330
8F
100
AcDbEntity
  8
AM_6
100
AcDbText
 10
6.739533555340238
 20
-4.260466444659762
 30
0.0
 40
0.5
  1
2.86
100
AcDbAttributeDefinition
  3

  2
L
 70
     8
280
     0
  0
ATTDEF
  5
A0
330
8F
100
AcDbEntity
  8
AM_6
100
AcDbText
 10
6.739533555340238
 20
-4.760466444659762
 30
0.0
 40
0.5
  1
#10 - 32 x 1/4
100
AcDbAttributeDefinition
  3

  2
N
 70
     8
280
     0
  0
ATTDEF
  5
A1
330
8F
100
AcDbEntity
  8
AM_6
100
AcDbText
 10
6.739533555340238
 20
-5.260466444659762
 30
0.0
 40
0.5
  1
0.62000
100
AcDbAttributeDefinition
  3

  2
W
 70
     8
280
     0
  0
ATTDEF
  5
A2
330
8F
100
AcDbEntity
  8
AM_6
100
AcDbText
 10
6.739533555340238
 20
-5.760466444659762
 30
0.0
 40
0.5
  1
1.26
100
AcDbAttributeDefinition
  3

  2
X
 70
     8
280
     0
  0
ATTDEF
  5
A3
330
8F
100
AcDbEntity
  8
AM_6
100
AcDbText
 10
6.739533555340238
 20
-6.260466444659762
 30
0.0
 40
0.5
  1
1.23
100
AcDbAttributeDefinition
  3

  2
Y
 70
     8
280
     0
  0
ATTDEF
  5
A4
330
8F
100
AcDbEntity
  8
AM_6
100
AcDbText
 10
6.739533555340238
 20
-6.760466444659762
 30
0.0
 40
0.5
  1
baldor
100
AcDbAttributeDefinition
  3

  2
COMPANY
 70
     8
280
     0
  0
CIRCLE
  5
A7
330
8F
100
AcDbEntity
  8
AM_9
100
AcDbCircle
 10
0.0
 20
0.0
 30
0.0
 40
1.102811140132194
  0
ARC
  5
A8
330
8F
100
AcDbEntity
  8
AM_9
100
AcDbCircle
 10
0.0000000000000001
 20
0.0
 30
0.0
 40
1.673249999999999
100
AcDbArc
 50
207.2535843877979
 51
332.7464156122021
  0
CIRCLE
  5
A9
330
8F
100
AcDbEntity
  8
AM_9
100
AcDbCircle
 10
0.0
 20
0.0
 30
0.0
 40
1.58625
  0
CIRCLE
  5
AA
330
8F
100
AcDbEntity
  8
AM_9
100
AcDbCircle
 10
0.0
 20
0.0
 30
0.0
 40
1.621259545833585
  0
CIRCLE
  5
AB
330
8F
100
AcDbEntity
  8
AM_9
100
AcDbCircle
 10
0.0
 20
0.0
 30
0.0
 40
1.168968213111111
  0
ARC
  5
AC
330
8F
100
AcDbEntity
  8
AM_9
100
AcDbCircle
 10
0.0000000000000002
 20
0.0
 30
0.0
 40
1.271111111111111
100
AcDbArc
 50
5.598246852624981
 51
114.401753147375
  0
ARC
  5
AD
330
8F
100
AcDbEntity
  8
AM_9
100
AcDbCircle
 10
0.0
 20
0.0
 30
0.0
 40
1.271111111111111
100
AcDbArc
 50
125.598246852625
 51
234.401753147375
  0
ARC
  5
AE
330
8F
100
AcDbEntity
  8
AM_9
100
AcDbCircle
 10
0.0
 20
0.0000000000000004
 30
0.0
 40
1.271111111111112
100
AcDbArc
 50
245.598246852625
 51
354.401753147375
  0
CIRCLE
  5
AF
330
8F
100
AcDbEntity
  8
AM_9
100
AcDbCircle
 10
0.0
 20
0.0
 30
0.0
 40
1.066825315111111
  0
CIRCLE
  5
B0
330
8F
100
AcDbEntity
  8
AM_9
100
AcDbCircle
 10
0.0
 20
0.0
 30
0.0
 40
1.236311111111111
  0
LINE
  5
B3
330
8F
100
AcDbEntity
  8
AM_7
100
AcDbLine
 10
-1.739533555340237
 20
0.0
 30
0.0
 11
1.739533555340237
 21
0.0
 31
0.0
  0
LINE
  5
B4
330
8F
100
AcDbEntity
  8
AM_7
100
AcDbLine
 10
0.0
 20
-1.739533555340237
 30
0.0
 11
0.0
 21
1.739533555340237
 31
0.0
  0
CIRCLE
  5
B6
330
8F
100
AcDbEntity
  8
AM_4
100
AcDbCircle
 10
0.0
 20
0.0
 30
0.0
 40
1.656698624133559
  0
CIRCLE
  5
B7
330
8F
100
AcDbEntity
  8
AM_4
100
AcDbCircle
 10
0.0
 20
0.0
 30
0.0
 40
1.648125942409455
  0
CIRCLE
  5
B8
330
8F
100
AcDbEntity
  8
AM_4
100
AcDbCircle
 10
0.0
 20
0.0
 30
0.0
 40
1.629623961347176
  0
CIRCLE
  5
B9
330
8F
100
AcDbEntity
  8
AM_4
100
AcDbCircle
 10
0.0
 20
0.0
 30
0.0
 40
1.562786330102177
  0
CIRCLE
  5
BA
330
8F
100
AcDbEntity
  8
AM_4
100
AcDbCircle
 10
0.0
 20
0.0
 30
0.0
 40
1.595184308300556
  0
ARC
  5
BB
330
8F
100
AcDbEntity
  8
AM_4
100
AcDbCircle
 10
-0.0000000000000188
 20
0.0000000000000311
 30
0.0
 40
1.271111111111075
100
AcDbArc
 50
114.4017531473749
 51
125.5982468526251
  0
ARC
  5
BC
330
8F
100
AcDbEntity
  8
AM_4
100
AcDbCircle
 10
-0.0000000000000031
 20
-0.0000000000000062
 30
0.0
 40
1.271111111111104
100
AcDbArc
 50
234.4017531473749
 51
245.598246852625
  0
ARC
  5
BD
330
8F
100
AcDbEntity
  8
AM_4
100
AcDbCircle
 10
-0.0000000000000275
 20
0.0
 30
0.0
 40
1.271111111111139
100
AcDbArc
 50
354.4017531473751
 51
5.598246852624849
  0
ENDBLK
  5
92
330
8F
100
AcDbEntity
  8
0
100
AcDbBlockEnd
  0
BLOCK
  5
C0
330
BE
100
AcDbEntity
  8
0
100
AcDbBlockBegin
  2
3_129916_0_in_129166_0
 70
     2
 10
0.0
 20
0.0
 30
0.0
  3
3_129916_0_in_129166_0
  1

  0
ATTDEF
  5
C2
330
BE
100
AcDbEntity
  8
AM_6
100
AcDbText
 10
6.330170291318465
 20
1.335931074693355
 30
0.0
 40
0.5
  1
Grip Tight Normal Duty Adapter and Nut Inch Bore
100
AcDbAttributeDefinition
  3

  2
NN
 70
     8
280
     0
  0
ATTDEF
  5
C3
330
BE
100
AcDbEntity
  8
AM_6
100
AcDbText
 10
6.330170291318465
 20
0.8359310746933546
 30
0.0
 40
0.5
  1
GT and GTM Adapter & Lock Nut Assemblies
100
AcDbAttributeDefinition
  3

  2
NT
 70
     8
280
     0
  0
ATTDEF
  5
C4
330
BE
100
AcDbEntity
  8
AM_6
100
AcDbText
 10
6.330170291318465
 20
0.3359310746933546
 30
0.0
 40
0.5
  1
129916
100
AcDbAttributeDefinition
  3

  2
NB
 70
     8
280
     0
  0
ATTDEF
  5
C5
330
BE
100
AcDbEntity
  8
AM_6
100
AcDbText
 10
6.330170291318465
 20
-0.1640689253066454
 30
0.0
 40
0.5
  1
$PN.
100
AcDbAttributeDefinition
  3

  2
NBSYN
 70
     8
280
     0
  0
ATTDEF
  5
C6
330
BE
100
AcDbEntity
  8
AM_6
100
AcDbText
 10
6.330170291318465
 20
-0.6640689253066454
 30
0.0
 40
0.5
  1
129916
100
AcDbAttributeDefinition
  3

  2
LINA
 70
     8
280
     0
  0
ATTDEF
  5
C7
330
BE
100
AcDbEntity
  8
AM_6
100
AcDbText
 10
6.330170291318465
 20
-1.164068925306645
 30
0.0
 40
0.5
  1
209
100
AcDbAttributeDefinition
  3

  2
SERIES
 70
     8
280
     0
  0
ATTDEF
  5
C8
330
BE
100
AcDbEntity
  8
AM_6
100
AcDbText
 10
6.330170291318465
 20
-1.664068925306645
 30
0.0
 40
0.5
  1
1-11/16
100
AcDbAttributeDefinition
  3

  2
SS
 70
     8
280
     0
  0
ATTDEF
  5
C9
330
BE
100
AcDbEntity
  8
AM_6
100
AcDbText
 10
6.330170291318465
 20
-2.164068925306645
 30
0.0
 40
0.5
  1
129916
100
AcDbAttributeDefinition
  3

  2
PN
 70
     8
280
     0
  0
ATTDEF
  5
CA
330
BE
100
AcDbEntity
  8
AM_6
100
AcDbText
 10
6.330170291318465
 20
-2.664068925306645
 30
0.0
 40
0.5
  1
AN-GT-09-111
100
AcDbAttributeDefinition
  3

  2
DESCRIPTION
 70
     8
280
     0
  0
ATTDEF
  5
CB
330
BE
100
AcDbEntity
  8
AM_6
100
AcDbText
 10
6.330170291318465
 20
-3.164068925306645
 30
0.0
 40
0.5
  1
1-27/32
100
AcDbAttributeDefinition
  3

  2
A
 70
     8
280
     0
  0
ATTDEF
  5
CC
330
BE
100
AcDbEntity
  8
AM_6
100
AcDbText
 10
6.330170291318465
 20
-3.664068925306645
 30
0.0
 40
0.5
  1
0.8661
100
AcDbAttributeDefinition
  3

  2
C
 70
     8
280
     0
  0
ATTDEF
  5
CD
330
BE
100
AcDbEntity
  8
AM_6
100
AcDbText
 10
6.330170291318465
 20
-4.164068925306646
 30
0.0
 40
0.5
  1
3.3465
100
AcDbAttributeDefinition
  3

  2
D
 70
     8
280
     0
  0
ATTDEF
  5
CE
330
BE
100
AcDbEntity
  8
AM_6
100
AcDbText
 10
6.330170291318465
 20
-4.664068925306646
 30
0.0
 40
0.5
  1
0.248
100
AcDbAttributeDefinition
  3

  2
J
 70
     8
280
     0
  0
ATTDEF
  5
CF
330
BE
100
AcDbEntity
  8
AM_6
100
AcDbText
 10
6.330170291318465
 20
-5.164068925306646
 30
0.0
 40
0.5
  1
2-43/64
100
AcDbAttributeDefinition
  3

  2
L
 70
     8
280
     0
  0
ATTDEF
  5
D0
330
BE
100
AcDbEntity
  8
AM_6
100
AcDbText
 10
6.330170291318465
 20
-5.664068925306646
 30
0.0
 40
0.5
  1
10 - 32 x 1/4
100
AcDbAttributeDefinition
  3

  2
N
 70
     8
280
     0
  0
ATTDEF
  5
D1
330
BE
100
AcDbEntity
  8
AM_6
100
AcDbText
 10
6.330170291318465
 20
-6.164068925306646
 30
0.0
 40
0.5
  1
21/32
100
AcDbAttributeDefinition
  3

  2
W
 70
     8
280
     0
  0
ATTDEF
  5
D2
330
BE
100
AcDbEntity
  8
AM_6
100
AcDbText
 10
6.330170291318465
 20
-6.664068925306646
 30
0.0
 40
0.5
  1
1-5/32
100
AcDbAttributeDefinition
  3

  2
X
 70
     8
280
     0
  0
ATTDEF
  5
D3
330
BE
100
AcDbEntity
  8
AM_6
100
AcDbText
 10
6.330170291318465
 20
-7.164068925306646
 30
0.0
 40
0.5
  1
1-3/16
100
AcDbAttributeDefinition
  3

  2
Y
 70
     8
280
     0
  0
ATTDEF
  5
D4
330
BE
100
AcDbEntity
  8
AM_6
100
AcDbText
 10
6.330170291318465
 20
-7.664068925306646
 30
0.0
 40
0.5
  1
baldor
100
AcDbAttributeDefinition
  3

  2
COMPANY
 70
     8
280
     0
  0
LINE
  5
D5
330
BE
100
AcDbEntity
  8
AM_9
100
AcDbLine
 10
0.05
 20
0.9966587375143907
 30
0.0
 11
0.05
 21
1.03350119403169
 31
0.0
  0
LINE
  5
D6
330
BE
100
AcDbEntity
  8
AM_9
100
AcDbLine
 10
-0.05
 20
0.9966587375143907
 30
0.0
 11
-0.05
 21
1.03350119403169
 31
0.0
  0
ARC
  5
D7
330
BE
100
AcDbEntity
  8
AM_9
100
AcDbCircle
 10
0.0
 20
-0.0000000000000001
 30
0.0
 40
1.034709968090058
100
AcDbArc
 50
92.76976656096889
 51
87.23023343903112
  0
CIRCLE
  5
D8
330
BE
100
AcDbEntity
  8
AM_9
100
AcDbCircle
 10
0.0
 20
0.0
 30
0.0
 40
1.092075892857143
  0
CIRCLE
  5
D9
330
BE
100
AcDbEntity
  8
AM_9
100
AcDbCircle
 10
0.0
 20
0.0
 30
0.0
 40
1.1875
  0
LINE
  5
DA
330
BE
100
AcDbEntity
  8
AM_9
100
AcDbLine
 10
-1.3133875
 20
-0.0724499999999998
 30
0.0
 11
-1.024503125
 21
-0.0724499999999998
 31
0.0
  0
LINE
  5
DB
330
BE
100
AcDbEntity
  8
AM_9
100
AcDbLine
 10
-1.024503125
 20
0.0724499999999998
 30
0.0
 11
-1.3133875
 21
0.0724499999999998
 31
0.0
  0
LINE
  5
DC
330
BE
100
AcDbEntity
  8
AM_9
100
AcDbLine
 10
-1.024503125
 20
-0.0724499999999998
 30
0.0
 11
-1.001953125
 21
-0.0949999999999999
 31
0.0
  0
LINE
  5
DD
330
BE
100
AcDbEntity
  8
AM_9
100
AcDbLine
 10
-1.001953125
 20
0.0949999999999999
 30
0.0
 11
-1.024503125
 21
0.0724499999999998
 31
0.0
  0
LINE
  5
DE
330
BE
100
AcDbEntity
  8
AM_9
100
AcDbLine
 10
-1.001953125
 20
0.0949999999999999
 30
0.0
 11
-1.001953125
 21
-0.0949999999999999
 31
0.0
  0
LINE
  5
DF
330
BE
100
AcDbEntity
  8
AM_9
100
AcDbLine
 10
-1.024503125
 20
0.0724499999999998
 30
0.0
 11
-1.024503125
 21
-0.0724499999999998
 31
0.0
  0
LINE
  5
E0
330
BE
100
AcDbEntity
  8
AM_9
100
AcDbLine
 10
-1.3133875
 20
0.0724499999999998
 30
0.0
 11
-1.332266817013929
 21
0.0913293170139291
 31
0.0
  0
LINE
  5
E1
330
BE
100
AcDbEntity
  8
AM_9
100
AcDbLine
 10
-1.332682874943385
 20
-0.091745374943385
 30
0.0
 11
-1.3133875
 21
-0.0724499999999998
 31
0.0
  0
LINE
  5
E2
330
BE
100
AcDbEntity
  8
AM_9
100
AcDbLine
 10
-1.3133875
 20
0.0724499999999998
 30
0.0
 11
-1.3133875
 21
-0.0724499999999998
 31
0.0
  0
LWPOLYLINE
  5
E3
330
BE
100
AcDbEntity
  8
AM_9
100
AcDbPolyline
 90
        5
 70
     0
 43
0.0
 10
-1.335112951314985
 20
0.0469298533691068
 10
-1.334294849093667
 20
0.0662288425714977
 10
-1.333337727654533
 20
0.0833037089168167
 10
-1.332805783030466
 20
0.0914207231802305
 10
-1.332776993212757
 20
0.0918394809927235
  0
LINE
  5
E4
330
BE
100
AcDbEntity
  8
AM_9
100
AcDbLine
 10
-1.334628624865548
 20
-0.0591222259031914
 30
0.0
 11
-1.335117182399109
 21
-0.0468093277981621
 31
0.0
  0
LINE
  5
E5
330
BE
100
AcDbEntity
  8
AM_9
100
AcDbLine
 10
-1.332776992534397
 20
-0.0918394908371042
 30
0.0
 11
-1.334628624865548
 21
-0.0591222259031914
 31
0.0
  0
LINE
  5
E7
330
BE
100
AcDbEntity
  8
AM_5
100
AcDbLine
 10
-1.332555441212954
 20
-0.0949999999999999
 30
0.0
 11
-1.001953125
 21
-0.0949999999999999
 31
0.0
  0
LINE
  5
E8
330
BE
100
AcDbEntity
  8
AM_5
100
AcDbLine
 10
-1.332555441212954
 20
0.0950000000000001
 30
0.0
 11
-1.001953125
 21
0.0950000000000001
 31
0.0
  0
LWPOLYLINE
  5
E9
330
BE
100
AcDbEntity
  8
AM_4
100
AcDbPolyline
 90
        6
 70
     0
 43
0.0
 10
-1.335117182399109
 20
-0.0468093277981621
 10
-1.335177184201761
 20
-0.0450654046171648
 10
-1.335843599075823
 20
-0.0158392775846615
 10
-1.335860601754623
 20
0.0143337568706445
 10
-1.335262164034195
 20
0.0424730173753754
 10
-1.335112951314985
 20
0.0469298533691068
  0
LINE
  5
EA
330
BE
100
AcDbEntity
  8
AM_4
100
AcDbLine
 10
-0.557697995589962
 20
-1.213961263641138
 30
0.0
 11
-0.5160502368211282
 21
-1.141825229432146
 31
0.0
  0
LINE
  5
EB
330
BE
100
AcDbEntity
  8
AM_4
100
AcDbLine
 10
1.246874773780797
 20
-0.124
 30
0.0
 11
1.330170291318465
 21
-0.124
 31
0.0
  0
ARC
  5
EC
330
BE
100
AcDbEntity
  8
AM_4
100
AcDbCircle
 10
-0.0000000000000004
 20
0.0000000000000009
 30
0.0
 40
1.335937500000001
100
AcDbArc
 50
245.3257865106884
 51
354.6742134893115
  0
LINE
  5
ED
330
BE
100
AcDbEntity
  8
AM_4
100
AcDbLine
 10
-0.5160502368211286
 20
1.141825229432145
 30
0.0
 11
-0.5576979955899627
 21
1.213961263641138
 31
0.0
  0
LINE
  5
EE
330
BE
100
AcDbEntity
  8
AM_4
100
AcDbLine
 10
1.330170291318465
 20
0.124
 30
0.0
 11
1.246874773780797
 21
0.124
 31
0.0
  0
ARC
  5
EF
330
BE
100
AcDbEntity
  8
AM_4
100
AcDbCircle
 10
-0.0000000000000007
 20
-0.0000000000000008
 30
0.0
 40
1.335937500000001
100
AcDbArc
 50
5.325786510688354
 51
114.6742134893116
  0
LINE
  5
F0
330
BE
100
AcDbEntity
  8
AM_4
100
AcDbLine
 10
-0.7724722957285031
 20
1.089961263641138
 30
0.0
 11
-0.7308245369596694
 21
1.017825229432145
 31
0.0
  0
LINE
  5
F1
330
BE
100
AcDbEntity
  8
AM_4
100
AcDbLine
 10
-0.7308245369596689
 20
-1.017825229432146
 30
0.0
 11
-0.7724722957285027
 21
-1.089961263641138
 31
0.0
  0
ARC
  5
F2
330
BE
100
AcDbEntity
  8
AM_4
100
AcDbCircle
 10
-0.0000000000000033
 20
0.0000000000000016
 30
0.0
 40
1.335937499999997
100
AcDbArc
 50
125.3257865106883
 51
177.9969349085746
  0
LWPOLYLINE
  5
F3
330
BE
100
AcDbEntity
  8
AM_4
100
AcDbPolyline
 90
        5
 70
     0
 43
0.0
 10
-1.335121186890075
 20
0.0466949700020129
 10
-1.330964517398062
 20
0.0248317012479007
 10
-1.329340240356722
 20
0.0015177936210992
 10
-1.330679503085307
 20
-0.0225599630181107
 10
-1.335121186890075
 20
-0.0466949700020134
  0
ARC
  5
F4
330
BE
100
AcDbEntity
  8
AM_4
100
AcDbCircle
 10
0.0000000000000009
 20
0.0000000000000008
 30
0.0
 40
1.335937500000001
100
AcDbArc
 50
182.0030650914254
 51
234.6742134893116
  0
LINE
  5
F5
330
BE
100
AcDbEntity
  8
AM_4
100
AcDbLine
 10
0.05
 20
0.8422672156150921
 30
0.0
 11
0.05
 21
0.9966517857142857
 31
0.0
  0
LINE
  5
F6
330
BE
100
AcDbEntity
  8
AM_4
100
AcDbLine
 10
-0.05
 20
0.8422672156150921
 30
0.0
 11
-0.05
 21
0.9966517857142857
 31
0.0
  0
LINE
  5
F7
330
BE
100
AcDbEntity
  8
AM_4
100
AcDbLine
 10
1.246874773780797
 20
0.124
 30
0.0
 11
1.246874773780797
 21
-0.124
 31
0.0
  0
LINE
  5
F8
330
BE
100
AcDbEntity
  8
AM_4
100
AcDbLine
 10
-0.7308245369596694
 20
1.017825229432145
 30
0.0
 11
-0.5160502368211286
 21
1.141825229432145
 31
0.0
  0
LINE
  5
F9
330
BE
100
AcDbEntity
  8
AM_4
100
AcDbLine
 10
-0.05
 20
0.9966517857142857
 30
0.0
 11
0.05
 21
0.9966517857142857
 31
0.0
  0
ARC
  5
FA
330
BE
100
AcDbEntity
  8
AM_4
100
AcDbCircle
 10
-0.0000000000000002
 20
0.0000000000000001
 30
0.0
 40
1.3012935
100
AcDbArc
 50
5.467999916179482
 51
114.5320000838205
  0
ARC
  5
FB
330
BE
100
AcDbEntity
  8
AM_4
100
AcDbCircle
 10
-0.0000000000000004
 20
0.0000000000000003
 30
0.0
 40
1.3012935
100
AcDbArc
 50
125.4679999161795
 51
234.5320000838206
  0
LINE
  5
FC
330
BE
100
AcDbEntity
  8
AM_4
100
AcDbLine
 10
-0.5160502368211282
 20
-1.141825229432146
 30
0.0
 11
-0.7308245369596689
 21
-1.017825229432146
 31
0.0
  0
ARC
  5
FD
330
BE
100
AcDbEntity
  8
AM_4
100
AcDbCircle
 10
-0.0000000000000001
 20
-0.0000000000000004
 30
0.0
 40
1.3012935
100
AcDbArc
 50
245.4679999161795
 51
354.5320000838206
  0
ARC
  5
FE
330
BE
100
AcDbEntity
  8
AM_4
100
AcDbCircle
 10
0.0
 20
0.0
 30
0.0
 40
0.9966517857142855
100
AcDbArc
 50
92.87562022709822
 51
87.1243797729018
  0
ARC
  5
FF
330
BE
100
AcDbEntity
  8
AM_4
100
AcDbCircle
 10
0.0
 20
0.0
 30
0.0
 40
0.84375
100
AcDbArc
 50
93.3972957924113
 51
86.60270420758869
  0
ENDBLK
  5
C1
330
BE
100
AcDbEntity
  8
0
100
AcDbBlockEnd
  0
BLOCK
  5
102
330
100
100
AcDbEntity
  8
0
100
AcDbBlockBegin
  2
4_129426I_0_in_129166_0
 70
     2
 10
0.0
 20
0.0
 30
0.0
  3
4_129426I_0_in_129166_0
  1

  0
ATTDEF
  5
104
330
100
100
AcDbEntity
  8
AM_6
100
AcDbText
 10
8.71875
 20
3.120312499999999
 30
0.0
 40
0.5
  1
GT-I
100
AcDbAttributeDefinition
  3

  2
NN
 70
     8
280
     0
  0
ATTDEF
  5
105
330
100
100
AcDbEntity
  8
AM_6
100
AcDbText
 10
8.71875
 20
2.620312499999999
 30
0.0
 40
0.5
  1
GT Normal and Medium Duty Pillow Blocks
100
AcDbAttributeDefinition
  3

  2
NT
 70
     8
280
     0
  0
ATTDEF
  5
106
330
100
100
AcDbEntity
  8
AM_6
100
AcDbText
 10
8.71875
 20
2.120312499999999
 30
0.0
 40
0.5
  1
129426I
100
AcDbAttributeDefinition
  3

  2
NB
 70
     8
280
     0
  0
ATTDEF
  5
107
330
100
100
AcDbEntity
  8
AM_6
100
AcDbText
 10
8.71875
 20
1.620312499999999
 30
0.0
 40
0.5
  1
$PN.$LUBE.I
100
AcDbAttributeDefinition
  3

  2
NBSYN
 70
     8
280
     0
  0
ATTDEF
  5
108
330
100
100
AcDbEntity
  8
AM_6
100
AcDbText
 10
8.71875
 20
1.120312499999999
 30
0.0
 40
0.5
  1
129426
100
AcDbAttributeDefinition
  3

  2
LINA
 70
     8
280
     0
  0
ATTDEF
  5
109
330
100
100
AcDbEntity
  8
AM_6
100
AcDbText
 10
8.71875
 20
0.6203124999999994
 30
0.0
 40
0.5
  1
209
100
AcDbAttributeDefinition
  3

  2
SERIES
 70
     8
280
     0
  0
ATTDEF
  5
10A
330
100
100
AcDbEntity
  8
AM_6
100
AcDbText
 10
8.71875
 20
0.1203124999999994
 30
0.0
 40
0.5
  1
129426
100
AcDbAttributeDefinition
  3

  2
PN
 70
     8
280
     0
  0
ATTDEF
  5
10B
330
100
100
AcDbEntity
  8
AM_6
100
AcDbText
 10
8.71875
 20
-0.3796875000000006
 30
0.0
 40
0.5
  1
P2B-GT-09
100
AcDbAttributeDefinition
  3

  2
DESCRIPTION
 70
     8
280
     0
  0
ATTDEF
  5
10C
330
100
100
AcDbEntity
  8
AM_6
100
AcDbText
 10
8.71875
 20
-0.8796875000000006
 30
0.0
 40
0.5
  1
1-27/32
100
AcDbAttributeDefinition
  3

  2
A
 70
     8
280
     0
  0
ATTDEF
  5
10D
330
100
100
AcDbEntity
  8
AM_6
100
AcDbText
 10
8.71875
 20
-1.379687500000001
 30
0.0
 40
0.5
  1
7-7/16
100
AcDbAttributeDefinition
  3

  2
B
 70
     8
280
     0
  0
ATTDEF
  5
10E
330
100
100
AcDbEntity
  8
AM_6
100
AcDbText
 10
8.71875
 20
-1.879687500000001
 30
0.0
 40
0.5
  1
2
100
AcDbAttributeDefinition
  3

  2
C
 70
     8
280
     0
  0
ATTDEF
  5
10F
330
100
100
AcDbEntity
  8
AM_6
100
AcDbText
 10
8.71875
 20
-2.379687500000001
 30
0.0
 40
0.5
  1
5-1/2
100
AcDbAttributeDefinition
  3

  2
DMIN
 70
     8
280
     0
  0
ATTDEF
  5
110
330
100
100
AcDbEntity
  8
AM_6
100
AcDbText
 10
8.71875
 20
-2.879687500000001
 30
0.0
 40
0.5
  1
6-3/16
100
AcDbAttributeDefinition
  3

  2
DMAX
 70
     8
280
     0
  0
ATTDEF
  5
111
330
100
100
AcDbEntity
  8
AM_6
100
AcDbText
 10
8.71875
 20
-3.379687500000001
 30
0.0
 40
0.5
  1
1/2
100
AcDbAttributeDefinition
  3

  2
F
 70
     8
280
     0
  0
ATTDEF
  5
112
330
100
100
AcDbEntity
  8
AM_6
100
AcDbText
 10
8.71875
 20
-3.879687500000001
 30
0.0
 40
0.5
  1
29/32
100
AcDbAttributeDefinition
  3

  2
G
 70
     8
280
     0
  0
ATTDEF
  5
113
330
100
100
AcDbEntity
  8
AM_6
100
AcDbText
 10
8.71875
 20
-4.379687500000001
 30
0.0
 40
0.5
  1
3/4
100
AcDbAttributeDefinition
  3

  2
H
 70
     8
280
     0
  0
ATTDEF
  5
114
330
100
100
AcDbEntity
  8
AM_6
100
AcDbText
 10
8.71875
 20
-4.879687500000001
 30
0.0
 40
0.5
  1
4-9/32
100
AcDbAttributeDefinition
  3

  2
J
 70
     8
280
     0
  0
ATTDEF
  5
115
330
100
100
AcDbEntity
  8
AM_6
100
AcDbText
 10
8.71875
 20
-5.379687500000001
 30
0.0
 40
0.5
  1
2-43/64
100
AcDbAttributeDefinition
  3

  2
L
 70
     8
280
     0
  0
ATTDEF
  5
116
330
100
100
AcDbEntity
  8
AM_6
100
AcDbText
 10
8.71875
 20
-5.879687500000001
 30
0.0
 40
0.5
  1
2-1/8
100
AcDbAttributeDefinition
  3

  2
M
 70
     8
280
     0
  0
ATTDEF
  5
117
330
100
100
AcDbEntity
  8
AM_6
100
AcDbText
 10
8.71875
 20
-6.379687500000001
 30
0.0
 40
0.5
  1
21/32
100
AcDbAttributeDefinition
  3

  2
R
 70
     8
280
     0
  0
ATTDEF
  5
118
330
100
100
AcDbEntity
  8
AM_6
100
AcDbText
 10
8.71875
 20
-6.879687500000001
 30
0.0
 40
0.5
  1
1-3/16
100
AcDbAttributeDefinition
  3

  2
S
 70
     8
280
     0
  0
ATTDEF
  5
119
330
100
100
AcDbEntity
  8
AM_6
100
AcDbText
 10
8.71875
 20
-7.379687500000001
 30
0.0
 40
0.5
  1
3-3/8
100
AcDbAttributeDefinition
  3

  2
U
 70
     8
280
     0
  0
ATTDEF
  5
11A
330
100
100
AcDbEntity
  8
AM_6
100
AcDbText
 10
8.71875
 20
-7.879687500000001
 30
0.0
 40
0.5
  1
6-3/4
100
AcDbAttributeDefinition
  3

  2
V
 70
     8
280
     0
  0
ATTDEF
  5
11B
330
100
100
AcDbEntity
  8
AM_6
100
AcDbText
 10
8.71875
 20
-8.379687500000001
 30
0.0
 40
0.5
  1
11/16
100
AcDbAttributeDefinition
  3

  2
W
 70
     8
280
     0
  0
ATTDEF
  5
11C
330
100
100
AcDbEntity
  8
AM_6
100
AcDbText
 10
8.71875
 20
-8.879687500000001
 30
0.0
 40
0.5
  1
3/16
100
AcDbAttributeDefinition
  3

  2
X
 70
     8
280
     0
  0
ATTDEF
  5
11D
330
100
100
AcDbEntity
  8
AM_6
100
AcDbText
 10
8.71875
 20
-9.379687500000001
 30
0.0
 40
0.5
  1
1-5/32
100
AcDbAttributeDefinition
  3

  2
Z
 70
     8
280
     0
  0
ATTDEF
  5
11E
330
100
100
AcDbEntity
  8
AM_6
100
AcDbText
 10
8.71875
 20
-9.879687500000001
 30
0.0
 40
0.5
  1
baldor
100
AcDbAttributeDefinition
  3

  2
COMPANY
 70
     8
280
     0
  0
LINE
  5
11F
330
100
100
AcDbEntity
  8
AM_9
100
AcDbLine
 10
2.608740199999999
 20
-1.375
 30
0.0
 11
2.608740199999999
 21
-1.62499975
 31
0.0
  0
LINE
  5
120
330
100
100
AcDbEntity
  8
AM_9
100
AcDbLine
 10
2.53
 20
-1.375
 30
0.0
 11
2.53
 21
-1.62499975
 31
0.0
  0
LINE
  5
121
330
100
100
AcDbEntity
  8
AM_9
100
AcDbLine
 10
-2.6087402
 20
-1.375
 30
0.0
 11
-2.6087402
 21
-1.62499975
 31
0.0
  0
LINE
  5
122
330
100
100
AcDbEntity
  8
AM_9
100
AcDbLine
 10
-2.530000000000001
 20
-1.375
 30
0.0
 11
-2.530000000000001
 21
-1.62499975
 31
0.0
  0
LINE
  5
123
330
100
100
AcDbEntity
  8
AM_9
100
AcDbLine
 10
3.718749999999999
 20
-1.62499975
 30
0.0
 11
2.53
 21
-1.62499975
 31
0.0
  0
LINE
  5
124
330
100
100
AcDbEntity
  8
AM_9
100
AcDbLine
 10
-2.530000000000001
 20
-1.62499975
 30
0.0
 11
-3.71875
 21
-1.62499975
 31
0.0
  0
LINE
  5
125
330
100
100
AcDbEntity
  8
AM_9
100
AcDbLine
 10
0.335166
 20
2.077509800000001
 30
0.0
 11
0.335166
 21
2.130041740188207
 31
0.0
  0
LINE
  5
126
330
100
100
AcDbEntity
  8
AM_9
100
AcDbLine
 10
0.166818
 20
2.077509800000001
 30
0.0
 11
0.166818
 21
2.149787388877329
 31
0.0
  0
LINE
  5
127
330
100
100
AcDbEntity
  8
AM_9
100
AcDbLine
 10
-0.224974530935
 20
2.077509800000001
 30
0.0
 11
-0.224974530935
 21
2.144481411187931
 31
0.0
  0
LINE
  5
128
330
100
100
AcDbEntity
  8
AM_9
100
AcDbLine
 10
0.0688697
 20
2.077509800000001
 30
0.0
 11
0.0688697
 21
2.155149885024685
 31
0.0
  0
LINE
  5
129
330
100
100
AcDbEntity
  8
AM_9
100
AcDbLine
 10
-0.200487509838
 20
2.077509800000001
 30
0.0
 11
-0.200487509838
 21
2.146909131961332
 31
0.0
  0
LINE
  5
12A
330
100
100
AcDbEntity
  8
AM_9
100
AcDbLine
 10
-0.078052404353
 20
2.077509800000001
 30
0.0
 11
-0.078052404353
 21
2.154836858018425
 31
0.0
  0
LINE
  5
12B
330
100
100
AcDbEntity
  8
AM_9
100
AcDbLine
 10
0.0933567
 20
2.077509800000001
 30
0.0
 11
0.0933567
 21
2.15422807266666
 31
0.0
  0
LINE
  5
12C
330
100
100
AcDbEntity
  8
AM_9
100
AcDbLine
 10
-0.243339895183
 20
2.077509800000001
 30
0.0
 11
-0.243339895183
 21
2.14247514756002
 31
0.0
  0
LINE
  5
12D
330
100
100
AcDbEntity
  8
AM_9
100
AcDbLine
 10
0.111722
 20
2.077509800000001
 30
0.0
 11
0.111722
 21
2.153353723199234
 31
0.0
  0
LINE
  5
12E
330
100
100
AcDbEntity
  8
AM_9
100
AcDbLine
 10
-0.096417768601
 20
2.077509800000001
 30
0.0
 11
-0.096417768601
 21
2.154093237628773
 31
0.0
  0
LINE
  5
12F
330
100
100
AcDbEntity
  8
AM_9
100
AcDbLine
 10
-0.18212214559
 20
2.077509800000001
 30
0.0
 11
-0.18212214559
 21
2.148544992916299
 31
0.0
  0
LINE
  5
130
330
100
100
AcDbEntity
  8
AM_9
100
AcDbLine
 10
0.0505043
 20
2.077509800000001
 30
0.0
 11
0.0505043
 21
2.155658455827711
 31
0.0
  0
LINE
  5
131
330
100
100
AcDbEntity
  8
AM_9
100
AcDbLine
 10
-0.081113429628
 20
2.077509800000001
 30
0.0
 11
-0.081113429628
 21
2.154723804582384
 31
0.0
  0
LINE
  5
132
330
100
100
AcDbEntity
  8
AM_9
100
AcDbLine
 10
0.212731
 20
2.077509800000001
 30
0.0
 11
0.212731
 21
2.145730547887829
 31
0.0
  0
LINE
  5
133
330
100
100
AcDbEntity
  8
AM_9
100
AcDbLine
 10
0.0658091
 20
2.077509800000001
 30
0.0
 11
0.0658091
 21
2.155245513823702
 31
0.0
  0
LINE
  5
134
330
100
100
AcDbEntity
  8
AM_9
100
AcDbLine
 10
-0.197426878264
 20
2.077509800000001
 30
0.0
 11
-0.197426878264
 21
2.147192746410749
 31
0.0
  0
LINE
  5
135
330
100
100
AcDbEntity
  8
AM_9
100
AcDbLine
 10
0.0964177
 20
2.077509800000001
 30
0.0
 11
0.0964177
 21
2.15409324069937
 31
0.0
  0
LINE
  5
136
330
100
100
AcDbEntity
  8
AM_9
100
AcDbLine
 10
-0.22803555621
 20
2.077509800000001
 30
0.0
 11
-0.22803555621
 21
2.144158074304225
 31
0.0
  0
LINE
  5
137
330
100
100
AcDbEntity
  8
AM_9
100
AcDbLine
 10
0.194366
 20
2.077509800000001
 30
0.0
 11
0.194366
 21
2.147471983645888
 31
0.0
  0
LINE
  5
138
330
100
100
AcDbEntity
  8
AM_9
100
AcDbLine
 10
-0.087235086477
 20
2.077509800000001
 30
0.0
 11
-0.087235086477
 21
2.154484648863239
 31
0.0
  0
LINE
  5
139
330
100
100
AcDbEntity
  8
AM_9
100
AcDbLine
 10
0.120905
 20
2.077509800000001
 30
0.0
 11
0.120905
 21
2.152857645891851
 31
0.0
  0
LINE
  5
13A
330
100
100
AcDbEntity
  8
AM_9
100
AcDbLine
 10
-0.234157213059
 20
2.077509800000001
 30
0.0
 11
-0.234157213059
 21
2.143498183361126
 31
0.0
  0
LINE
  5
13B
330
100
100
AcDbEntity
  8
AM_9
100
AcDbLine
 10
-0.172939463466
 20
2.077509800000001
 30
0.0
 11
-0.172939463466
 21
2.149303609189751
 31
0.0
  0
LINE
  5
13C
330
100
100
AcDbEntity
  8
AM_9
100
AcDbLine
 10
0.20967
 20
2.077509800000001
 30
0.0
 11
0.20967
 21
2.146031815607588
 31
0.0
  0
LINE
  5
13D
330
100
100
AcDbEntity
  8
AM_9
100
AcDbLine
 10
0.102539
 20
2.077509800000001
 30
0.0
 11
0.102539
 21
2.153810533909378
 31
0.0
  0
LINE
  5
13E
330
100
100
AcDbEntity
  8
AM_9
100
AcDbLine
 10
-0.105600450725
 20
2.077509800000001
 30
0.0
 11
-0.105600450725
 21
2.153662602941017
 31
0.0
  0
LINE
  5
13F
330
100
100
AcDbEntity
  8
AM_9
100
AcDbLine
 10
0.191305
 20
2.077509800000001
 30
0.0
 11
0.191305
 21
2.147746833189379
 31
0.0
  0
LINE
  5
140
330
100
100
AcDbEntity
  8
AM_9
100
AcDbLine
 10
0.0413217
 20
2.077509800000001
 30
0.0
 11
0.0413217
 21
2.155854025579912
 31
0.0
  0
LINE
  5
141
330
100
100
AcDbEntity
  8
AM_9
100
AcDbLine
 10
-0.191304827714
 20
2.077509800000001
 30
0.0
 11
-0.191304827714
 21
2.147746848535302
 31
0.0
  0
LINE
  5
142
330
100
100
AcDbEntity
  8
AM_9
100
AcDbLine
 10
0.059687
 20
2.077509800000001
 30
0.0
 11
0.059687
 21
2.155423745932805
 31
0.0
  0
LINE
  5
143
330
100
100
AcDbEntity
  8
AM_9
100
AcDbLine
 10
-0.252522577307
 20
2.077509800000001
 30
0.0
 11
-0.252522577307
 21
2.141412246731169
 31
0.0
  0
LINE
  5
144
330
100
100
AcDbEntity
  8
AM_9
100
AcDbLine
 10
0.0321392
 20
2.077509800000001
 30
0.0
 11
0.0321392
 21
2.156010467118228
 31
0.0
  0
LINE
  5
145
330
100
100
AcDbEntity
  8
AM_9
100
AcDbLine
 10
-0.114783132849
 20
2.077509800000001
 30
0.0
 11
-0.114783132849
 21
2.153192721266113
 31
0.0
  0
LINE
  5
146
330
100
100
AcDbEntity
  8
AM_9
100
AcDbLine
 10
0.130087
 20
2.077509800000001
 30
0.0
 11
0.130087
 21
2.152322335276712
 31
0.0
  0
LINE
  5
147
330
100
100
AcDbEntity
  8
AM_9
100
AcDbLine
 10
-0.0352000977482
 20
2.077509800000001
 30
0.0
 11
-0.0352000977482
 21
2.155962665636519
 31
0.0
  0
LINE
  5
148
330
100
100
AcDbEntity
  8
AM_9
100
AcDbLine
 10
0.182122
 20
2.077509800000001
 30
0.0
 11
0.182122
 21
2.148545005257279
 31
0.0
  0
LINE
  5
149
330
100
100
AcDbEntity
  8
AM_9
100
AcDbLine
 10
-0.3290446658729999
 20
2.077509800000001
 30
0.0
 11
-0.3290446658729999
 21
2.130995933914593
 31
0.0
  0
LINE
  5
14A
330
100
100
AcDbEntity
  8
AM_9
100
AcDbLine
 10
-0.163757175043
 20
2.077509800000001
 30
0.0
 11
-0.163757175043
 21
2.150022709210751
 31
0.0
  0
LINE
  5
14B
330
100
100
AcDbEntity
  8
AM_9
100
AcDbLine
 10
-0.261705259431
 20
2.077509800000001
 30
0.0
 11
-0.261705259431
 21
2.140309421482361
 31
0.0
  0
LINE
  5
14C
330
100
100
AcDbEntity
  8
AM_9
100
AcDbLine
 10
0.255583
 20
2.077509800000001
 30
0.0
 11
0.255583
 21
2.141049133628419
 31
0.0
  0
LINE
  5
14D
330
100
100
AcDbEntity
  8
AM_9
100
AcDbLine
 10
0.197427
 20
2.077509800000001
 30
0.0
 11
0.197427
 21
2.147192735217545
 31
0.0
  0
LINE
  5
14E
330
100
100
AcDbEntity
  8
AM_9
100
AcDbLine
 10
0.114783
 20
2.077509800000001
 30
0.0
 11
0.114783
 21
2.153192728348069
 31
0.0
  0
LINE
  5
14F
330
100
100
AcDbEntity
  8
AM_9
100
AcDbLine
 10
-0.179061514016
 20
2.077509800000001
 30
0.0
 11
-0.179061514016
 21
2.148802233035488
 31
0.0
  0
LINE
  5
150
330
100
100
AcDbEntity
  8
AM_9
100
AcDbLine
 10
-0.099478400175
 20
2.077509800000001
 30
0.0
 11
-0.099478400175
 21
2.153954064133826
 31
0.0
  0
LINE
  5
151
330
100
100
AcDbEntity
  8
AM_9
100
AcDbLine
 10
-0.246400920458
 20
2.077509800000001
 30
0.0
 11
-0.246400920458
 21
2.1421252645206
 31
0.0
  0
LINE
  5
152
330
100
100
AcDbEntity
  8
AM_9
100
AcDbLine
 10
0.0474437
 20
2.077509800000001
 30
0.0
 11
0.0474437
 21
2.155727987903463
 31
0.0
  0
LINE
  5
153
330
100
100
AcDbEntity
  8
AM_9
100
AcDbLine
 10
-0.111722107574
 20
2.077509800000001
 30
0.0
 11
-0.111722107574
 21
2.153353717617992
 31
0.0
  0
LINE
  5
154
330
100
100
AcDbEntity
  8
AM_9
100
AcDbLine
 10
0.185183
 20
2.077509800000001
 30
0.0
 11
0.185183
 21
2.148283342348259
 31
0.0
  0
LINE
  5
155
330
100
100
AcDbEntity
  8
AM_9
100
AcDbLine
 10
0.0352001
 20
2.077509800000001
 30
0.0
 11
0.0352001
 21
2.155962665599753
 31
0.0
  0
LINE
  5
156
330
100
100
AcDbEntity
  8
AM_9
100
AcDbLine
 10
-0.258644234156
 20
2.077509800000001
 30
0.0
 11
-0.258644234156
 21
2.140681485564319
 31
0.0
  0
LINE
  5
157
330
100
100
AcDbEntity
  8
AM_9
100
AcDbLine
 10
0.127026
 20
2.077509800000001
 30
0.0
 11
0.127026
 21
2.152505158605666
 31
0.0
  0
LINE
  5
158
330
100
100
AcDbEntity
  8
AM_9
100
AcDbLine
 10
-0.166817806617
 20
2.077509800000001
 30
0.0
 11
-0.166817806617
 21
2.149787403883346
 31
0.0
  0
LINE
  5
159
330
100
100
AcDbEntity
  8
AM_9
100
AcDbLine
 10
-0.3474096364199999
 20
2.077509800000001
 30
0.0
 11
-0.3474096364199999
 21
2.128079088526206
 31
0.0
  0
LINE
  5
15A
330
100
100
AcDbEntity
  8
AM_9
100
AcDbLine
 10
-0.053565383256
 20
2.077509800000001
 30
0.0
 11
0.0688697
 21
2.077509800000001
 31
0.0
  0
LINE
  5
15B
330
100
100
AcDbEntity
  8
AM_9
100
AcDbLine
 10
-0.053565383256
 20
2.077509800000001
 30
0.0
 11
-0.053565383256
 21
2.155584563921499
 31
0.0
  0
LINE
  5
15C
330
100
100
AcDbEntity
  8
AM_9
100
AcDbLine
 10
0.0198957
 20
2.077509800000001
 30
0.0
 11
0.0198957
 21
2.156158209320808
 31
0.0
  0
LINE
  5
15D
330
100
100
AcDbEntity
  8
AM_9
100
AcDbLine
 10
0.237218
 20
2.077509800000001
 30
0.0
 11
0.347409
 21
2.077509800000001
 31
0.0
  0
LINE
  5
15E
330
100
100
AcDbEntity
  8
AM_9
100
AcDbLine
 10
-0.127026446547
 20
2.077509800000001
 30
0.0
 11
-0.127026446547
 21
2.152505132253497
 31
0.0
  0
LINE
  5
15F
330
100
100
AcDbEntity
  8
AM_9
100
AcDbLine
 10
0.142331
 20
2.077509800000001
 30
0.0
 11
0.142331
 21
2.151547338298417
 31
0.0
  0
LINE
  5
160
330
100
100
AcDbEntity
  8
AM_9
100
AcDbLine
 10
-0.3474096364199999
 20
2.077509800000001
 30
0.0
 11
-0.224974530935
 21
2.077509800000001
 31
0.0
  0
LINE
  5
161
330
100
100
AcDbEntity
  8
AM_9
100
AcDbLine
 10
-0.200487509838
 20
2.077509800000001
 30
0.0
 11
-0.078052404353
 21
2.077509800000001
 31
0.0
  0
LINE
  5
162
330
100
100
AcDbEntity
  8
AM_9
100
AcDbLine
 10
0.0933567
 20
2.077509800000001
 30
0.0
 11
0.212731
 21
2.077509800000001
 31
0.0
  0
LINE
  5
163
330
100
100
AcDbEntity
  8
AM_9
100
AcDbLine
 10
0.169879
 20
2.077509800000001
 30
0.0
 11
0.169879
 21
2.149547670524895
 31
0.0
  0
LINE
  5
164
330
100
100
AcDbEntity
  8
AM_9
100
AcDbLine
 10
-0.151513467644
 20
2.077509800000001
 30
0.0
 11
-0.151513467644
 21
2.150920205777632
 31
0.0
  0
LINE
  5
165
330
100
100
AcDbEntity
  8
AM_9
100
AcDbLine
 10
0.347409
 20
2.077509800000001
 30
0.0
 11
0.347409
 21
2.12807919242189
 31
0.0
  0
LINE
  5
166
330
100
100
AcDbEntity
  8
AM_9
100
AcDbLine
 10
-0.273948573129
 20
2.077509800000001
 30
0.0
 11
-0.273948573129
 21
2.138776809716382
 31
0.0
  0
LINE
  5
167
330
100
100
AcDbEntity
  8
AM_9
100
AcDbLine
 10
0.237218
 20
2.077509800000001
 30
0.0
 11
0.237218
 21
2.143161609159702
 31
0.0
  0
LINE
  5
168
330
100
100
AcDbEntity
  8
AM_9
100
AcDbLine
 10
-3.09375
 20
-1.375
 30
0.0
 11
-3.09375
 21
-2.125
 31
0.0
  0
LINE
  5
169
330
100
100
AcDbEntity
  8
AM_9
100
AcDbLine
 10
-3.375
 20
-1.375
 30
0.0
 11
-3.375
 21
-2.125
 31
0.0
  0
LINE
  5
16A
330
100
100
AcDbEntity
  8
AM_9
100
AcDbLine
 10
2.75
 20
-1.375
 30
0.0
 11
2.75
 21
-2.125
 31
0.0
  0
LINE
  5
16B
330
100
100
AcDbEntity
  8
AM_9
100
AcDbLine
 10
2.46875
 20
-1.375
 30
0.0
 11
2.46875
 21
-2.125
 31
0.0
  0
LINE
  5
16C
330
100
100
AcDbEntity
  8
AM_9
100
AcDbLine
 10
3.09375
 20
-1.375
 30
0.0
 11
3.09375
 21
-2.125
 31
0.0
  0
LINE
  5
16D
330
100
100
AcDbEntity
  8
AM_9
100
AcDbLine
 10
3.375
 20
-2.125
 30
0.0
 11
3.375
 21
-1.375
 31
0.0
  0
LINE
  5
16E
330
100
100
AcDbEntity
  8
AM_9
100
AcDbLine
 10
-2.75
 20
-1.375
 30
0.0
 11
-2.75
 21
-2.125
 31
0.0
  0
LINE
  5
16F
330
100
100
AcDbEntity
  8
AM_9
100
AcDbLine
 10
-2.46875
 20
-2.125
 30
0.0
 11
-2.46875
 21
-1.375
 31
0.0
  0
LINE
  5
170
330
100
100
AcDbEntity
  8
AM_9
100
AcDbLine
 10
2.125
 20
0.3809325848499613
 30
0.0
 11
2.125
 21
-1.375
 31
0.0
  0
LINE
  5
171
330
100
100
AcDbEntity
  8
AM_9
100
AcDbLine
 10
-2.125
 20
-1.375
 30
0.0
 11
-2.125
 21
0.3809325848499602
 31
0.0
  0
LINE
  5
172
330
100
100
AcDbEntity
  8
AM_9
100
AcDbLine
 10
3.28125
 20
-1.375
 30
0.0
 11
3.28125
 21
-1.45
 31
0.0
  0
LINE
  5
173
330
100
100
AcDbEntity
  8
AM_9
100
AcDbLine
 10
3.46875
 20
-1.45
 30
0.0
 11
3.46875
 21
-1.375
 31
0.0
  0
LINE
  5
174
330
100
100
AcDbEntity
  8
AM_9
100
AcDbLine
 10
3.28125
 20
-1.45
 30
0.0
 11
3.46875
 21
-1.45
 31
0.0
  0
LINE
  5
175
330
100
100
AcDbEntity
  8
AM_9
100
AcDbLine
 10
-3.46875
 20
-1.375
 30
0.0
 11
-3.46875
 21
-1.45
 31
0.0
  0
LINE
  5
176
330
100
100
AcDbEntity
  8
AM_9
100
AcDbLine
 10
-3.28125
 20
-1.45
 30
0.0
 11
-3.28125
 21
-1.375
 31
0.0
  0
LINE
  5
177
330
100
100
AcDbEntity
  8
AM_9
100
AcDbLine
 10
-3.46875
 20
-1.45
 30
0.0
 11
-3.28125
 21
-1.45
 31
0.0
  0
LINE
  5
178
330
100
100
AcDbEntity
  8
AM_7
100
AcDbLine
 10
2.75
 20
-1.5890625
 30
0.0
 11
2.75
 21
3.120312499999999
 31
0.0
  0
LINE
  5
179
330
100
100
AcDbEntity
  8
AM_7
100
AcDbLine
 10
-2.75
 20
-1.5890625
 30
0.0
 11
-2.75
 21
3.120312499999999
 31
0.0
  0
LINE
  5
17A
330
100
100
AcDbEntity
  8
AM_7
100
AcDbLine
 10
1.337822874848338
 20
1.337822874848338
 30
0.0
 11
1.835622880543391
 21
1.835622880543391
 31
0.0
  0
LINE
  5
17B
330
100
100
AcDbEntity
  8
AM_7
100
AcDbLine
 10
-3.375
 20
-1.4575
 30
0.0
 11
-3.375
 21
-1.2925
 31
0.0
  0
LINE
  5
17C
330
100
100
AcDbEntity
  8
AM_7
100
AcDbLine
 10
3.375
 20
-1.4575
 30
0.0
 11
3.375
 21
-1.2925
 31
0.0
  0
LINE
  5
17D
330
100
100
AcDbEntity
  8
AM_4
100
AcDbLine
 10
1.834520873839298
 20
1.743815690482901
 30
0.0
 11
1.743815695945774
 21
1.834520868376426
 31
0.0
  0
ARC
  5
17E
330
100
100
AcDbEntity
  8
AM_4
100
AcDbCircle
 10
1.738247917545704
 20
1.828953100902103
 30
0.0
 40
0.0078740199999966
100
AcDbArc
 50
44.99999999998857
 51
107.30064413043
  0
ARC
  5
17F
330
100
100
AcDbEntity
  8
AM_4
100
AcDbCircle
 10
1.828953100902101
 20
1.738247917545703
 30
0.0
 40
0.0078740199999986
100
AcDbArc
 50
342.6993558695728
 51
45.00000000000229
  0
LINE
  5
180
330
100
100
AcDbEntity
  8
AM_4
100
AcDbLine
 10
1.836470880208121
 20
1.735906297323216
 30
0.0
 11
1.735906297323216
 21
1.836470880208121
 31
0.0
  0
LINE
  5
181
330
100
100
AcDbEntity
  8
AM_4
100
AcDbLine
 10
1.735906297323216
 20
1.836470880208121
 30
0.0
 11
1.668435967759838
 21
1.815455380591507
 31
0.0
  0
LINE
  5
182
330
100
100
AcDbEntity
  8
AM_4
100
AcDbLine
 10
1.815455380591507
 20
1.668435967759839
 30
0.0
 11
1.836470880208121
 21
1.735906297323216
 31
0.0
  0
LINE
  5
183
330
100
100
AcDbEntity
  8
AM_4
100
AcDbLine
 10
1.815455380591507
 20
1.668435967759839
 30
0.0
 11
1.668435967759838
 21
1.815455380591507
 31
0.0
  0
ARC
  5
184
330
100
100
AcDbEntity
  8
AM_4
100
AcDbCircle
 10
1.674290003446776
 20
1.796660980064327
 30
0.0
 40
0.0196850000000001
100
AcDbArc
 50
107.3006441304214
 51
172.217203679472
  0
ARC
  5
185
330
100
100
AcDbEntity
  8
AM_4
100
AcDbCircle
 10
1.796660980064327
 20
1.674290003446776
 30
0.0
 40
0.0196850000000002
100
AcDbArc
 50
277.7827963205293
 51
342.6993558695801
  0
LINE
  5
186
330
100
100
AcDbEntity
  8
AM_4
100
AcDbLine
 10
1.799326685038655
 20
1.654786330921074
 30
0.0
 11
1.654786330921073
 21
1.799326685038654
 31
0.0
  0
ARC
  5
187
330
100
100
AcDbEntity
  8
AM_4
100
AcDbCircle
 10
1.572953488450283
 20
1.81051137662336
 30
0.0
 40
0.0825936524963881
100
AcDbArc
 50
269.3563657692214
 51
352.2171914605281
  0
ARC
  5
188
330
100
100
AcDbEntity
  8
AM_4
100
AcDbCircle
 10
1.810511376623359
 20
1.572953488450285
 30
0.0
 40
0.0825936524963865
100
AcDbArc
 50
97.78280853947082
 51
180.6436342307794
  0
LINE
  5
189
330
100
100
AcDbEntity
  8
AM_4
100
AcDbLine
 10
1.727922935415409
 20
1.572025689153648
 30
0.0
 11
1.572025689153647
 21
1.727922935415409
 31
0.0
  0
LINE
  5
18A
330
100
100
AcDbEntity
  8
AM_4
100
AcDbLine
 10
1.572025689153647
 20
1.727922935415409
 30
0.0
 11
1.55810629216599
 21
1.714003538427752
 31
0.0
  0
LINE
  5
18B
330
100
100
AcDbEntity
  8
AM_4
100
AcDbLine
 10
1.714003538427751
 20
1.558106292165991
 30
0.0
 11
1.727922935415409
 21
1.572025689153648
 31
0.0
  0
LINE
  5
18C
330
100
100
AcDbEntity
  8
AM_4
100
AcDbLine
 10
1.460669806145609
 20
1.61656705240737
 30
0.0
 11
1.444804852948241
 21
1.600702099210002
 31
0.0
  0
LINE
  5
18D
330
100
100
AcDbEntity
  8
AM_4
100
AcDbLine
 10
1.600653795973608
 20
1.444756549711848
 30
0.0
 11
1.61656705240737
 21
1.460669806145609
 31
0.0
  0
LINE
  5
18E
330
100
100
AcDbEntity
  8
AM_4
100
AcDbLine
 10
1.747410091198129
 20
1.524699739395614
 30
0.0
 11
1.524699739395614
 21
1.747410091198128
 31
0.0
  0
LINE
  5
18F
330
100
100
AcDbEntity
  8
AM_4
100
AcDbLine
 10
1.649973605177747
 20
1.427263253375232
 30
0.0
 11
1.427263253375231
 21
1.649973605177747
 31
0.0
  0
LINE
  5
190
330
100
100
AcDbEntity
  8
AM_4
100
AcDbLine
 10
1.747410350016363
 20
1.524699291107067
 30
0.0
 11
1.649974053466293
 21
1.427262994556997
 31
0.0
  0
LINE
  5
191
330
100
100
AcDbEntity
  8
AM_4
100
AcDbLine
 10
1.427262994556997
 20
1.649974053466294
 30
0.0
 11
1.524699291107067
 21
1.747410350016364
 31
0.0
  0
LWPOLYLINE
  5
192
330
100
100
AcDbEntity
  8
AM_4
100
AcDbPolyline
 90
        5
 70
     0
 43
0.0
 10
1.631438924036357
 20
1.631438924036357
 10
1.607284479753733
 20
1.662304352699114
 10
1.580912103698191
 20
1.691196617384566
 10
1.55152759947318
 20
1.718150134397297
 10
1.520083394581709
 20
1.742794453491005
  0
LWPOLYLINE
  5
193
330
100
100
AcDbEntity
  8
AM_4
100
AcDbPolyline
 90
        5
 70
     0
 43
0.0
 10
1.431878891082355
 20
1.654589949991651
 10
1.456033335364979
 20
1.623724521328894
 10
1.482405711420521
 20
1.594832256643443
 10
1.511790215645532
 20
1.567878739630711
 10
1.543234420537003
 20
1.543234420537003
  0
LWPOLYLINE
  5
194
330
100
100
AcDbEntity
  8
AM_4
100
AcDbPolyline
 90
        5
 70
     0
 43
0.0
 10
1.742794453491005
 20
1.520083394581709
 10
1.718640009208381
 20
1.550948823244465
 10
1.692267633152839
 20
1.579841087929917
 10
1.662883128927828
 20
1.606794604942648
 10
1.631438924036357
 20
1.631438924036357
  0
LINE
  5
195
330
100
100
AcDbEntity
  8
AM_4
100
AcDbLine
 10
1.543234420537003
 20
1.543234420537003
 30
0.0
 11
1.631438924036357
 21
1.631438924036357
 31
0.0
  0
LWPOLYLINE
  5
196
330
100
100
AcDbEntity
  8
AM_4
100
AcDbPolyline
 90
        5
 70
     0
 43
0.0
 10
1.543234420537003
 20
1.543234420537003
 10
1.567388864819627
 20
1.512368991874246
 10
1.59376124087517
 20
1.483476727188795
 10
1.62314574510018
 20
1.456523210176063
 10
1.654589949991651
 20
1.431878891082355
  0
ARC
  5
197
330
100
100
AcDbEntity
  8
AM_4
100
AcDbCircle
 10
1.4358824
 20
-1.93405535
 30
0.0
 40
0.0590550999999997
100
AcDbArc
 50
0.0
 51
90.0
  0
ARC
  5
198
330
100
100
AcDbEntity
  8
AM_4
100
AcDbCircle
 10
-1.435882400000001
 20
-1.934055349999999
 30
0.0
 40
0.0590550999999988
100
AcDbArc
 50
90.0
 51
180.0
  0
ARC
  5
199
330
100
100
AcDbEntity
  8
AM_4
100
AcDbCircle
 10
-0.0000000000000002
 20
-0.0000000000000004
 30
0.0
 40
1.673249999999999
100
AcDbArc
 50
207.2535843877979
 51
332.7464156122022
  0
LINE
  5
19A
330
100
100
AcDbEntity
  8
AM_4
100
AcDbLine
 10
1.4358824
 20
-1.87500025
 30
0.0
 11
-1.4358824
 21
-1.87500025
 31
0.0
  0
LINE
  5
19B
330
100
100
AcDbEntity
  8
AM_4
100
AcDbLine
 10
-3.659694899999999
 20
-1.375
 30
0.0
 11
-1.4875
 21
-1.375000000000034
 31
0.0
  0
LINE
  5
19C
330
100
100
AcDbEntity
  8
AM_4
100
AcDbLine
 10
-3.71875
 20
-2.125
 30
0.0
 11
-1.4949375
 21
-2.125
 31
0.0
  0
LWPOLYLINE
  5
19D
330
100
100
AcDbEntity
  8
AM_4
100
AcDbPolyline
 90
       19
 70
     0
 43
0.0
 10
-3.71875
 20
-1.4340551
 10
-3.718525277515278
 20
-1.428908108896463
 10
-3.717852820334911
 20
-1.423800289503061
 10
-3.716737746264083
 20
-1.418770515409566
 10
-3.715188541689773
 20
-1.413857066233888
 10
-3.713216996994228
 20
-1.409097336291077
 10
-3.71083811682303
 20
-1.40452755
 10
-3.708070005890691
 20
-1.400182486193645
 10
-3.704933731192835
 20
-1.3960952134312
 10
-3.701453161673649
 20
-1.39229683832635
 10
-3.697654786568799
 20
-1.388816268807164
 10
-3.693567513806354
 20
-1.385679994109309
 10
-3.689222449999999
 20
-1.38291188317697
 10
-3.684652663708923
 20
-1.380533003005772
 10
-3.679892933766111
 20
-1.378561458310226
 10
-3.674979484590434
 20
-1.377012253735916
 10
-3.669949710496938
 20
-1.375897179665089
 10
-3.664841891103537
 20
-1.375224722484722
 10
-3.659694899999999
 20
-1.375
  0
LINE
  5
19E
330
100
100
AcDbEntity
  8
AM_4
100
AcDbLine
 10
-3.71875
 20
-2.125
 30
0.0
 11
-3.71875
 21
-1.4340551
 31
0.0
  0
LINE
  5
19F
330
100
100
AcDbEntity
  8
AM_4
100
AcDbLine
 10
2.529999999999999
 20
-1.375
 30
0.0
 11
2.101087423318159
 21
0.4846088134508681
 31
0.0
  0
LINE
  5
1A0
330
100
100
AcDbEntity
  8
AM_4
100
AcDbLine
 10
-2.101087423318159
 20
0.4846088134508681
 30
0.0
 11
-2.529999999999999
 21
-1.375
 31
0.0
  0
LWPOLYLINE
  5
1A1
330
100
100
AcDbEntity
  8
AM_4
100
AcDbPolyline
 90
       32
 70
     0
 43
0.0
 10
2.10108742331816
 20
0.4846088134508674
 10
2.050855710258426
 20
0.6658865655653432
 10
1.98501574690309
 20
0.8420965188425654
 10
1.904068615128544
 20
1.011897609139615
 10
1.808630371484805
 20
1.173997547630631
 10
1.69942735863319
 20
1.327162655905077
 10
1.577290677440082
 20
1.470227255005364
 10
1.443149861797505
 20
1.602102536947571
 10
1.298025804308936
 20
1.721784851207647
 10
1.143022986680168
 20
1.828363343107915
 10
0.9793210739466136
 20
1.92102688597116
 10
0.8081659365100937
 20
1.999070254284417
 10
0.6308601683127977
 20
2.061899490890948
 10
0.4487531733108565
 20
2.109036427362846
 10
0.2632308956954455
 20
2.140122323151501
 10
0.0757052720206316
 20
2.154920595819782
 10
-0.1123965144863524
 20
2.153318621577244
 10
-0.2996428956512242
 20
2.13532859241517
 10
-0.4846088134508631
 20
2.101087423318161
 10
-0.6658865655653389
 20
2.050855710258428
 10
-0.8420965188425612
 20
1.985015746903092
 10
-1.011897609139611
 20
1.904068615128546
 10
-1.173997547630627
 20
1.808630371484808
 10
-1.327162655905074
 20
1.699427358633193
 10
-1.47022725500536
 20
1.577290677440086
 10
-1.602102536947568
 20
1.443149861797508
 10
-1.721784851207644
 20
1.298025804308941
 10
-1.828363343107912
 20
1.143022986680172
 10
-1.921026885971158
 20
0.9793210739466177
 10
-1.999070254284415
 20
0.8081659365100979
 10
-2.061899490890946
 20
0.6308601683128019
 10
-2.101087423318159
 20
0.4846088134508685
  0
LINE
  5
1A2
330
100
100
AcDbEntity
  8
AM_4
100
AcDbLine
 10
-1.4875
 20
-1.905365139016983
 30
0.0
 11
-1.4875
 21
-0.7662305870297786
 31
0.0
  0
LWPOLYLINE
  5
1A3
330
100
100
AcDbEntity
  8
AM_4
100
AcDbPolyline
 90
       48
 70
     0
 43
0.0
 10
1.4875
 20
-0.7662305870297798
 10
1.548621009340026
 20
-0.633670680977651
 10
1.597956077716043
 20
-0.496288158422464
 10
1.63512973546838
 20
-0.3551285833146987
 10
1.659859068615475
 20
-0.2112662652554073
 10
1.671955872000098
 20
-0.0657960833514634
 10
1.671328081644242
 20
0.0801748464755464
 10
1.657980475411586
 20
0.2255355973099815
 10
1.632014636645066
 20
0.3691798860667705
 10
1.593628181056296
 20
0.5100144929736815
 10
1.543113252750683
 20
0.6469675816338921
 10
1.48085430083438
 20
0.7789968563481623
 10
1.407325153524453
 20
0.9050974946144607
 10
1.323085412030044
 20
1.024309794433934
 10
1.228776191649272
 20
1.1357264782226
 10
1.125115242494699
 20
1.238499597741596
 10
1.012891486981583
 20
1.331846987495274
 10
0.8929590156519362
 20
1.415058217482915
 10
0.7662305870297823
 20
1.487499999999998
 10
0.6336706809776538
 20
1.548621009340025
 10
0.4962881584224669
 20
1.597956077716042
 10
0.3551285833147018
 20
1.635129735468379
 10
0.2112662652554103
 20
1.659859068615474
 10
0.0657960833514665
 20
1.671955872000098
 10
-0.0801748464755434
 20
1.671328081644243
 10
-0.2255355973099784
 20
1.657980475411587
 10
-0.3691798860667675
 20
1.632014636645067
 10
-0.5100144929736786
 20
1.593628181056297
 10
-0.6469675816338892
 20
1.543113252750684
 10
-0.7789968563481595
 20
1.480854300834382
 10
-0.905097494614458
 20
1.407325153524455
 10
-1.024309794433931
 20
1.323085412030046
 10
-1.135726478222598
 20
1.228776191649275
 10
-1.238499597741593
 20
1.125115242494702
 10
-1.331846987495272
 20
1.012891486981586
 10
-1.415058217482913
 20
0.8929590156519389
 10
-1.487499999999997
 20
0.7662305870297852
 10
-1.548621009340023
 20
0.6336706809776568
 10
-1.597956077716041
 20
0.4962881584224698
 10
-1.635129735468379
 20
0.3551285833147048
 10
-1.659859068615474
 20
0.2112662652554134
 10
-1.671955872000098
 20
0.0657960833514696
 10
-1.671328081644243
 20
-0.0801748464755403
 10
-1.657980475411587
 20
-0.2255355973099754
 10
-1.632014636645067
 20
-0.369179886066766
 10
-1.593628181056298
 20
-0.510014492973677
 10
-1.543113252750685
 20
-0.6469675816338878
 10
-1.487500000000001
 20
-0.7662305870297778
  0
LINE
  5
1A4
330
100
100
AcDbEntity
  8
AM_4
100
AcDbLine
 10
1.4875
 20
-0.7662305870297792
 30
0.0
 11
1.487499999999999
 21
-1.905365139016983
 31
0.0
  0
LINE
  5
1A5
330
100
100
AcDbEntity
  8
AM_4
100
AcDbLine
 10
1.4949375
 20
-2.125
 30
0.0
 11
3.71875
 21
-2.125
 31
0.0
  0
LINE
  5
1A6
330
100
100
AcDbEntity
  8
AM_4
100
AcDbLine
 10
1.4949375
 20
-1.93405535
 30
0.0
 11
1.4949375
 21
-2.125
 31
0.0
  0
LINE
  5
1A7
330
100
100
AcDbEntity
  8
AM_4
100
AcDbLine
 10
-1.4949375
 20
-2.125
 30
0.0
 11
-1.4949375
 21
-1.93405535
 31
0.0
  0
LINE
  5
1A8
330
100
100
AcDbEntity
  8
AM_4
100
AcDbLine
 10
-3.513125
 20
-2.125
 30
0.0
 11
-3.513125
 21
-1.375
 31
0.0
  0
LWPOLYLINE
  5
1A9
330
100
100
AcDbEntity
  8
AM_4
100
AcDbPolyline
 90
       19
 70
     0
 43
0.0
 10
3.659694899999999
 20
-1.374999999999999
 10
3.664841891103536
 20
-1.375224722484721
 10
3.669949710496937
 20
-1.375897179665088
 10
3.674979484590433
 20
-1.377012253735916
 10
3.679892933766111
 20
-1.378561458310225
 10
3.684652663708922
 20
-1.380533003005771
 10
3.689222449999999
 20
-1.382911883176969
 10
3.693567513806354
 20
-1.385679994109309
 10
3.697654786568799
 20
-1.388816268807164
 10
3.701453161673649
 20
-1.39229683832635
 10
3.704933731192835
 20
-1.3960952134312
 10
3.708070005890691
 20
-1.400182486193645
 10
3.71083811682303
 20
-1.40452755
 10
3.713216996994228
 20
-1.409097336291077
 10
3.715188541689773
 20
-1.413857066233889
 10
3.716737746264083
 20
-1.418770515409566
 10
3.717852820334911
 20
-1.423800289503062
 10
3.718525277515278
 20
-1.428908108896463
 10
3.71875
 20
-1.434055100000001
  0
LINE
  5
1AA
330
100
100
AcDbEntity
  8
AM_4
100
AcDbLine
 10
1.4875
 20
-1.375
 30
0.0
 11
3.659694899999999
 21
-1.375
 31
0.0
  0
LINE
  5
1AB
330
100
100
AcDbEntity
  8
AM_4
100
AcDbLine
 10
3.513125
 20
-1.375
 30
0.0
 11
3.513124999999999
 21
-2.125
 31
0.0
  0
LINE
  5
1AC
330
100
100
AcDbEntity
  8
AM_4
100
AcDbLine
 10
3.71875
 20
-1.4340551
 30
0.0
 11
3.71875
 21
-2.125
 31
0.0
  0
ENDBLK
  5
103
330
100
100
AcDbEntity
  8
0
100
AcDbBlockEnd
  0
ENDSEC
  0
SECTION
  2
ENTITIES
  0
INSERT
  5
6F
330
1F
100
AcDbEntity
  8
0
100
AcDbBlockReference
  2
1_129166_0
 10
0.0
 20
0.0
 30
0.0
  0
POINT
  5
1AE
330
1F
100
AcDbEntity
  8
ConnectionPoints
100
AcDbPoint
 10
0.0
 20
0.0
 30
0.0
  0
POINT
  5
1AF
330
1F
100
AcDbEntity
  8
ConnectionPoints
100
AcDbPoint
 10
0.0
 20
0.0
 30
-0.65625
  0
POINT
  5
1B0
330
1F
100
AcDbEntity
  8
ConnectionPoints
100
AcDbPoint
 10
0.0
 20
0.0
 30
0.0
  0
POINT
  5
1B1
330
1F
100
AcDbEntity
  8
ConnectionPoints
100
AcDbPoint
 10
0.0
 20
0.0
 30
0.0
  0
ENDSEC
  0
SECTION
  2
OBJECTS
  0
DICTIONARY
  5
C
330
0
100
AcDbDictionary
281
     1
  3
ACAD_DETAILVIEWSTYLE
350
1B9
  3
ACAD_GROUP
350
D
  3
ACAD_LAYOUT
350
1A
  3
ACAD_MATERIAL
350
43
  3
ACAD_MLEADERSTYLE
350
6B
  3
ACAD_MLINESTYLE
350
17
  3
ACAD_PLOTSETTINGS
350
19
  3
ACAD_PLOTSTYLENAME
350
E
  3
ACAD_SCALELIST
350
47
  3
ACAD_SECTIONVIEWSTYLE
350
1BA
  3
ACAD_TABLESTYLE
350
69
  3
ACAD_VISUALSTYLE
350
2A
  3
ACDB_RECOMPOSE_DATA
350
1B6
  3
AcDbVariableDictionary
350
1B2
  0
SUN
  5
6D
330
29
100
AcDbSun
 90
        1
290
     0
 63
     7
421
 16777215
 40
1.0
291
     1
 91
  2455826
 92
 54000000
292
     0
 70
     2
 71
   256
280
     1
  0
DICTIONARY
  5
1B9
102
{ACAD_REACTORS
330
C
102
}
330
C
100
AcDbDictionary
281
     1
  0
DICTIONARY
  5
D
102
{ACAD_REACTORS
330
C
102
}
330
C
100
AcDbDictionary
281
     1
  0
DICTIONARY
  5
1A
102
{ACAD_REACTORS
330
C
102
}
330
C
100
AcDbDictionary
281
     1
  3
Layout1
350
1E
  3
Layout2
350
26
  3
Model
350
22
  0
DICTIONARY
  5
43
102
{ACAD_REACTORS
330
C
102
}
330
C
100
AcDbDictionary
281
     1
  3
ByBlock
350
45
  3
ByLayer
350
44
  3
Global
350
46
  0
DICTIONARY
  5
6B
102
{ACAD_REACTORS
330
C
102
}
330
C
100
AcDbDictionary
281
     1
  3
Standard
350
6C
  0
DICTIONARY
  5
17
102
{ACAD_REACTORS
330
C
102
}
330
C
100
AcDbDictionary
281
     1
  3
Standard
350
18
  0
DICTIONARY
  5
19
102
{ACAD_REACTORS
330
C
102
}
330
C
100
AcDbDictionary
281
     1
  0
ACDBDICTIONARYWDFLT
  5
E
102
{ACAD_REACTORS
330
C
102
}
330
C
100
AcDbDictionary
281
     1
  3
Normal
350
F
100
AcDbDictionaryWithDefault
340
F
  0
DICTIONARY
  5
47
102
{ACAD_REACTORS
330
C
102
}
330
C
100
AcDbDictionary
281
     1
  3
A0
350
48
  3
A1
350
49
  3
A2
350
4A
  3
A3
350
4B
  3
A4
350
4C
  3
A5
350
4D
  3
A6
350
4E
  3
A7
350
4F
  3
A8
350
50
  3
A9
350
51
  3
B0
350
52
  3
B1
350
53
  3
B2
350
54
  3
B3
350
55
  3
B4
350
56
  3
B5
350
57
  3
B6
350
58
  3
B7
350
59
  3
B8
350
5A
  3
B9
350
5B
  3
C0
350
5C
  3
C1
350
5D
  3
C2
350
5E
  3
C3
350
5F
  3
C4
350
60
  3
C5
350
61
  3
C6
350
62
  3
C7
350
63
  3
C8
350
64
  3
C9
350
65
  3
D0
350
66
  3
D1
350
67
  3
D2
350
68
  0
DICTIONARY
  5
1BA
102
{ACAD_REACTORS
330
C
102
}
330
C
100
AcDbDictionary
281
     1
  0
DICTIONARY
  5
69
102
{ACAD_REACTORS
330
C
102
}
330
C
100
AcDbDictionary
281
     1
  3
Standard
350
6A
  0
DICTIONARY
  5
2A
102
{ACAD_REACTORS
330
C
102
}
330
C
100
AcDbDictionary
281
     1
  3
2dWireframe
350
2F
  3
Basic
350
32
  3
Brighten
350
36
  3
ColorChange
350
3A
  3
Conceptual
350
34
  3
Dim
350
35
  3
EdgeColorOff
350
3D
  3
Facepattern
350
39
  3
Flat
350
2B
  3
FlatWithEdges
350
2C
  3
Gouraud
350
2D
  3
GouraudWithEdges
350
2E
  3
Hidden
350
31
  3
JitterOff
350
3B
  3
Linepattern
350
38
  3
OverhangOff
350
3C
  3
Realistic
350
33
  3
Shaded
350
42
  3
Shaded with edges
350
41
  3
Shades of Gray
350
3E
  3
Sketchy
350
3F
  3
Thicken
350
37
  3
Wireframe
350
30
  3
X-Ray
350
40
  0
XRECORD
  5
1B6
102
{ACAD_REACTORS
330
C
102
}
330
C
100
AcDbXrecord
280
     1
 90
        1
330
6A
  0
DICTIONARY
  5
1B2
102
{ACAD_REACTORS
330
C
102
}
330
C
100
AcDbDictionary
281
     1
  3
CANNOSCALE
350
1B3
  3
CMLEADERSTYLE
350
1B8
  3
CTABLESTYLE
350
1B7
  0
LAYOUT
  5
1E
102
{ACAD_REACTORS
330
1A
102
}
330
1A
100
AcDbPlotSettings
  1

  2
none_device
  4

  6

 40
0.0
 41
0.0
 42
0.0
 43
0.0
 44
0.0
 45
0.0
 46
0.0
 47
0.0
 48
0.0
 49
0.0
140
0.0
141
0.0
142
1.0
143
1.0
 70
   688
 72
     0
 73
     0
 74
     5
  7

 75
    16
 76
     0
 77
     2
 78
   300
147
1.0
148
0.0
149
0.0
100
AcDbLayout
  1
Layout1
 70
     1
 71
     1
 10
0.0
 20
0.0
 11
12.0
 21
9.0
 12
0.0
 22
0.0
 32
0.0
 14
1.000000000000000E+20
 24
1.000000000000000E+20
 34
1.000000000000000E+20
 15
-1.000000000000000E+20
 25
-1.000000000000000E+20
 35
-1.000000000000000E+20
146
0.0
 13
0.0
 23
0.0
 33
0.0
 16
1.0
 26
0.0
 36
0.0
 17
0.0
 27
1.0
 37
0.0
 76
     0
330
1B
  0
LAYOUT
  5
26
102
{ACAD_REACTORS
330
1A
102
}
330
1A
100
AcDbPlotSettings
  1

  2
none_device
  4

  6

 40
0.0
 41
0.0
 42
0.0
 43
0.0
 44
0.0
 45
0.0
 46
0.0
 47
0.0
 48
0.0
 49
0.0
140
0.0
141
0.0
142
1.0
143
1.0
 70
   688
 72
     0
 73
     0
 74
     5
  7

 75
    16
 76
     0
 77
     2
 78
   300
147
1.0
148
0.0
149
0.0
100
AcDbLayout
  1
Layout2
 70
     1
 71
     2
 10
0.0
 20
0.0
 11
0.0
 21
0.0
 12
0.0
 22
0.0
 32
0.0
 14
0.0
 24
0.0
 34
0.0
 15
0.0
 25
0.0
 35
0.0
146
0.0
 13
0.0
 23
0.0
 33
0.0
 16
1.0
 26
0.0
 36
0.0
 17
0.0
 27
1.0
 37
0.0
 76
     0
330
23
  0
LAYOUT
  5
22
102
{ACAD_REACTORS
330
1A
102
}
330
1A
100
AcDbPlotSettings
  1

  2
none_device
  4
Letter_(8.50_x_11.00_Inches)
  6

 40
6.35
 41
6.35
 42
6.35000508
 43
6.35000508
 44
215.9
 45
279.4
 46
0.0
 47
0.0
 48
0.0
 49
0.0
140
0.0
141
0.0
142
1.0
143
1.0
 70
  1712
 72
     0
 73
     0
 74
     0
  7

 75
     0
 76
     0
 77
     2
 78
   300
147
1.0
148
0.0
149
0.0
100
AcDbLayout
  1
Model
 70
     1
 71
     0
 10
0.0
 20
0.0
 11
12.0
 21
9.0
 12
0.0
 22
0.0
 32
0.0
 14
1.000000000000000E+20
 24
1.000000000000000E+20
 34
1.000000000000000E+20
 15
-1.000000000000000E+20
 25
-1.000000000000000E+20
 35
-1.000000000000000E+20
146
0.0
 13
0.0
 23
0.0
 33
0.0
 16
1.0
 26
0.0
 36
0.0
 17
0.0
 27
1.0
 37
0.0
 76
     0
330
1F
331
29
  0
MATERIAL
  5
45
102
{ACAD_REACTORS
330
43
102
}
330
43
100
AcDbMaterial
  1
ByBlock
 72
     1
 94
      127
  0
MATERIAL
  5
44
102
{ACAD_REACTORS
330
43
102
}
330
43
100
AcDbMaterial
  1
ByLayer
 72
     1
 94
      127
  0
MATERIAL
  5
46
102
{ACAD_REACTORS
330
43
102
}
330
43
100
AcDbMaterial
  1
Global
 72
     1
 94
      127
  0
MLEADERSTYLE
  5
6C
102
{ACAD_REACTORS
330
6B
102
}
330
6B
100
AcDbMLeaderStyle
179
     2
170
     2
171
     1
172
     0
 90
        2
 40
0.0
 41
0.0
173
     1
 91
-1056964608
340
14
 92
       -2
290
     1
 42
0.09
291
     1
 43
0.36
  3
Standard
341
0
 44
0.18
300

342
11
174
     1
178
     6
175
     1
176
     0
 93
-1056964608
 45
0.18
292
     0
297
     0
 46
0.18
343
0
 94
-1056964608
 47
1.0
 49
1.0
140
1.0
293
     1
141
0.0
294
     1
177
     0
142
1.0
295
     0
296
     0
143
0.125
271
     0
272
     9
273
     9
298
     0
  0
MLINESTYLE
  5
18
102
{ACAD_REACTORS
330
17
102
}
330
17
100
AcDbMlineStyle
  2
Standard
 70
     0
  3

 62
   256
 51
90.0
 52
90.0
 71
     2
 49
0.5
 62
   256
  6
BYLAYER
 49
-0.5
 62
   256
  6
BYLAYER
  0
ACDBPLACEHOLDER
  5
F
102
{ACAD_REACTORS
330
E
102
}
330
E
  0
SCALE
  5
48
102
{ACAD_REACTORS
330
47
102
}
330
47
100
AcDbScale
 70
     0
300
1:1
140
1.0
141
1.0
290
     1
  0
SCALE
  5
49
102
{ACAD_REACTORS
330
47
102
}
330
47
100
AcDbScale
 70
     0
300
1:2
140
1.0
141
2.0
290
     0
  0
SCALE
  5
4A
102
{ACAD_REACTORS
330
47
102
}
330
47
100
AcDbScale
 70
     0
300
1:4
140
1.0
141
4.0
290
     0
  0
SCALE
  5
4B
102
{ACAD_REACTORS
330
47
102
}
330
47
100
AcDbScale
 70
     0
300
1:5
140
1.0
141
5.0
290
     0
  0
SCALE
  5
4C
102
{ACAD_REACTORS
330
47
102
}
330
47
100
AcDbScale
 70
     0
300
1:8
140
1.0
141
8.0
290
     0
  0
SCALE
  5
4D
102
{ACAD_REACTORS
330
47
102
}
330
47
100
AcDbScale
 70
     0
300
1:10
140
1.0
141
10.0
290
     0
  0
SCALE
  5
4E
102
{ACAD_REACTORS
330
47
102
}
330
47
100
AcDbScale
 70
     0
300
1:16
140
1.0
141
16.0
290
     0
  0
SCALE
  5
4F
102
{ACAD_REACTORS
330
47
102
}
330
47
100
AcDbScale
 70
     0
300
1:20
140
1.0
141
20.0
290
     0
  0
SCALE
  5
50
102
{ACAD_REACTORS
330
47
102
}
330
47
100
AcDbScale
 70
     0
300
1:30
140
1.0
141
30.0
290
     0
  0
SCALE
  5
51
102
{ACAD_REACTORS
330
47
102
}
330
47
100
AcDbScale
 70
     0
300
1:40
140
1.0
141
40.0
290
     0
  0
SCALE
  5
52
102
{ACAD_REACTORS
330
47
102
}
330
47
100
AcDbScale
 70
     0
300
1:50
140
1.0
141
50.0
290
     0
  0
SCALE
  5
53
102
{ACAD_REACTORS
330
47
102
}
330
47
100
AcDbScale
 70
     0
300
1:100
140
1.0
141
100.0
290
     0
  0
SCALE
  5
54
102
{ACAD_REACTORS
330
47
102
}
330
47
100
AcDbScale
 70
     0
300
2:1
140
2.0
141
1.0
290
     0
  0
SCALE
  5
55
102
{ACAD_REACTORS
330
47
102
}
330
47
100
AcDbScale
 70
     0
300
4:1
140
4.0
141
1.0
290
     0
  0
SCALE
  5
56
102
{ACAD_REACTORS
330
47
102
}
330
47
100
AcDbScale
 70
     0
300
8:1
140
8.0
141
1.0
290
     0
  0
SCALE
  5
57
102
{ACAD_REACTORS
330
47
102
}
330
47
100
AcDbScale
 70
     0
300
10:1
140
10.0
141
1.0
290
     0
  0
SCALE
  5
58
102
{ACAD_REACTORS
330
47
102
}
330
47
100
AcDbScale
 70
     0
300
100:1
140
100.0
141
1.0
290
     0
  0
SCALE
  5
59
102
{ACAD_REACTORS
330
47
102
}
330
47
100
AcDbScale
 70
     0
300
1/128" = 1'-0"
140
0.0078125
141
12.0
290
     0
  0
SCALE
  5
5A
102
{ACAD_REACTORS
330
47
102
}
330
47
100
AcDbScale
 70
     0
300
1/64" = 1'-0"
140
0.015625
141
12.0
290
     0
  0
SCALE
  5
5B
102
{ACAD_REACTORS
330
47
102
}
330
47
100
AcDbScale
 70
     0
300
1/32" = 1'-0"
140
0.03125
141
12.0
290
     0
  0
SCALE
  5
5C
102
{ACAD_REACTORS
330
47
102
}
330
47
100
AcDbScale
 70
     0
300
1/16" = 1'-0"
140
0.0625
141
12.0
290
     0
  0
SCALE
  5
5D
102
{ACAD_REACTORS
330
47
102
}
330
47
100
AcDbScale
 70
     0
300
3/32" = 1'-0"
140
0.09375
141
12.0
290
     0
  0
SCALE
  5
5E
102
{ACAD_REACTORS
330
47
102
}
330
47
100
AcDbScale
 70
     0
300
1/8" = 1'-0"
140
0.125
141
12.0
290
     0
  0
SCALE
  5
5F
102
{ACAD_REACTORS
330
47
102
}
330
47
100
AcDbScale
 70
     0
300
3/16" = 1'-0"
140
0.1875
141
12.0
290
     0
  0
SCALE
  5
60
102
{ACAD_REACTORS
330
47
102
}
330
47
100
AcDbScale
 70
     0
300
1/4" = 1'-0"
140
0.25
141
12.0
290
     0
  0
SCALE
  5
61
102
{ACAD_REACTORS
330
47
102
}
330
47
100
AcDbScale
 70
     0
300
3/8" = 1'-0"
140
0.375
141
12.0
290
     0
  0
SCALE
  5
62
102
{ACAD_REACTORS
330
47
102
}
330
47
100
AcDbScale
 70
     0
300
1/2" = 1'-0"
140
0.5
141
12.0
290
     0
  0
SCALE
  5
63
102
{ACAD_REACTORS
330
47
102
}
330
47
100
AcDbScale
 70
     0
300
3/4" = 1'-0"
140
0.75
141
12.0
290
     0
  0
SCALE
  5
64
102
{ACAD_REACTORS
330
47
102
}
330
47
100
AcDbScale
 70
     0
300
1" = 1'-0"
140
1.0
141
12.0
290
     0
  0
SCALE
  5
65
102
{ACAD_REACTORS
330
47
102
}
330
47
100
AcDbScale
 70
     0
300
1-1/2" = 1'-0"
140
1.5
141
12.0
290
     0
  0
SCALE
  5
66
102
{ACAD_REACTORS
330
47
102
}
330
47
100
AcDbScale
 70
     0
300
3" = 1'-0"
140
3.0
141
12.0
290
     0
  0
SCALE
  5
67
102
{ACAD_REACTORS
330
47
102
}
330
47
100
AcDbScale
 70
     0
300
6" = 1'-0"
140
6.0
141
12.0
290
     0
  0
SCALE
  5
68
102
{ACAD_REACTORS
330
47
102
}
330
47
100
AcDbScale
 70
     0
300
1'-0" = 1'-0"
140
12.0
141
12.0
290
     0
  0
TABLESTYLE
  5
6A
102
{ACAD_REACTORS
330
69
102
}
102
{ACAD_XDICTIONARY
360
1B4
102
}
330
69
100
AcDbTableStyle
  3
Standard
 70
     0
 71
     0
 40
0.06
 41
0.06
280
     0
281
     0
  7
Standard
140
0.18
170
     2
 62
     0
 63
   257
283
     0
 90
        4
 91
        0
  1

274
    -2
284
     1
 64
     0
275
    -2
285
     1
 65
     0
276
    -2
286
     1
 66
     0
277
    -2
287
     1
 67
     0
278
    -2
288
     1
 68
     0
279
    -2
289
     1
 69
     0
  7
Standard
140
0.25
170
     5
 62
     0
 63
   257
283
     0
 90
        4
 91
        0
  1

274
    -2
284
     1
 64
     0
275
    -2
285
     1
 65
     0
276
    -2
286
     1
 66
     0
277
    -2
287
     1
 67
     0
278
    -2
288
     1
 68
     0
279
    -2
289
     1
 69
     0
  7
Standard
140
0.18
170
     5
 62
     0
 63
   257
283
     0
 90
        4
 91
        0
  1

274
    -2
284
     1
 64
     0
275
    -2
285
     1
 65
     0
276
    -2
286
     1
 66
     0
277
    -2
287
     1
 67
     0
278
    -2
288
     1
 68
     0
279
    -2
289
     1
 69
     0
  0
VISUALSTYLE
  5
2F
102
{ACAD_REACTORS
330
2A
102
}
330
2A
100
AcDbVisualStyle
  2
2dWireframe
 70
     4
177
     3
291
     0
 70
    58
 90
        0
176
     1
 90
        2
176
     1
 90
        0
176
     1
 90
        0
176
     1
 40
0.6
176
     1
 40
30.0
176
     1
 62
     7
420
 16777215
176
     1
 90
        1
176
     1
 90
        4
176
     1
 62
     7
176
     1
 62
   257
176
     1
 90
        1
176
     1
 90
        1
176
     1
 40
1.0
176
     1
 90
        0
176
     1
 62
   257
176
     1
 40
1.0
176
     1
 90
        1
176
     1
 90
        6
176
     1
 90
        2
176
     1
 62
     7
176
     1
 90
        5
176
     1
 90
        0
176
     1
 90
        0
176
     1
290
     0
176
     1
 90
        1
176
     1
 40
0.0
176
     1
 90
        0
176
     1
290
     1
176
     1
290
     1
176
     1
290
     0
176
     1
290
     0
176
     1
290
     0
176
     1
290
     0
176
     1
290
     0
176
     1
290
     0
176
     1
290
     0
176
     1
 90
       50
176
     1
 40
0.0
176
     1
 40
1.0
176
     1
 90
        0
176
     1
 62
    18
420
        0
176
     1
 90
       50
176
     1
 90
        3
176
     1
 62
     5
420
      255
176
     1
290
     0
176
     1
 90
       50
176
     1
 90
       50
176
     1
 90
       50
176
     1
290
     0
176
     1
 90
       50
176
     1
 62
   256
176
     0
 40
1.0
176
     0
 90
        2
176
     1
  1
strokes_ogs.tif
176
     1
290
     0
176
     1
 40
1.0
176
     1
 40
1.0
176
     1
  0
VISUALSTYLE
  5
32
102
{ACAD_REACTORS
330
2A
102
}
330
2A
100
AcDbVisualStyle
  2
Basic
 70
     7
177
     3
291
     1
 70
    58
 90
        1
176
     1
 90
        0
176
     1
 90
        1
176
     1
 90
        0
176
     1
 40
0.6
176
     1
 40
30.0
176
     1
 62
     7
420
 16777215
176
     1
 90
        0
176
     1
 90
        4
176
     1
 62
     7
176
     1
 62
   257
176
     1
 90
        1
176
     1
 90
        1
176
     1
 40
1.0
176
     1
 90
        8
176
     1
 62
     7
176
     1
 40
1.0
176
     1
 90
        1
176
     1
 90
        6
176
     1
 90
        2
176
     1
 62
     7
176
     1
 90
        5
176
     1
 90
        0
176
     1
 90
        0
176
     1
290
     0
176
     1
 90
        1
176
     1
 40
0.0
176
     1
 90
        0
176
     1
290
     0
176
     1
290
     1
176
     1
290
     1
176
     1
290
     0
176
     1
290
     0
176
     1
290
     0
176
     1
290
     0
176
     1
290
     0
176
     1
290
     0
176
     1
 90
       50
176
     1
 40
0.0
176
     1
 40
1.0
176
     1
 90
        0
176
     1
 62
    18
420
        0
176
     1
 90
       50
176
     1
 90
        3
176
     1
 62
     5
420
      255
176
     1
290
     0
176
     1
 90
       50
176
     1
 90
       50
176
     1
 90
       50
176
     1
290
     0
176
     1
 90
       50
176
     1
 62
   256
176
     0
 40
1.0
176
     0
 90
        2
176
     1
  1
strokes_ogs.tif
176
     1
290
     0
176
     1
 40
1.0
176
     1
 40
1.0
176
     1
  0
VISUALSTYLE
  5
36
102
{ACAD_REACTORS
330
2A
102
}
330
2A
100
AcDbVisualStyle
  2
Brighten
 70
    12
177
     3
291
     1
 70
    58
 90
        2
176
     1
 90
        2
176
     1
 90
        0
176
     1
 90
        0
176
     1
 40
0.6
176
     1
 40
30.0
176
     1
 62
     7
420
 16777215
176
     1
 90
        1
176
     1
 90
        4
176
     1
 62
     7
176
     1
 62
   257
176
     1
 90
        1
176
     1
 90
        1
176
     1
 40
1.0
176
     1
 90
        8
176
     1
 62
     7
176
     1
 40
1.0
176
     1
 90
        1
176
     1
 90
        6
176
     1
 90
        2
176
     1
 62
     7
176
     1
 90
        5
176
     1
 90
        0
176
     1
 90
        0
176
     1
290
     0
176
     1
 90
        1
176
     1
 40
50.0
176
     1
 90
        0
176
     1
290
     0
176
     1
290
     1
176
     1
290
     1
176
     1
290
     0
176
     1
290
     0
176
     1
290
     0
176
     1
290
     0
176
     1
290
     0
176
     1
290
     0
176
     1
 90
       50
176
     1
 40
0.0
176
     1
 40
1.0
176
     1
 90
        0
176
     1
 62
    18
420
        0
176
     1
 90
       50
176
     1
 90
        3
176
     1
 62
     5
420
      255
176
     1
290
     0
176
     1
 90
       50
176
     1
 90
       50
176
     1
 90
       50
176
     1
290
     0
176
     1
 90
       50
176
     1
 62
   256
176
     0
 40
1.0
176
     0
 90
        2
176
     1
  1
strokes_ogs.tif
176
     1
290
     0
176
     1
 40
1.0
176
     1
 40
1.0
176
     1
  0
VISUALSTYLE
  5
3A
102
{ACAD_REACTORS
330
2A
102
}
330
2A
100
AcDbVisualStyle
  2
ColorChange
 70
    16
177
     3
291
     1
 70
    58
 90
        2
176
     1
 90
        2
176
     1
 90
        3
176
     1
 90
        0
176
     1
 40
0.6
176
     1
 40
30.0
176
     1
 62
     8
420
  8421504
176
     1
 90
        1
176
     1
 90
        4
176
     1
 62
     7
176
     1
 62
   257
176
     1
 90
        1
176
     1
 90
        1
176
     1
 40
1.0
176
     1
 90
        8
176
     1
 62
     8
420
  8421504
176
     1
 40
1.0
176
     1
 90
        1
176
     1
 90
        6
176
     1
 90
        2
176
     1
 62
     7
176
     1
 90
        5
176
     1
 90
        0
176
     1
 90
        0
176
     1
290
     0
176
     1
 90
        1
176
     1
 40
0.0
176
     1
 90
        0
176
     1
290
     0
176
     1
290
     1
176
     1
290
     1
176
     1
290
     0
176
     1
290
     0
176
     1
290
     0
176
     1
290
     0
176
     1
290
     0
176
     1
290
     0
176
     1
 90
       50
176
     1
 40
0.0
176
     1
 40
1.0
176
     1
 90
        0
176
     1
 62
    18
420
        0
176
     1
 90
       50
176
     1
 90
        3
176
     1
 62
     5
420
      255
176
     1
290
     0
176
     1
 90
       50
176
     1
 90
       50
176
     1
 90
       50
176
     1
290
     0
176
     1
 90
       50
176
     1
 62
   256
176
     0
 40
1.0
176
     0
 90
        2
176
     1
  1
strokes_ogs.tif
176
     1
290
     0
176
     1
 40
1.0
176
     1
 40
1.0
176
     1
  0
VISUALSTYLE
  5
34
102
{ACAD_REACTORS
330
2A
102
}
330
2A
100
AcDbVisualStyle
  2
Conceptual
 70
     9
177
     3
291
     0
 70
    58
 90
        3
176
     1
 90
        2
176
     1
 90
        0
176
     1
 90
        0
176
     1
 40
0.6
176
     1
 40
30.0
176
     1
 62
     7
420
 16777215
176
     1
 90
        2
176
     1
 90
        2
176
     1
 62
     7
176
     1
 62
   257
176
     1
 90
        1
176
     1
 90
        1
176
     1
 40
179.0
176
     1
 90
        8
176
     1
 62
     7
176
     1
 40
1.0
176
     1
 90
        1
176
     1
 90
        6
176
     1
 90
        2
176
     1
 62
     7
176
     1
 90
        3
176
     1
 90
        0
176
     1
 90
        0
176
     1
290
     0
176
     1
 90
        1
176
     1
 40
0.0
176
     1
 90
        0
176
     1
290
     0
176
     1
290
     1
176
     1
290
     1
176
     1
290
     0
176
     1
290
     0
176
     1
290
     0
176
     1
290
     0
176
     1
290
     0
176
     1
290
     0
176
     1
 90
       50
176
     1
 40
0.0
176
     1
 40
1.0
176
     1
 90
        0
176
     1
 62
    18
420
        0
176
     1
 90
       50
176
     1
 90
        3
176
     1
 62
     5
420
      255
176
     1
290
     0
176
     1
 90
       50
176
     1
 90
       50
176
     1
 90
       50
176
     1
290
     0
176
     1
 90
       50
176
     1
 62
   256
176
     0
 40
1.0
176
     0
 90
        2
176
     1
  1
strokes_ogs.tif
176
     1
290
     0
176
     1
 40
1.0
176
     1
 40
1.0
176
     1
  0
VISUALSTYLE
  5
35
102
{ACAD_REACTORS
330
2A
102
}
330
2A
100
AcDbVisualStyle
  2
Dim
 70
    11
177
     3
291
     1
 70
    58
 90
        2
176
     1
 90
        2
176
     1
 90
        0
176
     1
 90
        0
176
     1
 40
0.6
176
     1
 40
30.0
176
     1
 62
     7
420
 16777215
176
     1
 90
        1
176
     1
 90
        4
176
     1
 62
     7
176
     1
 62
   257
176
     1
 90
        1
176
     1
 90
        1
176
     1
 40
1.0
176
     1
 90
        8
176
     1
 62
     7
176
     1
 40
1.0
176
     1
 90
        1
176
     1
 90
        6
176
     1
 90
        2
176
     1
 62
     7
176
     1
 90
        5
176
     1
 90
        0
176
     1
 90
        0
176
     1
290
     0
176
     1
 90
        1
176
     1
 40
-50.0
176
     1
 90
        0
176
     1
290
     0
176
     1
290
     1
176
     1
290
     1
176
     1
290
     0
176
     1
290
     0
176
     1
290
     0
176
     1
290
     0
176
     1
290
     0
176
     1
290
     0
176
     1
 90
       50
176
     1
 40
0.0
176
     1
 40
1.0
176
     1
 90
        0
176
     1
 62
    18
420
        0
176
     1
 90
       50
176
     1
 90
        3
176
     1
 62
     5
420
      255
176
     1
290
     0
176
     1
 90
       50
176
     1
 90
       50
176
     1
 90
       50
176
     1
290
     0
176
     1
 90
       50
176
     1
 62
   256
176
     0
 40
1.0
176
     0
 90
        2
176
     1
  1
strokes_ogs.tif
176
     1
290
     0
176
     1
 40
1.0
176
     1
 40
1.0
176
     1
  0
VISUALSTYLE
  5
3D
102
{ACAD_REACTORS
330
2A
102
}
330
2A
100
AcDbVisualStyle
  2
EdgeColorOff
 70
    22
177
     3
291
     1
 70
    58
 90
        2
176
     0
 90
        2
176
     0
 90
        0
176
     0
 90
        0
176
     0
 40
0.6
176
     0
 40
30.0
176
     0
 62
     7
420
 16777215
176
     0
 90
        1
176
     0
 90
        4
176
     0
 62
     7
176
     0
 62
   257
176
     0
 90
        1
176
     0
 90
        1
176
     0
 40
1.0
176
     0
 90
        8
176
     2
 62
     7
176
     0
 40
1.0
176
     0
 90
        1
176
     0
 90
        6
176
     0
 90
        2
176
     0
 62
     7
176
     0
 90
        5
176
     0
 90
        0
176
     0
 90
        0
176
     0
290
     0
176
     0
 90
        1
176
     0
 40
0.0
176
     0
 90
        0
176
     0
290
     0
176
     0
290
     1
176
     0
290
     1
176
     0
290
     0
176
     0
290
     0
176
     0
290
     0
176
     0
290
     0
176
     0
290
     0
176
     0
290
     0
176
     0
 90
       50
176
     0
 40
0.0
176
     0
 40
1.0
176
     0
 90
        0
176
     0
 62
    18
420
        0
176
     0
 90
       50
176
     0
 90
        3
176
     0
 62
     5
420
      255
176
     0
290
     0
176
     0
 90
       50
176
     0
 90
       50
176
     0
 90
       50
176
     0
290
     0
176
     0
 90
       50
176
     0
 62
   256
176
     0
 40
1.0
176
     0
 90
        2
176
     0
  1
strokes_ogs.tif
176
     0
290
     0
176
     0
 40
1.0
176
     0
 40
1.0
176
     0
  0
VISUALSTYLE
  5
39
102
{ACAD_REACTORS
330
2A
102
}
330
2A
100
AcDbVisualStyle
  2
Facepattern
 70
    15
177
     3
291
     1
 70
    58
 90
        2
176
     1
 90
        2
176
     1
 90
        0
176
     1
 90
        0
176
     1
 40
0.6
176
     1
 40
30.0
176
     1
 62
     7
420
 16777215
176
     1
 90
        1
176
     1
 90
        4
176
     1
 62
     7
176
     1
 62
   257
176
     1
 90
        1
176
     1
 90
        1
176
     1
 40
1.0
176
     1
 90
        8
176
     1
 62
     7
176
     1
 40
1.0
176
     1
 90
        1
176
     1
 90
        6
176
     1
 90
        2
176
     1
 62
     7
176
     1
 90
        5
176
     1
 90
        0
176
     1
 90
        0
176
     1
290
     0
176
     1
 90
        1
176
     1
 40
0.0
176
     1
 90
        0
176
     1
290
     0
176
     1
290
     1
176
     1
290
     1
176
     1
290
     0
176
     1
290
     0
176
     1
290
     0
176
     1
290
     0
176
     1
290
     0
176
     1
290
     0
176
     1
 90
       50
176
     1
 40
0.0
176
     1
 40
1.0
176
     1
 90
        0
176
     1
 62
    18
420
        0
176
     1
 90
       50
176
     1
 90
        3
176
     1
 62
     5
420
      255
176
     1
290
     0
176
     1
 90
       50
176
     1
 90
       50
176
     1
 90
       50
176
     1
290
     0
176
     1
 90
       50
176
     1
 62
   256
176
     0
 40
1.0
176
     0
 90
        2
176
     1
  1
strokes_ogs.tif
176
     1
290
     0
176
     1
 40
1.0
176
     1
 40
1.0
176
     1
  0
VISUALSTYLE
  5
2B
102
{ACAD_REACTORS
330
2A
102
}
330
2A
100
AcDbVisualStyle
  2
Flat
 70
     0
177
     3
291
     1
 70
    58
 90
        2
176
     1
 90
        1
176
     1
 90
        1
176
     1
 90
        2
176
     1
 40
0.6
176
     1
 40
30.0
176
     1
 62
     7
420
 16777215
176
     1
 90
        0
176
     1
 90
        0
176
     1
 62
     7
176
     1
 62
   257
176
     1
 90
        1
176
     1
 90
        1
176
     1
 40
1.0
176
     1
 90
        8
176
     1
 62
     7
176
     1
 40
1.0
176
     1
 90
        1
176
     1
 90
        6
176
     1
 90
        2
176
     1
 62
     7
176
     1
 90
        5
176
     1
 90
        0
176
     1
 90
        0
176
     1
290
     0
176
     1
 90
       13
176
     1
 40
0.0
176
     1
 90
        0
176
     1
290
     0
176
     1
290
     1
176
     1
290
     1
176
     1
290
     0
176
     1
290
     0
176
     1
290
     0
176
     1
290
     0
176
     1
290
     0
176
     1
290
     0
176
     1
 90
       50
176
     1
 40
0.0
176
     1
 40
1.0
176
     1
 90
        0
176
     1
 62
    18
420
        0
176
     1
 90
       50
176
     1
 90
        3
176
     1
 62
     5
420
      255
176
     1
290
     0
176
     1
 90
       50
176
     1
 90
       50
176
     1
 90
       50
176
     1
290
     0
176
     1
 90
       50
176
     1
 62
   256
176
     0
 40
1.0
176
     0
 90
        2
176
     1
  1
strokes_ogs.tif
176
     1
290
     0
176
     1
 40
1.0
176
     1
 40
1.0
176
     1
  0
VISUALSTYLE
  5
2C
102
{ACAD_REACTORS
330
2A
102
}
330
2A
100
AcDbVisualStyle
  2
FlatWithEdges
 70
     1
177
     3
291
     1
 70
    58
 90
        2
176
     1
 90
        1
176
     1
 90
        1
176
     1
 90
        2
176
     1
 40
0.6
176
     1
 40
30.0
176
     1
 62
     7
420
 16777215
176
     1
 90
        1
176
     1
 90
        0
176
     1
 62
     7
176
     1
 62
   257
176
     1
 90
        1
176
     1
 90
        1
176
     1
 40
1.0
176
     1
 90
        0
176
     1
 62
   257
176
     1
 40
1.0
176
     1
 90
        1
176
     1
 90
        6
176
     1
 90
        2
176
     1
 62
     7
176
     1
 90
        5
176
     1
 90
        0
176
     1
 90
        0
176
     1
290
     0
176
     1
 90
       13
176
     1
 40
0.0
176
     1
 90
        0
176
     1
290
     0
176
     1
290
     1
176
     1
290
     1
176
     1
290
     0
176
     1
290
     0
176
     1
290
     0
176
     1
290
     0
176
     1
290
     0
176
     1
290
     0
176
     1
 90
       50
176
     1
 40
0.0
176
     1
 40
1.0
176
     1
 90
        0
176
     1
 62
    18
420
        0
176
     1
 90
       50
176
     1
 90
        3
176
     1
 62
     5
420
      255
176
     1
290
     0
176
     1
 90
       50
176
     1
 90
       50
176
     1
 90
       50
176
     1
290
     0
176
     1
 90
       50
176
     1
 62
   256
176
     0
 40
1.0
176
     0
 90
        2
176
     1
  1
strokes_ogs.tif
176
     1
290
     0
176
     1
 40
1.0
176
     1
 40
1.0
176
     1
  0
VISUALSTYLE
  5
2D
102
{ACAD_REACTORS
330
2A
102
}
330
2A
100
AcDbVisualStyle
  2
Gouraud
 70
     2
177
     3
291
     1
 70
    58
 90
        2
176
     1
 90
        2
176
     1
 90
        1
176
     1
 90
        2
176
     1
 40
0.6
176
     1
 40
30.0
176
     1
 62
     7
420
 16777215
176
     1
 90
        0
176
     1
 90
        0
176
     1
 62
     7
176
     1
 62
   257
176
     1
 90
        1
176
     1
 90
        1
176
     1
 40
1.0
176
     1
 90
        0
176
     1
 62
     7
176
     1
 40
1.0
176
     1
 90
        1
176
     1
 90
        6
176
     1
 90
        2
176
     1
 62
     7
176
     1
 90
        5
176
     1
 90
        0
176
     1
 90
        0
176
     1
290
     0
176
     1
 90
       13
176
     1
 40
0.0
176
     1
 90
        0
176
     1
290
     0
176
     1
290
     1
176
     1
290
     1
176
     1
290
     0
176
     1
290
     0
176
     1
290
     0
176
     1
290
     0
176
     1
290
     0
176
     1
290
     0
176
     1
 90
       50
176
     1
 40
0.0
176
     1
 40
1.0
176
     1
 90
        0
176
     1
 62
    18
420
        0
176
     1
 90
       50
176
     1
 90
        3
176
     1
 62
     5
420
      255
176
     1
290
     0
176
     1
 90
       50
176
     1
 90
       50
176
     1
 90
       50
176
     1
290
     0
176
     1
 90
       50
176
     1
 62
   256
176
     0
 40
1.0
176
     0
 90
        2
176
     1
  1
strokes_ogs.tif
176
     1
290
     0
176
     1
 40
1.0
176
     1
 40
1.0
176
     1
  0
VISUALSTYLE
  5
2E
102
{ACAD_REACTORS
330
2A
102
}
330
2A
100
AcDbVisualStyle
  2
GouraudWithEdges
 70
     3
177
     3
291
     1
 70
    58
 90
        2
176
     1
 90
        2
176
     1
 90
        1
176
     1
 90
        2
176
     1
 40
0.6
176
     1
 40
30.0
176
     1
 62
     7
420
 16777215
176
     1
 90
        1
176
     1
 90
        0
176
     1
 62
     7
176
     1
 62
   257
176
     1
 90
        1
176
     1
 90
        1
176
     1
 40
1.0
176
     1
 90
        0
176
     1
 62
   257
176
     1
 40
1.0
176
     1
 90
        1
176
     1
 90
        6
176
     1
 90
        2
176
     1
 62
     7
176
     1
 90
        5
176
     1
 90
        0
176
     1
 90
        0
176
     1
290
     0
176
     1
 90
       13
176
     1
 40
0.0
176
     1
 90
        0
176
     1
290
     0
176
     1
290
     1
176
     1
290
     1
176
     1
290
     0
176
     1
290
     0
176
     1
290
     0
176
     1
290
     0
176
     1
290
     0
176
     1
290
     0
176
     1
 90
       50
176
     1
 40
0.0
176
     1
 40
1.0
176
     1
 90
        0
176
     1
 62
    18
420
        0
176
     1
 90
       50
176
     1
 90
        3
176
     1
 62
     5
420
      255
176
     1
290
     0
176
     1
 90
       50
176
     1
 90
       50
176
     1
 90
       50
176
     1
290
     0
176
     1
 90
       50
176
     1
 62
   256
176
     0
 40
1.0
176
     0
 90
        2
176
     1
  1
strokes_ogs.tif
176
     1
290
     0
176
     1
 40
1.0
176
     1
 40
1.0
176
     1
  0
VISUALSTYLE
  5
31
102
{ACAD_REACTORS
330
2A
102
}
330
2A
100
AcDbVisualStyle
  2
Hidden
 70
     6
177
     3
291
     0
 70
    58
 90
        1
176
     1
 90
        2
176
     1
 90
        2
176
     1
 90
        0
176
     1
 40
0.6
176
     1
 40
30.0
176
     1
 62
     7
420
 16777215
176
     1
 90
        2
176
     1
 90
        2
176
     1
 62
     7
176
     1
 62
   257
176
     1
 90
        2
176
     1
 90
        1
176
     1
 40
40.0
176
     1
 90
        0
176
     1
 62
   257
176
     1
 40
1.0
176
     1
 90
        1
176
     1
 90
        6
176
     1
 90
        2
176
     1
 62
     7
176
     1
 90
        3
176
     1
 90
        0
176
     1
 90
        0
176
     1
290
     0
176
     1
 90
        1
176
     1
 40
0.0
176
     1
 90
        0
176
     1
290
     0
176
     1
290
     1
176
     1
290
     1
176
     1
290
     0
176
     1
290
     0
176
     1
290
     0
176
     1
290
     0
176
     1
290
     0
176
     1
290
     0
176
     1
 90
       50
176
     1
 40
0.0
176
     1
 40
1.0
176
     1
 90
        0
176
     1
 62
    18
420
        0
176
     1
 90
       50
176
     1
 90
        3
176
     1
 62
     5
420
      255
176
     1
290
     0
176
     1
 90
       50
176
     1
 90
       50
176
     1
 90
       50
176
     1
290
     0
176
     1
 90
       50
176
     1
 62
   256
176
     0
 40
1.0
176
     0
 90
        2
176
     1
  1
strokes_ogs.tif
176
     1
290
     0
176
     1
 40
1.0
176
     1
 40
1.0
176
     1
  0
VISUALSTYLE
  5
3B
102
{ACAD_REACTORS
330
2A
102
}
330
2A
100
AcDbVisualStyle
  2
JitterOff
 70
    20
177
     3
291
     1
 70
    58
 90
        2
176
     0
 90
        2
176
     0
 90
        0
176
     0
 90
        0
176
     0
 40
0.6
176
     0
 40
30.0
176
     0
 62
     7
420
 16777215
176
     0
 90
        1
176
     0
 90
        4
176
     0
 62
     7
176
     0
 62
   257
176
     0
 90
        1
176
     0
 90
        1
176
     0
 40
1.0
176
     0
 90
       10
176
     2
 62
     7
176
     0
 40
1.0
176
     0
 90
        1
176
     0
 90
        6
176
     0
 90
        2
176
     0
 62
     7
176
     0
 90
        5
176
     0
 90
        0
176
     0
 90
        0
176
     0
290
     0
176
     0
 90
        1
176
     0
 40
0.0
176
     0
 90
        0
176
     0
290
     0
176
     0
290
     1
176
     0
290
     1
176
     0
290
     0
176
     0
290
     0
176
     0
290
     0
176
     0
290
     0
176
     0
290
     0
176
     0
290
     0
176
     0
 90
       50
176
     0
 40
0.0
176
     0
 40
1.0
176
     0
 90
        0
176
     0
 62
    18
420
        0
176
     0
 90
       50
176
     0
 90
        3
176
     0
 62
     5
420
      255
176
     0
290
     0
176
     0
 90
       50
176
     0
 90
       50
176
     0
 90
       50
176
     0
290
     0
176
     0
 90
       50
176
     0
 62
   256
176
     0
 40
1.0
176
     0
 90
        2
176
     0
  1
strokes_ogs.tif
176
     0
290
     0
176
     0
 40
1.0
176
     0
 40
1.0
176
     0
  0
VISUALSTYLE
  5
38
102
{ACAD_REACTORS
330
2A
102
}
330
2A
100
AcDbVisualStyle
  2
Linepattern
 70
    14
177
     3
291
     1
 70
    58
 90
        2
176
     1
 90
        2
176
     1
 90
        0
176
     1
 90
        0
176
     1
 40
0.6
176
     1
 40
30.0
176
     1
 62
     7
420
 16777215
176
     1
 90
        1
176
     1
 90
        4
176
     1
 62
     7
176
     1
 62
   257
176
     1
 90
        7
176
     1
 90
        7
176
     1
 40
1.0
176
     1
 90
        8
176
     1
 62
     7
176
     1
 40
1.0
176
     1
 90
        1
176
     1
 90
        6
176
     1
 90
        2
176
     1
 62
     7
176
     1
 90
        5
176
     1
 90
        0
176
     1
 90
        0
176
     1
290
     0
176
     1
 90
        1
176
     1
 40
0.0
176
     1
 90
        0
176
     1
290
     0
176
     1
290
     1
176
     1
290
     1
176
     1
290
     0
176
     1
290
     0
176
     1
290
     0
176
     1
290
     0
176
     1
290
     0
176
     1
290
     0
176
     1
 90
       50
176
     1
 40
0.0
176
     1
 40
1.0
176
     1
 90
        0
176
     1
 62
    18
420
        0
176
     1
 90
       50
176
     1
 90
        3
176
     1
 62
     5
420
      255
176
     1
290
     0
176
     1
 90
       50
176
     1
 90
       50
176
     1
 90
       50
176
     1
290
     0
176
     1
 90
       50
176
     1
 62
   256
176
     0
 40
1.0
176
     0
 90
        2
176
     1
  1
strokes_ogs.tif
176
     1
290
     0
176
     1
 40
1.0
176
     1
 40
1.0
176
     1
  0
VISUALSTYLE
  5
3C
102
{ACAD_REACTORS
330
2A
102
}
330
2A
100
AcDbVisualStyle
  2
OverhangOff
 70
    21
177
     3
291
     1
 70
    58
 90
        2
176
     0
 90
        2
176
     0
 90
        0
176
     0
 90
        0
176
     0
 40
0.6
176
     0
 40
30.0
176
     0
 62
     7
420
 16777215
176
     0
 90
        1
176
     0
 90
        4
176
     0
 62
     7
176
     0
 62
   257
176
     0
 90
        1
176
     0
 90
        1
176
     0
 40
1.0
176
     0
 90
        9
176
     2
 62
     7
176
     0
 40
1.0
176
     0
 90
        1
176
     0
 90
        6
176
     0
 90
        2
176
     0
 62
     7
176
     0
 90
        5
176
     0
 90
        0
176
     0
 90
        0
176
     0
290
     0
176
     0
 90
        1
176
     0
 40
0.0
176
     0
 90
        0
176
     0
290
     0
176
     0
290
     1
176
     0
290
     1
176
     0
290
     0
176
     0
290
     0
176
     0
290
     0
176
     0
290
     0
176
     0
290
     0
176
     0
290
     0
176
     0
 90
       50
176
     0
 40
0.0
176
     0
 40
1.0
176
     0
 90
        0
176
     0
 62
    18
420
        0
176
     0
 90
       50
176
     0
 90
        3
176
     0
 62
     5
420
      255
176
     0
290
     0
176
     0
 90
       50
176
     0
 90
       50
176
     0
 90
       50
176
     0
290
     0
176
     0
 90
       50
176
     0
 62
   256
176
     0
 40
1.0
176
     0
 90
        2
176
     0
  1
strokes_ogs.tif
176
     0
290
     0
176
     0
 40
1.0
176
     0
 40
1.0
176
     0
  0
VISUALSTYLE
  5
33
102
{ACAD_REACTORS
330
2A
102
}
330
2A
100
AcDbVisualStyle
  2
Realistic
 70
     8
177
     3
291
     0
 70
    58
 90
        2
176
     1
 90
        3
176
     1
 90
        0
176
     1
 90
        2
176
     1
 40
0.6
176
     1
 40
30.0
176
     1
 62
     7
420
 16777215
176
     1
 90
        0
176
     1
 90
        0
176
     1
 62
     7
176
     1
 62
   257
176
     1
 90
        1
176
     1
 90
        1
176
     1
 40
1.0
176
     1
 90
        8
176
     1
 62
   257
176
     1
 40
1.0
176
     1
 90
        1
176
     1
 90
        6
176
     1
 90
        2
176
     1
 62
     7
176
     1
 90
        3
176
     1
 90
        0
176
     1
 90
        0
176
     1
290
     0
176
     1
 90
       13
176
     1
 40
0.0
176
     1
 90
        0
176
     1
290
     0
176
     1
290
     1
176
     1
290
     1
176
     1
290
     0
176
     1
290
     0
176
     1
290
     0
176
     1
290
     0
176
     1
290
     0
176
     1
290
     0
176
     1
 90
       50
176
     1
 40
0.0
176
     1
 40
1.0
176
     1
 90
        0
176
     1
 62
    18
420
        0
176
     1
 90
       50
176
     1
 90
        3
176
     1
 62
     5
420
      255
176
     1
290
     0
176
     1
 90
       50
176
     1
 90
       50
176
     1
 90
       50
176
     1
290
     0
176
     1
 90
       50
176
     1
 62
   256
176
     0
 40
1.0
176
     0
 90
        2
176
     1
  1
strokes_ogs.tif
176
     1
290
     0
176
     1
 40
1.0
176
     1
 40
1.0
176
     1
  0
VISUALSTYLE
  5
42
102
{ACAD_REACTORS
330
2A
102
}
330
2A
100
AcDbVisualStyle
  2
Shaded
 70
    27
177
     3
291
     0
 70
    58
 90
        2
176
     1
 90
        2
176
     1
 90
        1
176
     1
 90
        2
176
     1
 40
0.6
176
     1
 40
30.0
176
     1
 62
     7
420
 16777215
176
     1
 90
        0
176
     1
 90
        4
176
     1
 62
     7
176
     1
 62
   257
176
     1
 90
        1
176
     1
 90
        1
176
     1
 40
1.0
176
     1
 90
        8
176
     1
 62
   257
176
     1
 40
1.0
176
     1
 90
        1
176
     1
 90
        6
176
     1
 90
        2
176
     1
 62
     8
420
  7895160
176
     1
 90
        3
176
     1
 90
        0
176
     1
 90
        0
176
     1
290
     0
176
     1
 90
        5
176
     1
 40
0.0
176
     1
 90
        0
176
     1
290
     0
176
     1
290
     1
176
     1
290
     1
176
     1
290
     0
176
     1
290
     0
176
     1
290
     0
176
     1
290
     0
176
     1
290
     0
176
     1
290
     0
176
     1
 90
       50
176
     1
 40
0.0
176
     1
 40
1.0
176
     1
 90
        0
176
     1
 62
    18
420
        0
176
     1
 90
       50
176
     1
 90
        3
176
     1
 62
     5
420
      255
176
     1
290
     0
176
     1
 90
       50
176
     1
 90
       50
176
     1
 90
       50
176
     1
290
     0
176
     1
 90
       50
176
     1
 62
   256
176
     0
 40
1.0
176
     0
 90
        2
176
     1
  1
strokes_ogs.tif
176
     1
290
     0
176
     1
 40
1.0
176
     1
 40
1.0
176
     1
  0
VISUALSTYLE
  5
41
102
{ACAD_REACTORS
330
2A
102
}
330
2A
100
AcDbVisualStyle
  2
Shaded with edges
 70
    26
177
     3
291
     0
 70
    58
 90
        2
176
     1
 90
        2
176
     1
 90
        1
176
     1
 90
        2
176
     1
 40
0.6
176
     1
 40
30.0
176
     1
 62
     7
420
 16777215
176
     1
 90
        1
176
     1
 90
       10
176
     1
 62
     7
176
     1
 62
   257
176
     1
 90
        2
176
     1
 90
        1
176
     1
 40
1.0
176
     1
 90
        8
176
     1
 62
   257
176
     1
 40
1.0
176
     1
 90
        1
176
     1
 90
        6
176
     1
 90
        2
176
     1
 62
     7
176
     1
 90
        3
176
     1
 90
        0
176
     1
 90
        0
176
     1
290
     0
176
     1
 90
        5
176
     1
 40
0.0
176
     1
 90
        0
176
     1
290
     0
176
     1
290
     1
176
     1
290
     1
176
     1
290
     0
176
     1
290
     0
176
     1
290
     0
176
     1
290
     0
176
     1
290
     0
176
     1
290
     0
176
     1
 90
       50
176
     1
 40
0.0
176
     1
 40
1.0
176
     1
 90
        0
176
     1
 62
    18
420
        0
176
     1
 90
       50
176
     1
 90
        3
176
     1
 62
     5
420
      255
176
     1
290
     0
176
     1
 90
       50
176
     1
 90
       50
176
     1
 90
       50
176
     1
290
     0
176
     1
 90
       50
176
     1
 62
   256
176
     0
 40
1.0
176
     0
 90
        2
176
     1
  1
strokes_ogs.tif
176
     1
290
     0
176
     1
 40
1.0
176
     1
 40
1.0
176
     1
  0
VISUALSTYLE
  5
3E
102
{ACAD_REACTORS
330
2A
102
}
330
2A
100
AcDbVisualStyle
  2
Shades of Gray
 70
    23
177
     3
291
     0
 70
    58
 90
        2
176
     1
 90
        2
176
     1
 90
        3
176
     1
 90
        0
176
     1
 40
0.6
176
     1
 40
30.0
176
     1
 62
     7
420
 16777215
176
     1
 90
        2
176
     1
 90
        2
176
     1
 62
     7
176
     1
 62
     7
176
     1
 90
        1
176
     1
 90
        1
176
     1
 40
40.0
176
     1
 90
        8
176
     1
 62
     7
176
     1
 40
1.0
176
     1
 90
        1
176
     1
 90
        6
176
     1
 90
        2
176
     1
 62
     7
176
     1
 90
        3
176
     1
 90
        0
176
     1
 90
        0
176
     1
290
     0
176
     1
 90
        1
176
     1
 40
0.0
176
     1
 90
        0
176
     1
290
     0
176
     1
290
     1
176
     1
290
     1
176
     1
290
     0
176
     1
290
     0
176
     1
290
     0
176
     1
290
     0
176
     1
290
     0
176
     1
290
     0
176
     1
 90
       50
176
     1
 40
0.0
176
     1
 40
1.0
176
     1
 90
        0
176
     1
 62
    18
420
        0
176
     1
 90
       50
176
     1
 90
        3
176
     1
 62
     5
420
      255
176
     1
290
     0
176
     1
 90
       50
176
     1
 90
       50
176
     1
 90
       50
176
     1
290
     0
176
     1
 90
       50
176
     1
 62
   256
176
     0
 40
1.0
176
     0
 90
        2
176
     1
  1
strokes_ogs.tif
176
     1
290
     0
176
     1
 40
1.0
176
     1
 40
1.0
176
     1
  0
VISUALSTYLE
  5
3F
102
{ACAD_REACTORS
330
2A
102
}
330
2A
100
AcDbVisualStyle
  2
Sketchy
 70
    24
177
     3
291
     0
 70
    58
 90
        1
176
     1
 90
        2
176
     1
 90
        2
176
     1
 90
        0
176
     1
 40
0.6
176
     1
 40
30.0
176
     1
 62
     7
420
 16777215
176
     1
 90
        2
176
     1
 90
        2
176
     1
 62
     7
176
     1
 62
     7
176
     1
 90
        1
176
     1
 90
        1
176
     1
 40
40.0
176
     1
 90
       11
176
     1
 62
     7
176
     1
 40
1.0
176
     1
 90
        1
176
     1
 90
        6
176
     1
 90
        2
176
     1
 62
     7
176
     1
 90
        6
176
     1
 90
        0
176
     1
 90
        0
176
     1
290
     0
176
     1
 90
        1
176
     1
 40
0.0
176
     1
 90
        0
176
     1
290
     0
176
     1
290
     1
176
     1
290
     1
176
     1
290
     0
176
     1
290
     0
176
     1
290
     0
176
     1
290
     0
176
     1
290
     0
176
     1
290
     0
176
     1
 90
       50
176
     1
 40
0.0
176
     1
 40
1.0
176
     1
 90
        0
176
     1
 62
    18
420
        0
176
     1
 90
       50
176
     1
 90
        3
176
     1
 62
     5
420
      255
176
     1
290
     0
176
     1
 90
       50
176
     1
 90
       50
176
     1
 90
       50
176
     1
290
     0
176
     1
 90
       50
176
     1
 62
   256
176
     0
 40
1.0
176
     0
 90
        2
176
     1
  1
strokes_ogs.tif
176
     1
290
     0
176
     1
 40
1.0
176
     1
 40
1.0
176
     1
  0
VISUALSTYLE
  5
37
102
{ACAD_REACTORS
330
2A
102
}
330
2A
100
AcDbVisualStyle
  2
Thicken
 70
    13
177
     3
291
     1
 70
    58
 90
        2
176
     1
 90
        2
176
     1
 90
        0
176
     1
 90
        0
176
     1
 40
0.6
176
     1
 40
30.0
176
     1
 62
     7
420
 16777215
176
     1
 90
        1
176
     1
 90
        4
176
     1
 62
     7
176
     1
 62
   257
176
     1
 90
        1
176
     1
 90
        1
176
     1
 40
1.0
176
     1
 90
       12
176
     1
 62
     7
176
     1
 40
1.0
176
     1
 90
        1
176
     1
 90
        6
176
     1
 90
        2
176
     1
 62
     7
176
     1
 90
        5
176
     1
 90
        0
176
     1
 90
        0
176
     1
290
     0
176
     1
 90
        1
176
     1
 40
0.0
176
     1
 90
        0
176
     1
290
     0
176
     1
290
     1
176
     1
290
     1
176
     1
290
     0
176
     1
290
     0
176
     1
290
     0
176
     1
290
     0
176
     1
290
     0
176
     1
290
     0
176
     1
 90
       50
176
     1
 40
0.0
176
     1
 40
1.0
176
     1
 90
        0
176
     1
 62
    18
420
        0
176
     1
 90
       50
176
     1
 90
        3
176
     1
 62
     5
420
      255
176
     1
290
     0
176
     1
 90
       50
176
     1
 90
       50
176
     1
 90
       50
176
     1
290
     0
176
     1
 90
       50
176
     1
 62
   256
176
     0
 40
1.0
176
     0
 90
        2
176
     1
  1
strokes_ogs.tif
176
     1
290
     0
176
     1
 40
1.0
176
     1
 40
1.0
176
     1
  0
VISUALSTYLE
  5
30
102
{ACAD_REACTORS
330
2A
102
}
330
2A
100
AcDbVisualStyle
  2
Wireframe
 70
     5
177
     3
291
     0
 70
    58
 90
        0
176
     1
 90
        2
176
     1
 90
        0
176
     1
 90
        0
176
     1
 40
0.6
176
     1
 40
30.0
176
     1
 62
     7
420
 16777215
176
     1
 90
        1
176
     1
 90
        4
176
     1
 62
     7
176
     1
 62
   257
176
     1
 90
        1
176
     1
 90
        1
176
     1
 40
1.0
176
     1
 90
        0
176
     1
 62
   257
176
     1
 40
1.0
176
     1
 90
        1
176
     1
 90
        6
176
     1
 90
        2
176
     1
 62
     7
176
     1
 90
        3
176
     1
 90
        0
176
     1
 90
        0
176
     1
290
     0
176
     1
 90
        1
176
     1
 40
0.0
176
     1
 90
        0
176
     1
290
     0
176
     1
290
     1
176
     1
290
     1
176
     1
290
     0
176
     1
290
     0
176
     1
290
     0
176
     1
290
     0
176
     1
290
     0
176
     1
290
     0
176
     1
 90
       50
176
     1
 40
0.0
176
     1
 40
1.0
176
     1
 90
        0
176
     1
 62
    18
420
        0
176
     1
 90
       50
176
     1
 90
        3
176
     1
 62
     5
420
      255
176
     1
290
     0
176
     1
 90
       50
176
     1
 90
       50
176
     1
 90
       50
176
     1
290
     0
176
     1
 90
       50
176
     1
 62
   256
176
     0
 40
1.0
176
     0
 90
        2
176
     1
  1
strokes_ogs.tif
176
     1
290
     0
176
     1
 40
1.0
176
     1
 40
1.0
176
     1
  0
VISUALSTYLE
  5
40
102
{ACAD_REACTORS
330
2A
102
}
330
2A
100
AcDbVisualStyle
  2
X-Ray
 70
    25
177
     3
291
     0
 70
    58
 90
        2
176
     1
 90
        2
176
     1
 90
        1
176
     1
 90
        1
176
     1
 40
0.5
176
     1
 40
30.0
176
     1
 62
     7
420
 16777215
176
     1
 90
        1
176
     1
 90
        0
176
     1
 62
     7
176
     1
 62
   257
176
     1
 90
        1
176
     1
 90
        1
176
     1
 40
1.0
176
     1
 90
        8
176
     1
 62
     7
176
     1
 40
1.0
176
     1
 90
        1
176
     1
 90
        6
176
     1
 90
        2
176
     1
 62
     7
176
     1
 90
        3
176
     1
 90
        0
176
     1
 90
        0
176
     1
290
     0
176
     1
 90
       13
176
     1
 40
0.0
176
     1
 90
        0
176
     1
290
     0
176
     1
290
     1
176
     1
290
     1
176
     1
290
     0
176
     1
290
     0
176
     1
290
     0
176
     1
290
     0
176
     1
290
     0
176
     1
290
     0
176
     1
 90
       50
176
     1
 40
0.0
176
     1
 40
1.0
176
     1
 90
        0
176
     1
 62
    18
420
        0
176
     1
 90
       50
176
     1
 90
        3
176
     1
 62
     5
420
      255
176
     1
290
     0
176
     1
 90
       50
176
     1
 90
       50
176
     1
 90
       50
176
     1
290
     0
176
     1
 90
       50
176
     1
 62
   256
176
     0
 40
1.0
176
     0
 90
        2
176
     1
  1
strokes_ogs.tif
176
     1
290
     0
176
     1
 40
1.0
176
     1
 40
1.0
176
     1
  0
DICTIONARYVAR
  5
1B3
102
{ACAD_REACTORS
330
1B2
102
}
330
1B2
100
DictionaryVariables
280
     0
  1
1:1
  0
DICTIONARYVAR
  5
1B8
102
{ACAD_REACTORS
330
1B2
102
}
330
1B2
100
DictionaryVariables
280
     0
  1
Standard
  0
DICTIONARYVAR
  5
1B7
102
{ACAD_REACTORS
330
1B2
102
}
330
1B2
100
DictionaryVariables
280
     0
  1
Standard
  0
DICTIONARY
  5
1B4
330
6A
100
AcDbDictionary
280
     1
281
     1
  3
ACAD_ROUNDTRIP_2008_TABLESTYLE_CELLSTYLEMAP
360
1B5
  0
CELLSTYLEMAP
  5
1B5
102
{ACAD_REACTORS
330
1B4
102
}
330
1B4
100
AcDbCellStyleMap
 90
        3
300
CELLSTYLE
  1
TABLEFORMAT_BEGIN
 90
        5
170
     1
 91
        0
 92
    32768
 62
   257
 93
        1
300
CONTENTFORMAT
  1
CONTENTFORMAT_BEGIN
 90
        0
 91
        0
 92
        4
 93
        0
300

 40
0.0
140
1.0
 94
        5
 62
     0
340
11
144
0.25
309
CONTENTFORMAT_END
171
     1
301
MARGIN
  1
CELLMARGIN_BEGIN
 40
0.06
 40
0.06
 40
0.06
 40
0.06
 40
0.06
 40
0.06
309
CELLMARGIN_END
 94
        6
 95
        1
302
GRIDFORMAT
  1
GRIDFORMAT_BEGIN
 90
        0
 91
        1
 62
     0
 92
       -2
340
14
 93
        0
 40
0.045
309
GRIDFORMAT_END
 95
        2
302
GRIDFORMAT
  1
GRIDFORMAT_BEGIN
 90
        0
 91
        1
 62
     0
 92
       -2
340
14
 93
        0
 40
0.045
309
GRIDFORMAT_END
 95
        4
302
GRIDFORMAT
  1
GRIDFORMAT_BEGIN
 90
        0
 91
        1
 62
     0
 92
       -2
340
14
 93
        0
 40
0.045
309
GRIDFORMAT_END
 95
        8
302
GRIDFORMAT
  1
GRIDFORMAT_BEGIN
 90
        0
 91
        1
 62
     0
 92
       -2
340
14
 93
        0
 40
0.045
309
GRIDFORMAT_END
 95
       16
302
GRIDFORMAT
  1
GRIDFORMAT_BEGIN
 90
        0
 91
        1
 62
     0
 92
       -2
340
14
 93
        0
 40
0.045
309
GRIDFORMAT_END
 95
       32
302
GRIDFORMAT
  1
GRIDFORMAT_BEGIN
 90
        0
 91
        1
 62
     0
 92
       -2
340
14
 93
        0
 40
0.045
309
GRIDFORMAT_END
309
TABLEFORMAT_END
  1
CELLSTYLE_BEGIN
 90
        1
 91
        1
300
_TITLE
309
CELLSTYLE_END
300
CELLSTYLE
  1
TABLEFORMAT_BEGIN
 90
        5
170
     1
 91
        0
 92
        0
 62
   257
 93
        1
300
CONTENTFORMAT
  1
CONTENTFORMAT_BEGIN
 90
        0
 91
        0
 92
        4
 93
        0
300

 40
0.0
140
1.0
 94
        5
 62
     0
340
11
144
0.18
309
CONTENTFORMAT_END
171
     1
301
MARGIN
  1
CELLMARGIN_BEGIN
 40
0.06
 40
0.06
 40
0.06
 40
0.06
 40
0.06
 40
0.06
309
CELLMARGIN_END
 94
        6
 95
        1
302
GRIDFORMAT
  1
GRIDFORMAT_BEGIN
 90
        0
 91
        1
 62
     0
 92
       -2
340
14
 93
        0
 40
0.045
309
GRIDFORMAT_END
 95
        2
302
GRIDFORMAT
  1
GRIDFORMAT_BEGIN
 90
        0
 91
        1
 62
     0
 92
       -2
340
14
 93
        0
 40
0.045
309
GRIDFORMAT_END
 95
        4
302
GRIDFORMAT
  1
GRIDFORMAT_BEGIN
 90
        0
 91
        1
 62
     0
 92
       -2
340
14
 93
        0
 40
0.045
309
GRIDFORMAT_END
 95
        8
302
GRIDFORMAT
  1
GRIDFORMAT_BEGIN
 90
        0
 91
        1
 62
     0
 92
       -2
340
14
 93
        0
 40
0.045
309
GRIDFORMAT_END
 95
       16
302
GRIDFORMAT
  1
GRIDFORMAT_BEGIN
 90
        0
 91
        1
 62
     0
 92
       -2
340
14
 93
        0
 40
0.045
309
GRIDFORMAT_END
 95
       32
302
GRIDFORMAT
  1
GRIDFORMAT_BEGIN
 90
        0
 91
        1
 62
     0
 92
       -2
340
14
 93
        0
 40
0.045
309
GRIDFORMAT_END
309
TABLEFORMAT_END
  1
CELLSTYLE_BEGIN
 90
        2
 91
        1
300
_HEADER
309
CELLSTYLE_END
300
CELLSTYLE
  1
TABLEFORMAT_BEGIN
 90
        5
170
     1
 91
        0
 92
        0
 62
   257
 93
        1
300
CONTENTFORMAT
  1
CONTENTFORMAT_BEGIN
 90
        0
 91
        0
 92
        4
 93
        0
300

 40
0.0
140
1.0
 94
        2
 62
     0
340
11
144
0.18
309
CONTENTFORMAT_END
171
     1
301
MARGIN
  1
CELLMARGIN_BEGIN
 40
0.06
 40
0.06
 40
0.06
 40
0.06
 40
0.06
 40
0.06
309
CELLMARGIN_END
 94
        6
 95
        1
302
GRIDFORMAT
  1
GRIDFORMAT_BEGIN
 90
        0
 91
        1
 62
     0
 92
       -2
340
14
 93
        0
 40
0.045
309
GRIDFORMAT_END
 95
        2
302
GRIDFORMAT
  1
GRIDFORMAT_BEGIN
 90
        0
 91
        1
 62
     0
 92
       -2
340
14
 93
        0
 40
0.045
309
GRIDFORMAT_END
 95
        4
302
GRIDFORMAT
  1
GRIDFORMAT_BEGIN
 90
        0
 91
        1
 62
     0
 92
       -2
340
14
 93
        0
 40
0.045
309
GRIDFORMAT_END
 95
        8
302
GRIDFORMAT
  1
GRIDFORMAT_BEGIN
 90
        0
 91
        1
 62
     0
 92
       -2
340
14
 93
        0
 40
0.045
309
GRIDFORMAT_END
 95
       16
302
GRIDFORMAT
  1
GRIDFORMAT_BEGIN
 90
        0
 91
        1
 62
     0
 92
       -2
340
14
 93
        0
 40
0.045
309
GRIDFORMAT_END
 95
       32
302
GRIDFORMAT
  1
GRIDFORMAT_BEGIN
 90
        0
 91
        1
 62
     0
 92
       -2
340
14
 93
        0
 40
0.045
309
GRIDFORMAT_END
309
TABLEFORMAT_END
  1
CELLSTYLE_BEGIN
 90
        3
 91
        2
300
_DATA
309
CELLSTYLE_END
  0
ENDSEC
  0
EOF