0
SECTION
  2
HEADER
  9
$ACADVER
  1
AC1027
  9
$ACADMAINTVER
 70
     8
  9
$DWGCODEPAGE
  3
ANSI_1252
  9
$REQUIREDVERSIONS
160
                 0
  9
$COMMENTS
  1
File was created by Cadenas
  9
$CUSTOMPROPERTYTAG
  1
NN
  9
$CUSTOMPROPERTY
  1
Grip Tight Two-Bolt Pillow Block Inch Bore
  9
$CUSTOMPROPERTYTAG
  1
NT
  9
$CUSTOMPROPERTY
  1
GT Normal Duty Pillow Blocks
  9
$CUSTOMPROPERTYTAG
  1
NB
  9
$CUSTOMPROPERTY
  1
129163
  9
$CUSTOMPROPERTYTAG
  1
NBSYN
  9
$CUSTOMPROPERTY
  1
$PN.$LUBE.
  9
$CUSTOMPROPERTYTAG
  1
LINA
  9
$CUSTOMPROPERTY
  1
129163
  9
$CUSTOMPROPERTYTAG
  1
SERIES
  9
$CUSTOMPROPERTY
  1
207
  9
$CUSTOMPROPERTYTAG
  1
SS
  9
$CUSTOMPROPERTY
  1
1-7/16
  9
$CUSTOMPROPERTYTAG
  1
PN
  9
$CUSTOMPROPERTY
  1
129163
  9
$CUSTOMPROPERTYTAG
  1
DESCRIPTION
  9
$CUSTOMPROPERTY
  1
P2B-GT-107
  9
$CUSTOMPROPERTYTAG
  1
A
  9
$CUSTOMPROPERTY
  1
1-5/8
  9
$CUSTOMPROPERTYTAG
  1
B
  9
$CUSTOMPROPERTY
  1
6-1/2
  9
$CUSTOMPROPERTYTAG
  1
C
  9
$CUSTOMPROPERTY
  1
1-47/64
  9
$CUSTOMPROPERTYTAG
  1
DMIN
  9
$CUSTOMPROPERTY
  1
4-11/16
  9
$CUSTOMPROPERTYTAG
  1
DMAX
  9
$CUSTOMPROPERTY
  1
5-7/16
  9
$CUSTOMPROPERTYTAG
  1
F
  9
$CUSTOMPROPERTY
  1
1/2
  9
$CUSTOMPROPERTYTAG
  1
G
  9
$CUSTOMPROPERTY
  1
15/16
  9
$CUSTOMPROPERTYTAG
  1
H
  9
$CUSTOMPROPERTY
  1
45/64
  9
$CUSTOMPROPERTYTAG
  1
J
  9
$CUSTOMPROPERTY
  1
3-3/4
  9
$CUSTOMPROPERTYTAG
  1
L
  9
$CUSTOMPROPERTY
  1
2-19/64
  9
$CUSTOMPROPERTYTAG
  1
M
  9
$CUSTOMPROPERTY
  1
1-7/8
  9
$CUSTOMPROPERTYTAG
  1
R
  9
$CUSTOMPROPERTY
  1
9/16
  9
$CUSTOMPROPERTYTAG
  1
S
  9
$CUSTOMPROPERTY
  1
1-1/16
  9
$CUSTOMPROPERTYTAG
  1
U
  9
$CUSTOMPROPERTY
  1
2-29/32
  9
$CUSTOMPROPERTYTAG
  1
V
  9
$CUSTOMPROPERTY
  1
5-13/16
  9
$CUSTOMPROPERTYTAG
  1
W
  9
$CUSTOMPROPERTY
  1
9/16
  9
$CUSTOMPROPERTYTAG
  1
X
  9
$CUSTOMPROPERTY
  1
3/16
  9
$CUSTOMPROPERTYTAG
  1
Z
  9
$CUSTOMPROPERTY
  1
1-3/64
  9
$CUSTOMPROPERTYTAG
  1
COMPANY
  9
$CUSTOMPROPERTY
  1
baldor
  9
$INSBASE
 10
0.0
 20
0.0
 30
0.0
  9
$EXTMIN
 10
1.000000000000000E+20
 20
1.000000000000000E+20
 30
1.000000000000000E+20
  9
$EXTMAX
 10
-1.000000000000000E+20
 20
-1.000000000000000E+20
 30
-1.000000000000000E+20
  9
$LIMMIN
 10
0.0
 20
0.0
  9
$LIMMAX
 10
12.0
 20
9.0
  9
$ORTHOMODE
 70
     0
  9
$REGENMODE
 70
     1
  9
$FILLMODE
 70
     1
  9
$QTEXTMODE
 70
     0
  9
$MIRRTEXT
 70
     1
  9
$LTSCALE
 40
1.0
  9
$ATTMODE
 70
     1
  9
$TEXTSIZE
 40
0.2
  9
$TRACEWID
 40
0.05
  9
$TEXTSTYLE
  7
Standard
  9
$CLAYER
  8
0
  9
$CELTYPE
  6
ByLayer
  9
$CECOLOR
 62
   256
  9
$CELTSCALE
 40
1.0
  9
$DISPSILH
 70
     0
  9
$DIMSCALE
 40
1.0
  9
$DIMASZ
 40
0.18
  9
$DIMEXO
 40
0.0625
  9
$DIMDLI
 40
0.38
  9
$DIMRND
 40
0.0
  9
$DIMDLE
 40
0.0
  9
$DIMEXE
 40
0.18
  9
$DIMTP
 40
0.0
  9
$DIMTM
 40
0.0
  9
$DIMTXT
 40
0.18
  9
$DIMCEN
 40
0.09
  9
$DIMTSZ
 40
0.0
  9
$DIMTOL
 70
     0
  9
$DIMLIM
 70
     0
  9
$DIMTIH
 70
     1
  9
$DIMTOH
 70
     1
  9
$DIMSE1
 70
     0
  9
$DIMSE2
 70
     0
  9
$DIMTAD
 70
     0
  9
$DIMZIN
 70
     0
  9
$DIMBLK
  1

  9
$DIMASO
 70
     1
  9
$DIMSHO
 70
     1
  9
$DIMPOST
  1

  9
$DIMAPOST
  1

  9
$DIMALT
 70
     0
  9
$DIMALTD
 70
     2
  9
$DIMALTF
 40
25.4
  9
$DIMLFAC
 40
1.0
  9
$DIMTOFL
 70
     0
  9
$DIMTVP
 40
0.0
  9
$DIMTIX
 70
     0
  9
$DIMSOXD
 70
     0
  9
$DIMSAH
 70
     0
  9
$DIMBLK1
  1

  9
$DIMBLK2
  1

  9
$DIMSTYLE
  2
Standard
  9
$DIMCLRD
 70
     0
  9
$DIMCLRE
 70
     0
  9
$DIMCLRT
 70
     0
  9
$DIMTFAC
 40
1.0
  9
$DIMGAP
 40
0.09
  9
$DIMJUST
 70
     0
  9
$DIMSD1
 70
     0
  9
$DIMSD2
 70
     0
  9
$DIMTOLJ
 70
     1
  9
$DIMTZIN
 70
     0
  9
$DIMALTZ
 70
     0
  9
$DIMALTTZ
 70
     0
  9
$DIMUPT
 70
     0
  9
$DIMDEC
 70
     4
  9
$DIMTDEC
 70
     4
  9
$DIMALTU
 70
     2
  9
$DIMALTTD
 70
     2
  9
$DIMTXSTY
  7
Standard
  9
$DIMAUNIT
 70
     0
  9
$DIMADEC
 70
     0
  9
$DIMALTRND
 40
0.0
  9
$DIMAZIN
 70
     0
  9
$DIMDSEP
 70
    46
  9
$DIMATFIT
 70
     3
  9
$DIMFRAC
 70
     0
  9
$DIMLDRBLK
  1

  9
$DIMLUNIT
 70
     2
  9
$DIMLWD
 70
    -2
  9
$DIMLWE
 70
    -2
  9
$DIMTMOVE
 70
     0
  9
$DIMFXL
 40
1.0
  9
$DIMFXLON
 70
     0
  9
$DIMJOGANG
 40
0.7853981633974483
  9
$DIMTFILL
 70
     0
  9
$DIMTFILLCLR
 70
     0
  9
$DIMARCSYM
 70
     0
  9
$DIMLTYPE
  6

  9
$DIMLTEX1
  6

  9
$DIMLTEX2
  6

  9
$DIMTXTDIRECTION
 70
     0
  9
$LUNITS
 70
     2
  9
$LUPREC
 70
     4
  9
$SKETCHINC
 40
0.1
  9
$FILLETRAD
 40
0.5
  9
$AUNITS
 70
     0
  9
$AUPREC
 70
     0
  9
$MENU
  1
.
  9
$ELEVATION
 40
0.0
  9
$PELEVATION
 40
0.0
  9
$THICKNESS
 40
0.0
  9
$LIMCHECK
 70
     0
  9
$CHAMFERA
 40
0.0
  9
$CHAMFERB
 40
0.0
  9
$CHAMFERC
 40
0.0
  9
$CHAMFERD
 40
0.0
  9
$SKPOLY
 70
     0
  9
$TDCREATE
 40
2458168.96455588
  9
$TDUCREATE
 40
2458168.922889213
  9
$TDUPDATE
 40
2458168.964556065
  9
$TDUUPDATE
 40
2458168.922889398
  9
$TDINDWG
 40
0.0000000116
  9
$TDUSRTIMER
 40
0.0000000116
  9
$USRTIMER
 70
     1
  9
$ANGBASE
 50
0.0
  9
$ANGDIR
 70
     0
  9
$PDMODE
 70
     0
  9
$PDSIZE
 40
0.0
  9
$PLINEWID
 40
0.0
  9
$SPLFRAME
 70
     0
  9
$SPLINETYPE
 70
     6
  9
$SPLINESEGS
 70
     8
  9
$HANDSEED
  5
1B6
  9
$SURFTAB1
 70
     6
  9
$SURFTAB2
 70
     6
  9
$SURFTYPE
 70
     6
  9
$SURFU
 70
     6
  9
$SURFV
 70
     6
  9
$UCSBASE
  2

  9
$UCSNAME
  2

  9
$UCSORG
 10
0.0
 20
0.0
 30
0.0
  9
$UCSXDIR
 10
1.0
 20
0.0
 30
0.0
  9
$UCSYDIR
 10
0.0
 20
1.0
 30
0.0
  9
$UCSORTHOREF
  2

  9
$UCSORTHOVIEW
 70
     0
  9
$UCSORGTOP
 10
0.0
 20
0.0
 30
0.0
  9
$UCSORGBOTTOM
 10
0.0
 20
0.0
 30
0.0
  9
$UCSORGLEFT
 10
0.0
 20
0.0
 30
0.0
  9
$UCSORGRIGHT
 10
0.0
 20
0.0
 30
0.0
  9
$UCSORGFRONT
 10
0.0
 20
0.0
 30
0.0
  9
$UCSORGBACK
 10
0.0
 20
0.0
 30
0.0
  9
$PUCSBASE
  2

  9
$PUCSNAME
  2

  9
$PUCSORG
 10
0.0
 20
0.0
 30
0.0
  9
$PUCSXDIR
 10
1.0
 20
0.0
 30
0.0
  9
$PUCSYDIR
 10
0.0
 20
1.0
 30
0.0
  9
$PUCSORTHOREF
  2

  9
$PUCSORTHOVIEW
 70
     0
  9
$PUCSORGTOP
 10
0.0
 20
0.0
 30
0.0
  9
$PUCSORGBOTTOM
 10
0.0
 20
0.0
 30
0.0
  9
$PUCSORGLEFT
 10
0.0
 20
0.0
 30
0.0
  9
$PUCSORGRIGHT
 10
0.0
 20
0.0
 30
0.0
  9
$PUCSORGFRONT
 10
0.0
 20
0.0
 30
0.0
  9
$PUCSORGBACK
 10
0.0
 20
0.0
 30
0.0
  9
$USERI1
 70
     0
  9
$USERI2
 70
     0
  9
$USERI3
 70
     0
  9
$USERI4
 70
     0
  9
$USERI5
 70
     0
  9
$USERR1
 40
0.0
  9
$USERR2
 40
0.0
  9
$USERR3
 40
0.0
  9
$USERR4
 40
0.0
  9
$USERR5
 40
0.0
  9
$WORLDVIEW
 70
     1
  9
$SHADEDGE
 70
     3
  9
$SHADEDIF
 70
    70
  9
$TILEMODE
 70
     1
  9
$MAXACTVP
 70
    64
  9
$PINSBASE
 10
0.0
 20
0.0
 30
0.0
  9
$PLIMCHECK
 70
     0
  9
$PEXTMIN
 10
1.000000000000000E+20
 20
1.000000000000000E+20
 30
1.000000000000000E+20
  9
$PEXTMAX
 10
-1.000000000000000E+20
 20
-1.000000000000000E+20
 30
-1.000000000000000E+20
  9
$PLIMMIN
 10
0.0
 20
0.0
  9
$PLIMMAX
 10
12.0
 20
9.0
  9
$UNITMODE
 70
     0
  9
$VISRETAIN
 70
     1
  9
$PLINEGEN
 70
     0
  9
$PSLTSCALE
 70
     1
  9
$TREEDEPTH
 70
  3020
  9
$CMLSTYLE
  2
Standard
  9
$CMLJUST
 70
     0
  9
$CMLSCALE
 40
1.0
  9
$PROXYGRAPHICS
 70
     1
  9
$MEASUREMENT
 70
     0
  9
$CELWEIGHT
370
    -1
  9
$ENDCAPS
280
     0
  9
$JOINSTYLE
280
     0
  9
$LWDISPLAY
290
     0
  9
$INSUNITS
 70
     1
  9
$HYPERLINKBASE
  1

  9
$STYLESHEET
  1

  9
$XEDIT
290
     1
  9
$CEPSNTYPE
380
     0
  9
$PSTYLEMODE
290
     1
  9
$FINGERPRINTGUID
  2
{ABDEAF63-2018-4E9E-8631-6CA109C5FE7F}
  9
$VERSIONGUID
  2
{FAEB1C32-E019-11D5-929B-00C0DF256EC4}
  9
$EXTNAMES
290
     1
  9
$PSVPSCALE
 40
0.0
  9
$OLESTARTUP
290
     0
  9
$SORTENTS
280
   127
  9
$INDEXCTL
280
     0
  9
$HIDETEXT
280
     1
  9
$XCLIPFRAME
280
     2
  9
$HALOGAP
280
     0
  9
$OBSCOLOR
 70
   257
  9
$OBSLTYPE
280
     0
  9
$INTERSECTIONDISPLAY
280
     0
  9
$INTERSECTIONCOLOR
 70
   257
  9
$DIMASSOC
280
     2
  9
$PROJECTNAME
  1

  9
$CAMERADISPLAY
290
     0
  9
$LENSLENGTH
 40
50.0
  9
$CAMERAHEIGHT
 40
0.0
  9
$STEPSPERSEC
 40
2.0
  9
$STEPSIZE
 40
6.0
  9
$3DDWFPREC
 40
2.0
  9
$PSOLWIDTH
 40
0.25
  9
$PSOLHEIGHT
 40
4.0
  9
$LOFTANG1
 40
1.570796326794897
  9
$LOFTANG2
 40
1.570796326794897
  9
$LOFTMAG1
 40
0.0
  9
$LOFTMAG2
 40
0.0
  9
$LOFTPARAM
 70
     7
  9
$LOFTNORMALS
280
     1
  9
$LATITUDE
 40
37.795
  9
$LONGITUDE
 40
-122.394
  9
$NORTHDIRECTION
 40
0.0
  9
$TIMEZONE
 70
 -8000
  9
$LIGHTGLYPHDISPLAY
280
     1
  9
$TILEMODELIGHTSYNCH
280
     1
  9
$CMATERIAL
347
44
  9
$SOLIDHIST
280
     0
  9
$SHOWHIST
280
     1
  9
$DWFFRAME
280
     2
  9
$DGNFRAME
280
     2
  9
$REALWORLDSCALE
290
     1
  9
$INTERFERECOLOR
 62
   256
  9
$CSHADOW
280
     0
  9
$SHADOWPLANELOCATION
 40
0.0
  0
ENDSEC
  0
SECTION
  2
CLASSES
  0
CLASS
  1
ACDBDICTIONARYWDFLT
  2
AcDbDictionaryWithDefault
  3
ObjectDBX Classes
 90
        0
 91
        4
280
     0
281
     0
  0
CLASS
  1
VISUALSTYLE
  2
AcDbVisualStyle
  3
ObjectDBX Classes
 90
     4095
 91
        4
280
     0
281
     0
  0
CLASS
  1
MATERIAL
  2
AcDbMaterial
  3
ObjectDBX Classes
 90
     1153
 91
        4
280
     0
281
     0
  0
CLASS
  1
SCALE
  2
AcDbScale
  3
ObjectDBX Classes
 90
     1153
 91
        4
280
     0
281
     0
  0
CLASS
  1
TABLESTYLE
  2
AcDbTableStyle
  3
ObjectDBX Classes
 90
     4095
 91
        4
280
     0
281
     0
  0
CLASS
  1
MLEADERSTYLE
  2
AcDbMLeaderStyle
  3
ACDB_MLEADERSTYLE_CLASS
 90
     4095
 91
        4
280
     0
281
     0
  0
CLASS
  1
SUN
  2
AcDbSun
  3
SCENEOE
 90
     1153
 91
        4
280
     0
281
     0
  0
CLASS
  1
DICTIONARYVAR
  2
AcDbDictionaryVar
  3
ObjectDBX Classes
 90
        0
 91
        4
280
     0
281
     0
  0
CLASS
  1
CELLSTYLEMAP
  2
AcDbCellStyleMap
  3
ObjectDBX Classes
 90
     1152
 91
        4
280
     0
281
     0
  0
ENDSEC
  0
SECTION
  2
TABLES
  0
TABLE
  2
VPORT
  5
8
330
0
100
AcDbSymbolTable
 70
     1
  0
VPORT
  5
29
330
8
100
AcDbSymbolTableRecord
100
AcDbViewportTableRecord
  2
*Active
 70
     0
 10
0.0
 20
0.0
 11
1.0
 21
1.0
 12
0.0
 22
0.4453125
 13
0.0
 23
0.0
 14
0.5
 24
0.5
 15
0.5
 25
0.5
 16
0.0
 26
0.0
 36
1.0
 17
0.0
 27
0.0
 37
0.0
 40
4.7334375
 41
1.400673400673401
 42
50.0
 43
0.0
 44
0.0
 50
0.0
 51
0.0
 71
     0
 72
   100
 73
     1
 74
     3
 75
     0
 76
     0
 77
     0
 78
     0
281
     0
 65
     1
110
0.0
120
0.0
130
0.0
111
1.0
121
0.0
131
0.0
112
0.0
122
1.0
132
0.0
 79
     0
146
0.0
348
2F
 60
     3
 61
     5
292
     1
282
     1
141
0.0
142
0.0
 63
   250
361
6D
  0
ENDTAB
  0
TABLE
  2
LTYPE
  5
5
330
0
100
AcDbSymbolTable
 70
     3
  0
LTYPE
  5
14
330
5
100
AcDbSymbolTableRecord
100
AcDbLinetypeTableRecord
  2
ByBlock
 70
     0
  3

 72
    65
 73
     0
 40
0.0
  0
LTYPE
  5
15
330
5
100
AcDbSymbolTableRecord
100
AcDbLinetypeTableRecord
  2
ByLayer
 70
     0
  3

 72
    65
 73
     0
 40
0.0
  0
LTYPE
  5
16
330
5
100
AcDbSymbolTableRecord
100
AcDbLinetypeTableRecord
  2
Continuous
 70
     0
  3
Solid line
 72
    65
 73
     0
 40
0.0
  0
LTYPE
  5
A5
330
5
100
AcDbSymbolTableRecord
100
AcDbLinetypeTableRecord
  2
Dashed
 70
     0
  3

 72
    65
 73
     2
 40
2.0
 49
1.0
 74
     0
 49
-1.0
 74
     0
  0
LTYPE
  5
AF
330
5
100
AcDbSymbolTableRecord
100
AcDbLinetypeTableRecord
  2
Center
 70
     0
  3

 72
    65
 73
     4
 40
1.5
 49
0.45
 74
     0
 49
-0.5
 74
     0
 49
0.05
 74
     0
 49
-0.5
 74
     0
  0
ENDTAB
  0
TABLE
  2
LAYER
  5
2
330
0
100
AcDbSymbolTable
 70
     7
  0
LAYER
  5
10
330
2
100
AcDbSymbolTableRecord
100
AcDbLayerTableRecord
  2
0
 70
     0
 62
     7
  6
Continuous
370
    -3
390
F
347
46
348
0
  0
LAYER
  5
72
330
2
100
AcDbSymbolTableRecord
100
AcDbLayerTableRecord
  2
AM_6
 70
     0
 62
    -2
  6
Continuous
370
    35
390
F
347
46
348
0
  0
LAYER
  5
A6
330
2
100
AcDbSymbolTableRecord
100
AcDbLayerTableRecord
  2
AM_9
 70
     0
 62
     6
  6
Dashed
370
    25
390
F
347
46
348
0
  0
LAYER
  5
B0
330
2
100
AcDbSymbolTableRecord
100
AcDbLayerTableRecord
  2
AM_7
 70
     0
 62
     7
  6
Center
370
    25
390
F
347
46
348
0
  0
LAYER
  5
B3
330
2
100
AcDbSymbolTableRecord
100
AcDbLayerTableRecord
  2
AM_4
 70
     0
 62
     3
  6
Continuous
370
    25
390
F
347
46
348
0
  0
LAYER
  5
E1
330
2
100
AcDbSymbolTableRecord
100
AcDbLayerTableRecord
  2
AM_5
 70
     0
 62
     3
  6
Continuous
370
    25
390
F
347
46
348
0
  0
LAYER
  5
1A8
330
2
100
AcDbSymbolTableRecord
100
AcDbLayerTableRecord
  2
ConnectionPoints
 70
     0
 62
     7
  6
Continuous
370
    50
390
F
347
46
348
0
  0
ENDTAB
  0
TABLE
  2
STYLE
  5
3
330
0
100
AcDbSymbolTable
 70
     1
  0
STYLE
  5
11
330
3
100
AcDbSymbolTableRecord
100
AcDbTextStyleTableRecord
  2
Standard
 70
     0
 40
0.0
 41
1.0
 50
0.0
 71
     0
 42
0.2
  3
txt
  4

  0
ENDTAB
  0
TABLE
  2
VIEW
  5
6
330
0
100
AcDbSymbolTable
 70
     0
  0
ENDTAB
  0
TABLE
  2
UCS
  5
7
330
0
100
AcDbSymbolTable
 70
     0
  0
ENDTAB
  0
TABLE
  2
APPID
  5
9
330
0
100
AcDbSymbolTable
 70
     1
  0
APPID
  5
12
330
9
100
AcDbSymbolTableRecord
100
AcDbRegAppTableRecord
  2
ACAD
 70
     0
  0
ENDTAB
  0
TABLE
  2
DIMSTYLE
  5
A
330
0
100
AcDbSymbolTable
 70
     1
100
AcDbDimStyleTable
  0
DIMSTYLE
105
27
330
A
100
AcDbSymbolTableRecord
100
AcDbDimStyleTableRecord
  2
Standard
 70
     0
178
     0
340
11
  0
ENDTAB
  0
TABLE
  2
BLOCK_RECORD
  5
1
330
0
100
AcDbSymbolTable
 70
     5
  0
BLOCK_RECORD
  5
1F
330
1
100
AcDbSymbolTableRecord
100
AcDbBlockTableRecord
  2
*Model_Space
340
22
 70
     0
280
     1
281
     0
  0
BLOCK_RECORD
  5
1B
330
1
100
AcDbSymbolTableRecord
100
AcDbBlockTableRecord
  2
*Paper_Space
340
1E
 70
     0
280
     1
281
     0
  0
BLOCK_RECORD
  5
23
330
1
100
AcDbSymbolTableRecord
100
AcDbBlockTableRecord
  2
*Paper_Space0
340
26
 70
     0
280
     1
281
     0
  0
BLOCK_RECORD
  5
6E
330
1
100
AcDbSymbolTableRecord
100
AcDbBlockTableRecord
  2
1_129163_0
340
0
102
{BLKREFS
331
6F
102
}
 70
     0
280
     1
281
     0
  0
BLOCK_RECORD
  5
8F
330
1
100
AcDbSymbolTableRecord
100
AcDbBlockTableRecord
  2
2_129520I_0_in_129163_0
340
0
102
{BLKREFS
331
90
102
}
 70
     0
280
     1
281
     0
  0
BLOCK_RECORD
  5
B9
330
1
100
AcDbSymbolTableRecord
100
AcDbBlockTableRecord
  2
3_129913_0_in_129163_0
340
0
102
{BLKREFS
331
BA
102
}
 70
     0
280
     1
281
     0
  0
BLOCK_RECORD
  5
FB
330
1
100
AcDbSymbolTableRecord
100
AcDbBlockTableRecord
  2
4_129424I_0_in_129163_0
340
0
102
{BLKREFS
331
FC
102
}
 70
     0
280
     1
281
     0
  0
ENDTAB
  0
ENDSEC
  0
SECTION
  2
BLOCKS
  0
BLOCK
  5
20
330
1F
100
AcDbEntity
  8
0
100
AcDbBlockBegin
  2
*Model_Space
 70
     0
 10
0.0
 20
0.0
 30
0.0
  3
*Model_Space
  1

  0
ENDBLK
  5
21
330
1F
100
AcDbEntity
  8
0
100
AcDbBlockEnd
  0
BLOCK
  5
1C
330
1B
100
AcDbEntity
 67
     1
  8
0
100
AcDbBlockBegin
  2
*Paper_Space
 70
     0
 10
0.0
 20
0.0
 30
0.0
  3
*Paper_Space
  1

  0
ENDBLK
  5
1D
330
1B
100
AcDbEntity
 67
     1
  8
0
100
AcDbBlockEnd
  0
BLOCK
  5
24
330
23
100
AcDbEntity
  8
0
100
AcDbBlockBegin
  2
*Paper_Space0
 70
     0
 10
0.0
 20
0.0
 30
0.0
  3
*Paper_Space0
  1

  0
ENDBLK
  5
25
330
23
100
AcDbEntity
  8
0
100
AcDbBlockEnd
  0
BLOCK
  5
70
330
6E
100
AcDbEntity
  8
0
100
AcDbBlockBegin
  2
1_129163_0
 70
     2
 10
0.0
 20
0.0
 30
0.0
  3
1_129163_0
  1

  0
ATTDEF
  5
73
330
6E
100
AcDbEntity
  8
AM_6
100
AcDbText
 10
8.25
 20
2.765625
 30
0.0
 40
0.5
  1
Grip Tight Two-Bolt Pillow Block Inch Bore
100
AcDbAttributeDefinition
  3

  2
NN
 70
     8
280
     0
  0
ATTDEF
  5
74
330
6E
100
AcDbEntity
  8
AM_6
100
AcDbText
 10
8.25
 20
2.265625
 30
0.0
 40
0.5
  1
GT Normal Duty Pillow Blocks
100
AcDbAttributeDefinition
  3

  2
NT
 70
     8
280
     0
  0
ATTDEF
  5
75
330
6E
100
AcDbEntity
  8
AM_6
100
AcDbText
 10
8.25
 20
1.765625
 30
0.0
 40
0.5
  1
129163
100
AcDbAttributeDefinition
  3

  2
NB
 70
     8
280
     0
  0
ATTDEF
  5
76
330
6E
100
AcDbEntity
  8
AM_6
100
AcDbText
 10
8.25
 20
1.265625
 30
0.0
 40
0.5
  1
$PN.$LUBE.
100
AcDbAttributeDefinition
  3

  2
NBSYN
 70
     8
280
     0
  0
ATTDEF
  5
77
330
6E
100
AcDbEntity
  8
AM_6
100
AcDbText
 10
8.25
 20
0.765625
 30
0.0
 40
0.5
  1
129163
100
AcDbAttributeDefinition
  3

  2
LINA
 70
     8
280
     0
  0
ATTDEF
  5
78
330
6E
100
AcDbEntity
  8
AM_6
100
AcDbText
 10
8.25
 20
0.265625
 30
0.0
 40
0.5
  1
207
100
AcDbAttributeDefinition
  3

  2
SERIES
 70
     8
280
     0
  0
ATTDEF
  5
79
330
6E
100
AcDbEntity
  8
AM_6
100
AcDbText
 10
8.25
 20
-0.234375
 30
0.0
 40
0.5
  1
1-7/16
100
AcDbAttributeDefinition
  3

  2
SS
 70
     8
280
     0
  0
ATTDEF
  5
7A
330
6E
100
AcDbEntity
  8
AM_6
100
AcDbText
 10
8.25
 20
-0.734375
 30
0.0
 40
0.5
  1
129163
100
AcDbAttributeDefinition
  3

  2
PN
 70
     8
280
     0
  0
ATTDEF
  5
7B
330
6E
100
AcDbEntity
  8
AM_6
100
AcDbText
 10
8.25
 20
-1.234375
 30
0.0
 40
0.5
  1
P2B-GT-107
100
AcDbAttributeDefinition
  3

  2
DESCRIPTION
 70
     8
280
     0
  0
ATTDEF
  5
7C
330
6E
100
AcDbEntity
  8
AM_6
100
AcDbText
 10
8.25
 20
-1.734375
 30
0.0
 40
0.5
  1
1-5/8
100
AcDbAttributeDefinition
  3

  2
A
 70
     8
280
     0
  0
ATTDEF
  5
7D
330
6E
100
AcDbEntity
  8
AM_6
100
AcDbText
 10
8.25
 20
-2.234375
 30
0.0
 40
0.5
  1
6-1/2
100
AcDbAttributeDefinition
  3

  2
B
 70
     8
280
     0
  0
ATTDEF
  5
7E
330
6E
100
AcDbEntity
  8
AM_6
100
AcDbText
 10
8.25
 20
-2.734375
 30
0.0
 40
0.5
  1
1-47/64
100
AcDbAttributeDefinition
  3

  2
C
 70
     8
280
     0
  0
ATTDEF
  5
7F
330
6E
100
AcDbEntity
  8
AM_6
100
AcDbText
 10
8.25
 20
-3.234375
 30
0.0
 40
0.5
  1
4-11/16
100
AcDbAttributeDefinition
  3

  2
DMIN
 70
     8
280
     0
  0
ATTDEF
  5
80
330
6E
100
AcDbEntity
  8
AM_6
100
AcDbText
 10
8.25
 20
-3.734375
 30
0.0
 40
0.5
  1
5-7/16
100
AcDbAttributeDefinition
  3

  2
DMAX
 70
     8
280
     0
  0
ATTDEF
  5
81
330
6E
100
AcDbEntity
  8
AM_6
100
AcDbText
 10
8.25
 20
-4.234375
 30
0.0
 40
0.5
  1
1/2
100
AcDbAttributeDefinition
  3

  2
F
 70
     8
280
     0
  0
ATTDEF
  5
82
330
6E
100
AcDbEntity
  8
AM_6
100
AcDbText
 10
8.25
 20
-4.734375
 30
0.0
 40
0.5
  1
15/16
100
AcDbAttributeDefinition
  3

  2
G
 70
     8
280
     0
  0
ATTDEF
  5
83
330
6E
100
AcDbEntity
  8
AM_6
100
AcDbText
 10
8.25
 20
-5.234375
 30
0.0
 40
0.5
  1
45/64
100
AcDbAttributeDefinition
  3

  2
H
 70
     8
280
     0
  0
ATTDEF
  5
84
330
6E
100
AcDbEntity
  8
AM_6
100
AcDbText
 10
8.25
 20
-5.734375
 30
0.0
 40
0.5
  1
3-3/4
100
AcDbAttributeDefinition
  3

  2
J
 70
     8
280
     0
  0
ATTDEF
  5
85
330
6E
100
AcDbEntity
  8
AM_6
100
AcDbText
 10
8.25
 20
-6.234375
 30
0.0
 40
0.5
  1
2-19/64
100
AcDbAttributeDefinition
  3

  2
L
 70
     8
280
     0
  0
ATTDEF
  5
86
330
6E
100
AcDbEntity
  8
AM_6
100
AcDbText
 10
8.25
 20
-6.734375
 30
0.0
 40
0.5
  1
1-7/8
100
AcDbAttributeDefinition
  3

  2
M
 70
     8
280
     0
  0
ATTDEF
  5
87
330
6E
100
AcDbEntity
  8
AM_6
100
AcDbText
 10
8.25
 20
-7.234375
 30
0.0
 40
0.5
  1
9/16
100
AcDbAttributeDefinition
  3

  2
R
 70
     8
280
     0
  0
ATTDEF
  5
88
330
6E
100
AcDbEntity
  8
AM_6
100
AcDbText
 10
8.25
 20
-7.734375
 30
0.0
 40
0.5
  1
1-1/16
100
AcDbAttributeDefinition
  3

  2
S
 70
     8
280
     0
  0
ATTDEF
  5
89
330
6E
100
AcDbEntity
  8
AM_6
100
AcDbText
 10
8.25
 20
-8.234375
 30
0.0
 40
0.5
  1
2-29/32
100
AcDbAttributeDefinition
  3

  2
U
 70
     8
280
     0
  0
ATTDEF
  5
8A
330
6E
100
AcDbEntity
  8
AM_6
100
AcDbText
 10
8.25
 20
-8.734375
 30
0.0
 40
0.5
  1
5-13/16
100
AcDbAttributeDefinition
  3

  2
V
 70
     8
280
     0
  0
ATTDEF
  5
8B
330
6E
100
AcDbEntity
  8
AM_6
100
AcDbText
 10
8.25
 20
-9.234375
 30
0.0
 40
0.5
  1
9/16
100
AcDbAttributeDefinition
  3

  2
W
 70
     8
280
     0
  0
ATTDEF
  5
8C
330
6E
100
AcDbEntity
  8
AM_6
100
AcDbText
 10
8.25
 20
-9.734375
 30
0.0
 40
0.5
  1
3/16
100
AcDbAttributeDefinition
  3

  2
X
 70
     8
280
     0
  0
ATTDEF
  5
8D
330
6E
100
AcDbEntity
  8
AM_6
100
AcDbText
 10
8.25
 20
-10.234375
 30
0.0
 40
0.5
  1
1-3/64
100
AcDbAttributeDefinition
  3

  2
Z
 70
     8
280
     0
  0
ATTDEF
  5
8E
330
6E
100
AcDbEntity
  8
AM_6
100
AcDbText
 10
8.25
 20
-10.734375
 30
0.0
 40
0.5
  1
baldor
100
AcDbAttributeDefinition
  3

  2
COMPANY
 70
     8
280
     0
  0
INSERT
  5
90
330
6E
100
AcDbEntity
  8
0
100
AcDbBlockReference
  2
2_129520I_0_in_129163_0
 10
0.0
 20
0.0
 30
0.0
  0
INSERT
  5
BA
330
6E
100
AcDbEntity
  8
0
100
AcDbBlockReference
  2
3_129913_0_in_129163_0
 10
0.0
 20
0.0
 30
0.0
  0
INSERT
  5
FC
330
6E
100
AcDbEntity
  8
0
100
AcDbBlockReference
  2
4_129424I_0_in_129163_0
 10
0.0
 20
0.0
 30
0.0
  0
ENDBLK
  5
71
330
6E
100
AcDbEntity
  8
0
100
AcDbBlockEnd
  0
BLOCK
  5
91
330
8F
100
AcDbEntity
  8
0
100
AcDbBlockBegin
  2
2_129520I_0_in_129163_0
 70
     2
 10
0.0
 20
0.0
 30
0.0
  3
2_129520I_0_in_129163_0
  1

  0
ATTDEF
  5
93
330
8F
100
AcDbEntity
  8
AM_6
100
AcDbText
 10
6.475367516919365
 20
1.475367516919366
 30
0.0
 40
0.5
  1
INS-GT B
100
AcDbAttributeDefinition
  3

  2
NN
 70
     8
280
     0
  0
ATTDEF
  5
94
330
8F
100
AcDbEntity
  8
AM_6
100
AcDbText
 10
6.475367516919365
 20
0.9753675169193656
 30
0.0
 40
0.5
  1
GT Normal Duty Bearing Inserts
100
AcDbAttributeDefinition
  3

  2
NT
 70
     8
280
     0
  0
ATTDEF
  5
95
330
8F
100
AcDbEntity
  8
AM_6
100
AcDbText
 10
6.475367516919365
 20
0.4753675169193656
 30
0.0
 40
0.5
  1
129520I
100
AcDbAttributeDefinition
  3

  2
NB
 70
     8
280
     0
  0
ATTDEF
  5
96
330
8F
100
AcDbEntity
  8
AM_6
100
AcDbText
 10
6.475367516919365
 20
-0.0246324830806344
 30
0.0
 40
0.5
  1
$PN.I
100
AcDbAttributeDefinition
  3

  2
NBSYN
 70
     8
280
     0
  0
ATTDEF
  5
97
330
8F
100
AcDbEntity
  8
AM_6
100
AcDbText
 10
6.475367516919365
 20
-0.5246324830806344
 30
0.0
 40
0.5
  1
129520
100
AcDbAttributeDefinition
  3

  2
LINA
 70
     8
280
     0
  0
ATTDEF
  5
98
330
8F
100
AcDbEntity
  8
AM_6
100
AcDbText
 10
6.475367516919365
 20
-1.024632483080634
 30
0.0
 40
0.5
  1
207
100
AcDbAttributeDefinition
  3

  2
SERIES
 70
     8
280
     0
  0
ATTDEF
  5
99
330
8F
100
AcDbEntity
  8
AM_6
100
AcDbText
 10
6.475367516919365
 20
-1.524632483080634
 30
0.0
 40
0.5
  1
129520
100
AcDbAttributeDefinition
  3

  2
PN
 70
     8
280
     0
  0
ATTDEF
  5
9A
330
8F
100
AcDbEntity
  8
AM_6
100
AcDbText
 10
6.475367516919365
 20
-2.024632483080635
 30
0.0
 40
0.5
  1
INS-GT-07
100
AcDbAttributeDefinition
  3

  2
DESCRIPTION
 70
     8
280
     0
  0
ATTDEF
  5
9B
330
8F
100
AcDbEntity
  8
AM_6
100
AcDbText
 10
6.475367516919365
 20
-2.524632483080635
 30
0.0
 40
0.5
  1
1.62
100
AcDbAttributeDefinition
  3

  2
A
 70
     8
280
     0
  0
ATTDEF
  5
9C
330
8F
100
AcDbEntity
  8
AM_6
100
AcDbText
 10
6.475367516919365
 20
-3.024632483080635
 30
0.0
 40
0.5
  1
0.75
100
AcDbAttributeDefinition
  3

  2
C
 70
     8
280
     0
  0
ATTDEF
  5
9D
330
8F
100
AcDbEntity
  8
AM_6
100
AcDbText
 10
6.475367516919365
 20
-3.524632483080635
 30
0.0
 40
0.5
  1
2.8346
100
AcDbAttributeDefinition
  3

  2
D
 70
     8
280
     0
  0
ATTDEF
  5
9E
330
8F
100
AcDbEntity
  8
AM_6
100
AcDbText
 10
6.475367516919365
 20
-4.024632483080635
 30
0.0
 40
0.5
  1
0.20
100
AcDbAttributeDefinition
  3

  2
J
 70
     8
280
     0
  0
ATTDEF
  5
9F
330
8F
100
AcDbEntity
  8
AM_6
100
AcDbText
 10
6.475367516919365
 20
-4.524632483080635
 30
0.0
 40
0.5
  1
2.38
100
AcDbAttributeDefinition
  3

  2
L
 70
     8
280
     0
  0
ATTDEF
  5
A0
330
8F
100
AcDbEntity
  8
AM_6
100
AcDbText
 10
6.475367516919365
 20
-5.024632483080635
 30
0.0
 40
0.5
  1
#10 - 32 x 1/4
100
AcDbAttributeDefinition
  3

  2
N
 70
     8
280
     0
  0
ATTDEF
  5
A1
330
8F
100
AcDbEntity
  8
AM_6
100
AcDbText
 10
6.475367516919365
 20
-5.524632483080635
 30
0.0
 40
0.5
  1
0.54000
100
AcDbAttributeDefinition
  3

  2
W
 70
     8
280
     0
  0
ATTDEF
  5
A2
330
8F
100
AcDbEntity
  8
AM_6
100
AcDbText
 10
6.475367516919365
 20
-6.024632483080635
 30
0.0
 40
0.5
  1
1.14
100
AcDbAttributeDefinition
  3

  2
X
 70
     8
280
     0
  0
ATTDEF
  5
A3
330
8F
100
AcDbEntity
  8
AM_6
100
AcDbText
 10
6.475367516919365
 20
-6.524632483080635
 30
0.0
 40
0.5
  1
1.08
100
AcDbAttributeDefinition
  3

  2
Y
 70
     8
280
     0
  0
ATTDEF
  5
A4
330
8F
100
AcDbEntity
  8
AM_6
100
AcDbText
 10
6.475367516919365
 20
-7.024632483080635
 30
0.0
 40
0.5
  1
baldor
100
AcDbAttributeDefinition
  3

  2
COMPANY
 70
     8
280
     0
  0
CIRCLE
  5
A7
330
8F
100
AcDbEntity
  8
AM_9
100
AcDbCircle
 10
0.0
 20
0.0
 30
0.0
 40
0.9196778074292936
  0
ARC
  5
A8
330
8F
100
AcDbEntity
  8
AM_9
100
AcDbCircle
 10
-0.0000000000000001
 20
-0.0000000000000008
 30
0.0
 40
1.4173
100
AcDbArc
 50
203.4745647938811
 51
336.5254352061189
  0
CIRCLE
  5
A9
330
8F
100
AcDbEntity
  8
AM_9
100
AcDbCircle
 10
0.0
 20
0.0
 30
0.0
 40
1.3423
  0
CIRCLE
  5
AA
330
8F
100
AcDbEntity
  8
AM_9
100
AcDbCircle
 10
0.0
 20
0.0
 30
0.0
 40
1.377607436087194
  0
CIRCLE
  5
AB
330
8F
100
AcDbEntity
  8
AM_9
100
AcDbCircle
 10
0.0
 20
0.0
 30
0.0
 40
0.9727777437777777
  0
CIRCLE
  5
AC
330
8F
100
AcDbEntity
  8
AM_9
100
AcDbCircle
 10
0.0
 20
0.0
 30
0.0
 40
1.057777777777778
  0
CIRCLE
  5
AD
330
8F
100
AcDbEntity
  8
AM_9
100
AcDbCircle
 10
0.0
 20
0.0
 30
0.0
 40
0.8877777097777777
  0
CIRCLE
  5
AE
330
8F
100
AcDbEntity
  8
AM_9
100
AcDbCircle
 10
0.0
 20
0.0
 30
0.0
 40
1.027777777777778
  0
LINE
  5
B1
330
8F
100
AcDbEntity
  8
AM_7
100
AcDbLine
 10
-1.475367516919366
 20
0.0
 30
0.0
 11
1.475367516919366
 21
0.0
 31
0.0
  0
LINE
  5
B2
330
8F
100
AcDbEntity
  8
AM_7
100
AcDbLine
 10
0.0
 20
-1.475367516919366
 30
0.0
 11
0.0
 21
1.475367516919366
 31
0.0
  0
CIRCLE
  5
B4
330
8F
100
AcDbEntity
  8
AM_4
100
AcDbCircle
 10
0.0
 20
0.0
 30
0.0
 40
1.405111920875586
  0
CIRCLE
  5
B5
330
8F
100
AcDbEntity
  8
AM_4
100
AcDbCircle
 10
0.0
 20
0.0
 30
0.0
 40
1.397705672999711
  0
CIRCLE
  5
B6
330
8F
100
AcDbEntity
  8
AM_4
100
AcDbCircle
 10
0.0
 20
0.0
 30
0.0
 40
1.384857880930857
  0
CIRCLE
  5
B7
330
8F
100
AcDbEntity
  8
AM_4
100
AcDbCircle
 10
0.0
 20
0.0
 30
0.0
 40
1.350001989914274
  0
CIRCLE
  5
B8
330
8F
100
AcDbEntity
  8
AM_4
100
AcDbCircle
 10
0.0
 20
0.0
 30
0.0
 40
1.322072697916912
  0
ENDBLK
  5
92
330
8F
100
AcDbEntity
  8
0
100
AcDbBlockEnd
  0
BLOCK
  5
BB
330
B9
100
AcDbEntity
  8
0
100
AcDbBlockBegin
  2
3_129913_0_in_129163_0
 70
     2
 10
0.0
 20
0.0
 30
0.0
  3
3_129913_0_in_129163_0
  1

  0
ATTDEF
  5
BD
330
B9
100
AcDbEntity
  8
AM_6
100
AcDbText
 10
6.143987627295965
 20
1.1484373925987
 30
0.0
 40
0.5
  1
Grip Tight Normal Duty Adapter and Nut Inch Bore
100
AcDbAttributeDefinition
  3

  2
NN
 70
     8
280
     0
  0
ATTDEF
  5
BE
330
B9
100
AcDbEntity
  8
AM_6
100
AcDbText
 10
6.143987627295965
 20
0.6484373925986997
 30
0.0
 40
0.5
  1
GT and GTM Adapter & Lock Nut Assemblies
100
AcDbAttributeDefinition
  3

  2
NT
 70
     8
280
     0
  0
ATTDEF
  5
BF
330
B9
100
AcDbEntity
  8
AM_6
100
AcDbText
 10
6.143987627295965
 20
0.1484373925986997
 30
0.0
 40
0.5
  1
129913
100
AcDbAttributeDefinition
  3

  2
NB
 70
     8
280
     0
  0
ATTDEF
  5
C0
330
B9
100
AcDbEntity
  8
AM_6
100
AcDbText
 10
6.143987627295965
 20
-0.3515626074013003
 30
0.0
 40
0.5
  1
$PN.
100
AcDbAttributeDefinition
  3

  2
NBSYN
 70
     8
280
     0
  0
ATTDEF
  5
C1
330
B9
100
AcDbEntity
  8
AM_6
100
AcDbText
 10
6.143987627295965
 20
-0.8515626074013003
 30
0.0
 40
0.5
  1
129913
100
AcDbAttributeDefinition
  3

  2
LINA
 70
     8
280
     0
  0
ATTDEF
  5
C2
330
B9
100
AcDbEntity
  8
AM_6
100
AcDbText
 10
6.143987627295965
 20
-1.3515626074013
 30
0.0
 40
0.5
  1
207
100
AcDbAttributeDefinition
  3

  2
SERIES
 70
     8
280
     0
  0
ATTDEF
  5
C3
330
B9
100
AcDbEntity
  8
AM_6
100
AcDbText
 10
6.143987627295965
 20
-1.8515626074013
 30
0.0
 40
0.5
  1
1-7/16
100
AcDbAttributeDefinition
  3

  2
SS
 70
     8
280
     0
  0
ATTDEF
  5
C4
330
B9
100
AcDbEntity
  8
AM_6
100
AcDbText
 10
6.143987627295965
 20
-2.3515626074013
 30
0.0
 40
0.5
  1
129913
100
AcDbAttributeDefinition
  3

  2
PN
 70
     8
280
     0
  0
ATTDEF
  5
C5
330
B9
100
AcDbEntity
  8
AM_6
100
AcDbText
 10
6.143987627295965
 20
-2.8515626074013
 30
0.0
 40
0.5
  1
AN-GT-07-107
100
AcDbAttributeDefinition
  3

  2
DESCRIPTION
 70
     8
280
     0
  0
ATTDEF
  5
C6
330
B9
100
AcDbEntity
  8
AM_6
100
AcDbText
 10
6.143987627295965
 20
-3.3515626074013
 30
0.0
 40
0.5
  1
1-5/8
100
AcDbAttributeDefinition
  3

  2
A
 70
     8
280
     0
  0
ATTDEF
  5
C7
330
B9
100
AcDbEntity
  8
AM_6
100
AcDbText
 10
6.143987627295965
 20
-3.8515626074013
 30
0.0
 40
0.5
  1
0.7480
100
AcDbAttributeDefinition
  3

  2
C
 70
     8
280
     0
  0
ATTDEF
  5
C8
330
B9
100
AcDbEntity
  8
AM_6
100
AcDbText
 10
6.143987627295965
 20
-4.3515626074013
 30
0.0
 40
0.5
  1
2.8346
100
AcDbAttributeDefinition
  3

  2
D
 70
     8
280
     0
  0
ATTDEF
  5
C9
330
B9
100
AcDbEntity
  8
AM_6
100
AcDbText
 10
6.143987627295965
 20
-4.8515626074013
 30
0.0
 40
0.5
  1
0.202
100
AcDbAttributeDefinition
  3

  2
J
 70
     8
280
     0
  0
ATTDEF
  5
CA
330
B9
100
AcDbEntity
  8
AM_6
100
AcDbText
 10
6.143987627295965
 20
-5.3515626074013
 30
0.0
 40
0.5
  1
2-19/64
100
AcDbAttributeDefinition
  3

  2
L
 70
     8
280
     0
  0
ATTDEF
  5
CB
330
B9
100
AcDbEntity
  8
AM_6
100
AcDbText
 10
6.143987627295965
 20
-5.8515626074013
 30
0.0
 40
0.5
  1
10 - 32 x 1/4
100
AcDbAttributeDefinition
  3

  2
N
 70
     8
280
     0
  0
ATTDEF
  5
CC
330
B9
100
AcDbEntity
  8
AM_6
100
AcDbText
 10
6.143987627295965
 20
-6.3515626074013
 30
0.0
 40
0.5
  1
9/16
100
AcDbAttributeDefinition
  3

  2
W
 70
     8
280
     0
  0
ATTDEF
  5
CD
330
B9
100
AcDbEntity
  8
AM_6
100
AcDbText
 10
6.143987627295965
 20
-6.8515626074013
 30
0.0
 40
0.5
  1
1-3/64
100
AcDbAttributeDefinition
  3

  2
X
 70
     8
280
     0
  0
ATTDEF
  5
CE
330
B9
100
AcDbEntity
  8
AM_6
100
AcDbText
 10
6.143987627295965
 20
-7.3515626074013
 30
0.0
 40
0.5
  1
1-1/16
100
AcDbAttributeDefinition
  3

  2
Y
 70
     8
280
     0
  0
ATTDEF
  5
CF
330
B9
100
AcDbEntity
  8
AM_6
100
AcDbText
 10
6.143987627295965
 20
-7.8515626074013
 30
0.0
 40
0.5
  1
baldor
100
AcDbAttributeDefinition
  3

  2
COMPANY
 70
     8
280
     0
  0
LINE
  5
D0
330
B9
100
AcDbEntity
  8
AM_9
100
AcDbLine
 10
0.05
 20
0.8567788675498903
 30
0.0
 11
0.05
 21
0.8887174864181436
 31
0.0
  0
LINE
  5
D1
330
B9
100
AcDbEntity
  8
AM_9
100
AcDbLine
 10
-0.05
 20
0.8567788675498904
 30
0.0
 11
-0.05
 21
0.8887174864181436
 31
0.0
  0
ARC
  5
D2
330
B9
100
AcDbEntity
  8
AM_9
100
AcDbCircle
 10
0.0
 20
0.0000000000000001
 30
0.0
 40
0.8901228963830687
100
AcDbArc
 50
93.22011451807202
 51
86.77988548192796
  0
CIRCLE
  5
D3
330
B9
100
AcDbEntity
  8
AM_9
100
AcDbCircle
 10
0.0
 20
0.0
 30
0.0
 40
0.9388020833333335
  0
CIRCLE
  5
D4
330
B9
100
AcDbEntity
  8
AM_9
100
AcDbCircle
 10
0.0
 20
0.0
 30
0.0
 40
1.020833333333333
  0
LINE
  5
D5
330
B9
100
AcDbEntity
  8
AM_9
100
AcDbLine
 10
-1.1258875
 20
-0.0724499999999999
 30
0.0
 11
-0.883878125
 21
-0.0724499999999999
 31
0.0
  0
LINE
  5
D6
330
B9
100
AcDbEntity
  8
AM_9
100
AcDbLine
 10
-0.883878125
 20
0.0724499999999999
 30
0.0
 11
-1.1258875
 21
0.0724499999999999
 31
0.0
  0
LINE
  5
D7
330
B9
100
AcDbEntity
  8
AM_9
100
AcDbLine
 10
-0.883878125
 20
-0.0724499999999999
 30
0.0
 11
-0.861328125
 21
-0.0950000000000001
 31
0.0
  0
LINE
  5
D8
330
B9
100
AcDbEntity
  8
AM_9
100
AcDbLine
 10
-0.861328125
 20
0.0950000000000001
 30
0.0
 11
-0.883878125
 21
0.0724499999999999
 31
0.0
  0
LINE
  5
D9
330
B9
100
AcDbEntity
  8
AM_9
100
AcDbLine
 10
-0.861328125
 20
0.0950000000000001
 30
0.0
 11
-0.861328125
 21
-0.0950000000000001
 31
0.0
  0
LINE
  5
DA
330
B9
100
AcDbEntity
  8
AM_9
100
AcDbLine
 10
-0.883878125
 20
0.0724499999999999
 30
0.0
 11
-0.883878125
 21
-0.0724499999999999
 31
0.0
  0
LINE
  5
DB
330
B9
100
AcDbEntity
  8
AM_9
100
AcDbLine
 10
-1.1258875
 20
0.0724499999999999
 30
0.0
 11
-1.144241288638041
 21
0.0908037886380414
 31
0.0
  0
LINE
  5
DC
330
B9
100
AcDbEntity
  8
AM_9
100
AcDbLine
 10
-1.144767891979416
 20
-0.0913303919794159
 30
0.0
 11
-1.1258875
 21
-0.0724499999999999
 31
0.0
  0
LINE
  5
DD
330
B9
100
AcDbEntity
  8
AM_9
100
AcDbLine
 10
-1.1258875
 20
0.0724499999999999
 30
0.0
 11
-1.1258875
 21
-0.0724499999999999
 31
0.0
  0
LWPOLYLINE
  5
DE
330
B9
100
AcDbEntity
  8
AM_9
100
AcDbPolyline
 90
        5
 70
     0
 43
0.0
 10
-1.147292038259082
 20
0.0512803115588309
 10
-1.146607741404675
 20
0.0648026138139567
 10
-1.145495349720074
 20
0.082152876857327
 10
-1.144844882889005
 20
0.090768306853826
 10
-1.144797794245112
 20
0.0913602851231046
  0
LINE
  5
DF
330
B9
100
AcDbEntity
  8
AM_9
100
AcDbLine
 10
-1.147355802187156
 20
0.0498332679413811
 30
0.0
 11
-1.147292038259082
 21
0.0512803115588309
 31
0.0
  0
LWPOLYLINE
  5
E0
330
B9
100
AcDbEntity
  8
AM_9
100
AcDbPolyline
 90
        4
 70
     0
 43
0.0
 10
-1.144797793586618
 20
-0.0913602933744306
 10
-1.145213573283149
 20
-0.0859916447934983
 10
-1.146295603006033
 20
-0.0701076453411919
 10
-1.147360746790625
 20
-0.0497192933408032
  0
LINE
  5
E2
330
B9
100
AcDbEntity
  8
AM_5
100
AcDbLine
 10
-1.144501503453032
 20
-0.0950000000000001
 30
0.0
 11
-0.861328125
 21
-0.0950000000000001
 31
0.0
  0
LINE
  5
E3
330
B9
100
AcDbEntity
  8
AM_5
100
AcDbLine
 10
-1.144501503453032
 20
0.0950000000000002
 30
0.0
 11
-0.861328125
 21
0.0950000000000002
 31
0.0
  0
LWPOLYLINE
  5
E4
330
B9
100
AcDbEntity
  8
AM_4
100
AcDbPolyline
 90
        6
 70
     0
 43
0.0
 10
-1.147360746790625
 20
-0.0497192933408032
 10
-1.147521993062831
 20
-0.0458472119474867
 10
-1.148314213122906
 20
-0.016827339248126
 10
-1.148362629960656
 20
0.0131134097814174
 10
-1.147703500756056
 20
0.0410532064343758
 10
-1.147355802187156
 20
0.0498332679413811
  0
LINE
  5
E5
330
B9
100
AcDbEntity
  8
AM_4
100
AcDbLine
 10
-0.4484688369832025
 20
0.9787708112662303
 30
0.0
 11
-0.4845252478657542
 21
1.041222346853389
 31
0.0
  0
LINE
  5
E6
330
B9
100
AcDbEntity
  8
AM_4
100
AcDbLine
 10
1.143987627295964
 20
0.101
 30
0.0
 11
1.071874805530861
 21
0.101
 31
0.0
  0
ARC
  5
E7
330
B9
100
AcDbEntity
  8
AM_4
100
AcDbCircle
 10
-0.0000000000000002
 20
-0.0000000000000003
 30
0.0
 40
1.1484375
100
AcDbArc
 50
5.045428683974622
 51
114.9545713160255
  0
LINE
  5
E8
330
B9
100
AcDbEntity
  8
AM_4
100
AcDbLine
 10
0.05
 20
0.7170087604067331
 30
0.0
 11
0.05
 21
0.8567708333333333
 31
0.0
  0
LINE
  5
E9
330
B9
100
AcDbEntity
  8
AM_4
100
AcDbLine
 10
-0.05
 20
0.7170087604067331
 30
0.0
 11
-0.05
 21
0.8567708333333334
 31
0.0
  0
LINE
  5
EA
330
B9
100
AcDbEntity
  8
AM_4
100
AcDbLine
 10
1.071874805530861
 20
0.101
 30
0.0
 11
1.071874805530861
 21
-0.101
 31
0.0
  0
LINE
  5
EB
330
B9
100
AcDbEntity
  8
AM_4
100
AcDbLine
 10
-0.6234059685476586
 20
-0.8777708112662306
 30
0.0
 11
-0.6594623794302102
 21
-0.9402223468533897
 31
0.0
  0
LINE
  5
EC
330
B9
100
AcDbEntity
  8
AM_4
100
AcDbLine
 10
-0.05
 20
0.8567708333333334
 30
0.0
 11
0.05
 21
0.8567708333333333
 31
0.0
  0
LINE
  5
ED
330
B9
100
AcDbEntity
  8
AM_4
100
AcDbLine
 10
1.071874805530861
 20
-0.101
 30
0.0
 11
1.143987627295964
 21
-0.101
 31
0.0
  0
LINE
  5
EE
330
B9
100
AcDbEntity
  8
AM_4
100
AcDbLine
 10
-0.6594623794302108
 20
0.9402223468533891
 30
0.0
 11
-0.6234059685476592
 21
0.87777081126623
 31
0.0
  0
LINE
  5
EF
330
B9
100
AcDbEntity
  8
AM_4
100
AcDbLine
 10
-0.4845252478657537
 20
-1.041222346853389
 30
0.0
 11
-0.4484688369832019
 21
-0.9787708112662304
 31
0.0
  0
ARC
  5
F0
330
B9
100
AcDbEntity
  8
AM_4
100
AcDbCircle
 10
0.0000000000000002
 20
0.0000000000000001
 30
0.0
 40
1.1185175
100
AcDbArc
 50
5.180756530870902
 51
114.8192434691291
  0
LINE
  5
F1
330
B9
100
AcDbEntity
  8
AM_4
100
AcDbLine
 10
-0.6234059685476592
 20
0.87777081126623
 30
0.0
 11
-0.4484688369832025
 21
0.9787708112662303
 31
0.0
  0
LINE
  5
F2
330
B9
100
AcDbEntity
  8
AM_4
100
AcDbLine
 10
-0.4484688369832019
 20
-0.9787708112662304
 30
0.0
 11
-0.6234059685476586
 21
-0.8777708112662306
 31
0.0
  0
ARC
  5
F3
330
B9
100
AcDbEntity
  8
AM_4
100
AcDbCircle
 10
0.000000000000002
 20
-0.000000000000001
 30
0.0
 40
1.148437500000002
100
AcDbArc
 50
125.0454286839746
 51
177.5326322353161
  0
LWPOLYLINE
  5
F4
330
B9
100
AcDbEntity
  8
AM_4
100
AcDbPolyline
 90
        6
 70
     0
 43
0.0
 10
-1.147372786500038
 20
0.0494406735935924
 10
-1.142896056280188
 20
0.0276490989623733
 10
-1.140922088836125
 20
0.0043007204488114
 10
-1.141701089946704
 20
-0.0176995504781212
 10
-1.145082964130279
 20
-0.0398391566671438
 10
-1.147372786500038
 20
-0.0494406735935925
  0
ARC
  5
F5
330
B9
100
AcDbEntity
  8
AM_4
100
AcDbCircle
 10
0.0000000000000004
 20
0.0
 30
0.0
 40
1.1484375
100
AcDbArc
 50
182.467367764684
 51
234.9545713160255
  0
ARC
  5
F6
330
B9
100
AcDbEntity
  8
AM_4
100
AcDbCircle
 10
-0.0000000000000004
 20
0.0
 30
0.0
 40
1.1185175
100
AcDbArc
 50
125.1807565308709
 51
234.8192434691291
  0
ARC
  5
F7
330
B9
100
AcDbEntity
  8
AM_4
100
AcDbCircle
 10
0.0
 20
-0.0000000000000002
 30
0.0
 40
1.1484375
100
AcDbArc
 50
245.0454286839745
 51
354.9545713160255
  0
ARC
  5
F8
330
B9
100
AcDbEntity
  8
AM_4
100
AcDbCircle
 10
0.0
 20
-0.0000000000000001
 30
0.0
 40
1.1185175
100
AcDbArc
 50
245.1807565308709
 51
354.8192434691292
  0
ARC
  5
F9
330
B9
100
AcDbEntity
  8
AM_4
100
AcDbCircle
 10
0.0
 20
-0.0000000000000001
 30
0.0
 40
0.8567708333333331
100
AcDbArc
 50
93.34560594189128
 51
86.65439405810874
  0
ARC
  5
FA
330
B9
100
AcDbEntity
  8
AM_4
100
AcDbCircle
 10
0.0
 20
0.0000000000000001
 30
0.0
 40
0.7187499999999999
100
AcDbArc
 50
93.98901513298222
 51
86.01098486701778
  0
ENDBLK
  5
BC
330
B9
100
AcDbEntity
  8
0
100
AcDbBlockEnd
  0
BLOCK
  5
FD
330
FB
100
AcDbEntity
  8
0
100
AcDbBlockBegin
  2
4_129424I_0_in_129163_0
 70
     2
 10
0.0
 20
0.0
 30
0.0
  3
4_129424I_0_in_129163_0
  1

  0
ATTDEF
  5
FF
330
FB
100
AcDbEntity
  8
AM_6
100
AcDbText
 10
8.25
 20
2.765625
 30
0.0
 40
0.5
  1
GT-I
100
AcDbAttributeDefinition
  3

  2
NN
 70
     8
280
     0
  0
ATTDEF
  5
100
330
FB
100
AcDbEntity
  8
AM_6
100
AcDbText
 10
8.25
 20
2.265625
 30
0.0
 40
0.5
  1
GT Normal and Medium Duty Pillow Blocks
100
AcDbAttributeDefinition
  3

  2
NT
 70
     8
280
     0
  0
ATTDEF
  5
101
330
FB
100
AcDbEntity
  8
AM_6
100
AcDbText
 10
8.25
 20
1.765625
 30
0.0
 40
0.5
  1
129424I
100
AcDbAttributeDefinition
  3

  2
NB
 70
     8
280
     0
  0
ATTDEF
  5
102
330
FB
100
AcDbEntity
  8
AM_6
100
AcDbText
 10
8.25
 20
1.265625
 30
0.0
 40
0.5
  1
$PN.$LUBE.I
100
AcDbAttributeDefinition
  3

  2
NBSYN
 70
     8
280
     0
  0
ATTDEF
  5
103
330
FB
100
AcDbEntity
  8
AM_6
100
AcDbText
 10
8.25
 20
0.765625
 30
0.0
 40
0.5
  1
129424
100
AcDbAttributeDefinition
  3

  2
LINA
 70
     8
280
     0
  0
ATTDEF
  5
104
330
FB
100
AcDbEntity
  8
AM_6
100
AcDbText
 10
8.25
 20
0.265625
 30
0.0
 40
0.5
  1
207
100
AcDbAttributeDefinition
  3

  2
SERIES
 70
     8
280
     0
  0
ATTDEF
  5
105
330
FB
100
AcDbEntity
  8
AM_6
100
AcDbText
 10
8.25
 20
-0.234375
 30
0.0
 40
0.5
  1
129424
100
AcDbAttributeDefinition
  3

  2
PN
 70
     8
280
     0
  0
ATTDEF
  5
106
330
FB
100
AcDbEntity
  8
AM_6
100
AcDbText
 10
8.25
 20
-0.734375
 30
0.0
 40
0.5
  1
P2B-GT-07
100
AcDbAttributeDefinition
  3

  2
DESCRIPTION
 70
     8
280
     0
  0
ATTDEF
  5
107
330
FB
100
AcDbEntity
  8
AM_6
100
AcDbText
 10
8.25
 20
-1.234375
 30
0.0
 40
0.5
  1
1-5/8
100
AcDbAttributeDefinition
  3

  2
A
 70
     8
280
     0
  0
ATTDEF
  5
108
330
FB
100
AcDbEntity
  8
AM_6
100
AcDbText
 10
8.25
 20
-1.734375
 30
0.0
 40
0.5
  1
6-1/2
100
AcDbAttributeDefinition
  3

  2
B
 70
     8
280
     0
  0
ATTDEF
  5
109
330
FB
100
AcDbEntity
  8
AM_6
100
AcDbText
 10
8.25
 20
-2.234375
 30
0.0
 40
0.5
  1
1-47/64
100
AcDbAttributeDefinition
  3

  2
C
 70
     8
280
     0
  0
ATTDEF
  5
10A
330
FB
100
AcDbEntity
  8
AM_6
100
AcDbText
 10
8.25
 20
-2.734375
 30
0.0
 40
0.5
  1
4-11/16
100
AcDbAttributeDefinition
  3

  2
DMIN
 70
     8
280
     0
  0
ATTDEF
  5
10B
330
FB
100
AcDbEntity
  8
AM_6
100
AcDbText
 10
8.25
 20
-3.234375
 30
0.0
 40
0.5
  1
5-7/16
100
AcDbAttributeDefinition
  3

  2
DMAX
 70
     8
280
     0
  0
ATTDEF
  5
10C
330
FB
100
AcDbEntity
  8
AM_6
100
AcDbText
 10
8.25
 20
-3.734375
 30
0.0
 40
0.5
  1
1/2
100
AcDbAttributeDefinition
  3

  2
F
 70
     8
280
     0
  0
ATTDEF
  5
10D
330
FB
100
AcDbEntity
  8
AM_6
100
AcDbText
 10
8.25
 20
-4.234375
 30
0.0
 40
0.5
  1
15/16
100
AcDbAttributeDefinition
  3

  2
G
 70
     8
280
     0
  0
ATTDEF
  5
10E
330
FB
100
AcDbEntity
  8
AM_6
100
AcDbText
 10
8.25
 20
-4.734375
 30
0.0
 40
0.5
  1
45/64
100
AcDbAttributeDefinition
  3

  2
H
 70
     8
280
     0
  0
ATTDEF
  5
10F
330
FB
100
AcDbEntity
  8
AM_6
100
AcDbText
 10
8.25
 20
-5.234375
 30
0.0
 40
0.5
  1
3-3/4
100
AcDbAttributeDefinition
  3

  2
J
 70
     8
280
     0
  0
ATTDEF
  5
110
330
FB
100
AcDbEntity
  8
AM_6
100
AcDbText
 10
8.25
 20
-5.734375
 30
0.0
 40
0.5
  1
2-19/64
100
AcDbAttributeDefinition
  3

  2
L
 70
     8
280
     0
  0
ATTDEF
  5
111
330
FB
100
AcDbEntity
  8
AM_6
100
AcDbText
 10
8.25
 20
-6.234375
 30
0.0
 40
0.5
  1
1-7/8
100
AcDbAttributeDefinition
  3

  2
M
 70
     8
280
     0
  0
ATTDEF
  5
112
330
FB
100
AcDbEntity
  8
AM_6
100
AcDbText
 10
8.25
 20
-6.734375
 30
0.0
 40
0.5
  1
9/16
100
AcDbAttributeDefinition
  3

  2
R
 70
     8
280
     0
  0
ATTDEF
  5
113
330
FB
100
AcDbEntity
  8
AM_6
100
AcDbText
 10
8.25
 20
-7.234375
 30
0.0
 40
0.5
  1
1-1/16
100
AcDbAttributeDefinition
  3

  2
S
 70
     8
280
     0
  0
ATTDEF
  5
114
330
FB
100
AcDbEntity
  8
AM_6
100
AcDbText
 10
8.25
 20
-7.734375
 30
0.0
 40
0.5
  1
2-29/32
100
AcDbAttributeDefinition
  3

  2
U
 70
     8
280
     0
  0
ATTDEF
  5
115
330
FB
100
AcDbEntity
  8
AM_6
100
AcDbText
 10
8.25
 20
-8.234375
 30
0.0
 40
0.5
  1
5-13/16
100
AcDbAttributeDefinition
  3

  2
V
 70
     8
280
     0
  0
ATTDEF
  5
116
330
FB
100
AcDbEntity
  8
AM_6
100
AcDbText
 10
8.25
 20
-8.734375
 30
0.0
 40
0.5
  1
9/16
100
AcDbAttributeDefinition
  3

  2
W
 70
     8
280
     0
  0
ATTDEF
  5
117
330
FB
100
AcDbEntity
  8
AM_6
100
AcDbText
 10
8.25
 20
-9.234375
 30
0.0
 40
0.5
  1
3/16
100
AcDbAttributeDefinition
  3

  2
X
 70
     8
280
     0
  0
ATTDEF
  5
118
330
FB
100
AcDbEntity
  8
AM_6
100
AcDbText
 10
8.25
 20
-9.734375
 30
0.0
 40
0.5
  1
1-3/64
100
AcDbAttributeDefinition
  3

  2
Z
 70
     8
280
     0
  0
ATTDEF
  5
119
330
FB
100
AcDbEntity
  8
AM_6
100
AcDbText
 10
8.25
 20
-10.234375
 30
0.0
 40
0.5
  1
baldor
100
AcDbAttributeDefinition
  3

  2
COMPANY
 70
     8
280
     0
  0
LINE
  5
11A
330
FB
100
AcDbEntity
  8
AM_9
100
AcDbLine
 10
-3.25
 20
-1.406249765625
 30
0.0
 11
-2.15625
 21
-1.406249765625
 31
0.0
  0
LINE
  5
11B
330
FB
100
AcDbEntity
  8
AM_9
100
AcDbLine
 10
-2.15625
 20
-1.171875
 30
0.0
 11
-2.15625
 21
-1.406249765625
 31
0.0
  0
LINE
  5
11C
330
FB
100
AcDbEntity
  8
AM_9
100
AcDbLine
 10
-2.2349902
 20
-1.171875
 30
0.0
 11
-2.2349902
 21
-1.406249765625
 31
0.0
  0
LINE
  5
11D
330
FB
100
AcDbEntity
  8
AM_9
100
AcDbLine
 10
2.2349902
 20
-1.171875
 30
0.0
 11
2.2349902
 21
-1.406249765625
 31
0.0
  0
LINE
  5
11E
330
FB
100
AcDbEntity
  8
AM_9
100
AcDbLine
 10
2.15625
 20
-1.171875
 30
0.0
 11
2.15625
 21
-1.406249765625
 31
0.0
  0
LINE
  5
11F
330
FB
100
AcDbEntity
  8
AM_9
100
AcDbLine
 10
3.25
 20
-1.406249765625
 30
0.0
 11
2.15625
 21
-1.406249765625
 31
0.0
  0
LINE
  5
120
330
FB
100
AcDbEntity
  8
AM_9
100
AcDbLine
 10
0.335166
 20
1.7962598
 30
0.0
 11
0.335166
 21
1.844800464127218
 31
0.0
  0
LINE
  5
121
330
FB
100
AcDbEntity
  8
AM_9
100
AcDbLine
 10
0.166818
 20
1.7962598
 30
0.0
 11
0.166818
 21
1.867564391092312
 31
0.0
  0
LINE
  5
122
330
FB
100
AcDbEntity
  8
AM_9
100
AcDbLine
 10
-0.224974530935
 20
1.7962598
 30
0.0
 11
-0.224974530935
 21
1.861454125255462
 31
0.0
  0
LINE
  5
123
330
FB
100
AcDbEntity
  8
AM_9
100
AcDbLine
 10
0.0688697
 20
1.7962598
 30
0.0
 11
0.0688697
 21
1.873734763626355
 31
0.0
  0
LINE
  5
124
330
FB
100
AcDbEntity
  8
AM_9
100
AcDbLine
 10
0.0933567
 20
1.7962598
 30
0.0
 11
0.0933567
 21
1.872674431545727
 31
0.0
  0
LINE
  5
125
330
FB
100
AcDbEntity
  8
AM_9
100
AcDbLine
 10
-0.200487509838
 20
1.7962598
 30
0.0
 11
-0.200487509838
 21
1.86425045484746
 31
0.0
  0
LINE
  5
126
330
FB
100
AcDbEntity
  8
AM_9
100
AcDbLine
 10
-0.078052404353
 20
1.7962598
 30
0.0
 11
-0.078052404353
 21
1.873374714832758
 31
0.0
  0
LINE
  5
127
330
FB
100
AcDbEntity
  8
AM_9
100
AcDbLine
 10
0.111722
 20
1.7962598
 30
0.0
 11
0.111722
 21
1.871668558991148
 31
0.0
  0
LINE
  5
128
330
FB
100
AcDbEntity
  8
AM_9
100
AcDbLine
 10
-0.243339895183
 20
1.7962598
 30
0.0
 11
-0.243339895183
 21
1.859142462376761
 31
0.0
  0
LINE
  5
129
330
FB
100
AcDbEntity
  8
AM_9
100
AcDbLine
 10
-0.18212214559
 20
1.7962598
 30
0.0
 11
-0.18212214559
 21
1.866134112030991
 31
0.0
  0
LINE
  5
12A
330
FB
100
AcDbEntity
  8
AM_9
100
AcDbLine
 10
0.0505043
 20
1.7962598
 30
0.0
 11
0.0505043
 21
1.874319694097437
 31
0.0
  0
LINE
  5
12B
330
FB
100
AcDbEntity
  8
AM_9
100
AcDbLine
 10
-0.096417768601
 20
1.7962598
 30
0.0
 11
-0.096417768601
 21
1.872519322703508
 31
0.0
  0
LINE
  5
12C
330
FB
100
AcDbEntity
  8
AM_9
100
AcDbLine
 10
0.0964177
 20
1.7962598
 30
0.0
 11
0.0964177
 21
1.872519326235836
 31
0.0
  0
LINE
  5
12D
330
FB
100
AcDbEntity
  8
AM_9
100
AcDbLine
 10
-0.081113429628
 20
1.7962598
 30
0.0
 11
-0.081113429628
 21
1.873244674764613
 31
0.0
  0
LINE
  5
12E
330
FB
100
AcDbEntity
  8
AM_9
100
AcDbLine
 10
0.212731
 20
1.7962598
 30
0.0
 11
0.212731
 21
1.862893051583745
 31
0.0
  0
LINE
  5
12F
330
FB
100
AcDbEntity
  8
AM_9
100
AcDbLine
 10
0.0658091
 20
1.7962598
 30
0.0
 11
0.0658091
 21
1.873844754070408
 31
0.0
  0
LINE
  5
130
330
FB
100
AcDbEntity
  8
AM_9
100
AcDbLine
 10
-0.22803555621
 20
1.7962598
 30
0.0
 11
-0.22803555621
 21
1.861081616991581
 31
0.0
  0
LINE
  5
131
330
FB
100
AcDbEntity
  8
AM_9
100
AcDbLine
 10
-0.197426878264
 20
1.7962598
 30
0.0
 11
-0.197426878264
 21
1.864577064038634
 31
0.0
  0
LINE
  5
132
330
FB
100
AcDbEntity
  8
AM_9
100
AcDbLine
 10
0.194366
 20
1.7962598
 30
0.0
 11
0.194366
 21
1.864898618703977
 31
0.0
  0
LINE
  5
133
330
FB
100
AcDbEntity
  8
AM_9
100
AcDbLine
 10
0.0413217
 20
1.7962598
 30
0.0
 11
0.0413217
 21
1.874544615929188
 31
0.0
  0
LINE
  5
134
330
FB
100
AcDbEntity
  8
AM_9
100
AcDbLine
 10
-0.191304827714
 20
1.7962598
 30
0.0
 11
-0.191304827714
 21
1.865215125097724
 31
0.0
  0
LINE
  5
135
330
FB
100
AcDbEntity
  8
AM_9
100
AcDbLine
 10
0.20967
 20
1.7962598
 30
0.0
 11
0.20967
 21
1.863240051925677
 31
0.0
  0
LINE
  5
136
330
FB
100
AcDbEntity
  8
AM_9
100
AcDbLine
 10
-0.252522577307
 20
1.7962598
 30
0.0
 11
-0.252522577307
 21
1.8579174760872
 31
0.0
  0
LINE
  5
137
330
FB
100
AcDbEntity
  8
AM_9
100
AcDbLine
 10
-0.172939463466
 20
1.7962598
 30
0.0
 11
-0.172939463466
 21
1.867007483106613
 31
0.0
  0
LINE
  5
138
330
FB
100
AcDbEntity
  8
AM_9
100
AcDbLine
 10
0.102539
 20
1.7962598
 30
0.0
 11
0.102539
 21
1.872194101443277
 31
0.0
  0
LINE
  5
139
330
FB
100
AcDbEntity
  8
AM_9
100
AcDbLine
 10
-0.087235086477
 20
1.7962598
 30
0.0
 11
-0.087235086477
 21
1.872969577886237
 31
0.0
  0
LINE
  5
13A
330
FB
100
AcDbEntity
  8
AM_9
100
AcDbLine
 10
-0.105600450725
 20
1.7962598
 30
0.0
 11
-0.105600450725
 21
1.872023916729345
 31
0.0
  0
LINE
  5
13B
330
FB
100
AcDbEntity
  8
AM_9
100
AcDbLine
 10
0.191305
 20
1.7962598
 30
0.0
 11
0.191305
 21
1.865215107427291
 31
0.0
  0
LINE
  5
13C
330
FB
100
AcDbEntity
  8
AM_9
100
AcDbLine
 10
0.120905
 20
1.7962598
 30
0.0
 11
0.120905
 21
1.871097801018162
 31
0.0
  0
LINE
  5
13D
330
FB
100
AcDbEntity
  8
AM_9
100
AcDbLine
 10
0.059687
 20
1.7962598
 30
0.0
 11
0.059687
 21
1.874049749081118
 31
0.0
  0
LINE
  5
13E
330
FB
100
AcDbEntity
  8
AM_9
100
AcDbLine
 10
-0.234157213059
 20
1.7962598
 30
0.0
 11
-0.234157213059
 21
1.860321316217294
 31
0.0
  0
LINE
  5
13F
330
FB
100
AcDbEntity
  8
AM_9
100
AcDbLine
 10
-0.163757175043
 20
1.7962598
 30
0.0
 11
-0.163757175043
 21
1.867835267795834
 31
0.0
  0
LINE
  5
140
330
FB
100
AcDbEntity
  8
AM_9
100
AcDbLine
 10
-0.114783132849
 20
1.7962598
 30
0.0
 11
-0.114783132849
 21
1.871483324107743
 31
0.0
  0
LINE
  5
141
330
FB
100
AcDbEntity
  8
AM_9
100
AcDbLine
 10
0.0321392
 20
1.7962598
 30
0.0
 11
0.0321392
 21
1.874724532250901
 31
0.0
  0
LINE
  5
142
330
FB
100
AcDbEntity
  8
AM_9
100
AcDbLine
 10
0.182122
 20
1.7962598
 30
0.0
 11
0.182122
 21
1.866134126239591
 31
0.0
  0
LINE
  5
143
330
FB
100
AcDbEntity
  8
AM_9
100
AcDbLine
 10
0.255583
 20
1.7962598
 30
0.0
 11
0.255583
 21
1.857498944847883
 31
0.0
  0
LINE
  5
144
330
FB
100
AcDbEntity
  8
AM_9
100
AcDbLine
 10
-0.0352000977482
 20
1.7962598
 30
0.0
 11
-0.0352000977482
 21
1.874669558380494
 31
0.0
  0
LINE
  5
145
330
FB
100
AcDbEntity
  8
AM_9
100
AcDbLine
 10
0.130087
 20
1.7962598
 30
0.0
 11
0.130087
 21
1.870481855680777
 31
0.0
  0
LINE
  5
146
330
FB
100
AcDbEntity
  8
AM_9
100
AcDbLine
 10
-0.3290446658729999
 20
1.7962598
 30
0.0
 11
-0.3290446658729999
 21
1.84590211220978
 31
0.0
  0
LINE
  5
147
330
FB
100
AcDbEntity
  8
AM_9
100
AcDbLine
 10
-0.261705259431
 20
1.7962598
 30
0.0
 11
-0.261705259431
 21
1.856646266036198
 31
0.0
  0
LINE
  5
148
330
FB
100
AcDbEntity
  8
AM_9
100
AcDbLine
 10
-0.099478400175
 20
1.7962598
 30
0.0
 11
-0.099478400175
 21
1.872359219780922
 31
0.0
  0
LINE
  5
149
330
FB
100
AcDbEntity
  8
AM_9
100
AcDbLine
 10
0.0474437
 20
1.7962598
 30
0.0
 11
0.0474437
 21
1.874399662646766
 31
0.0
  0
LINE
  5
14A
330
FB
100
AcDbEntity
  8
AM_9
100
AcDbLine
 10
-0.179061514016
 20
1.7962598
 30
0.0
 11
-0.179061514016
 21
1.866430275739841
 31
0.0
  0
LINE
  5
14B
330
FB
100
AcDbEntity
  8
AM_9
100
AcDbLine
 10
0.114783
 20
1.7962598
 30
0.0
 11
0.114783
 21
1.871483332255727
 31
0.0
  0
LINE
  5
14C
330
FB
100
AcDbEntity
  8
AM_9
100
AcDbLine
 10
0.197427
 20
1.7962598
 30
0.0
 11
0.197427
 21
1.864577051148866
 31
0.0
  0
LINE
  5
14D
330
FB
100
AcDbEntity
  8
AM_9
100
AcDbLine
 10
-0.246400920458
 20
1.7962598
 30
0.0
 11
-0.246400920458
 21
1.858739246477959
 31
0.0
  0
LINE
  5
14E
330
FB
100
AcDbEntity
  8
AM_9
100
AcDbLine
 10
0.127026
 20
1.7962598
 30
0.0
 11
0.127026
 21
1.870692223569661
 31
0.0
  0
LINE
  5
14F
330
FB
100
AcDbEntity
  8
AM_9
100
AcDbLine
 10
-0.111722107574
 20
1.7962598
 30
0.0
 11
-0.111722107574
 21
1.871668552569932
 31
0.0
  0
LINE
  5
150
330
FB
100
AcDbEntity
  8
AM_9
100
AcDbLine
 10
-0.258644234156
 20
1.7962598
 30
0.0
 11
-0.258644234156
 21
1.857075162759401
 31
0.0
  0
LINE
  5
151
330
FB
100
AcDbEntity
  8
AM_9
100
AcDbLine
 10
0.185183
 20
1.7962598
 30
0.0
 11
0.185183
 21
1.865832858674914
 31
0.0
  0
LINE
  5
152
330
FB
100
AcDbEntity
  8
AM_9
100
AcDbLine
 10
-0.166817806617
 20
1.7962598
 30
0.0
 11
-0.166817806617
 21
1.867564408366012
 31
0.0
  0
LINE
  5
153
330
FB
100
AcDbEntity
  8
AM_9
100
AcDbLine
 10
0.0352001
 20
1.7962598
 30
0.0
 11
0.0352001
 21
1.874669558338213
 31
0.0
  0
LINE
  5
154
330
FB
100
AcDbEntity
  8
AM_9
100
AcDbLine
 10
-0.3474096364199999
 20
1.7962598
 30
0.0
 11
-0.3474096364199999
 21
1.842534000913559
 31
0.0
  0
LINE
  5
155
330
FB
100
AcDbEntity
  8
AM_9
100
AcDbLine
 10
0.237218
 20
1.7962598
 30
0.0
 11
0.237218
 21
1.859933498939143
 31
0.0
  0
LINE
  5
156
330
FB
100
AcDbEntity
  8
AM_9
100
AcDbLine
 10
-0.053565383256
 20
1.7962598
 30
0.0
 11
-0.053565383256
 21
1.87423471041293
 31
0.0
  0
LINE
  5
157
330
FB
100
AcDbEntity
  8
AM_9
100
AcDbLine
 10
-0.151513467644
 20
1.7962598
 30
0.0
 11
-0.151513467644
 21
1.868868285653778
 31
0.0
  0
LINE
  5
158
330
FB
100
AcDbEntity
  8
AM_9
100
AcDbLine
 10
-0.053565383256
 20
1.7962598
 30
0.0
 11
0.0688697
 21
1.7962598
 31
0.0
  0
LINE
  5
159
330
FB
100
AcDbEntity
  8
AM_9
100
AcDbLine
 10
0.0198957
 20
1.7962598
 30
0.0
 11
0.0198957
 21
1.874894439994293
 31
0.0
  0
LINE
  5
15A
330
FB
100
AcDbEntity
  8
AM_9
100
AcDbLine
 10
0.237218
 20
1.7962598
 30
0.0
 11
0.347409
 21
1.7962598
 31
0.0
  0
LINE
  5
15B
330
FB
100
AcDbEntity
  8
AM_9
100
AcDbLine
 10
-0.127026446547
 20
1.7962598
 30
0.0
 11
-0.127026446547
 21
1.870692193247634
 31
0.0
  0
LINE
  5
15C
330
FB
100
AcDbEntity
  8
AM_9
100
AcDbLine
 10
0.142331
 20
1.7962598
 30
0.0
 11
0.142331
 21
1.869590031648382
 31
0.0
  0
LINE
  5
15D
330
FB
100
AcDbEntity
  8
AM_9
100
AcDbLine
 10
-0.3474096364199999
 20
1.7962598
 30
0.0
 11
-0.224974530935
 21
1.7962598
 31
0.0
  0
LINE
  5
15E
330
FB
100
AcDbEntity
  8
AM_9
100
AcDbLine
 10
-0.273948573129
 20
1.7962598
 30
0.0
 11
-0.273948573129
 21
1.854879289679138
 31
0.0
  0
LINE
  5
15F
330
FB
100
AcDbEntity
  8
AM_9
100
AcDbLine
 10
0.0933567
 20
1.7962598
 30
0.0
 11
0.212731
 21
1.7962598
 31
0.0
  0
LINE
  5
160
330
FB
100
AcDbEntity
  8
AM_9
100
AcDbLine
 10
0.169879
 20
1.7962598
 30
0.0
 11
0.169879
 21
1.867288441928296
 31
0.0
  0
LINE
  5
161
330
FB
100
AcDbEntity
  8
AM_9
100
AcDbLine
 10
-0.200487509838
 20
1.7962598
 30
0.0
 11
-0.078052404353
 21
1.7962598
 31
0.0
  0
LINE
  5
162
330
FB
100
AcDbEntity
  8
AM_9
100
AcDbLine
 10
0.347409
 20
1.7962598
 30
0.0
 11
0.347409
 21
1.842534120910383
 31
0.0
  0
LINE
  5
163
330
FB
100
AcDbEntity
  8
AM_9
100
AcDbLine
 10
2.71875
 20
-1.171875
 30
0.0
 11
2.71875
 21
-1.875
 31
0.0
  0
LINE
  5
164
330
FB
100
AcDbEntity
  8
AM_9
100
AcDbLine
 10
3.0
 20
-1.875
 30
0.0
 11
3.0
 21
-1.171875
 31
0.0
  0
LINE
  5
165
330
FB
100
AcDbEntity
  8
AM_9
100
AcDbLine
 10
2.34375
 20
-1.171875
 30
0.0
 11
2.34375
 21
-1.875
 31
0.0
  0
LINE
  5
166
330
FB
100
AcDbEntity
  8
AM_9
100
AcDbLine
 10
2.0625
 20
-1.171875
 30
0.0
 11
2.0625
 21
-1.875
 31
0.0
  0
LINE
  5
167
330
FB
100
AcDbEntity
  8
AM_9
100
AcDbLine
 10
-2.71875
 20
-1.171875
 30
0.0
 11
-2.71875
 21
-1.875
 31
0.0
  0
LINE
  5
168
330
FB
100
AcDbEntity
  8
AM_9
100
AcDbLine
 10
-3.0
 20
-1.171875
 30
0.0
 11
-3.0
 21
-1.875
 31
0.0
  0
LINE
  5
169
330
FB
100
AcDbEntity
  8
AM_9
100
AcDbLine
 10
-2.34375
 20
-1.171875
 30
0.0
 11
-2.34375
 21
-1.875
 31
0.0
  0
LINE
  5
16A
330
FB
100
AcDbEntity
  8
AM_9
100
AcDbLine
 10
-2.0625
 20
-1.875
 30
0.0
 11
-2.0625
 21
-1.171875
 31
0.0
  0
LINE
  5
16B
330
FB
100
AcDbEntity
  8
AM_9
100
AcDbLine
 10
1.8125
 20
0.4795727799013877
 30
0.0
 11
1.8125
 21
-1.171875
 31
0.0
  0
LINE
  5
16C
330
FB
100
AcDbEntity
  8
AM_9
100
AcDbLine
 10
-1.8125
 20
-1.171875
 30
0.0
 11
-1.8125
 21
0.4795727799013902
 31
0.0
  0
LINE
  5
16D
330
FB
100
AcDbEntity
  8
AM_9
100
AcDbLine
 10
2.8125
 20
-1.171875
 30
0.0
 11
2.8125
 21
-1.2421875
 31
0.0
  0
LINE
  5
16E
330
FB
100
AcDbEntity
  8
AM_9
100
AcDbLine
 10
2.8125
 20
-1.2421875
 30
0.0
 11
3.0
 21
-1.2421875
 31
0.0
  0
LINE
  5
16F
330
FB
100
AcDbEntity
  8
AM_9
100
AcDbLine
 10
-2.8125
 20
-1.2421875
 30
0.0
 11
-2.8125
 21
-1.171875
 31
0.0
  0
LINE
  5
170
330
FB
100
AcDbEntity
  8
AM_9
100
AcDbLine
 10
-3.0
 20
-1.2421875
 30
0.0
 11
-2.8125
 21
-1.2421875
 31
0.0
  0
LINE
  5
171
330
FB
100
AcDbEntity
  8
AM_7
100
AcDbLine
 10
2.34375
 20
-1.359375
 30
0.0
 11
2.34375
 21
2.765625
 31
0.0
  0
LINE
  5
172
330
FB
100
AcDbEntity
  8
AM_7
100
AcDbLine
 10
-2.34375
 20
-1.359375
 30
0.0
 11
-2.34375
 21
2.765625
 31
0.0
  0
LINE
  5
173
330
FB
100
AcDbEntity
  8
AM_7
100
AcDbLine
 10
1.138949092639622
 20
1.138949092639622
 30
0.0
 11
1.636749098334675
 21
1.636749098334675
 31
0.0
  0
LINE
  5
174
330
FB
100
AcDbEntity
  8
AM_7
100
AcDbLine
 10
-2.90625
 20
-1.24921875
 30
0.0
 11
-2.90625
 21
-1.09453125
 31
0.0
  0
LINE
  5
175
330
FB
100
AcDbEntity
  8
AM_7
100
AcDbLine
 10
2.90625
 20
-1.24921875
 30
0.0
 11
2.90625
 21
-1.09453125
 31
0.0
  0
LINE
  5
176
330
FB
100
AcDbEntity
  8
AM_4
100
AcDbLine
 10
-0.179061514016
 20
1.866430275739841
 30
0.0
 11
-0.1821221455900004
 21
1.866134112030991
 31
0.0
  0
LINE
  5
177
330
FB
100
AcDbEntity
  8
AM_4
100
AcDbLine
 10
-0.1056004507249998
 20
1.872023916729345
 30
0.0
 11
-0.1147831328490001
 21
1.871483324107743
 31
0.0
  0
LINE
  5
178
330
FB
100
AcDbEntity
  8
AM_4
100
AcDbLine
 10
1.635647091630582
 20
1.544941908274186
 30
0.0
 11
1.544941913737058
 21
1.63564708616771
 31
0.0
  0
ARC
  5
179
330
FB
100
AcDbEntity
  8
AM_4
100
AcDbCircle
 10
1.539374135336986
 20
1.630079318693381
 30
0.0
 40
0.0078740200000025
100
AcDbArc
 50
45.00000000000344
 51
107.3006441304047
  0
ARC
  5
17A
330
FB
100
AcDbEntity
  8
AM_4
100
AcDbCircle
 10
1.630079318693385
 20
1.539374135336986
 30
0.0
 40
0.007874019999999
100
AcDbArc
 50
342.6993558695855
 51
45.00000000000686
  0
LINE
  5
17B
330
FB
100
AcDbEntity
  8
AM_4
100
AcDbLine
 10
1.637597097999405
 20
1.5370325151145
 30
0.0
 11
1.5370325151145
 21
1.637597097999405
 31
0.0
  0
LINE
  5
17C
330
FB
100
AcDbEntity
  8
AM_4
100
AcDbLine
 10
1.5370325151145
 20
1.637597097999405
 30
0.0
 11
1.469562185551123
 21
1.616581598382791
 31
0.0
  0
LINE
  5
17D
330
FB
100
AcDbEntity
  8
AM_4
100
AcDbLine
 10
1.616581598382791
 20
1.469562185551123
 30
0.0
 11
1.637597097999405
 21
1.5370325151145
 31
0.0
  0
LINE
  5
17E
330
FB
100
AcDbEntity
  8
AM_4
100
AcDbLine
 10
1.616581598382791
 20
1.469562185551123
 30
0.0
 11
1.469562185551123
 21
1.616581598382791
 31
0.0
  0
ARC
  5
17F
330
FB
100
AcDbEntity
  8
AM_4
100
AcDbCircle
 10
1.475416221238063
 20
1.597787197855609
 30
0.0
 40
0.0196850000000026
100
AcDbArc
 50
107.3006441304231
 51
172.2172036794677
  0
ARC
  5
180
330
FB
100
AcDbEntity
  8
AM_4
100
AcDbCircle
 10
1.597787197855611
 20
1.47541622123806
 30
0.0
 40
0.0196850000000003
100
AcDbArc
 50
277.782796320528
 51
342.6993558695809
  0
LINE
  5
181
330
FB
100
AcDbEntity
  8
AM_4
100
AcDbLine
 10
1.600452902829938
 20
1.455912548712357
 30
0.0
 11
1.455912548712358
 21
1.600452902829938
 31
0.0
  0
ARC
  5
182
330
FB
100
AcDbEntity
  8
AM_4
100
AcDbCircle
 10
1.374079706241566
 20
1.611637594414645
 30
0.0
 40
0.0825936524963897
100
AcDbArc
 50
269.3563657692226
 51
352.2171914605274
  0
ARC
  5
183
330
FB
100
AcDbEntity
  8
AM_4
100
AcDbCircle
 10
1.611637594414643
 20
1.374079706241567
 30
0.0
 40
0.0825936524963882
100
AcDbArc
 50
97.7828085394716
 51
180.6436342307778
  0
LINE
  5
184
330
FB
100
AcDbEntity
  8
AM_4
100
AcDbLine
 10
1.529049153206692
 20
1.373151906944932
 30
0.0
 11
1.373151906944932
 21
1.529049153206692
 31
0.0
  0
LINE
  5
185
330
FB
100
AcDbEntity
  8
AM_4
100
AcDbLine
 10
1.373151906944932
 20
1.529049153206692
 30
0.0
 11
1.359232509957275
 21
1.515129756219035
 31
0.0
  0
LINE
  5
186
330
FB
100
AcDbEntity
  8
AM_4
100
AcDbLine
 10
1.515129756219035
 20
1.359232509957275
 30
0.0
 11
1.529049153206692
 21
1.373151906944932
 31
0.0
  0
LINE
  5
187
330
FB
100
AcDbEntity
  8
AM_4
100
AcDbLine
 10
1.261796023936893
 20
1.417693270198653
 30
0.0
 11
1.245598857921365
 21
1.401496104183125
 31
0.0
  0
LINE
  5
188
330
FB
100
AcDbEntity
  8
AM_4
100
AcDbLine
 10
1.401480455823997
 20
1.245583209562237
 30
0.0
 11
1.417693270198653
 21
1.261796023936893
 31
0.0
  0
LINE
  5
189
330
FB
100
AcDbEntity
  8
AM_4
100
AcDbLine
 10
1.451099822969031
 20
1.228389471166515
 30
0.0
 11
1.228389471166515
 21
1.451099822969031
 31
0.0
  0
LWPOLYLINE
  5
18A
330
FB
100
AcDbEntity
  8
AM_4
100
AcDbPolyline
 90
        5
 70
     0
 43
0.0
 10
1.344360638328286
 20
1.344360638328286
 10
1.368515082610911
 20
1.31349520966553
 10
1.394887458666453
 20
1.284602944980078
 10
1.424271962891464
 20
1.257649427967347
 10
1.455716167782934
 20
1.233005108873639
  0
LWPOLYLINE
  5
18B
330
FB
100
AcDbEntity
  8
AM_4
100
AcDbPolyline
 90
        5
 70
     0
 43
0.0
 10
1.543920671282289
 20
1.321209612372993
 10
1.519766226999665
 20
1.35207504103575
 10
1.493393850944122
 20
1.380967305721202
 10
1.464009346719112
 20
1.407920822733932
 10
1.432565141827641
 20
1.432565141827641
  0
LINE
  5
18C
330
FB
100
AcDbEntity
  8
AM_4
100
AcDbLine
 10
1.22838921234828
 20
1.451100271257577
 30
0.0
 11
1.325825508898351
 21
1.548536567807647
 31
0.0
  0
LINE
  5
18D
330
FB
100
AcDbEntity
  8
AM_4
100
AcDbLine
 10
1.548536308989412
 20
1.325825957186898
 30
0.0
 11
1.325825957186898
 21
1.548536308989412
 31
0.0
  0
LINE
  5
18E
330
FB
100
AcDbEntity
  8
AM_4
100
AcDbLine
 10
1.548536567807647
 20
1.325825508898351
 30
0.0
 11
1.451100271257576
 21
1.22838921234828
 31
0.0
  0
LWPOLYLINE
  5
18F
330
FB
100
AcDbEntity
  8
AM_4
100
AcDbPolyline
 90
        5
 70
     0
 43
0.0
 10
1.432565141827641
 20
1.432565141827641
 10
1.408410697545017
 20
1.463430570490398
 10
1.382038321489474
 20
1.49232283517585
 10
1.352653817264464
 20
1.519276352188581
 10
1.321209612372993
 20
1.54392067128229
  0
LWPOLYLINE
  5
190
330
FB
100
AcDbEntity
  8
AM_4
100
AcDbPolyline
 90
        5
 70
     0
 43
0.0
 10
1.233005108873638
 20
1.455716167782935
 10
1.257159553156262
 20
1.424850739120178
 10
1.283531929211805
 20
1.395958474434726
 10
1.312916433436816
 20
1.369004957421995
 10
1.344360638328286
 20
1.344360638328286
  0
LINE
  5
191
330
FB
100
AcDbEntity
  8
AM_4
100
AcDbLine
 10
1.344360638328286
 20
1.344360638328286
 30
0.0
 11
1.432565141827641
 21
1.432565141827641
 31
0.0
  0
ARC
  5
192
330
FB
100
AcDbEntity
  8
AM_4
100
AcDbCircle
 10
1.2474449
 20
-1.699680334375
 30
0.0
 40
0.0590550999999997
100
AcDbArc
 50
0.0
 51
90.0
  0
ARC
  5
193
330
FB
100
AcDbEntity
  8
AM_4
100
AcDbCircle
 10
-1.247444900000001
 20
-1.699680334375
 30
0.0
 40
0.0590550999999992
100
AcDbArc
 50
90.0
 51
180.0
  0
ARC
  5
194
330
FB
100
AcDbEntity
  8
AM_4
100
AcDbCircle
 10
-0.0000000000000001
 20
0.0000000000000002
 30
0.0
 40
1.4173
100
AcDbArc
 50
203.4745647938811
 51
336.5254352061189
  0
LINE
  5
195
330
FB
100
AcDbEntity
  8
AM_4
100
AcDbLine
 10
1.2474449
 20
-1.640625234375
 30
0.0
 11
-1.2474449
 21
-1.640625234375
 31
0.0
  0
LINE
  5
196
330
FB
100
AcDbEntity
  8
AM_4
100
AcDbLine
 10
1.3065
 20
-1.875
 30
0.0
 11
3.25
 21
-1.875
 31
0.0
  0
LINE
  5
197
330
FB
100
AcDbEntity
  8
AM_4
100
AcDbLine
 10
1.3065
 20
-1.699680334375
 30
0.0
 11
1.3065
 21
-1.875
 31
0.0
  0
LINE
  5
198
330
FB
100
AcDbEntity
  8
AM_4
100
AcDbLine
 10
1.3
 20
-1.672745852757565
 30
0.0
 11
1.3
 21
-0.5645700045167107
 31
0.0
  0
LINE
  5
199
330
FB
100
AcDbEntity
  8
AM_4
100
AcDbLine
 10
-3.25
 20
-1.875
 30
0.0
 11
-1.3065
 21
-1.875
 31
0.0
  0
LINE
  5
19A
330
FB
100
AcDbEntity
  8
AM_4
100
AcDbLine
 10
-3.190944900000001
 20
-1.171875
 30
0.0
 11
-1.3
 21
-1.171875000000083
 31
0.0
  0
LWPOLYLINE
  5
19B
330
FB
100
AcDbEntity
  8
AM_4
100
AcDbPolyline
 90
       19
 70
     0
 43
0.0
 10
-3.25
 20
-1.230930100000001
 10
-3.249775277515278
 20
-1.225783108896463
 10
-3.249102820334911
 20
-1.220675289503063
 10
-3.247987746264083
 20
-1.215645515409567
 10
-3.246438541689773
 20
-1.210732066233889
 10
-3.244466996994228
 20
-1.205972336291077
 10
-3.24208811682303
 20
-1.201402550000001
 10
-3.23932000589069
 20
-1.197057486193646
 10
-3.236183731192835
 20
-1.192970213431201
 10
-3.232703161673649
 20
-1.189171838326351
 10
-3.228904786568799
 20
-1.185691268807165
 10
-3.224817513806354
 20
-1.182554994109309
 10
-3.220472449999999
 20
-1.17978688317697
 10
-3.215902663708922
 20
-1.177408003005772
 10
-3.211142933766111
 20
-1.175436458310226
 10
-3.206229484590433
 20
-1.173887253735917
 10
-3.201199710496938
 20
-1.172772179665089
 10
-3.196091891103536
 20
-1.172099722484722
 10
-3.190944900000001
 20
-1.171875
  0
LINE
  5
19C
330
FB
100
AcDbEntity
  8
AM_4
100
AcDbLine
 10
-3.25
 20
-1.875
 30
0.0
 11
-3.25
 21
-1.2309301
 31
0.0
  0
LINE
  5
19D
330
FB
100
AcDbEntity
  8
AM_4
100
AcDbLine
 10
-1.3065
 20
-1.875
 30
0.0
 11
-1.3065
 21
-1.699680334375
 31
0.0
  0
LINE
  5
19E
330
FB
100
AcDbEntity
  8
AM_4
100
AcDbLine
 10
-1.3
 20
-0.5645700045167107
 30
0.0
 11
-1.3
 21
-1.672745852757565
 31
0.0
  0
LINE
  5
19F
330
FB
100
AcDbEntity
  8
AM_4
100
AcDbLine
 10
-3.0721875
 20
-1.875
 30
0.0
 11
-3.0721875
 21
-1.171875
 31
0.0
  0
LWPOLYLINE
  5
1A0
330
FB
100
AcDbEntity
  8
AM_4
100
AcDbPolyline
 90
       19
 70
     0
 43
0.0
 10
3.190944899999999
 20
-1.171875
 10
3.196091891103536
 20
-1.172099722484722
 10
3.201199710496938
 20
-1.172772179665089
 10
3.206229484590434
 20
-1.173887253735916
 10
3.211142933766112
 20
-1.175436458310226
 10
3.215902663708923
 20
-1.177408003005772
 10
3.220472449999999
 20
-1.17978688317697
 10
3.224817513806355
 20
-1.182554994109309
 10
3.228904786568799
 20
-1.185691268807165
 10
3.232703161673649
 20
-1.189171838326351
 10
3.236183731192836
 20
-1.192970213431201
 10
3.239320005890691
 20
-1.197057486193646
 10
3.24208811682303
 20
-1.20140255
 10
3.244466996994228
 20
-1.205972336291077
 10
3.246438541689773
 20
-1.210732066233889
 10
3.247987746264084
 20
-1.215645515409567
 10
3.249102820334911
 20
-1.220675289503062
 10
3.249775277515278
 20
-1.225783108896463
 10
3.25
 20
-1.230930100000001
  0
LINE
  5
1A1
330
FB
100
AcDbEntity
  8
AM_4
100
AcDbLine
 10
1.300000000000001
 20
-1.171875000000001
 30
0.0
 11
3.190944899999999
 21
-1.171875
 31
0.0
  0
LINE
  5
1A2
330
FB
100
AcDbEntity
  8
AM_4
100
AcDbLine
 10
3.0721875
 20
-1.171875
 30
0.0
 11
3.072187500000001
 21
-1.875
 31
0.0
  0
LINE
  5
1A3
330
FB
100
AcDbEntity
  8
AM_4
100
AcDbLine
 10
3.25
 20
-1.2309301
 30
0.0
 11
3.25
 21
-1.875
 31
0.0
  0
LINE
  5
1A4
330
FB
100
AcDbEntity
  8
AM_4
100
AcDbLine
 10
2.15625
 20
-1.171875000000002
 30
0.0
 11
1.836328407312153
 21
0.3788442694543625
 31
0.0
  0
LWPOLYLINE
  5
1A5
330
FB
100
AcDbEntity
  8
AM_4
100
AcDbPolyline
 90
       33
 70
     0
 43
0.0
 10
1.836328407312154
 20
0.3788442694543614
 10
1.796322169629638
 20
0.5374492189007903
 10
1.74264483558726
 20
0.6919638552706731
 10
1.675704922108341
 20
0.8412122288827467
 10
1.596011882353882
 20
0.9840584694951913
 10
1.504172228476387
 20
1.119415430964028
 10
1.400884915696163
 20
1.24625296508171
 10
1.286936022830052
 20
1.363605761627007
 10
1.163192769756988
 20
1.470580694958651
 10
1.030596917351075
 20
1.566363621240759
 10
0.8901576001126885
 20
1.650225574569011
 10
0.7429436460455896
 20
1.721528314841347
 10
0.5900754422304451
 20
1.779729185150523
 10
0.4327164080026333
 20
1.824385241730842
 10
0.2720641406286107
 20
1.85515662502766
 10
0.1093413008675847
 20
1.871809146233821
 10
-0.0542136922151261
 20
1.874216069607879
 10
-0.2173560863649574
 20
1.862359077009617
 10
-0.3788442694543583
 20
1.836328407312155
 10
-0.5374492189007872
 20
1.79632216962964
 10
-0.6919638552706701
 20
1.742644835587262
 10
-0.8412122288827436
 20
1.675704922108344
 10
-0.9840584694951884
 20
1.596011882353885
 10
-1.119415430964025
 20
1.50417222847639
 10
-1.246252965081708
 20
1.400884915696166
 10
-1.363605761627004
 20
1.286936022830055
 10
-1.470580694958649
 20
1.163192769756991
 10
-1.566363621240757
 20
1.030596917351079
 10
-1.650225574569009
 20
0.8901576001126921
 10
-1.721528314841346
 20
0.7429436460455932
 10
-1.779729185150522
 20
0.5900754422304487
 10
-1.824385241730841
 20
0.4327164080026371
 10
-1.836328407312154
 20
0.3788442694543639
  0
LINE
  5
1A6
330
FB
100
AcDbEntity
  8
AM_4
100
AcDbLine
 10
-1.836328407312153
 20
0.3788442694543636
 30
0.0
 11
-2.156250000000001
 21
-1.171875000000001
 31
0.0
  0
LWPOLYLINE
  5
1A7
330
FB
100
AcDbEntity
  8
AM_4
100
AcDbPolyline
 90
       47
 70
     0
 43
0.0
 10
1.300000000000001
 20
-0.5645700045167114
 10
1.344258625595972
 20
-0.449119179629225
 10
1.378286631365608
 20
-0.3302502865991853
 10
1.40182504363833
 20
-0.2088679894775506
 10
1.41469472088386
 20
-0.0858960808380515
 10
1.416797717087437
 20
0.0377295488420968
 10
1.408118027178126
 20
0.1610680338738323
 10
1.388721708837079
 20
0.28318069391225
 10
1.358756379758688
 20
0.4031381778808175
 10
1.318450094190799
 20
0.5200275368942248
 10
1.268109607304185
 20
0.6329591723506551
 10
1.20811804060047
 20
0.7410736063142994
 10
1.138931966126168
 20
0.8435480226614138
 10
1.061077931683723
 20
0.9396025292078529
 10
0.9751484534847915
 20
1.028506093159501
 10
0.8817975067441062
 20
1.109582104713247
 10
0.781735548533206
 20
1.182213526466132
 10
0.6757241107731383
 20
1.245847589442566
 10
0.5645700045167136
 20
1.3
 10
0.4491191796292274
 20
1.344258625595972
 10
0.3302502865991878
 20
1.378286631365608
 10
0.2088679894775532
 20
1.40182504363833
 10
0.0858960808380541
 20
1.41469472088386
 10
-0.0377295488420942
 20
1.416797717087437
 10
-0.1610680338738297
 20
1.408118027178127
 10
-0.2831806939122474
 20
1.38872170883708
 10
-0.4031381778808149
 20
1.358756379758689
 10
-0.5200275368942223
 20
1.3184500941908
 10
-0.6329591723506528
 20
1.268109607304186
 10
-0.7410736063142969
 20
1.208118040600472
 10
-0.8435480226614117
 20
1.13893196612617
 10
-0.9396025292078508
 20
1.061077931683725
 10
-1.028506093159499
 20
0.9751484534847935
 10
-1.109582104713245
 20
0.8817975067441085
 10
-1.182213526466131
 20
0.7817355485332081
 10
-1.245847589442564
 20
0.6757241107731407
 10
-1.299999999999998
 20
0.5645700045167161
 10
-1.344258625595971
 20
0.44911917962923
 10
-1.378286631365607
 20
0.3302502865991903
 10
-1.401825043638329
 20
0.2088679894775558
 10
-1.41469472088386
 20
0.0858960808380567
 10
-1.416797717087437
 20
-0.0377295488420916
 10
-1.408118027178127
 20
-0.1610680338738271
 10
-1.38872170883708
 20
-0.2831806939122461
 10
-1.358756379758689
 20
-0.4031381778808137
 10
-1.3184500941908
 20
-0.5200275368942211
 10
-1.3
 20
-0.5645700045167117
  0
ENDBLK
  5
FE
330
FB
100
AcDbEntity
  8
0
100
AcDbBlockEnd
  0
ENDSEC
  0
SECTION
  2
ENTITIES
  0
INSERT
  5
6F
330
1F
100
AcDbEntity
  8
0
100
AcDbBlockReference
  2
1_129163_0
 10
0.0
 20
0.0
 30
0.0
  0
POINT
  5
1A9
330
1F
100
AcDbEntity
  8
ConnectionPoints
100
AcDbPoint
 10
0.0
 20
0.0
 30
0.0
  0
POINT
  5
1AA
330
1F
100
AcDbEntity
  8
ConnectionPoints
100
AcDbPoint
 10
0.0
 20
0.0
 30
-0.5625
  0
POINT
  5
1AB
330
1F
100
AcDbEntity
  8
ConnectionPoints
100
AcDbPoint
 10
0.0
 20
0.0
 30
0.0
  0
POINT
  5
1AC
330
1F
100
AcDbEntity
  8
ConnectionPoints
100
AcDbPoint
 10
0.0
 20
0.0
 30
0.0
  0
ENDSEC
  0
SECTION
  2
OBJECTS
  0
DICTIONARY
  5
C
330
0
100
AcDbDictionary
281
     1
  3
ACAD_DETAILVIEWSTYLE
350
1B4
  3
ACAD_GROUP
350
D
  3
ACAD_LAYOUT
350
1A
  3
ACAD_MATERIAL
350
43
  3
ACAD_MLEADERSTYLE
350
6B
  3
ACAD_MLINESTYLE
350
17
  3
ACAD_PLOTSETTINGS
350
19
  3
ACAD_PLOTSTYLENAME
350
E
  3
ACAD_SCALELIST
350
47
  3
ACAD_SECTIONVIEWSTYLE
350
1B5
  3
ACAD_TABLESTYLE
350
69
  3
ACAD_VISUALSTYLE
350
2A
  3
ACDB_RECOMPOSE_DATA
350
1B1
  3
AcDbVariableDictionary
350
1AD
  0
SUN
  5
6D
330
29
100
AcDbSun
 90
        1
290
     0
 63
     7
421
 16777215
 40
1.0
291
     1
 91
  2455826
 92
 54000000
292
     0
 70
     2
 71
   256
280
     1
  0
DICTIONARY
  5
1B4
102
{ACAD_REACTORS
330
C
102
}
330
C
100
AcDbDictionary
281
     1
  0
DICTIONARY
  5
D
102
{ACAD_REACTORS
330
C
102
}
330
C
100
AcDbDictionary
281
     1
  0
DICTIONARY
  5
1A
102
{ACAD_REACTORS
330
C
102
}
330
C
100
AcDbDictionary
281
     1
  3
Layout1
350
1E
  3
Layout2
350
26
  3
Model
350
22
  0
DICTIONARY
  5
43
102
{ACAD_REACTORS
330
C
102
}
330
C
100
AcDbDictionary
281
     1
  3
ByBlock
350
45
  3
ByLayer
350
44
  3
Global
350
46
  0
DICTIONARY
  5
6B
102
{ACAD_REACTORS
330
C
102
}
330
C
100
AcDbDictionary
281
     1
  3
Standard
350
6C
  0
DICTIONARY
  5
17
102
{ACAD_REACTORS
330
C
102
}
330
C
100
AcDbDictionary
281
     1
  3
Standard
350
18
  0
DICTIONARY
  5
19
102
{ACAD_REACTORS
330
C
102
}
330
C
100
AcDbDictionary
281
     1
  0
ACDBDICTIONARYWDFLT
  5
E
102
{ACAD_REACTORS
330
C
102
}
330
C
100
AcDbDictionary
281
     1
  3
Normal
350
F
100
AcDbDictionaryWithDefault
340
F
  0
DICTIONARY
  5
47
102
{ACAD_REACTORS
330
C
102
}
330
C
100
AcDbDictionary
281
     1
  3
A0
350
48
  3
A1
350
49
  3
A2
350
4A
  3
A3
350
4B
  3
A4
350
4C
  3
A5
350
4D
  3
A6
350
4E
  3
A7
350
4F
  3
A8
350
50
  3
A9
350
51
  3
B0
350
52
  3
B1
350
53
  3
B2
350
54
  3
B3
350
55
  3
B4
350
56
  3
B5
350
57
  3
B6
350
58
  3
B7
350
59
  3
B8
350
5A
  3
B9
350
5B
  3
C0
350
5C
  3
C1
350
5D
  3
C2
350
5E
  3
C3
350
5F
  3
C4
350
60
  3
C5
350
61
  3
C6
350
62
  3
C7
350
63
  3
C8
350
64
  3
C9
350
65
  3
D0
350
66
  3
D1
350
67
  3
D2
350
68
  0
DICTIONARY
  5
1B5
102
{ACAD_REACTORS
330
C
102
}
330
C
100
AcDbDictionary
281
     1
  0
DICTIONARY
  5
69
102
{ACAD_REACTORS
330
C
102
}
330
C
100
AcDbDictionary
281
     1
  3
Standard
350
6A
  0
DICTIONARY
  5
2A
102
{ACAD_REACTORS
330
C
102
}
330
C
100
AcDbDictionary
281
     1
  3
2dWireframe
350
2F
  3
Basic
350
32
  3
Brighten
350
36
  3
ColorChange
350
3A
  3
Conceptual
350
34
  3
Dim
350
35
  3
EdgeColorOff
350
3D
  3
Facepattern
350
39
  3
Flat
350
2B
  3
FlatWithEdges
350
2C
  3
Gouraud
350
2D
  3
GouraudWithEdges
350
2E
  3
Hidden
350
31
  3
JitterOff
350
3B
  3
Linepattern
350
38
  3
OverhangOff
350
3C
  3
Realistic
350
33
  3
Shaded
350
42
  3
Shaded with edges
350
41
  3
Shades of Gray
350
3E
  3
Sketchy
350
3F
  3
Thicken
350
37
  3
Wireframe
350
30
  3
X-Ray
350
40
  0
XRECORD
  5
1B1
102
{ACAD_REACTORS
330
C
102
}
330
C
100
AcDbXrecord
280
     1
 90
        1
330
6A
  0
DICTIONARY
  5
1AD
102
{ACAD_REACTORS
330
C
102
}
330
C
100
AcDbDictionary
281
     1
  3
CANNOSCALE
350
1AE
  3
CMLEADERSTYLE
350
1B3
  3
CTABLESTYLE
350
1B2
  0
LAYOUT
  5
1E
102
{ACAD_REACTORS
330
1A
102
}
330
1A
100
AcDbPlotSettings
  1

  2
none_device
  4

  6

 40
0.0
 41
0.0
 42
0.0
 43
0.0
 44
0.0
 45
0.0
 46
0.0
 47
0.0
 48
0.0
 49
0.0
140
0.0
141
0.0
142
1.0
143
1.0
 70
   688
 72
     0
 73
     0
 74
     5
  7

 75
    16
 76
     0
 77
     2
 78
   300
147
1.0
148
0.0
149
0.0
100
AcDbLayout
  1
Layout1
 70
     1
 71
     1
 10
0.0
 20
0.0
 11
12.0
 21
9.0
 12
0.0
 22
0.0
 32
0.0
 14
1.000000000000000E+20
 24
1.000000000000000E+20
 34
1.000000000000000E+20
 15
-1.000000000000000E+20
 25
-1.000000000000000E+20
 35
-1.000000000000000E+20
146
0.0
 13
0.0
 23
0.0
 33
0.0
 16
1.0
 26
0.0
 36
0.0
 17
0.0
 27
1.0
 37
0.0
 76
     0
330
1B
  0
LAYOUT
  5
26
102
{ACAD_REACTORS
330
1A
102
}
330
1A
100
AcDbPlotSettings
  1

  2
none_device
  4

  6

 40
0.0
 41
0.0
 42
0.0
 43
0.0
 44
0.0
 45
0.0
 46
0.0
 47
0.0
 48
0.0
 49
0.0
140
0.0
141
0.0
142
1.0
143
1.0
 70
   688
 72
     0
 73
     0
 74
     5
  7

 75
    16
 76
     0
 77
     2
 78
   300
147
1.0
148
0.0
149
0.0
100
AcDbLayout
  1
Layout2
 70
     1
 71
     2
 10
0.0
 20
0.0
 11
0.0
 21
0.0
 12
0.0
 22
0.0
 32
0.0
 14
0.0
 24
0.0
 34
0.0
 15
0.0
 25
0.0
 35
0.0
146
0.0
 13
0.0
 23
0.0
 33
0.0
 16
1.0
 26
0.0
 36
0.0
 17
0.0
 27
1.0
 37
0.0
 76
     0
330
23
  0
LAYOUT
  5
22
102
{ACAD_REACTORS
330
1A
102
}
330
1A
100
AcDbPlotSettings
  1

  2
none_device
  4
Letter_(8.50_x_11.00_Inches)
  6

 40
6.35
 41
6.35
 42
6.35000508
 43
6.35000508
 44
215.9
 45
279.4
 46
0.0
 47
0.0
 48
0.0
 49
0.0
140
0.0
141
0.0
142
1.0
143
1.0
 70
  1712
 72
     0
 73
     0
 74
     0
  7

 75
     0
 76
     0
 77
     2
 78
   300
147
1.0
148
0.0
149
0.0
100
AcDbLayout
  1
Model
 70
     1
 71
     0
 10
0.0
 20
0.0
 11
12.0
 21
9.0
 12
0.0
 22
0.0
 32
0.0
 14
1.000000000000000E+20
 24
1.000000000000000E+20
 34
1.000000000000000E+20
 15
-1.000000000000000E+20
 25
-1.000000000000000E+20
 35
-1.000000000000000E+20
146
0.0
 13
0.0
 23
0.0
 33
0.0
 16
1.0
 26
0.0
 36
0.0
 17
0.0
 27
1.0
 37
0.0
 76
     0
330
1F
331
29
  0
MATERIAL
  5
45
102
{ACAD_REACTORS
330
43
102
}
330
43
100
AcDbMaterial
  1
ByBlock
 72
     1
 94
      127
  0
MATERIAL
  5
44
102
{ACAD_REACTORS
330
43
102
}
330
43
100
AcDbMaterial
  1
ByLayer
 72
     1
 94
      127
  0
MATERIAL
  5
46
102
{ACAD_REACTORS
330
43
102
}
330
43
100
AcDbMaterial
  1
Global
 72
     1
 94
      127
  0
MLEADERSTYLE
  5
6C
102
{ACAD_REACTORS
330
6B
102
}
330
6B
100
AcDbMLeaderStyle
179
     2
170
     2
171
     1
172
     0
 90
        2
 40
0.0
 41
0.0
173
     1
 91
-1056964608
340
14
 92
       -2
290
     1
 42
0.09
291
     1
 43
0.36
  3
Standard
341
0
 44
0.18
300

342
11
174
     1
178
     6
175
     1
176
     0
 93
-1056964608
 45
0.18
292
     0
297
     0
 46
0.18
343
0
 94
-1056964608
 47
1.0
 49
1.0
140
1.0
293
     1
141
0.0
294
     1
177
     0
142
1.0
295
     0
296
     0
143
0.125
271
     0
272
     9
273
     9
298
     0
  0
MLINESTYLE
  5
18
102
{ACAD_REACTORS
330
17
102
}
330
17
100
AcDbMlineStyle
  2
Standard
 70
     0
  3

 62
   256
 51
90.0
 52
90.0
 71
     2
 49
0.5
 62
   256
  6
BYLAYER
 49
-0.5
 62
   256
  6
BYLAYER
  0
ACDBPLACEHOLDER
  5
F
102
{ACAD_REACTORS
330
E
102
}
330
E
  0
SCALE
  5
48
102
{ACAD_REACTORS
330
47
102
}
330
47
100
AcDbScale
 70
     0
300
1:1
140
1.0
141
1.0
290
     1
  0
SCALE
  5
49
102
{ACAD_REACTORS
330
47
102
}
330
47
100
AcDbScale
 70
     0
300
1:2
140
1.0
141
2.0
290
     0
  0
SCALE
  5
4A
102
{ACAD_REACTORS
330
47
102
}
330
47
100
AcDbScale
 70
     0
300
1:4
140
1.0
141
4.0
290
     0
  0
SCALE
  5
4B
102
{ACAD_REACTORS
330
47
102
}
330
47
100
AcDbScale
 70
     0
300
1:5
140
1.0
141
5.0
290
     0
  0
SCALE
  5
4C
102
{ACAD_REACTORS
330
47
102
}
330
47
100
AcDbScale
 70
     0
300
1:8
140
1.0
141
8.0
290
     0
  0
SCALE
  5
4D
102
{ACAD_REACTORS
330
47
102
}
330
47
100
AcDbScale
 70
     0
300
1:10
140
1.0
141
10.0
290
     0
  0
SCALE
  5
4E
102
{ACAD_REACTORS
330
47
102
}
330
47
100
AcDbScale
 70
     0
300
1:16
140
1.0
141
16.0
290
     0
  0
SCALE
  5
4F
102
{ACAD_REACTORS
330
47
102
}
330
47
100
AcDbScale
 70
     0
300
1:20
140
1.0
141
20.0
290
     0
  0
SCALE
  5
50
102
{ACAD_REACTORS
330
47
102
}
330
47
100
AcDbScale
 70
     0
300
1:30
140
1.0
141
30.0
290
     0
  0
SCALE
  5
51
102
{ACAD_REACTORS
330
47
102
}
330
47
100
AcDbScale
 70
     0
300
1:40
140
1.0
141
40.0
290
     0
  0
SCALE
  5
52
102
{ACAD_REACTORS
330
47
102
}
330
47
100
AcDbScale
 70
     0
300
1:50
140
1.0
141
50.0
290
     0
  0
SCALE
  5
53
102
{ACAD_REACTORS
330
47
102
}
330
47
100
AcDbScale
 70
     0
300
1:100
140
1.0
141
100.0
290
     0
  0
SCALE
  5
54
102
{ACAD_REACTORS
330
47
102
}
330
47
100
AcDbScale
 70
     0
300
2:1
140
2.0
141
1.0
290
     0
  0
SCALE
  5
55
102
{ACAD_REACTORS
330
47
102
}
330
47
100
AcDbScale
 70
     0
300
4:1
140
4.0
141
1.0
290
     0
  0
SCALE
  5
56
102
{ACAD_REACTORS
330
47
102
}
330
47
100
AcDbScale
 70
     0
300
8:1
140
8.0
141
1.0
290
     0
  0
SCALE
  5
57
102
{ACAD_REACTORS
330
47
102
}
330
47
100
AcDbScale
 70
     0
300
10:1
140
10.0
141
1.0
290
     0
  0
SCALE
  5
58
102
{ACAD_REACTORS
330
47
102
}
330
47
100
AcDbScale
 70
     0
300
100:1
140
100.0
141
1.0
290
     0
  0
SCALE
  5
59
102
{ACAD_REACTORS
330
47
102
}
330
47
100
AcDbScale
 70
     0
300
1/128" = 1'-0"
140
0.0078125
141
12.0
290
     0
  0
SCALE
  5
5A
102
{ACAD_REACTORS
330
47
102
}
330
47
100
AcDbScale
 70
     0
300
1/64" = 1'-0"
140
0.015625
141
12.0
290
     0
  0
SCALE
  5
5B
102
{ACAD_REACTORS
330
47
102
}
330
47
100
AcDbScale
 70
     0
300
1/32" = 1'-0"
140
0.03125
141
12.0
290
     0
  0
SCALE
  5
5C
102
{ACAD_REACTORS
330
47
102
}
330
47
100
AcDbScale
 70
     0
300
1/16" = 1'-0"
140
0.0625
141
12.0
290
     0
  0
SCALE
  5
5D
102
{ACAD_REACTORS
330
47
102
}
330
47
100
AcDbScale
 70
     0
300
3/32" = 1'-0"
140
0.09375
141
12.0
290
     0
  0
SCALE
  5
5E
102
{ACAD_REACTORS
330
47
102
}
330
47
100
AcDbScale
 70
     0
300
1/8" = 1'-0"
140
0.125
141
12.0
290
     0
  0
SCALE
  5
5F
102
{ACAD_REACTORS
330
47
102
}
330
47
100
AcDbScale
 70
     0
300
3/16" = 1'-0"
140
0.1875
141
12.0
290
     0
  0
SCALE
  5
60
102
{ACAD_REACTORS
330
47
102
}
330
47
100
AcDbScale
 70
     0
300
1/4" = 1'-0"
140
0.25
141
12.0
290
     0
  0
SCALE
  5
61
102
{ACAD_REACTORS
330
47
102
}
330
47
100
AcDbScale
 70
     0
300
3/8" = 1'-0"
140
0.375
141
12.0
290
     0
  0
SCALE
  5
62
102
{ACAD_REACTORS
330
47
102
}
330
47
100
AcDbScale
 70
     0
300
1/2" = 1'-0"
140
0.5
141
12.0
290
     0
  0
SCALE
  5
63
102
{ACAD_REACTORS
330
47
102
}
330
47
100
AcDbScale
 70
     0
300
3/4" = 1'-0"
140
0.75
141
12.0
290
     0
  0
SCALE
  5
64
102
{ACAD_REACTORS
330
47
102
}
330
47
100
AcDbScale
 70
     0
300
1" = 1'-0"
140
1.0
141
12.0
290
     0
  0
SCALE
  5
65
102
{ACAD_REACTORS
330
47
102
}
330
47
100
AcDbScale
 70
     0
300
1-1/2" = 1'-0"
140
1.5
141
12.0
290
     0
  0
SCALE
  5
66
102
{ACAD_REACTORS
330
47
102
}
330
47
100
AcDbScale
 70
     0
300
3" = 1'-0"
140
3.0
141
12.0
290
     0
  0
SCALE
  5
67
102
{ACAD_REACTORS
330
47
102
}
330
47
100
AcDbScale
 70
     0
300
6" = 1'-0"
140
6.0
141
12.0
290
     0
  0
SCALE
  5
68
102
{ACAD_REACTORS
330
47
102
}
330
47
100
AcDbScale
 70
     0
300
1'-0" = 1'-0"
140
12.0
141
12.0
290
     0
  0
TABLESTYLE
  5
6A
102
{ACAD_REACTORS
330
69
102
}
102
{ACAD_XDICTIONARY
360
1AF
102
}
330
69
100
AcDbTableStyle
  3
Standard
 70
     0
 71
     0
 40
0.06
 41
0.06
280
     0
281
     0
  7
Standard
140
0.18
170
     2
 62
     0
 63
   257
283
     0
 90
        4
 91
        0
  1

274
    -2
284
     1
 64
     0
275
    -2
285
     1
 65
     0
276
    -2
286
     1
 66
     0
277
    -2
287
     1
 67
     0
278
    -2
288
     1
 68
     0
279
    -2
289
     1
 69
     0
  7
Standard
140
0.25
170
     5
 62
     0
 63
   257
283
     0
 90
        4
 91
        0
  1

274
    -2
284
     1
 64
     0
275
    -2
285
     1
 65
     0
276
    -2
286
     1
 66
     0
277
    -2
287
     1
 67
     0
278
    -2
288
     1
 68
     0
279
    -2
289
     1
 69
     0
  7
Standard
140
0.18
170
     5
 62
     0
 63
   257
283
     0
 90
        4
 91
        0
  1

274
    -2
284
     1
 64
     0
275
    -2
285
     1
 65
     0
276
    -2
286
     1
 66
     0
277
    -2
287
     1
 67
     0
278
    -2
288
     1
 68
     0
279
    -2
289
     1
 69
     0
  0
VISUALSTYLE
  5
2F
102
{ACAD_REACTORS
330
2A
102
}
330
2A
100
AcDbVisualStyle
  2
2dWireframe
 70
     4
177
     3
291
     0
 70
    58
 90
        0
176
     1
 90
        2
176
     1
 90
        0
176
     1
 90
        0
176
     1
 40
0.6
176
     1
 40
30.0
176
     1
 62
     7
420
 16777215
176
     1
 90
        1
176
     1
 90
        4
176
     1
 62
     7
176
     1
 62
   257
176
     1
 90
        1
176
     1
 90
        1
176
     1
 40
1.0
176
     1
 90
        0
176
     1
 62
   257
176
     1
 40
1.0
176
     1
 90
        1
176
     1
 90
        6
176
     1
 90
        2
176
     1
 62
     7
176
     1
 90
        5
176
     1
 90
        0
176
     1
 90
        0
176
     1
290
     0
176
     1
 90
        1
176
     1
 40
0.0
176
     1
 90
        0
176
     1
290
     1
176
     1
290
     1
176
     1
290
     0
176
     1
290
     0
176
     1
290
     0
176
     1
290
     0
176
     1
290
     0
176
     1
290
     0
176
     1
290
     0
176
     1
 90
       50
176
     1
 40
0.0
176
     1
 40
1.0
176
     1
 90
        0
176
     1
 62
    18
420
        0
176
     1
 90
       50
176
     1
 90
        3
176
     1
 62
     5
420
      255
176
     1
290
     0
176
     1
 90
       50
176
     1
 90
       50
176
     1
 90
       50
176
     1
290
     0
176
     1
 90
       50
176
     1
 62
   256
176
     0
 40
1.0
176
     0
 90
        2
176
     1
  1
strokes_ogs.tif
176
     1
290
     0
176
     1
 40
1.0
176
     1
 40
1.0
176
     1
  0
VISUALSTYLE
  5
32
102
{ACAD_REACTORS
330
2A
102
}
330
2A
100
AcDbVisualStyle
  2
Basic
 70
     7
177
     3
291
     1
 70
    58
 90
        1
176
     1
 90
        0
176
     1
 90
        1
176
     1
 90
        0
176
     1
 40
0.6
176
     1
 40
30.0
176
     1
 62
     7
420
 16777215
176
     1
 90
        0
176
     1
 90
        4
176
     1
 62
     7
176
     1
 62
   257
176
     1
 90
        1
176
     1
 90
        1
176
     1
 40
1.0
176
     1
 90
        8
176
     1
 62
     7
176
     1
 40
1.0
176
     1
 90
        1
176
     1
 90
        6
176
     1
 90
        2
176
     1
 62
     7
176
     1
 90
        5
176
     1
 90
        0
176
     1
 90
        0
176
     1
290
     0
176
     1
 90
        1
176
     1
 40
0.0
176
     1
 90
        0
176
     1
290
     0
176
     1
290
     1
176
     1
290
     1
176
     1
290
     0
176
     1
290
     0
176
     1
290
     0
176
     1
290
     0
176
     1
290
     0
176
     1
290
     0
176
     1
 90
       50
176
     1
 40
0.0
176
     1
 40
1.0
176
     1
 90
        0
176
     1
 62
    18
420
        0
176
     1
 90
       50
176
     1
 90
        3
176
     1
 62
     5
420
      255
176
     1
290
     0
176
     1
 90
       50
176
     1
 90
       50
176
     1
 90
       50
176
     1
290
     0
176
     1
 90
       50
176
     1
 62
   256
176
     0
 40
1.0
176
     0
 90
        2
176
     1
  1
strokes_ogs.tif
176
     1
290
     0
176
     1
 40
1.0
176
     1
 40
1.0
176
     1
  0
VISUALSTYLE
  5
36
102
{ACAD_REACTORS
330
2A
102
}
330
2A
100
AcDbVisualStyle
  2
Brighten
 70
    12
177
     3
291
     1
 70
    58
 90
        2
176
     1
 90
        2
176
     1
 90
        0
176
     1
 90
        0
176
     1
 40
0.6
176
     1
 40
30.0
176
     1
 62
     7
420
 16777215
176
     1
 90
        1
176
     1
 90
        4
176
     1
 62
     7
176
     1
 62
   257
176
     1
 90
        1
176
     1
 90
        1
176
     1
 40
1.0
176
     1
 90
        8
176
     1
 62
     7
176
     1
 40
1.0
176
     1
 90
        1
176
     1
 90
        6
176
     1
 90
        2
176
     1
 62
     7
176
     1
 90
        5
176
     1
 90
        0
176
     1
 90
        0
176
     1
290
     0
176
     1
 90
        1
176
     1
 40
50.0
176
     1
 90
        0
176
     1
290
     0
176
     1
290
     1
176
     1
290
     1
176
     1
290
     0
176
     1
290
     0
176
     1
290
     0
176
     1
290
     0
176
     1
290
     0
176
     1
290
     0
176
     1
 90
       50
176
     1
 40
0.0
176
     1
 40
1.0
176
     1
 90
        0
176
     1
 62
    18
420
        0
176
     1
 90
       50
176
     1
 90
        3
176
     1
 62
     5
420
      255
176
     1
290
     0
176
     1
 90
       50
176
     1
 90
       50
176
     1
 90
       50
176
     1
290
     0
176
     1
 90
       50
176
     1
 62
   256
176
     0
 40
1.0
176
     0
 90
        2
176
     1
  1
strokes_ogs.tif
176
     1
290
     0
176
     1
 40
1.0
176
     1
 40
1.0
176
     1
  0
VISUALSTYLE
  5
3A
102
{ACAD_REACTORS
330
2A
102
}
330
2A
100
AcDbVisualStyle
  2
ColorChange
 70
    16
177
     3
291
     1
 70
    58
 90
        2
176
     1
 90
        2
176
     1
 90
        3
176
     1
 90
        0
176
     1
 40
0.6
176
     1
 40
30.0
176
     1
 62
     8
420
  8421504
176
     1
 90
        1
176
     1
 90
        4
176
     1
 62
     7
176
     1
 62
   257
176
     1
 90
        1
176
     1
 90
        1
176
     1
 40
1.0
176
     1
 90
        8
176
     1
 62
     8
420
  8421504
176
     1
 40
1.0
176
     1
 90
        1
176
     1
 90
        6
176
     1
 90
        2
176
     1
 62
     7
176
     1
 90
        5
176
     1
 90
        0
176
     1
 90
        0
176
     1
290
     0
176
     1
 90
        1
176
     1
 40
0.0
176
     1
 90
        0
176
     1
290
     0
176
     1
290
     1
176
     1
290
     1
176
     1
290
     0
176
     1
290
     0
176
     1
290
     0
176
     1
290
     0
176
     1
290
     0
176
     1
290
     0
176
     1
 90
       50
176
     1
 40
0.0
176
     1
 40
1.0
176
     1
 90
        0
176
     1
 62
    18
420
        0
176
     1
 90
       50
176
     1
 90
        3
176
     1
 62
     5
420
      255
176
     1
290
     0
176
     1
 90
       50
176
     1
 90
       50
176
     1
 90
       50
176
     1
290
     0
176
     1
 90
       50
176
     1
 62
   256
176
     0
 40
1.0
176
     0
 90
        2
176
     1
  1
strokes_ogs.tif
176
     1
290
     0
176
     1
 40
1.0
176
     1
 40
1.0
176
     1
  0
VISUALSTYLE
  5
34
102
{ACAD_REACTORS
330
2A
102
}
330
2A
100
AcDbVisualStyle
  2
Conceptual
 70
     9
177
     3
291
     0
 70
    58
 90
        3
176
     1
 90
        2
176
     1
 90
        0
176
     1
 90
        0
176
     1
 40
0.6
176
     1
 40
30.0
176
     1
 62
     7
420
 16777215
176
     1
 90
        2
176
     1
 90
        2
176
     1
 62
     7
176
     1
 62
   257
176
     1
 90
        1
176
     1
 90
        1
176
     1
 40
179.0
176
     1
 90
        8
176
     1
 62
     7
176
     1
 40
1.0
176
     1
 90
        1
176
     1
 90
        6
176
     1
 90
        2
176
     1
 62
     7
176
     1
 90
        3
176
     1
 90
        0
176
     1
 90
        0
176
     1
290
     0
176
     1
 90
        1
176
     1
 40
0.0
176
     1
 90
        0
176
     1
290
     0
176
     1
290
     1
176
     1
290
     1
176
     1
290
     0
176
     1
290
     0
176
     1
290
     0
176
     1
290
     0
176
     1
290
     0
176
     1
290
     0
176
     1
 90
       50
176
     1
 40
0.0
176
     1
 40
1.0
176
     1
 90
        0
176
     1
 62
    18
420
        0
176
     1
 90
       50
176
     1
 90
        3
176
     1
 62
     5
420
      255
176
     1
290
     0
176
     1
 90
       50
176
     1
 90
       50
176
     1
 90
       50
176
     1
290
     0
176
     1
 90
       50
176
     1
 62
   256
176
     0
 40
1.0
176
     0
 90
        2
176
     1
  1
strokes_ogs.tif
176
     1
290
     0
176
     1
 40
1.0
176
     1
 40
1.0
176
     1
  0
VISUALSTYLE
  5
35
102
{ACAD_REACTORS
330
2A
102
}
330
2A
100
AcDbVisualStyle
  2
Dim
 70
    11
177
     3
291
     1
 70
    58
 90
        2
176
     1
 90
        2
176
     1
 90
        0
176
     1
 90
        0
176
     1
 40
0.6
176
     1
 40
30.0
176
     1
 62
     7
420
 16777215
176
     1
 90
        1
176
     1
 90
        4
176
     1
 62
     7
176
     1
 62
   257
176
     1
 90
        1
176
     1
 90
        1
176
     1
 40
1.0
176
     1
 90
        8
176
     1
 62
     7
176
     1
 40
1.0
176
     1
 90
        1
176
     1
 90
        6
176
     1
 90
        2
176
     1
 62
     7
176
     1
 90
        5
176
     1
 90
        0
176
     1
 90
        0
176
     1
290
     0
176
     1
 90
        1
176
     1
 40
-50.0
176
     1
 90
        0
176
     1
290
     0
176
     1
290
     1
176
     1
290
     1
176
     1
290
     0
176
     1
290
     0
176
     1
290
     0
176
     1
290
     0
176
     1
290
     0
176
     1
290
     0
176
     1
 90
       50
176
     1
 40
0.0
176
     1
 40
1.0
176
     1
 90
        0
176
     1
 62
    18
420
        0
176
     1
 90
       50
176
     1
 90
        3
176
     1
 62
     5
420
      255
176
     1
290
     0
176
     1
 90
       50
176
     1
 90
       50
176
     1
 90
       50
176
     1
290
     0
176
     1
 90
       50
176
     1
 62
   256
176
     0
 40
1.0
176
     0
 90
        2
176
     1
  1
strokes_ogs.tif
176
     1
290
     0
176
     1
 40
1.0
176
     1
 40
1.0
176
     1
  0
VISUALSTYLE
  5
3D
102
{ACAD_REACTORS
330
2A
102
}
330
2A
100
AcDbVisualStyle
  2
EdgeColorOff
 70
    22
177
     3
291
     1
 70
    58
 90
        2
176
     0
 90
        2
176
     0
 90
        0
176
     0
 90
        0
176
     0
 40
0.6
176
     0
 40
30.0
176
     0
 62
     7
420
 16777215
176
     0
 90
        1
176
     0
 90
        4
176
     0
 62
     7
176
     0
 62
   257
176
     0
 90
        1
176
     0
 90
        1
176
     0
 40
1.0
176
     0
 90
        8
176
     2
 62
     7
176
     0
 40
1.0
176
     0
 90
        1
176
     0
 90
        6
176
     0
 90
        2
176
     0
 62
     7
176
     0
 90
        5
176
     0
 90
        0
176
     0
 90
        0
176
     0
290
     0
176
     0
 90
        1
176
     0
 40
0.0
176
     0
 90
        0
176
     0
290
     0
176
     0
290
     1
176
     0
290
     1
176
     0
290
     0
176
     0
290
     0
176
     0
290
     0
176
     0
290
     0
176
     0
290
     0
176
     0
290
     0
176
     0
 90
       50
176
     0
 40
0.0
176
     0
 40
1.0
176
     0
 90
        0
176
     0
 62
    18
420
        0
176
     0
 90
       50
176
     0
 90
        3
176
     0
 62
     5
420
      255
176
     0
290
     0
176
     0
 90
       50
176
     0
 90
       50
176
     0
 90
       50
176
     0
290
     0
176
     0
 90
       50
176
     0
 62
   256
176
     0
 40
1.0
176
     0
 90
        2
176
     0
  1
strokes_ogs.tif
176
     0
290
     0
176
     0
 40
1.0
176
     0
 40
1.0
176
     0
  0
VISUALSTYLE
  5
39
102
{ACAD_REACTORS
330
2A
102
}
330
2A
100
AcDbVisualStyle
  2
Facepattern
 70
    15
177
     3
291
     1
 70
    58
 90
        2
176
     1
 90
        2
176
     1
 90
        0
176
     1
 90
        0
176
     1
 40
0.6
176
     1
 40
30.0
176
     1
 62
     7
420
 16777215
176
     1
 90
        1
176
     1
 90
        4
176
     1
 62
     7
176
     1
 62
   257
176
     1
 90
        1
176
     1
 90
        1
176
     1
 40
1.0
176
     1
 90
        8
176
     1
 62
     7
176
     1
 40
1.0
176
     1
 90
        1
176
     1
 90
        6
176
     1
 90
        2
176
     1
 62
     7
176
     1
 90
        5
176
     1
 90
        0
176
     1
 90
        0
176
     1
290
     0
176
     1
 90
        1
176
     1
 40
0.0
176
     1
 90
        0
176
     1
290
     0
176
     1
290
     1
176
     1
290
     1
176
     1
290
     0
176
     1
290
     0
176
     1
290
     0
176
     1
290
     0
176
     1
290
     0
176
     1
290
     0
176
     1
 90
       50
176
     1
 40
0.0
176
     1
 40
1.0
176
     1
 90
        0
176
     1
 62
    18
420
        0
176
     1
 90
       50
176
     1
 90
        3
176
     1
 62
     5
420
      255
176
     1
290
     0
176
     1
 90
       50
176
     1
 90
       50
176
     1
 90
       50
176
     1
290
     0
176
     1
 90
       50
176
     1
 62
   256
176
     0
 40
1.0
176
     0
 90
        2
176
     1
  1
strokes_ogs.tif
176
     1
290
     0
176
     1
 40
1.0
176
     1
 40
1.0
176
     1
  0
VISUALSTYLE
  5
2B
102
{ACAD_REACTORS
330
2A
102
}
330
2A
100
AcDbVisualStyle
  2
Flat
 70
     0
177
     3
291
     1
 70
    58
 90
        2
176
     1
 90
        1
176
     1
 90
        1
176
     1
 90
        2
176
     1
 40
0.6
176
     1
 40
30.0
176
     1
 62
     7
420
 16777215
176
     1
 90
        0
176
     1
 90
        0
176
     1
 62
     7
176
     1
 62
   257
176
     1
 90
        1
176
     1
 90
        1
176
     1
 40
1.0
176
     1
 90
        8
176
     1
 62
     7
176
     1
 40
1.0
176
     1
 90
        1
176
     1
 90
        6
176
     1
 90
        2
176
     1
 62
     7
176
     1
 90
        5
176
     1
 90
        0
176
     1
 90
        0
176
     1
290
     0
176
     1
 90
       13
176
     1
 40
0.0
176
     1
 90
        0
176
     1
290
     0
176
     1
290
     1
176
     1
290
     1
176
     1
290
     0
176
     1
290
     0
176
     1
290
     0
176
     1
290
     0
176
     1
290
     0
176
     1
290
     0
176
     1
 90
       50
176
     1
 40
0.0
176
     1
 40
1.0
176
     1
 90
        0
176
     1
 62
    18
420
        0
176
     1
 90
       50
176
     1
 90
        3
176
     1
 62
     5
420
      255
176
     1
290
     0
176
     1
 90
       50
176
     1
 90
       50
176
     1
 90
       50
176
     1
290
     0
176
     1
 90
       50
176
     1
 62
   256
176
     0
 40
1.0
176
     0
 90
        2
176
     1
  1
strokes_ogs.tif
176
     1
290
     0
176
     1
 40
1.0
176
     1
 40
1.0
176
     1
  0
VISUALSTYLE
  5
2C
102
{ACAD_REACTORS
330
2A
102
}
330
2A
100
AcDbVisualStyle
  2
FlatWithEdges
 70
     1
177
     3
291
     1
 70
    58
 90
        2
176
     1
 90
        1
176
     1
 90
        1
176
     1
 90
        2
176
     1
 40
0.6
176
     1
 40
30.0
176
     1
 62
     7
420
 16777215
176
     1
 90
        1
176
     1
 90
        0
176
     1
 62
     7
176
     1
 62
   257
176
     1
 90
        1
176
     1
 90
        1
176
     1
 40
1.0
176
     1
 90
        0
176
     1
 62
   257
176
     1
 40
1.0
176
     1
 90
        1
176
     1
 90
        6
176
     1
 90
        2
176
     1
 62
     7
176
     1
 90
        5
176
     1
 90
        0
176
     1
 90
        0
176
     1
290
     0
176
     1
 90
       13
176
     1
 40
0.0
176
     1
 90
        0
176
     1
290
     0
176
     1
290
     1
176
     1
290
     1
176
     1
290
     0
176
     1
290
     0
176
     1
290
     0
176
     1
290
     0
176
     1
290
     0
176
     1
290
     0
176
     1
 90
       50
176
     1
 40
0.0
176
     1
 40
1.0
176
     1
 90
        0
176
     1
 62
    18
420
        0
176
     1
 90
       50
176
     1
 90
        3
176
     1
 62
     5
420
      255
176
     1
290
     0
176
     1
 90
       50
176
     1
 90
       50
176
     1
 90
       50
176
     1
290
     0
176
     1
 90
       50
176
     1
 62
   256
176
     0
 40
1.0
176
     0
 90
        2
176
     1
  1
strokes_ogs.tif
176
     1
290
     0
176
     1
 40
1.0
176
     1
 40
1.0
176
     1
  0
VISUALSTYLE
  5
2D
102
{ACAD_REACTORS
330
2A
102
}
330
2A
100
AcDbVisualStyle
  2
Gouraud
 70
     2
177
     3
291
     1
 70
    58
 90
        2
176
     1
 90
        2
176
     1
 90
        1
176
     1
 90
        2
176
     1
 40
0.6
176
     1
 40
30.0
176
     1
 62
     7
420
 16777215
176
     1
 90
        0
176
     1
 90
        0
176
     1
 62
     7
176
     1
 62
   257
176
     1
 90
        1
176
     1
 90
        1
176
     1
 40
1.0
176
     1
 90
        0
176
     1
 62
     7
176
     1
 40
1.0
176
     1
 90
        1
176
     1
 90
        6
176
     1
 90
        2
176
     1
 62
     7
176
     1
 90
        5
176
     1
 90
        0
176
     1
 90
        0
176
     1
290
     0
176
     1
 90
       13
176
     1
 40
0.0
176
     1
 90
        0
176
     1
290
     0
176
     1
290
     1
176
     1
290
     1
176
     1
290
     0
176
     1
290
     0
176
     1
290
     0
176
     1
290
     0
176
     1
290
     0
176
     1
290
     0
176
     1
 90
       50
176
     1
 40
0.0
176
     1
 40
1.0
176
     1
 90
        0
176
     1
 62
    18
420
        0
176
     1
 90
       50
176
     1
 90
        3
176
     1
 62
     5
420
      255
176
     1
290
     0
176
     1
 90
       50
176
     1
 90
       50
176
     1
 90
       50
176
     1
290
     0
176
     1
 90
       50
176
     1
 62
   256
176
     0
 40
1.0
176
     0
 90
        2
176
     1
  1
strokes_ogs.tif
176
     1
290
     0
176
     1
 40
1.0
176
     1
 40
1.0
176
     1
  0
VISUALSTYLE
  5
2E
102
{ACAD_REACTORS
330
2A
102
}
330
2A
100
AcDbVisualStyle
  2
GouraudWithEdges
 70
     3
177
     3
291
     1
 70
    58
 90
        2
176
     1
 90
        2
176
     1
 90
        1
176
     1
 90
        2
176
     1
 40
0.6
176
     1
 40
30.0
176
     1
 62
     7
420
 16777215
176
     1
 90
        1
176
     1
 90
        0
176
     1
 62
     7
176
     1
 62
   257
176
     1
 90
        1
176
     1
 90
        1
176
     1
 40
1.0
176
     1
 90
        0
176
     1
 62
   257
176
     1
 40
1.0
176
     1
 90
        1
176
     1
 90
        6
176
     1
 90
        2
176
     1
 62
     7
176
     1
 90
        5
176
     1
 90
        0
176
     1
 90
        0
176
     1
290
     0
176
     1
 90
       13
176
     1
 40
0.0
176
     1
 90
        0
176
     1
290
     0
176
     1
290
     1
176
     1
290
     1
176
     1
290
     0
176
     1
290
     0
176
     1
290
     0
176
     1
290
     0
176
     1
290
     0
176
     1
290
     0
176
     1
 90
       50
176
     1
 40
0.0
176
     1
 40
1.0
176
     1
 90
        0
176
     1
 62
    18
420
        0
176
     1
 90
       50
176
     1
 90
        3
176
     1
 62
     5
420
      255
176
     1
290
     0
176
     1
 90
       50
176
     1
 90
       50
176
     1
 90
       50
176
     1
290
     0
176
     1
 90
       50
176
     1
 62
   256
176
     0
 40
1.0
176
     0
 90
        2
176
     1
  1
strokes_ogs.tif
176
     1
290
     0
176
     1
 40
1.0
176
     1
 40
1.0
176
     1
  0
VISUALSTYLE
  5
31
102
{ACAD_REACTORS
330
2A
102
}
330
2A
100
AcDbVisualStyle
  2
Hidden
 70
     6
177
     3
291
     0
 70
    58
 90
        1
176
     1
 90
        2
176
     1
 90
        2
176
     1
 90
        0
176
     1
 40
0.6
176
     1
 40
30.0
176
     1
 62
     7
420
 16777215
176
     1
 90
        2
176
     1
 90
        2
176
     1
 62
     7
176
     1
 62
   257
176
     1
 90
        2
176
     1
 90
        1
176
     1
 40
40.0
176
     1
 90
        0
176
     1
 62
   257
176
     1
 40
1.0
176
     1
 90
        1
176
     1
 90
        6
176
     1
 90
        2
176
     1
 62
     7
176
     1
 90
        3
176
     1
 90
        0
176
     1
 90
        0
176
     1
290
     0
176
     1
 90
        1
176
     1
 40
0.0
176
     1
 90
        0
176
     1
290
     0
176
     1
290
     1
176
     1
290
     1
176
     1
290
     0
176
     1
290
     0
176
     1
290
     0
176
     1
290
     0
176
     1
290
     0
176
     1
290
     0
176
     1
 90
       50
176
     1
 40
0.0
176
     1
 40
1.0
176
     1
 90
        0
176
     1
 62
    18
420
        0
176
     1
 90
       50
176
     1
 90
        3
176
     1
 62
     5
420
      255
176
     1
290
     0
176
     1
 90
       50
176
     1
 90
       50
176
     1
 90
       50
176
     1
290
     0
176
     1
 90
       50
176
     1
 62
   256
176
     0
 40
1.0
176
     0
 90
        2
176
     1
  1
strokes_ogs.tif
176
     1
290
     0
176
     1
 40
1.0
176
     1
 40
1.0
176
     1
  0
VISUALSTYLE
  5
3B
102
{ACAD_REACTORS
330
2A
102
}
330
2A
100
AcDbVisualStyle
  2
JitterOff
 70
    20
177
     3
291
     1
 70
    58
 90
        2
176
     0
 90
        2
176
     0
 90
        0
176
     0
 90
        0
176
     0
 40
0.6
176
     0
 40
30.0
176
     0
 62
     7
420
 16777215
176
     0
 90
        1
176
     0
 90
        4
176
     0
 62
     7
176
     0
 62
   257
176
     0
 90
        1
176
     0
 90
        1
176
     0
 40
1.0
176
     0
 90
       10
176
     2
 62
     7
176
     0
 40
1.0
176
     0
 90
        1
176
     0
 90
        6
176
     0
 90
        2
176
     0
 62
     7
176
     0
 90
        5
176
     0
 90
        0
176
     0
 90
        0
176
     0
290
     0
176
     0
 90
        1
176
     0
 40
0.0
176
     0
 90
        0
176
     0
290
     0
176
     0
290
     1
176
     0
290
     1
176
     0
290
     0
176
     0
290
     0
176
     0
290
     0
176
     0
290
     0
176
     0
290
     0
176
     0
290
     0
176
     0
 90
       50
176
     0
 40
0.0
176
     0
 40
1.0
176
     0
 90
        0
176
     0
 62
    18
420
        0
176
     0
 90
       50
176
     0
 90
        3
176
     0
 62
     5
420
      255
176
     0
290
     0
176
     0
 90
       50
176
     0
 90
       50
176
     0
 90
       50
176
     0
290
     0
176
     0
 90
       50
176
     0
 62
   256
176
     0
 40
1.0
176
     0
 90
        2
176
     0
  1
strokes_ogs.tif
176
     0
290
     0
176
     0
 40
1.0
176
     0
 40
1.0
176
     0
  0
VISUALSTYLE
  5
38
102
{ACAD_REACTORS
330
2A
102
}
330
2A
100
AcDbVisualStyle
  2
Linepattern
 70
    14
177
     3
291
     1
 70
    58
 90
        2
176
     1
 90
        2
176
     1
 90
        0
176
     1
 90
        0
176
     1
 40
0.6
176
     1
 40
30.0
176
     1
 62
     7
420
 16777215
176
     1
 90
        1
176
     1
 90
        4
176
     1
 62
     7
176
     1
 62
   257
176
     1
 90
        7
176
     1
 90
        7
176
     1
 40
1.0
176
     1
 90
        8
176
     1
 62
     7
176
     1
 40
1.0
176
     1
 90
        1
176
     1
 90
        6
176
     1
 90
        2
176
     1
 62
     7
176
     1
 90
        5
176
     1
 90
        0
176
     1
 90
        0
176
     1
290
     0
176
     1
 90
        1
176
     1
 40
0.0
176
     1
 90
        0
176
     1
290
     0
176
     1
290
     1
176
     1
290
     1
176
     1
290
     0
176
     1
290
     0
176
     1
290
     0
176
     1
290
     0
176
     1
290
     0
176
     1
290
     0
176
     1
 90
       50
176
     1
 40
0.0
176
     1
 40
1.0
176
     1
 90
        0
176
     1
 62
    18
420
        0
176
     1
 90
       50
176
     1
 90
        3
176
     1
 62
     5
420
      255
176
     1
290
     0
176
     1
 90
       50
176
     1
 90
       50
176
     1
 90
       50
176
     1
290
     0
176
     1
 90
       50
176
     1
 62
   256
176
     0
 40
1.0
176
     0
 90
        2
176
     1
  1
strokes_ogs.tif
176
     1
290
     0
176
     1
 40
1.0
176
     1
 40
1.0
176
     1
  0
VISUALSTYLE
  5
3C
102
{ACAD_REACTORS
330
2A
102
}
330
2A
100
AcDbVisualStyle
  2
OverhangOff
 70
    21
177
     3
291
     1
 70
    58
 90
        2
176
     0
 90
        2
176
     0
 90
        0
176
     0
 90
        0
176
     0
 40
0.6
176
     0
 40
30.0
176
     0
 62
     7
420
 16777215
176
     0
 90
        1
176
     0
 90
        4
176
     0
 62
     7
176
     0
 62
   257
176
     0
 90
        1
176
     0
 90
        1
176
     0
 40
1.0
176
     0
 90
        9
176
     2
 62
     7
176
     0
 40
1.0
176
     0
 90
        1
176
     0
 90
        6
176
     0
 90
        2
176
     0
 62
     7
176
     0
 90
        5
176
     0
 90
        0
176
     0
 90
        0
176
     0
290
     0
176
     0
 90
        1
176
     0
 40
0.0
176
     0
 90
        0
176
     0
290
     0
176
     0
290
     1
176
     0
290
     1
176
     0
290
     0
176
     0
290
     0
176
     0
290
     0
176
     0
290
     0
176
     0
290
     0
176
     0
290
     0
176
     0
 90
       50
176
     0
 40
0.0
176
     0
 40
1.0
176
     0
 90
        0
176
     0
 62
    18
420
        0
176
     0
 90
       50
176
     0
 90
        3
176
     0
 62
     5
420
      255
176
     0
290
     0
176
     0
 90
       50
176
     0
 90
       50
176
     0
 90
       50
176
     0
290
     0
176
     0
 90
       50
176
     0
 62
   256
176
     0
 40
1.0
176
     0
 90
        2
176
     0
  1
strokes_ogs.tif
176
     0
290
     0
176
     0
 40
1.0
176
     0
 40
1.0
176
     0
  0
VISUALSTYLE
  5
33
102
{ACAD_REACTORS
330
2A
102
}
330
2A
100
AcDbVisualStyle
  2
Realistic
 70
     8
177
     3
291
     0
 70
    58
 90
        2
176
     1
 90
        3
176
     1
 90
        0
176
     1
 90
        2
176
     1
 40
0.6
176
     1
 40
30.0
176
     1
 62
     7
420
 16777215
176
     1
 90
        0
176
     1
 90
        0
176
     1
 62
     7
176
     1
 62
   257
176
     1
 90
        1
176
     1
 90
        1
176
     1
 40
1.0
176
     1
 90
        8
176
     1
 62
   257
176
     1
 40
1.0
176
     1
 90
        1
176
     1
 90
        6
176
     1
 90
        2
176
     1
 62
     7
176
     1
 90
        3
176
     1
 90
        0
176
     1
 90
        0
176
     1
290
     0
176
     1
 90
       13
176
     1
 40
0.0
176
     1
 90
        0
176
     1
290
     0
176
     1
290
     1
176
     1
290
     1
176
     1
290
     0
176
     1
290
     0
176
     1
290
     0
176
     1
290
     0
176
     1
290
     0
176
     1
290
     0
176
     1
 90
       50
176
     1
 40
0.0
176
     1
 40
1.0
176
     1
 90
        0
176
     1
 62
    18
420
        0
176
     1
 90
       50
176
     1
 90
        3
176
     1
 62
     5
420
      255
176
     1
290
     0
176
     1
 90
       50
176
     1
 90
       50
176
     1
 90
       50
176
     1
290
     0
176
     1
 90
       50
176
     1
 62
   256
176
     0
 40
1.0
176
     0
 90
        2
176
     1
  1
strokes_ogs.tif
176
     1
290
     0
176
     1
 40
1.0
176
     1
 40
1.0
176
     1
  0
VISUALSTYLE
  5
42
102
{ACAD_REACTORS
330
2A
102
}
330
2A
100
AcDbVisualStyle
  2
Shaded
 70
    27
177
     3
291
     0
 70
    58
 90
        2
176
     1
 90
        2
176
     1
 90
        1
176
     1
 90
        2
176
     1
 40
0.6
176
     1
 40
30.0
176
     1
 62
     7
420
 16777215
176
     1
 90
        0
176
     1
 90
        4
176
     1
 62
     7
176
     1
 62
   257
176
     1
 90
        1
176
     1
 90
        1
176
     1
 40
1.0
176
     1
 90
        8
176
     1
 62
   257
176
     1
 40
1.0
176
     1
 90
        1
176
     1
 90
        6
176
     1
 90
        2
176
     1
 62
     8
420
  7895160
176
     1
 90
        3
176
     1
 90
        0
176
     1
 90
        0
176
     1
290
     0
176
     1
 90
        5
176
     1
 40
0.0
176
     1
 90
        0
176
     1
290
     0
176
     1
290
     1
176
     1
290
     1
176
     1
290
     0
176
     1
290
     0
176
     1
290
     0
176
     1
290
     0
176
     1
290
     0
176
     1
290
     0
176
     1
 90
       50
176
     1
 40
0.0
176
     1
 40
1.0
176
     1
 90
        0
176
     1
 62
    18
420
        0
176
     1
 90
       50
176
     1
 90
        3
176
     1
 62
     5
420
      255
176
     1
290
     0
176
     1
 90
       50
176
     1
 90
       50
176
     1
 90
       50
176
     1
290
     0
176
     1
 90
       50
176
     1
 62
   256
176
     0
 40
1.0
176
     0
 90
        2
176
     1
  1
strokes_ogs.tif
176
     1
290
     0
176
     1
 40
1.0
176
     1
 40
1.0
176
     1
  0
VISUALSTYLE
  5
41
102
{ACAD_REACTORS
330
2A
102
}
330
2A
100
AcDbVisualStyle
  2
Shaded with edges
 70
    26
177
     3
291
     0
 70
    58
 90
        2
176
     1
 90
        2
176
     1
 90
        1
176
     1
 90
        2
176
     1
 40
0.6
176
     1
 40
30.0
176
     1
 62
     7
420
 16777215
176
     1
 90
        1
176
     1
 90
       10
176
     1
 62
     7
176
     1
 62
   257
176
     1
 90
        2
176
     1
 90
        1
176
     1
 40
1.0
176
     1
 90
        8
176
     1
 62
   257
176
     1
 40
1.0
176
     1
 90
        1
176
     1
 90
        6
176
     1
 90
        2
176
     1
 62
     7
176
     1
 90
        3
176
     1
 90
        0
176
     1
 90
        0
176
     1
290
     0
176
     1
 90
        5
176
     1
 40
0.0
176
     1
 90
        0
176
     1
290
     0
176
     1
290
     1
176
     1
290
     1
176
     1
290
     0
176
     1
290
     0
176
     1
290
     0
176
     1
290
     0
176
     1
290
     0
176
     1
290
     0
176
     1
 90
       50
176
     1
 40
0.0
176
     1
 40
1.0
176
     1
 90
        0
176
     1
 62
    18
420
        0
176
     1
 90
       50
176
     1
 90
        3
176
     1
 62
     5
420
      255
176
     1
290
     0
176
     1
 90
       50
176
     1
 90
       50
176
     1
 90
       50
176
     1
290
     0
176
     1
 90
       50
176
     1
 62
   256
176
     0
 40
1.0
176
     0
 90
        2
176
     1
  1
strokes_ogs.tif
176
     1
290
     0
176
     1
 40
1.0
176
     1
 40
1.0
176
     1
  0
VISUALSTYLE
  5
3E
102
{ACAD_REACTORS
330
2A
102
}
330
2A
100
AcDbVisualStyle
  2
Shades of Gray
 70
    23
177
     3
291
     0
 70
    58
 90
        2
176
     1
 90
        2
176
     1
 90
        3
176
     1
 90
        0
176
     1
 40
0.6
176
     1
 40
30.0
176
     1
 62
     7
420
 16777215
176
     1
 90
        2
176
     1
 90
        2
176
     1
 62
     7
176
     1
 62
     7
176
     1
 90
        1
176
     1
 90
        1
176
     1
 40
40.0
176
     1
 90
        8
176
     1
 62
     7
176
     1
 40
1.0
176
     1
 90
        1
176
     1
 90
        6
176
     1
 90
        2
176
     1
 62
     7
176
     1
 90
        3
176
     1
 90
        0
176
     1
 90
        0
176
     1
290
     0
176
     1
 90
        1
176
     1
 40
0.0
176
     1
 90
        0
176
     1
290
     0
176
     1
290
     1
176
     1
290
     1
176
     1
290
     0
176
     1
290
     0
176
     1
290
     0
176
     1
290
     0
176
     1
290
     0
176
     1
290
     0
176
     1
 90
       50
176
     1
 40
0.0
176
     1
 40
1.0
176
     1
 90
        0
176
     1
 62
    18
420
        0
176
     1
 90
       50
176
     1
 90
        3
176
     1
 62
     5
420
      255
176
     1
290
     0
176
     1
 90
       50
176
     1
 90
       50
176
     1
 90
       50
176
     1
290
     0
176
     1
 90
       50
176
     1
 62
   256
176
     0
 40
1.0
176
     0
 90
        2
176
     1
  1
strokes_ogs.tif
176
     1
290
     0
176
     1
 40
1.0
176
     1
 40
1.0
176
     1
  0
VISUALSTYLE
  5
3F
102
{ACAD_REACTORS
330
2A
102
}
330
2A
100
AcDbVisualStyle
  2
Sketchy
 70
    24
177
     3
291
     0
 70
    58
 90
        1
176
     1
 90
        2
176
     1
 90
        2
176
     1
 90
        0
176
     1
 40
0.6
176
     1
 40
30.0
176
     1
 62
     7
420
 16777215
176
     1
 90
        2
176
     1
 90
        2
176
     1
 62
     7
176
     1
 62
     7
176
     1
 90
        1
176
     1
 90
        1
176
     1
 40
40.0
176
     1
 90
       11
176
     1
 62
     7
176
     1
 40
1.0
176
     1
 90
        1
176
     1
 90
        6
176
     1
 90
        2
176
     1
 62
     7
176
     1
 90
        6
176
     1
 90
        0
176
     1
 90
        0
176
     1
290
     0
176
     1
 90
        1
176
     1
 40
0.0
176
     1
 90
        0
176
     1
290
     0
176
     1
290
     1
176
     1
290
     1
176
     1
290
     0
176
     1
290
     0
176
     1
290
     0
176
     1
290
     0
176
     1
290
     0
176
     1
290
     0
176
     1
 90
       50
176
     1
 40
0.0
176
     1
 40
1.0
176
     1
 90
        0
176
     1
 62
    18
420
        0
176
     1
 90
       50
176
     1
 90
        3
176
     1
 62
     5
420
      255
176
     1
290
     0
176
     1
 90
       50
176
     1
 90
       50
176
     1
 90
       50
176
     1
290
     0
176
     1
 90
       50
176
     1
 62
   256
176
     0
 40
1.0
176
     0
 90
        2
176
     1
  1
strokes_ogs.tif
176
     1
290
     0
176
     1
 40
1.0
176
     1
 40
1.0
176
     1
  0
VISUALSTYLE
  5
37
102
{ACAD_REACTORS
330
2A
102
}
330
2A
100
AcDbVisualStyle
  2
Thicken
 70
    13
177
     3
291
     1
 70
    58
 90
        2
176
     1
 90
        2
176
     1
 90
        0
176
     1
 90
        0
176
     1
 40
0.6
176
     1
 40
30.0
176
     1
 62
     7
420
 16777215
176
     1
 90
        1
176
     1
 90
        4
176
     1
 62
     7
176
     1
 62
   257
176
     1
 90
        1
176
     1
 90
        1
176
     1
 40
1.0
176
     1
 90
       12
176
     1
 62
     7
176
     1
 40
1.0
176
     1
 90
        1
176
     1
 90
        6
176
     1
 90
        2
176
     1
 62
     7
176
     1
 90
        5
176
     1
 90
        0
176
     1
 90
        0
176
     1
290
     0
176
     1
 90
        1
176
     1
 40
0.0
176
     1
 90
        0
176
     1
290
     0
176
     1
290
     1
176
     1
290
     1
176
     1
290
     0
176
     1
290
     0
176
     1
290
     0
176
     1
290
     0
176
     1
290
     0
176
     1
290
     0
176
     1
 90
       50
176
     1
 40
0.0
176
     1
 40
1.0
176
     1
 90
        0
176
     1
 62
    18
420
        0
176
     1
 90
       50
176
     1
 90
        3
176
     1
 62
     5
420
      255
176
     1
290
     0
176
     1
 90
       50
176
     1
 90
       50
176
     1
 90
       50
176
     1
290
     0
176
     1
 90
       50
176
     1
 62
   256
176
     0
 40
1.0
176
     0
 90
        2
176
     1
  1
strokes_ogs.tif
176
     1
290
     0
176
     1
 40
1.0
176
     1
 40
1.0
176
     1
  0
VISUALSTYLE
  5
30
102
{ACAD_REACTORS
330
2A
102
}
330
2A
100
AcDbVisualStyle
  2
Wireframe
 70
     5
177
     3
291
     0
 70
    58
 90
        0
176
     1
 90
        2
176
     1
 90
        0
176
     1
 90
        0
176
     1
 40
0.6
176
     1
 40
30.0
176
     1
 62
     7
420
 16777215
176
     1
 90
        1
176
     1
 90
        4
176
     1
 62
     7
176
     1
 62
   257
176
     1
 90
        1
176
     1
 90
        1
176
     1
 40
1.0
176
     1
 90
        0
176
     1
 62
   257
176
     1
 40
1.0
176
     1
 90
        1
176
     1
 90
        6
176
     1
 90
        2
176
     1
 62
     7
176
     1
 90
        3
176
     1
 90
        0
176
     1
 90
        0
176
     1
290
     0
176
     1
 90
        1
176
     1
 40
0.0
176
     1
 90
        0
176
     1
290
     0
176
     1
290
     1
176
     1
290
     1
176
     1
290
     0
176
     1
290
     0
176
     1
290
     0
176
     1
290
     0
176
     1
290
     0
176
     1
290
     0
176
     1
 90
       50
176
     1
 40
0.0
176
     1
 40
1.0
176
     1
 90
        0
176
     1
 62
    18
420
        0
176
     1
 90
       50
176
     1
 90
        3
176
     1
 62
     5
420
      255
176
     1
290
     0
176
     1
 90
       50
176
     1
 90
       50
176
     1
 90
       50
176
     1
290
     0
176
     1
 90
       50
176
     1
 62
   256
176
     0
 40
1.0
176
     0
 90
        2
176
     1
  1
strokes_ogs.tif
176
     1
290
     0
176
     1
 40
1.0
176
     1
 40
1.0
176
     1
  0
VISUALSTYLE
  5
40
102
{ACAD_REACTORS
330
2A
102
}
330
2A
100
AcDbVisualStyle
  2
X-Ray
 70
    25
177
     3
291
     0
 70
    58
 90
        2
176
     1
 90
        2
176
     1
 90
        1
176
     1
 90
        1
176
     1
 40
0.5
176
     1
 40
30.0
176
     1
 62
     7
420
 16777215
176
     1
 90
        1
176
     1
 90
        0
176
     1
 62
     7
176
     1
 62
   257
176
     1
 90
        1
176
     1
 90
        1
176
     1
 40
1.0
176
     1
 90
        8
176
     1
 62
     7
176
     1
 40
1.0
176
     1
 90
        1
176
     1
 90
        6
176
     1
 90
        2
176
     1
 62
     7
176
     1
 90
        3
176
     1
 90
        0
176
     1
 90
        0
176
     1
290
     0
176
     1
 90
       13
176
     1
 40
0.0
176
     1
 90
        0
176
     1
290
     0
176
     1
290
     1
176
     1
290
     1
176
     1
290
     0
176
     1
290
     0
176
     1
290
     0
176
     1
290
     0
176
     1
290
     0
176
     1
290
     0
176
     1
 90
       50
176
     1
 40
0.0
176
     1
 40
1.0
176
     1
 90
        0
176
     1
 62
    18
420
        0
176
     1
 90
       50
176
     1
 90
        3
176
     1
 62
     5
420
      255
176
     1
290
     0
176
     1
 90
       50
176
     1
 90
       50
176
     1
 90
       50
176
     1
290
     0
176
     1
 90
       50
176
     1
 62
   256
176
     0
 40
1.0
176
     0
 90
        2
176
     1
  1
strokes_ogs.tif
176
     1
290
     0
176
     1
 40
1.0
176
     1
 40
1.0
176
     1
  0
DICTIONARYVAR
  5
1AE
102
{ACAD_REACTORS
330
1AD
102
}
330
1AD
100
DictionaryVariables
280
     0
  1
1:1
  0
DICTIONARYVAR
  5
1B3
102
{ACAD_REACTORS
330
1AD
102
}
330
1AD
100
DictionaryVariables
280
     0
  1
Standard
  0
DICTIONARYVAR
  5
1B2
102
{ACAD_REACTORS
330
1AD
102
}
330
1AD
100
DictionaryVariables
280
     0
  1
Standard
  0
DICTIONARY
  5
1AF
330
6A
100
AcDbDictionary
280
     1
281
     1
  3
ACAD_ROUNDTRIP_2008_TABLESTYLE_CELLSTYLEMAP
360
1B0
  0
CELLSTYLEMAP
  5
1B0
102
{ACAD_REACTORS
330
1AF
102
}
330
1AF
100
AcDbCellStyleMap
 90
        3
300
CELLSTYLE
  1
TABLEFORMAT_BEGIN
 90
        5
170
     1
 91
        0
 92
    32768
 62
   257
 93
        1
300
CONTENTFORMAT
  1
CONTENTFORMAT_BEGIN
 90
        0
 91
        0
 92
        4
 93
        0
300

 40
0.0
140
1.0
 94
        5
 62
     0
340
11
144
0.25
309
CONTENTFORMAT_END
171
     1
301
MARGIN
  1
CELLMARGIN_BEGIN
 40
0.06
 40
0.06
 40
0.06
 40
0.06
 40
0.06
 40
0.06
309
CELLMARGIN_END
 94
        6
 95
        1
302
GRIDFORMAT
  1
GRIDFORMAT_BEGIN
 90
        0
 91
        1
 62
     0
 92
       -2
340
14
 93
        0
 40
0.045
309
GRIDFORMAT_END
 95
        2
302
GRIDFORMAT
  1
GRIDFORMAT_BEGIN
 90
        0
 91
        1
 62
     0
 92
       -2
340
14
 93
        0
 40
0.045
309
GRIDFORMAT_END
 95
        4
302
GRIDFORMAT
  1
GRIDFORMAT_BEGIN
 90
        0
 91
        1
 62
     0
 92
       -2
340
14
 93
        0
 40
0.045
309
GRIDFORMAT_END
 95
        8
302
GRIDFORMAT
  1
GRIDFORMAT_BEGIN
 90
        0
 91
        1
 62
     0
 92
       -2
340
14
 93
        0
 40
0.045
309
GRIDFORMAT_END
 95
       16
302
GRIDFORMAT
  1
GRIDFORMAT_BEGIN
 90
        0
 91
        1
 62
     0
 92
       -2
340
14
 93
        0
 40
0.045
309
GRIDFORMAT_END
 95
       32
302
GRIDFORMAT
  1
GRIDFORMAT_BEGIN
 90
        0
 91
        1
 62
     0
 92
       -2
340
14
 93
        0
 40
0.045
309
GRIDFORMAT_END
309
TABLEFORMAT_END
  1
CELLSTYLE_BEGIN
 90
        1
 91
        1
300
_TITLE
309
CELLSTYLE_END
300
CELLSTYLE
  1
TABLEFORMAT_BEGIN
 90
        5
170
     1
 91
        0
 92
        0
 62
   257
 93
        1
300
CONTENTFORMAT
  1
CONTENTFORMAT_BEGIN
 90
        0
 91
        0
 92
        4
 93
        0
300

 40
0.0
140
1.0
 94
        5
 62
     0
340
11
144
0.18
309
CONTENTFORMAT_END
171
     1
301
MARGIN
  1
CELLMARGIN_BEGIN
 40
0.06
 40
0.06
 40
0.06
 40
0.06
 40
0.06
 40
0.06
309
CELLMARGIN_END
 94
        6
 95
        1
302
GRIDFORMAT
  1
GRIDFORMAT_BEGIN
 90
        0
 91
        1
 62
     0
 92
       -2
340
14
 93
        0
 40
0.045
309
GRIDFORMAT_END
 95
        2
302
GRIDFORMAT
  1
GRIDFORMAT_BEGIN
 90
        0
 91
        1
 62
     0
 92
       -2
340
14
 93
        0
 40
0.045
309
GRIDFORMAT_END
 95
        4
302
GRIDFORMAT
  1
GRIDFORMAT_BEGIN
 90
        0
 91
        1
 62
     0
 92
       -2
340
14
 93
        0
 40
0.045
309
GRIDFORMAT_END
 95
        8
302
GRIDFORMAT
  1
GRIDFORMAT_BEGIN
 90
        0
 91
        1
 62
     0
 92
       -2
340
14
 93
        0
 40
0.045
309
GRIDFORMAT_END
 95
       16
302
GRIDFORMAT
  1
GRIDFORMAT_BEGIN
 90
        0
 91
        1
 62
     0
 92
       -2
340
14
 93
        0
 40
0.045
309
GRIDFORMAT_END
 95
       32
302
GRIDFORMAT
  1
GRIDFORMAT_BEGIN
 90
        0
 91
        1
 62
     0
 92
       -2
340
14
 93
        0
 40
0.045
309
GRIDFORMAT_END
309
TABLEFORMAT_END
  1
CELLSTYLE_BEGIN
 90
        2
 91
        1
300
_HEADER
309
CELLSTYLE_END
300
CELLSTYLE
  1
TABLEFORMAT_BEGIN
 90
        5
170
     1
 91
        0
 92
        0
 62
   257
 93
        1
300
CONTENTFORMAT
  1
CONTENTFORMAT_BEGIN
 90
        0
 91
        0
 92
        4
 93
        0
300

 40
0.0
140
1.0
 94
        2
 62
     0
340
11
144
0.18
309
CONTENTFORMAT_END
171
     1
301
MARGIN
  1
CELLMARGIN_BEGIN
 40
0.06
 40
0.06
 40
0.06
 40
0.06
 40
0.06
 40
0.06
309
CELLMARGIN_END
 94
        6
 95
        1
302
GRIDFORMAT
  1
GRIDFORMAT_BEGIN
 90
        0
 91
        1
 62
     0
 92
       -2
340
14
 93
        0
 40
0.045
309
GRIDFORMAT_END
 95
        2
302
GRIDFORMAT
  1
GRIDFORMAT_BEGIN
 90
        0
 91
        1
 62
     0
 92
       -2
340
14
 93
        0
 40
0.045
309
GRIDFORMAT_END
 95
        4
302
GRIDFORMAT
  1
GRIDFORMAT_BEGIN
 90
        0
 91
        1
 62
     0
 92
       -2
340
14
 93
        0
 40
0.045
309
GRIDFORMAT_END
 95
        8
302
GRIDFORMAT
  1
GRIDFORMAT_BEGIN
 90
        0
 91
        1
 62
     0
 92
       -2
340
14
 93
        0
 40
0.045
309
GRIDFORMAT_END
 95
       16
302
GRIDFORMAT
  1
GRIDFORMAT_BEGIN
 90
        0
 91
        1
 62
     0
 92
       -2
340
14
 93
        0
 40
0.045
309
GRIDFORMAT_END
 95
       32
302
GRIDFORMAT
  1
GRIDFORMAT_BEGIN
 90
        0
 91
        1
 62
     0
 92
       -2
340
14
 93
        0
 40
0.045
309
GRIDFORMAT_END
309
TABLEFORMAT_END
  1
CELLSTYLE_BEGIN
 90
        3
 91
        2
300
_DATA
309
CELLSTYLE_END
  0
ENDSEC
  0
EOF