0
SECTION
  2
HEADER
  9
$ACADVER
  1
AC1027
  9
$ACADMAINTVER
 70
     8
  9
$DWGCODEPAGE
  3
ANSI_1252
  9
$REQUIREDVERSIONS
160
                 0
  9
$COMMENTS
  1
File was created by Cadenas
  9
$CUSTOMPROPERTYTAG
  1
NN
  9
$CUSTOMPROPERTY
  1
Grip Tight Two-Bolt Pillow Block Inch Bore
  9
$CUSTOMPROPERTYTAG
  1
NT
  9
$CUSTOMPROPERTY
  1
GT Normal Duty Pillow Blocks
  9
$CUSTOMPROPERTYTAG
  1
NB
  9
$CUSTOMPROPERTY
  1
129155
  9
$CUSTOMPROPERTYTAG
  1
NBSYN
  9
$CUSTOMPROPERTY
  1
$PN.$LUBE.
  9
$CUSTOMPROPERTYTAG
  1
LINA
  9
$CUSTOMPROPERTY
  1
129155
  9
$CUSTOMPROPERTYTAG
  1
SERIES
  9
$CUSTOMPROPERTY
  1
205
  9
$CUSTOMPROPERTYTAG
  1
SS
  9
$CUSTOMPROPERTY
  1
7/8
  9
$CUSTOMPROPERTYTAG
  1
PN
  9
$CUSTOMPROPERTY
  1
129155
  9
$CUSTOMPROPERTYTAG
  1
DESCRIPTION
  9
$CUSTOMPROPERTY
  1
P2B-GT-014
  9
$CUSTOMPROPERTYTAG
  1
A
  9
$CUSTOMPROPERTY
  1
1-29/64
  9
$CUSTOMPROPERTYTAG
  1
B
  9
$CUSTOMPROPERTY
  1
5-1/2
  9
$CUSTOMPROPERTYTAG
  1
C
  9
$CUSTOMPROPERTY
  1
1-13/32
  9
$CUSTOMPROPERTYTAG
  1
DMIN
  9
$CUSTOMPROPERTY
  1
3-11/16
  9
$CUSTOMPROPERTYTAG
  1
DMAX
  9
$CUSTOMPROPERTY
  1
4-1/2
  9
$CUSTOMPROPERTYTAG
  1
F
  9
$CUSTOMPROPERTY
  1
3/8
  9
$CUSTOMPROPERTYTAG
  1
G
  9
$CUSTOMPROPERTY
  1
27/32
  9
$CUSTOMPROPERTYTAG
  1
H
  9
$CUSTOMPROPERTY
  1
37/64
  9
$CUSTOMPROPERTYTAG
  1
J
  9
$CUSTOMPROPERTY
  1
2-25/32
  9
$CUSTOMPROPERTYTAG
  1
L
  9
$CUSTOMPROPERTY
  1
1-51/64
  9
$CUSTOMPROPERTYTAG
  1
M
  9
$CUSTOMPROPERTY
  1
1-7/16
  9
$CUSTOMPROPERTYTAG
  1
R
  9
$CUSTOMPROPERTY
  1
1/2
  9
$CUSTOMPROPERTYTAG
  1
S
  9
$CUSTOMPROPERTY
  1
61/64
  9
$CUSTOMPROPERTYTAG
  1
U
  9
$CUSTOMPROPERTY
  1
2-1/2
  9
$CUSTOMPROPERTYTAG
  1
V
  9
$CUSTOMPROPERTY
  1
5
  9
$CUSTOMPROPERTYTAG
  1
W
  9
$CUSTOMPROPERTY
  1
1/2
  9
$CUSTOMPROPERTYTAG
  1
X
  9
$CUSTOMPROPERTY
  1
3/16
  9
$CUSTOMPROPERTYTAG
  1
Z
  9
$CUSTOMPROPERTY
  1
61/64
  9
$CUSTOMPROPERTYTAG
  1
COMPANY
  9
$CUSTOMPROPERTY
  1
baldor
  9
$INSBASE
 10
0.0
 20
0.0
 30
0.0
  9
$EXTMIN
 10
1.000000000000000E+20
 20
1.000000000000000E+20
 30
1.000000000000000E+20
  9
$EXTMAX
 10
-1.000000000000000E+20
 20
-1.000000000000000E+20
 30
-1.000000000000000E+20
  9
$LIMMIN
 10
0.0
 20
0.0
  9
$LIMMAX
 10
12.0
 20
9.0
  9
$ORTHOMODE
 70
     0
  9
$REGENMODE
 70
     1
  9
$FILLMODE
 70
     1
  9
$QTEXTMODE
 70
     0
  9
$MIRRTEXT
 70
     1
  9
$LTSCALE
 40
1.0
  9
$ATTMODE
 70
     1
  9
$TEXTSIZE
 40
0.2
  9
$TRACEWID
 40
0.05
  9
$TEXTSTYLE
  7
Standard
  9
$CLAYER
  8
0
  9
$CELTYPE
  6
ByLayer
  9
$CECOLOR
 62
   256
  9
$CELTSCALE
 40
1.0
  9
$DISPSILH
 70
     0
  9
$DIMSCALE
 40
1.0
  9
$DIMASZ
 40
0.18
  9
$DIMEXO
 40
0.0625
  9
$DIMDLI
 40
0.38
  9
$DIMRND
 40
0.0
  9
$DIMDLE
 40
0.0
  9
$DIMEXE
 40
0.18
  9
$DIMTP
 40
0.0
  9
$DIMTM
 40
0.0
  9
$DIMTXT
 40
0.18
  9
$DIMCEN
 40
0.09
  9
$DIMTSZ
 40
0.0
  9
$DIMTOL
 70
     0
  9
$DIMLIM
 70
     0
  9
$DIMTIH
 70
     1
  9
$DIMTOH
 70
     1
  9
$DIMSE1
 70
     0
  9
$DIMSE2
 70
     0
  9
$DIMTAD
 70
     0
  9
$DIMZIN
 70
     0
  9
$DIMBLK
  1

  9
$DIMASO
 70
     1
  9
$DIMSHO
 70
     1
  9
$DIMPOST
  1

  9
$DIMAPOST
  1

  9
$DIMALT
 70
     0
  9
$DIMALTD
 70
     2
  9
$DIMALTF
 40
25.4
  9
$DIMLFAC
 40
1.0
  9
$DIMTOFL
 70
     0
  9
$DIMTVP
 40
0.0
  9
$DIMTIX
 70
     0
  9
$DIMSOXD
 70
     0
  9
$DIMSAH
 70
     0
  9
$DIMBLK1
  1

  9
$DIMBLK2
  1

  9
$DIMSTYLE
  2
Standard
  9
$DIMCLRD
 70
     0
  9
$DIMCLRE
 70
     0
  9
$DIMCLRT
 70
     0
  9
$DIMTFAC
 40
1.0
  9
$DIMGAP
 40
0.09
  9
$DIMJUST
 70
     0
  9
$DIMSD1
 70
     0
  9
$DIMSD2
 70
     0
  9
$DIMTOLJ
 70
     1
  9
$DIMTZIN
 70
     0
  9
$DIMALTZ
 70
     0
  9
$DIMALTTZ
 70
     0
  9
$DIMUPT
 70
     0
  9
$DIMDEC
 70
     4
  9
$DIMTDEC
 70
     4
  9
$DIMALTU
 70
     2
  9
$DIMALTTD
 70
     2
  9
$DIMTXSTY
  7
Standard
  9
$DIMAUNIT
 70
     0
  9
$DIMADEC
 70
     0
  9
$DIMALTRND
 40
0.0
  9
$DIMAZIN
 70
     0
  9
$DIMDSEP
 70
    46
  9
$DIMATFIT
 70
     3
  9
$DIMFRAC
 70
     0
  9
$DIMLDRBLK
  1

  9
$DIMLUNIT
 70
     2
  9
$DIMLWD
 70
    -2
  9
$DIMLWE
 70
    -2
  9
$DIMTMOVE
 70
     0
  9
$DIMFXL
 40
1.0
  9
$DIMFXLON
 70
     0
  9
$DIMJOGANG
 40
0.7853981633974483
  9
$DIMTFILL
 70
     0
  9
$DIMTFILLCLR
 70
     0
  9
$DIMARCSYM
 70
     0
  9
$DIMLTYPE
  6

  9
$DIMLTEX1
  6

  9
$DIMLTEX2
  6

  9
$DIMTXTDIRECTION
 70
     0
  9
$LUNITS
 70
     2
  9
$LUPREC
 70
     4
  9
$SKETCHINC
 40
0.1
  9
$FILLETRAD
 40
0.5
  9
$AUNITS
 70
     0
  9
$AUPREC
 70
     0
  9
$MENU
  1
.
  9
$ELEVATION
 40
0.0
  9
$PELEVATION
 40
0.0
  9
$THICKNESS
 40
0.0
  9
$LIMCHECK
 70
     0
  9
$CHAMFERA
 40
0.0
  9
$CHAMFERB
 40
0.0
  9
$CHAMFERC
 40
0.0
  9
$CHAMFERD
 40
0.0
  9
$SKPOLY
 70
     0
  9
$TDCREATE
 40
2458168.994285995
  9
$TDUCREATE
 40
2458168.952619329
  9
$TDUPDATE
 40
2458168.994285995
  9
$TDUUPDATE
 40
2458168.952619329
  9
$TDINDWG
 40
0.0000000116
  9
$TDUSRTIMER
 40
0.0000000116
  9
$USRTIMER
 70
     1
  9
$ANGBASE
 50
0.0
  9
$ANGDIR
 70
     0
  9
$PDMODE
 70
     0
  9
$PDSIZE
 40
0.0
  9
$PLINEWID
 40
0.0
  9
$SPLFRAME
 70
     0
  9
$SPLINETYPE
 70
     6
  9
$SPLINESEGS
 70
     8
  9
$HANDSEED
  5
1BA
  9
$SURFTAB1
 70
     6
  9
$SURFTAB2
 70
     6
  9
$SURFTYPE
 70
     6
  9
$SURFU
 70
     6
  9
$SURFV
 70
     6
  9
$UCSBASE
  2

  9
$UCSNAME
  2

  9
$UCSORG
 10
0.0
 20
0.0
 30
0.0
  9
$UCSXDIR
 10
1.0
 20
0.0
 30
0.0
  9
$UCSYDIR
 10
0.0
 20
1.0
 30
0.0
  9
$UCSORTHOREF
  2

  9
$UCSORTHOVIEW
 70
     0
  9
$UCSORGTOP
 10
0.0
 20
0.0
 30
0.0
  9
$UCSORGBOTTOM
 10
0.0
 20
0.0
 30
0.0
  9
$UCSORGLEFT
 10
0.0
 20
0.0
 30
0.0
  9
$UCSORGRIGHT
 10
0.0
 20
0.0
 30
0.0
  9
$UCSORGFRONT
 10
0.0
 20
0.0
 30
0.0
  9
$UCSORGBACK
 10
0.0
 20
0.0
 30
0.0
  9
$PUCSBASE
  2

  9
$PUCSNAME
  2

  9
$PUCSORG
 10
0.0
 20
0.0
 30
0.0
  9
$PUCSXDIR
 10
1.0
 20
0.0
 30
0.0
  9
$PUCSYDIR
 10
0.0
 20
1.0
 30
0.0
  9
$PUCSORTHOREF
  2

  9
$PUCSORTHOVIEW
 70
     0
  9
$PUCSORGTOP
 10
0.0
 20
0.0
 30
0.0
  9
$PUCSORGBOTTOM
 10
0.0
 20
0.0
 30
0.0
  9
$PUCSORGLEFT
 10
0.0
 20
0.0
 30
0.0
  9
$PUCSORGRIGHT
 10
0.0
 20
0.0
 30
0.0
  9
$PUCSORGFRONT
 10
0.0
 20
0.0
 30
0.0
  9
$PUCSORGBACK
 10
0.0
 20
0.0
 30
0.0
  9
$USERI1
 70
     0
  9
$USERI2
 70
     0
  9
$USERI3
 70
     0
  9
$USERI4
 70
     0
  9
$USERI5
 70
     0
  9
$USERR1
 40
0.0
  9
$USERR2
 40
0.0
  9
$USERR3
 40
0.0
  9
$USERR4
 40
0.0
  9
$USERR5
 40
0.0
  9
$WORLDVIEW
 70
     1
  9
$SHADEDGE
 70
     3
  9
$SHADEDIF
 70
    70
  9
$TILEMODE
 70
     1
  9
$MAXACTVP
 70
    64
  9
$PINSBASE
 10
0.0
 20
0.0
 30
0.0
  9
$PLIMCHECK
 70
     0
  9
$PEXTMIN
 10
1.000000000000000E+20
 20
1.000000000000000E+20
 30
1.000000000000000E+20
  9
$PEXTMAX
 10
-1.000000000000000E+20
 20
-1.000000000000000E+20
 30
-1.000000000000000E+20
  9
$PLIMMIN
 10
0.0
 20
0.0
  9
$PLIMMAX
 10
12.0
 20
9.0
  9
$UNITMODE
 70
     0
  9
$VISRETAIN
 70
     1
  9
$PLINEGEN
 70
     0
  9
$PSLTSCALE
 70
     1
  9
$TREEDEPTH
 70
  3020
  9
$CMLSTYLE
  2
Standard
  9
$CMLJUST
 70
     0
  9
$CMLSCALE
 40
1.0
  9
$PROXYGRAPHICS
 70
     1
  9
$MEASUREMENT
 70
     0
  9
$CELWEIGHT
370
    -1
  9
$ENDCAPS
280
     0
  9
$JOINSTYLE
280
     0
  9
$LWDISPLAY
290
     0
  9
$INSUNITS
 70
     1
  9
$HYPERLINKBASE
  1

  9
$STYLESHEET
  1

  9
$XEDIT
290
     1
  9
$CEPSNTYPE
380
     0
  9
$PSTYLEMODE
290
     1
  9
$FINGERPRINTGUID
  2
{F8EA7298-D8AF-4621-BE3B-9B5877B876D7}
  9
$VERSIONGUID
  2
{FAEB1C32-E019-11D5-929B-00C0DF256EC4}
  9
$EXTNAMES
290
     1
  9
$PSVPSCALE
 40
0.0
  9
$OLESTARTUP
290
     0
  9
$SORTENTS
280
   127
  9
$INDEXCTL
280
     0
  9
$HIDETEXT
280
     1
  9
$XCLIPFRAME
280
     2
  9
$HALOGAP
280
     0
  9
$OBSCOLOR
 70
   257
  9
$OBSLTYPE
280
     0
  9
$INTERSECTIONDISPLAY
280
     0
  9
$INTERSECTIONCOLOR
 70
   257
  9
$DIMASSOC
280
     2
  9
$PROJECTNAME
  1

  9
$CAMERADISPLAY
290
     0
  9
$LENSLENGTH
 40
50.0
  9
$CAMERAHEIGHT
 40
0.0
  9
$STEPSPERSEC
 40
2.0
  9
$STEPSIZE
 40
6.0
  9
$3DDWFPREC
 40
2.0
  9
$PSOLWIDTH
 40
0.25
  9
$PSOLHEIGHT
 40
4.0
  9
$LOFTANG1
 40
1.570796326794897
  9
$LOFTANG2
 40
1.570796326794897
  9
$LOFTMAG1
 40
0.0
  9
$LOFTMAG2
 40
0.0
  9
$LOFTPARAM
 70
     7
  9
$LOFTNORMALS
280
     1
  9
$LATITUDE
 40
37.795
  9
$LONGITUDE
 40
-122.394
  9
$NORTHDIRECTION
 40
0.0
  9
$TIMEZONE
 70
 -8000
  9
$LIGHTGLYPHDISPLAY
280
     1
  9
$TILEMODELIGHTSYNCH
280
     1
  9
$CMATERIAL
347
44
  9
$SOLIDHIST
280
     0
  9
$SHOWHIST
280
     1
  9
$DWFFRAME
280
     2
  9
$DGNFRAME
280
     2
  9
$REALWORLDSCALE
290
     1
  9
$INTERFERECOLOR
 62
   256
  9
$CSHADOW
280
     0
  9
$SHADOWPLANELOCATION
 40
0.0
  0
ENDSEC
  0
SECTION
  2
CLASSES
  0
CLASS
  1
ACDBDICTIONARYWDFLT
  2
AcDbDictionaryWithDefault
  3
ObjectDBX Classes
 90
        0
 91
        4
280
     0
281
     0
  0
CLASS
  1
VISUALSTYLE
  2
AcDbVisualStyle
  3
ObjectDBX Classes
 90
     4095
 91
        4
280
     0
281
     0
  0
CLASS
  1
MATERIAL
  2
AcDbMaterial
  3
ObjectDBX Classes
 90
     1153
 91
        4
280
     0
281
     0
  0
CLASS
  1
SCALE
  2
AcDbScale
  3
ObjectDBX Classes
 90
     1153
 91
        4
280
     0
281
     0
  0
CLASS
  1
TABLESTYLE
  2
AcDbTableStyle
  3
ObjectDBX Classes
 90
     4095
 91
        4
280
     0
281
     0
  0
CLASS
  1
MLEADERSTYLE
  2
AcDbMLeaderStyle
  3
ACDB_MLEADERSTYLE_CLASS
 90
     4095
 91
        4
280
     0
281
     0
  0
CLASS
  1
SUN
  2
AcDbSun
  3
SCENEOE
 90
     1153
 91
        4
280
     0
281
     0
  0
CLASS
  1
DICTIONARYVAR
  2
AcDbDictionaryVar
  3
ObjectDBX Classes
 90
        0
 91
        4
280
     0
281
     0
  0
CLASS
  1
CELLSTYLEMAP
  2
AcDbCellStyleMap
  3
ObjectDBX Classes
 90
     1152
 91
        4
280
     0
281
     0
  0
ENDSEC
  0
SECTION
  2
TABLES
  0
TABLE
  2
VPORT
  5
8
330
0
100
AcDbSymbolTable
 70
     1
  0
VPORT
  5
29
330
8
100
AcDbSymbolTableRecord
100
AcDbViewportTableRecord
  2
*Active
 70
     0
 10
0.0
 20
0.0
 11
1.0
 21
1.0
 12
0.0
 22
0.3117187499999998
 13
0.0
 23
0.0
 14
0.5
 24
0.5
 15
0.5
 25
0.5
 16
0.0
 26
0.0
 36
1.0
 17
0.0
 27
0.0
 37
0.0
 40
3.56840625
 41
1.572130415364002
 42
50.0
 43
0.0
 44
0.0
 50
0.0
 51
0.0
 71
     0
 72
   100
 73
     1
 74
     3
 75
     0
 76
     0
 77
     0
 78
     0
281
     0
 65
     1
110
0.0
120
0.0
130
0.0
111
1.0
121
0.0
131
0.0
112
0.0
122
1.0
132
0.0
 79
     0
146
0.0
348
2F
 60
     3
 61
     5
292
     1
282
     1
141
0.0
142
0.0
 63
   250
361
6D
  0
ENDTAB
  0
TABLE
  2
LTYPE
  5
5
330
0
100
AcDbSymbolTable
 70
     3
  0
LTYPE
  5
14
330
5
100
AcDbSymbolTableRecord
100
AcDbLinetypeTableRecord
  2
ByBlock
 70
     0
  3

 72
    65
 73
     0
 40
0.0
  0
LTYPE
  5
15
330
5
100
AcDbSymbolTableRecord
100
AcDbLinetypeTableRecord
  2
ByLayer
 70
     0
  3

 72
    65
 73
     0
 40
0.0
  0
LTYPE
  5
16
330
5
100
AcDbSymbolTableRecord
100
AcDbLinetypeTableRecord
  2
Continuous
 70
     0
  3
Solid line
 72
    65
 73
     0
 40
0.0
  0
LTYPE
  5
A5
330
5
100
AcDbSymbolTableRecord
100
AcDbLinetypeTableRecord
  2
Dashed
 70
     0
  3

 72
    65
 73
     2
 40
2.0
 49
1.0
 74
     0
 49
-1.0
 74
     0
  0
LTYPE
  5
171
330
5
100
AcDbSymbolTableRecord
100
AcDbLinetypeTableRecord
  2
Center
 70
     0
  3

 72
    65
 73
     4
 40
1.5
 49
0.45
 74
     0
 49
-0.5
 74
     0
 49
0.05
 74
     0
 49
-0.5
 74
     0
  0
ENDTAB
  0
TABLE
  2
LAYER
  5
2
330
0
100
AcDbSymbolTable
 70
     7
  0
LAYER
  5
10
330
2
100
AcDbSymbolTableRecord
100
AcDbLayerTableRecord
  2
0
 70
     0
 62
     7
  6
Continuous
370
    -3
390
F
347
46
348
0
  0
LAYER
  5
72
330
2
100
AcDbSymbolTableRecord
100
AcDbLayerTableRecord
  2
AM_6
 70
     0
 62
    -2
  6
Continuous
370
    35
390
F
347
46
348
0
  0
LAYER
  5
A6
330
2
100
AcDbSymbolTableRecord
100
AcDbLayerTableRecord
  2
AM_9
 70
     0
 62
     6
  6
Dashed
370
    25
390
F
347
46
348
0
  0
LAYER
  5
B0
330
2
100
AcDbSymbolTableRecord
100
AcDbLayerTableRecord
  2
AM_4
 70
     0
 62
     3
  6
Continuous
370
    25
390
F
347
46
348
0
  0
LAYER
  5
E1
330
2
100
AcDbSymbolTableRecord
100
AcDbLayerTableRecord
  2
AM_5
 70
     0
 62
     3
  6
Continuous
370
    25
390
F
347
46
348
0
  0
LAYER
  5
172
330
2
100
AcDbSymbolTableRecord
100
AcDbLayerTableRecord
  2
AM_7
 70
     0
 62
     7
  6
Center
370
    25
390
F
347
46
348
0
  0
LAYER
  5
1AC
330
2
100
AcDbSymbolTableRecord
100
AcDbLayerTableRecord
  2
ConnectionPoints
 70
     0
 62
     7
  6
Continuous
370
    50
390
F
347
46
348
0
  0
ENDTAB
  0
TABLE
  2
STYLE
  5
3
330
0
100
AcDbSymbolTable
 70
     1
  0
STYLE
  5
11
330
3
100
AcDbSymbolTableRecord
100
AcDbTextStyleTableRecord
  2
Standard
 70
     0
 40
0.0
 41
1.0
 50
0.0
 71
     0
 42
0.2
  3
txt
  4

  0
ENDTAB
  0
TABLE
  2
VIEW
  5
6
330
0
100
AcDbSymbolTable
 70
     0
  0
ENDTAB
  0
TABLE
  2
UCS
  5
7
330
0
100
AcDbSymbolTable
 70
     0
  0
ENDTAB
  0
TABLE
  2
APPID
  5
9
330
0
100
AcDbSymbolTable
 70
     1
  0
APPID
  5
12
330
9
100
AcDbSymbolTableRecord
100
AcDbRegAppTableRecord
  2
ACAD
 70
     0
  0
ENDTAB
  0
TABLE
  2
DIMSTYLE
  5
A
330
0
100
AcDbSymbolTable
 70
     1
100
AcDbDimStyleTable
  0
DIMSTYLE
105
27
330
A
100
AcDbSymbolTableRecord
100
AcDbDimStyleTableRecord
  2
Standard
 70
     0
178
     0
340
11
  0
ENDTAB
  0
TABLE
  2
BLOCK_RECORD
  5
1
330
0
100
AcDbSymbolTable
 70
     5
  0
BLOCK_RECORD
  5
1F
330
1
100
AcDbSymbolTableRecord
100
AcDbBlockTableRecord
  2
*Model_Space
340
22
 70
     0
280
     1
281
     0
  0
BLOCK_RECORD
  5
1B
330
1
100
AcDbSymbolTableRecord
100
AcDbBlockTableRecord
  2
*Paper_Space
340
1E
 70
     0
280
     1
281
     0
  0
BLOCK_RECORD
  5
23
330
1
100
AcDbSymbolTableRecord
100
AcDbBlockTableRecord
  2
*Paper_Space0
340
26
 70
     0
280
     1
281
     0
  0
BLOCK_RECORD
  5
6E
330
1
100
AcDbSymbolTableRecord
100
AcDbBlockTableRecord
  2
1_129155_0
340
0
102
{BLKREFS
331
6F
102
}
 70
     0
280
     1
281
     0
  0
BLOCK_RECORD
  5
8F
330
1
100
AcDbSymbolTableRecord
100
AcDbBlockTableRecord
  2
2_129518I_0_in_129155_0
340
0
102
{BLKREFS
331
90
102
}
 70
     0
280
     1
281
     0
  0
BLOCK_RECORD
  5
B8
330
1
100
AcDbSymbolTableRecord
100
AcDbBlockTableRecord
  2
3_129905_0_in_129155_0
340
0
102
{BLKREFS
331
B9
102
}
 70
     0
280
     1
281
     0
  0
BLOCK_RECORD
  5
F9
330
1
100
AcDbSymbolTableRecord
100
AcDbBlockTableRecord
  2
4_129422I_0_in_129155_0
340
0
102
{BLKREFS
331
FA
102
}
 70
     0
280
     1
281
     0
  0
ENDTAB
  0
ENDSEC
  0
SECTION
  2
BLOCKS
  0
BLOCK
  5
20
330
1F
100
AcDbEntity
  8
0
100
AcDbBlockBegin
  2
*Model_Space
 70
     0
 10
0.0
 20
0.0
 30
0.0
  3
*Model_Space
  1

  0
ENDBLK
  5
21
330
1F
100
AcDbEntity
  8
0
100
AcDbBlockEnd
  0
BLOCK
  5
1C
330
1B
100
AcDbEntity
 67
     1
  8
0
100
AcDbBlockBegin
  2
*Paper_Space
 70
     0
 10
0.0
 20
0.0
 30
0.0
  3
*Paper_Space
  1

  0
ENDBLK
  5
1D
330
1B
100
AcDbEntity
 67
     1
  8
0
100
AcDbBlockEnd
  0
BLOCK
  5
24
330
23
100
AcDbEntity
  8
0
100
AcDbBlockBegin
  2
*Paper_Space0
 70
     0
 10
0.0
 20
0.0
 30
0.0
  3
*Paper_Space0
  1

  0
ENDBLK
  5
25
330
23
100
AcDbEntity
  8
0
100
AcDbBlockEnd
  0
BLOCK
  5
70
330
6E
100
AcDbEntity
  8
0
100
AcDbBlockBegin
  2
1_129155_0
 70
     2
 10
0.0
 20
0.0
 30
0.0
  3
1_129155_0
  1

  0
ATTDEF
  5
73
330
6E
100
AcDbEntity
  8
AM_6
100
AcDbText
 10
7.75
 20
2.0609375
 30
0.0
 40
0.5
  1
Grip Tight Two-Bolt Pillow Block Inch Bore
100
AcDbAttributeDefinition
  3

  2
NN
 70
     8
280
     0
  0
ATTDEF
  5
74
330
6E
100
AcDbEntity
  8
AM_6
100
AcDbText
 10
7.75
 20
1.5609375
 30
0.0
 40
0.5
  1
GT Normal Duty Pillow Blocks
100
AcDbAttributeDefinition
  3

  2
NT
 70
     8
280
     0
  0
ATTDEF
  5
75
330
6E
100
AcDbEntity
  8
AM_6
100
AcDbText
 10
7.75
 20
1.0609375
 30
0.0
 40
0.5
  1
129155
100
AcDbAttributeDefinition
  3

  2
NB
 70
     8
280
     0
  0
ATTDEF
  5
76
330
6E
100
AcDbEntity
  8
AM_6
100
AcDbText
 10
7.75
 20
0.5609374999999996
 30
0.0
 40
0.5
  1
$PN.$LUBE.
100
AcDbAttributeDefinition
  3

  2
NBSYN
 70
     8
280
     0
  0
ATTDEF
  5
77
330
6E
100
AcDbEntity
  8
AM_6
100
AcDbText
 10
7.75
 20
0.0609374999999996
 30
0.0
 40
0.5
  1
129155
100
AcDbAttributeDefinition
  3

  2
LINA
 70
     8
280
     0
  0
ATTDEF
  5
78
330
6E
100
AcDbEntity
  8
AM_6
100
AcDbText
 10
7.75
 20
-0.4390625000000004
 30
0.0
 40
0.5
  1
205
100
AcDbAttributeDefinition
  3

  2
SERIES
 70
     8
280
     0
  0
ATTDEF
  5
79
330
6E
100
AcDbEntity
  8
AM_6
100
AcDbText
 10
7.75
 20
-0.9390625000000004
 30
0.0
 40
0.5
  1
7/8
100
AcDbAttributeDefinition
  3

  2
SS
 70
     8
280
     0
  0
ATTDEF
  5
7A
330
6E
100
AcDbEntity
  8
AM_6
100
AcDbText
 10
7.75
 20
-1.4390625
 30
0.0
 40
0.5
  1
129155
100
AcDbAttributeDefinition
  3

  2
PN
 70
     8
280
     0
  0
ATTDEF
  5
7B
330
6E
100
AcDbEntity
  8
AM_6
100
AcDbText
 10
7.75
 20
-1.9390625
 30
0.0
 40
0.5
  1
P2B-GT-014
100
AcDbAttributeDefinition
  3

  2
DESCRIPTION
 70
     8
280
     0
  0
ATTDEF
  5
7C
330
6E
100
AcDbEntity
  8
AM_6
100
AcDbText
 10
7.75
 20
-2.4390625
 30
0.0
 40
0.5
  1
1-29/64
100
AcDbAttributeDefinition
  3

  2
A
 70
     8
280
     0
  0
ATTDEF
  5
7D
330
6E
100
AcDbEntity
  8
AM_6
100
AcDbText
 10
7.75
 20
-2.9390625
 30
0.0
 40
0.5
  1
5-1/2
100
AcDbAttributeDefinition
  3

  2
B
 70
     8
280
     0
  0
ATTDEF
  5
7E
330
6E
100
AcDbEntity
  8
AM_6
100
AcDbText
 10
7.75
 20
-3.4390625
 30
0.0
 40
0.5
  1
1-13/32
100
AcDbAttributeDefinition
  3

  2
C
 70
     8
280
     0
  0
ATTDEF
  5
7F
330
6E
100
AcDbEntity
  8
AM_6
100
AcDbText
 10
7.75
 20
-3.9390625
 30
0.0
 40
0.5
  1
3-11/16
100
AcDbAttributeDefinition
  3

  2
DMIN
 70
     8
280
     0
  0
ATTDEF
  5
80
330
6E
100
AcDbEntity
  8
AM_6
100
AcDbText
 10
7.75
 20
-4.4390625
 30
0.0
 40
0.5
  1
4-1/2
100
AcDbAttributeDefinition
  3

  2
DMAX
 70
     8
280
     0
  0
ATTDEF
  5
81
330
6E
100
AcDbEntity
  8
AM_6
100
AcDbText
 10
7.75
 20
-4.9390625
 30
0.0
 40
0.5
  1
3/8
100
AcDbAttributeDefinition
  3

  2
F
 70
     8
280
     0
  0
ATTDEF
  5
82
330
6E
100
AcDbEntity
  8
AM_6
100
AcDbText
 10
7.75
 20
-5.4390625
 30
0.0
 40
0.5
  1
27/32
100
AcDbAttributeDefinition
  3

  2
G
 70
     8
280
     0
  0
ATTDEF
  5
83
330
6E
100
AcDbEntity
  8
AM_6
100
AcDbText
 10
7.75
 20
-5.9390625
 30
0.0
 40
0.5
  1
37/64
100
AcDbAttributeDefinition
  3

  2
H
 70
     8
280
     0
  0
ATTDEF
  5
84
330
6E
100
AcDbEntity
  8
AM_6
100
AcDbText
 10
7.75
 20
-6.4390625
 30
0.0
 40
0.5
  1
2-25/32
100
AcDbAttributeDefinition
  3

  2
J
 70
     8
280
     0
  0
ATTDEF
  5
85
330
6E
100
AcDbEntity
  8
AM_6
100
AcDbText
 10
7.75
 20
-6.9390625
 30
0.0
 40
0.5
  1
1-51/64
100
AcDbAttributeDefinition
  3

  2
L
 70
     8
280
     0
  0
ATTDEF
  5
86
330
6E
100
AcDbEntity
  8
AM_6
100
AcDbText
 10
7.75
 20
-7.4390625
 30
0.0
 40
0.5
  1
1-7/16
100
AcDbAttributeDefinition
  3

  2
M
 70
     8
280
     0
  0
ATTDEF
  5
87
330
6E
100
AcDbEntity
  8
AM_6
100
AcDbText
 10
7.75
 20
-7.9390625
 30
0.0
 40
0.5
  1
1/2
100
AcDbAttributeDefinition
  3

  2
R
 70
     8
280
     0
  0
ATTDEF
  5
88
330
6E
100
AcDbEntity
  8
AM_6
100
AcDbText
 10
7.75
 20
-8.4390625
 30
0.0
 40
0.5
  1
61/64
100
AcDbAttributeDefinition
  3

  2
S
 70
     8
280
     0
  0
ATTDEF
  5
89
330
6E
100
AcDbEntity
  8
AM_6
100
AcDbText
 10
7.75
 20
-8.9390625
 30
0.0
 40
0.5
  1
2-1/2
100
AcDbAttributeDefinition
  3

  2
U
 70
     8
280
     0
  0
ATTDEF
  5
8A
330
6E
100
AcDbEntity
  8
AM_6
100
AcDbText
 10
7.75
 20
-9.4390625
 30
0.0
 40
0.5
  1
5
100
AcDbAttributeDefinition
  3

  2
V
 70
     8
280
     0
  0
ATTDEF
  5
8B
330
6E
100
AcDbEntity
  8
AM_6
100
AcDbText
 10
7.75
 20
-9.9390625
 30
0.0
 40
0.5
  1
1/2
100
AcDbAttributeDefinition
  3

  2
W
 70
     8
280
     0
  0
ATTDEF
  5
8C
330
6E
100
AcDbEntity
  8
AM_6
100
AcDbText
 10
7.75
 20
-10.4390625
 30
0.0
 40
0.5
  1
3/16
100
AcDbAttributeDefinition
  3

  2
X
 70
     8
280
     0
  0
ATTDEF
  5
8D
330
6E
100
AcDbEntity
  8
AM_6
100
AcDbText
 10
7.75
 20
-10.9390625
 30
0.0
 40
0.5
  1
61/64
100
AcDbAttributeDefinition
  3

  2
Z
 70
     8
280
     0
  0
ATTDEF
  5
8E
330
6E
100
AcDbEntity
  8
AM_6
100
AcDbText
 10
7.75
 20
-11.4390625
 30
0.0
 40
0.5
  1
baldor
100
AcDbAttributeDefinition
  3

  2
COMPANY
 70
     8
280
     0
  0
INSERT
  5
90
330
6E
100
AcDbEntity
  8
0
100
AcDbBlockReference
  2
2_129518I_0_in_129155_0
 10
0.0
 20
0.0
 30
0.0
  0
INSERT
  5
B9
330
6E
100
AcDbEntity
  8
0
100
AcDbBlockReference
  2
3_129905_0_in_129155_0
 10
0.0
 20
0.0
 30
0.0
  0
INSERT
  5
FA
330
6E
100
AcDbEntity
  8
0
100
AcDbBlockReference
  2
4_129422I_0_in_129155_0
 10
0.0
 20
0.0
 30
0.0
  0
ENDBLK
  5
71
330
6E
100
AcDbEntity
  8
0
100
AcDbBlockEnd
  0
BLOCK
  5
91
330
8F
100
AcDbEntity
  8
0
100
AcDbBlockBegin
  2
2_129518I_0_in_129155_0
 70
     2
 10
0.0
 20
0.0
 30
0.0
  3
2_129518I_0_in_129155_0
  1

  0
ATTDEF
  5
93
330
8F
100
AcDbEntity
  8
AM_6
100
AcDbText
 10
6.023361350524044
 20
1.013665751673279
 30
0.0
 40
0.5
  1
INS-GT B
100
AcDbAttributeDefinition
  3

  2
NN
 70
     8
280
     0
  0
ATTDEF
  5
94
330
8F
100
AcDbEntity
  8
AM_6
100
AcDbText
 10
6.023361350524044
 20
0.5136657516732794
 30
0.0
 40
0.5
  1
GT Normal Duty Bearing Inserts
100
AcDbAttributeDefinition
  3

  2
NT
 70
     8
280
     0
  0
ATTDEF
  5
95
330
8F
100
AcDbEntity
  8
AM_6
100
AcDbText
 10
6.023361350524044
 20
0.0136657516732794
 30
0.0
 40
0.5
  1
129518I
100
AcDbAttributeDefinition
  3

  2
NB
 70
     8
280
     0
  0
ATTDEF
  5
96
330
8F
100
AcDbEntity
  8
AM_6
100
AcDbText
 10
6.023361350524044
 20
-0.4863342483267206
 30
0.0
 40
0.5
  1
$PN.I
100
AcDbAttributeDefinition
  3

  2
NBSYN
 70
     8
280
     0
  0
ATTDEF
  5
97
330
8F
100
AcDbEntity
  8
AM_6
100
AcDbText
 10
6.023361350524044
 20
-0.9863342483267206
 30
0.0
 40
0.5
  1
129518
100
AcDbAttributeDefinition
  3

  2
LINA
 70
     8
280
     0
  0
ATTDEF
  5
98
330
8F
100
AcDbEntity
  8
AM_6
100
AcDbText
 10
6.023361350524044
 20
-1.486334248326721
 30
0.0
 40
0.5
  1
205
100
AcDbAttributeDefinition
  3

  2
SERIES
 70
     8
280
     0
  0
ATTDEF
  5
99
330
8F
100
AcDbEntity
  8
AM_6
100
AcDbText
 10
6.023361350524044
 20
-1.986334248326721
 30
0.0
 40
0.5
  1
129518
100
AcDbAttributeDefinition
  3

  2
PN
 70
     8
280
     0
  0
ATTDEF
  5
9A
330
8F
100
AcDbEntity
  8
AM_6
100
AcDbText
 10
6.023361350524044
 20
-2.48633424832672
 30
0.0
 40
0.5
  1
INS-GT-05
100
AcDbAttributeDefinition
  3

  2
DESCRIPTION
 70
     8
280
     0
  0
ATTDEF
  5
9B
330
8F
100
AcDbEntity
  8
AM_6
100
AcDbText
 10
6.023361350524044
 20
-2.98633424832672
 30
0.0
 40
0.5
  1
1.46
100
AcDbAttributeDefinition
  3

  2
A
 70
     8
280
     0
  0
ATTDEF
  5
9C
330
8F
100
AcDbEntity
  8
AM_6
100
AcDbText
 10
6.023361350524044
 20
-3.48633424832672
 30
0.0
 40
0.5
  1
0.59
100
AcDbAttributeDefinition
  3

  2
C
 70
     8
280
     0
  0
ATTDEF
  5
9D
330
8F
100
AcDbEntity
  8
AM_6
100
AcDbText
 10
6.023361350524044
 20
-3.98633424832672
 30
0.0
 40
0.5
  1
2.0472
100
AcDbAttributeDefinition
  3

  2
D
 70
     8
280
     0
  0
ATTDEF
  5
9E
330
8F
100
AcDbEntity
  8
AM_6
100
AcDbText
 10
6.023361350524044
 20
-4.48633424832672
 30
0.0
 40
0.5
  1
0.16
100
AcDbAttributeDefinition
  3

  2
J
 70
     8
280
     0
  0
ATTDEF
  5
9F
330
8F
100
AcDbEntity
  8
AM_6
100
AcDbText
 10
6.023361350524044
 20
-4.98633424832672
 30
0.0
 40
0.5
  1
1.80
100
AcDbAttributeDefinition
  3

  2
L
 70
     8
280
     0
  0
ATTDEF
  5
A0
330
8F
100
AcDbEntity
  8
AM_6
100
AcDbText
 10
6.023361350524044
 20
-5.48633424832672
 30
0.0
 40
0.5
  1
#10 - 32 x 1/4
100
AcDbAttributeDefinition
  3

  2
N
 70
     8
280
     0
  0
ATTDEF
  5
A1
330
8F
100
AcDbEntity
  8
AM_6
100
AcDbText
 10
6.023361350524044
 20
-5.98633424832672
 30
0.0
 40
0.5
  1
0.48000
100
AcDbAttributeDefinition
  3

  2
W
 70
     8
280
     0
  0
ATTDEF
  5
A2
330
8F
100
AcDbEntity
  8
AM_6
100
AcDbText
 10
6.023361350524044
 20
-6.48633424832672
 30
0.0
 40
0.5
  1
1.00
100
AcDbAttributeDefinition
  3

  2
X
 70
     8
280
     0
  0
ATTDEF
  5
A3
330
8F
100
AcDbEntity
  8
AM_6
100
AcDbText
 10
6.023361350524044
 20
-6.98633424832672
 30
0.0
 40
0.5
  1
0.98
100
AcDbAttributeDefinition
  3

  2
Y
 70
     8
280
     0
  0
ATTDEF
  5
A4
330
8F
100
AcDbEntity
  8
AM_6
100
AcDbText
 10
6.023361350524044
 20
-7.48633424832672
 30
0.0
 40
0.5
  1
baldor
100
AcDbAttributeDefinition
  3

  2
COMPANY
 70
     8
280
     0
  0
CIRCLE
  5
A7
330
8F
100
AcDbEntity
  8
AM_9
100
AcDbCircle
 10
0.0
 20
0.0
 30
0.0
 40
0.6996095588051076
  0
ARC
  5
A8
330
8F
100
AcDbEntity
  8
AM_9
100
AcDbCircle
 10
0.0
 20
0.0000000000000001
 30
0.0
 40
1.0236
100
AcDbArc
 50
173.830995616333
 51
6.169004383667104
  0
CIRCLE
  5
A9
330
8F
100
AcDbEntity
  8
AM_9
100
AcDbCircle
 10
0.0
 20
0.0
 30
0.0
 40
0.9646000000000001
  0
CIRCLE
  5
AA
330
8F
100
AcDbEntity
  8
AM_9
100
AcDbCircle
 10
0.0
 20
0.0
 30
0.0
 40
0.9915209481297971
  0
CIRCLE
  5
AB
330
8F
100
AcDbEntity
  8
AM_9
100
AcDbCircle
 10
0.0
 20
0.0
 30
0.0
 40
0.7357142600000001
  0
ARC
  5
AC
330
8F
100
AcDbEntity
  8
AM_9
100
AcDbCircle
 10
0.0
 20
-0.0000000000000328
 30
0.0
 40
0.6714285200000328
100
AcDbArc
 50
86.6233995516917
 51
93.3766004483083
  0
ARC
  5
AD
330
8F
100
AcDbEntity
  8
AM_9
100
AcDbCircle
 10
0.0000000000000004
 20
0.0
 30
0.0
 40
0.6714285200000001
100
AcDbArc
 50
94.27369513022937
 51
85.72384938056149
  0
CIRCLE
  5
AE
330
8F
100
AcDbEntity
  8
AM_9
100
AcDbCircle
 10
0.0
 20
0.0
 30
0.0
 40
0.7764000000000001
  0
CIRCLE
  5
AF
330
8F
100
AcDbEntity
  8
AM_9
100
AcDbCircle
 10
0.0
 20
0.0
 30
0.0
 40
0.8
  0
CIRCLE
  5
B1
330
8F
100
AcDbEntity
  8
AM_4
100
AcDbCircle
 10
0.0
 20
0.0
 30
0.0
 40
1.013665751673279
  0
CIRCLE
  5
B2
330
8F
100
AcDbEntity
  8
AM_4
100
AcDbCircle
 10
0.0
 20
0.0
 30
0.0
 40
1.00784217134026
  0
CIRCLE
  5
B3
330
8F
100
AcDbEntity
  8
AM_4
100
AcDbCircle
 10
0.0
 20
0.0
 30
0.0
 40
0.9972180097432065
  0
CIRCLE
  5
B4
330
8F
100
AcDbEntity
  8
AM_4
100
AcDbCircle
 10
0.0
 20
0.0
 30
0.0
 40
0.9706588987325615
  0
CIRCLE
  5
B5
330
8F
100
AcDbEntity
  8
AM_4
100
AcDbCircle
 10
0.0
 20
0.0
 30
0.0
 40
0.9486878556946365
  0
ARC
  5
B6
330
8F
100
AcDbEntity
  8
AM_4
100
AcDbCircle
 10
0.0000000000003296
 20
-0.0000000000048844
 30
0.0
 40
0.6714285200048955
100
AcDbArc
 50
93.37660044831199
 51
94.27369513022632
  0
ARC
  5
B7
330
8F
100
AcDbEntity
  8
AM_4
100
AcDbCircle
 10
0.0000000000000686
 20
0.0000000000011208
 30
0.0
 40
0.6714285199988773
100
AcDbArc
 50
85.72384938056017
 51
86.62339955169175
  0
ENDBLK
  5
92
330
8F
100
AcDbEntity
  8
0
100
AcDbBlockEnd
  0
BLOCK
  5
BA
330
B8
100
AcDbEntity
  8
0
100
AcDbBlockBegin
  2
3_129905_0_in_129155_0
 70
     2
 10
0.0
 20
0.0
 30
0.0
  3
3_129905_0_in_129155_0
  1

  0
ATTDEF
  5
BC
330
B8
100
AcDbEntity
  8
AM_6
100
AcDbText
 10
5.895217259332196
 20
0.8982500862960194
 30
0.0
 40
0.5
  1
Grip Tight Normal Duty Adapter and Nut Inch Bore
100
AcDbAttributeDefinition
  3

  2
NN
 70
     8
280
     0
  0
ATTDEF
  5
BD
330
B8
100
AcDbEntity
  8
AM_6
100
AcDbText
 10
5.895217259332196
 20
0.3982500862960194
 30
0.0
 40
0.5
  1
GT and GTM Adapter & Lock Nut Assemblies
100
AcDbAttributeDefinition
  3

  2
NT
 70
     8
280
     0
  0
ATTDEF
  5
BE
330
B8
100
AcDbEntity
  8
AM_6
100
AcDbText
 10
5.895217259332196
 20
-0.1017499137039806
 30
0.0
 40
0.5
  1
129905
100
AcDbAttributeDefinition
  3

  2
NB
 70
     8
280
     0
  0
ATTDEF
  5
BF
330
B8
100
AcDbEntity
  8
AM_6
100
AcDbText
 10
5.895217259332196
 20
-0.6017499137039806
 30
0.0
 40
0.5
  1
$PN.
100
AcDbAttributeDefinition
  3

  2
NBSYN
 70
     8
280
     0
  0
ATTDEF
  5
C0
330
B8
100
AcDbEntity
  8
AM_6
100
AcDbText
 10
5.895217259332196
 20
-1.101749913703981
 30
0.0
 40
0.5
  1
129905
100
AcDbAttributeDefinition
  3

  2
LINA
 70
     8
280
     0
  0
ATTDEF
  5
C1
330
B8
100
AcDbEntity
  8
AM_6
100
AcDbText
 10
5.895217259332196
 20
-1.601749913703981
 30
0.0
 40
0.5
  1
205
100
AcDbAttributeDefinition
  3

  2
SERIES
 70
     8
280
     0
  0
ATTDEF
  5
C2
330
B8
100
AcDbEntity
  8
AM_6
100
AcDbText
 10
5.895217259332196
 20
-2.101749913703981
 30
0.0
 40
0.5
  1
7/8
100
AcDbAttributeDefinition
  3

  2
SS
 70
     8
280
     0
  0
ATTDEF
  5
C3
330
B8
100
AcDbEntity
  8
AM_6
100
AcDbText
 10
5.895217259332196
 20
-2.601749913703981
 30
0.0
 40
0.5
  1
129905
100
AcDbAttributeDefinition
  3

  2
PN
 70
     8
280
     0
  0
ATTDEF
  5
C4
330
B8
100
AcDbEntity
  8
AM_6
100
AcDbText
 10
5.895217259332196
 20
-3.101749913703981
 30
0.0
 40
0.5
  1
AN-GT-05-014
100
AcDbAttributeDefinition
  3

  2
DESCRIPTION
 70
     8
280
     0
  0
ATTDEF
  5
C5
330
B8
100
AcDbEntity
  8
AM_6
100
AcDbText
 10
5.895217259332196
 20
-3.601749913703981
 30
0.0
 40
0.5
  1
1-29/64
100
AcDbAttributeDefinition
  3

  2
A
 70
     8
280
     0
  0
ATTDEF
  5
C6
330
B8
100
AcDbEntity
  8
AM_6
100
AcDbText
 10
5.895217259332196
 20
-4.101749913703981
 30
0.0
 40
0.5
  1
0.5906
100
AcDbAttributeDefinition
  3

  2
C
 70
     8
280
     0
  0
ATTDEF
  5
C7
330
B8
100
AcDbEntity
  8
AM_6
100
AcDbText
 10
5.895217259332196
 20
-4.601749913703981
 30
0.0
 40
0.5
  1
2.0472
100
AcDbAttributeDefinition
  3

  2
D
 70
     8
280
     0
  0
ATTDEF
  5
C8
330
B8
100
AcDbEntity
  8
AM_6
100
AcDbText
 10
5.895217259332196
 20
-5.101749913703981
 30
0.0
 40
0.5
  1
0.152
100
AcDbAttributeDefinition
  3

  2
J
 70
     8
280
     0
  0
ATTDEF
  5
C9
330
B8
100
AcDbEntity
  8
AM_6
100
AcDbText
 10
5.895217259332196
 20
-5.601749913703981
 30
0.0
 40
0.5
  1
1-51/64
100
AcDbAttributeDefinition
  3

  2
L
 70
     8
280
     0
  0
ATTDEF
  5
CA
330
B8
100
AcDbEntity
  8
AM_6
100
AcDbText
 10
5.895217259332196
 20
-6.101749913703981
 30
0.0
 40
0.5
  1
10 - 32 x 1/4
100
AcDbAttributeDefinition
  3

  2
N
 70
     8
280
     0
  0
ATTDEF
  5
CB
330
B8
100
AcDbEntity
  8
AM_6
100
AcDbText
 10
5.895217259332196
 20
-6.601749913703981
 30
0.0
 40
0.5
  1
1/2
100
AcDbAttributeDefinition
  3

  2
W
 70
     8
280
     0
  0
ATTDEF
  5
CC
330
B8
100
AcDbEntity
  8
AM_6
100
AcDbText
 10
5.895217259332196
 20
-7.101749913703981
 30
0.0
 40
0.5
  1
61/64
100
AcDbAttributeDefinition
  3

  2
X
 70
     8
280
     0
  0
ATTDEF
  5
CD
330
B8
100
AcDbEntity
  8
AM_6
100
AcDbText
 10
5.895217259332196
 20
-7.601749913703981
 30
0.0
 40
0.5
  1
61/64
100
AcDbAttributeDefinition
  3

  2
Y
 70
     8
280
     0
  0
ATTDEF
  5
CE
330
B8
100
AcDbEntity
  8
AM_6
100
AcDbText
 10
5.895217259332196
 20
-8.10174991370398
 30
0.0
 40
0.5
  1
baldor
100
AcDbAttributeDefinition
  3

  2
COMPANY
 70
     8
280
     0
  0
LINE
  5
CF
330
B8
100
AcDbEntity
  8
AM_9
100
AcDbLine
 10
-0.05
 20
0.6702730887832995
 30
0.0
 11
-0.05
 21
0.698417254787556
 31
0.0
  0
LINE
  5
D0
330
B8
100
AcDbEntity
  8
AM_9
100
AcDbLine
 10
0.05
 20
0.6702730887832995
 30
0.0
 11
0.05
 21
0.698417254787556
 31
0.0
  0
ARC
  5
D1
330
B8
100
AcDbEntity
  8
AM_9
100
AcDbCircle
 10
0.0
 20
0.0
 30
0.0
 40
0.700204728479454
100
AcDbArc
 50
94.09484409802991
 51
85.90515590197009
  0
CIRCLE
  5
D2
330
B8
100
AcDbEntity
  8
AM_9
100
AcDbCircle
 10
0.0
 20
0.0
 30
0.0
 40
0.7344370039682535
  0
ARC
  5
D3
330
B8
100
AcDbEntity
  8
AM_9
100
AcDbCircle
 10
0.0
 20
0.0000000000000001
 30
0.0
 40
0.6702628968253966
100
AcDbArc
 50
94.27810141623124
 51
85.72189858376875
  0
CIRCLE
  5
D4
330
B8
100
AcDbEntity
  8
AM_9
100
AcDbCircle
 10
0.0
 20
0.0
 30
0.0
 40
0.7986111111111116
  0
LINE
  5
D5
330
B8
100
AcDbEntity
  8
AM_9
100
AcDbLine
 10
-0.8758874999999999
 20
-0.0724500000000001
 30
0.0
 11
-0.6963781249999998
 21
-0.0724500000000001
 31
0.0
  0
LINE
  5
D6
330
B8
100
AcDbEntity
  8
AM_9
100
AcDbLine
 10
-0.6963781249999998
 20
0.0724500000000001
 30
0.0
 11
-0.8758874999999999
 21
0.0724500000000001
 31
0.0
  0
LINE
  5
D7
330
B8
100
AcDbEntity
  8
AM_9
100
AcDbLine
 10
-0.6963781249999998
 20
-0.0724500000000001
 30
0.0
 11
-0.6738281249999999
 21
-0.0949999999999999
 31
0.0
  0
LINE
  5
D8
330
B8
100
AcDbEntity
  8
AM_9
100
AcDbLine
 10
-0.6738281249999999
 20
0.0949999999999999
 30
0.0
 11
-0.6963781249999998
 21
0.0724500000000001
 31
0.0
  0
LINE
  5
D9
330
B8
100
AcDbEntity
  8
AM_9
100
AcDbLine
 10
-0.6738281249999999
 20
0.0949999999999999
 30
0.0
 11
-0.6738281249999999
 21
-0.0949999999999999
 31
0.0
  0
LINE
  5
DA
330
B8
100
AcDbEntity
  8
AM_9
100
AcDbLine
 10
-0.6963781249999998
 20
0.0724500000000001
 30
0.0
 11
-0.6963781249999998
 21
-0.0724500000000001
 31
0.0
  0
LINE
  5
DB
330
B8
100
AcDbEntity
  8
AM_9
100
AcDbLine
 10
-0.8758874999999999
 20
0.0724500000000001
 30
0.0
 11
-0.8937213369680634
 21
0.0902838369680636
 31
0.0
  0
LINE
  5
DC
330
B8
100
AcDbEntity
  8
AM_9
100
AcDbLine
 10
-0.8937739266045791
 20
-0.0903364266045792
 30
0.0
 11
-0.8758874999999999
 21
-0.0724500000000001
 31
0.0
  0
LINE
  5
DD
330
B8
100
AcDbEntity
  8
AM_9
100
AcDbLine
 10
-0.8758874999999999
 20
0.0724500000000001
 30
0.0
 11
-0.8758874999999999
 21
-0.0724500000000001
 31
0.0
  0
LWPOLYLINE
  5
DE
330
B8
100
AcDbEntity
  8
AM_9
100
AcDbPolyline
 90
       10
 70
     0
 43
0.0
 10
-0.8981258750102297
 20
0.0236612350345232
 10
-0.8979046421664038
 20
0.0309385678768808
 10
-0.8973671284667767
 20
0.0438426522183752
 10
-0.8966974238730637
 20
0.0558898150440726
 10
-0.8959713740675841
 20
0.0665224643086458
 10
-0.8952512500965482
 20
0.0755985489729632
 10
-0.8946183458430648
 20
0.0827523817619042
 10
-0.8941451638969472
 20
0.0877175426351598
 10
-0.8939000259953275
 20
0.090181400143281
 10
-0.8938742301123245
 20
0.0904367300788175
  0
LWPOLYLINE
  5
DF
330
B8
100
AcDbEntity
  8
AM_9
100
AcDbPolyline
 90
        5
 70
     0
 43
0.0
 10
-0.8940931269785649
 20
-0.0882463693074209
 10
-0.894526740875081
 20
-0.0837367975603052
 10
-0.895194964997941
 20
-0.0762621534483841
 10
-0.8959565685003411
 20
-0.0667215764752541
 10
-0.8963983528206774
 20
-0.0604973922299648
  0
LINE
  5
E0
330
B8
100
AcDbEntity
  8
AM_9
100
AcDbLine
 10
-0.8938742301299816
 20
-0.0904367299042962
 30
0.0
 11
-0.8940931269785649
 21
-0.0882463693074209
 31
0.0
  0
LINE
  5
E2
330
B8
100
AcDbEntity
  8
AM_5
100
AcDbLine
 10
-0.8934007731171099
 20
-0.0949999999999999
 30
0.0
 11
-0.6738281249999999
 21
-0.0949999999999999
 31
0.0
  0
LINE
  5
E3
330
B8
100
AcDbEntity
  8
AM_5
100
AcDbLine
 10
-0.8934007731171099
 20
0.0949999999999999
 30
0.0
 11
-0.6738281249999999
 21
0.0949999999999999
 31
0.0
  0
LINE
  5
E4
330
B8
100
AcDbEntity
  8
AM_4
100
AcDbLine
 10
0.8385415145309456
 20
-0.076
 30
0.0
 11
0.8952172593321966
 21
-0.076
 31
0.0
  0
LINE
  5
E5
330
B8
100
AcDbEntity
  8
AM_4
100
AcDbLine
 10
-0.3817906989784809
 20
-0.8132808884879643
 30
0.0
 11
-0.3534528265778554
 21
-0.7641982537116769
 31
0.0
  0
ARC
  5
E6
330
B8
100
AcDbEntity
  8
AM_4
100
AcDbCircle
 10
0.0000000000000001
 20
-0.0000000000000002
 30
0.0
 40
0.8984374999999997
100
AcDbArc
 50
244.8525236907501
 51
355.1474763092498
  0
LINE
  5
E7
330
B8
100
AcDbEntity
  8
AM_4
100
AcDbLine
 10
0.8952172593321966
 20
0.076
 30
0.0
 11
0.8385415145309456
 21
0.076
 31
0.0
  0
ARC
  5
E8
330
B8
100
AcDbEntity
  8
AM_4
100
AcDbCircle
 10
0.0000000000000003
 20
0.0000000000000007
 30
0.0
 40
0.8984374999999992
100
AcDbArc
 50
4.852523690750062
 51
115.14747630925
  0
LINE
  5
E9
330
B8
100
AcDbEntity
  8
AM_4
100
AcDbLine
 10
-0.3534528265778557
 20
0.7641982537116766
 30
0.0
 11
-0.3817906989784813
 21
0.813280888487964
 31
0.0
  0
ARC
  5
EA
330
B8
100
AcDbEntity
  8
AM_4
100
AcDbCircle
 10
-0.0000000000000002
 20
0.0
 30
0.0
 40
0.8984374999999998
100
AcDbArc
 50
124.8525236907501
 51
178.4755454111151
  0
LWPOLYLINE
  5
EB
330
B8
100
AcDbEntity
  8
AM_4
100
AcDbPolyline
 90
        3
 70
     0
 43
0.0
 10
-0.8981195081615946
 20
0.0239016833261889
 10
-0.8967456098286157
 20
0.0003982171128431
 10
-0.8981195081615951
 20
-0.0239016833261782
  0
ARC
  5
EC
330
B8
100
AcDbEntity
  8
AM_4
100
AcDbCircle
 10
0.0000000000000003
 20
0.000000000000001
 30
0.0
 40
0.8984375000000007
100
AcDbArc
 50
181.5244545888843
 51
235.1474763092499
  0
LINE
  5
ED
330
B8
100
AcDbEntity
  8
AM_4
100
AcDbLine
 10
-0.48508868795309
 20
-0.6881982537116769
 30
0.0
 11
-0.5134265603537155
 21
-0.7372808884879641
 31
0.0
  0
LINE
  5
EE
330
B8
100
AcDbEntity
  8
AM_4
100
AcDbLine
 10
-0.513426560353716
 20
0.7372808884879641
 30
0.0
 11
-0.4850886879530904
 21
0.6881982537116766
 31
0.0
  0
LINE
  5
EF
330
B8
100
AcDbEntity
  8
AM_4
100
AcDbLine
 10
-0.05
 20
0.6702628968253969
 30
0.0
 11
-0.05
 21
0.4346334662678427
 31
0.0
  0
LINE
  5
F0
330
B8
100
AcDbEntity
  8
AM_4
100
AcDbLine
 10
0.05
 20
0.6702628968253969
 30
0.0
 11
0.05
 21
0.4346334662678427
 31
0.0
  0
ARC
  5
F1
330
B8
100
AcDbEntity
  8
AM_4
100
AcDbCircle
 10
0.0
 20
0.0
 30
0.0
 40
0.4374999999999999
100
AcDbArc
 50
96.56242786863415
 51
83.43757213136584
  0
LINE
  5
F2
330
B8
100
AcDbEntity
  8
AM_4
100
AcDbLine
 10
0.05
 20
0.6702628968253969
 30
0.0
 11
-0.05
 21
0.6702628968253969
 31
0.0
  0
LINE
  5
F3
330
B8
100
AcDbEntity
  8
AM_4
100
AcDbLine
 10
0.8385415145309456
 20
0.076
 30
0.0
 11
0.8385415145309456
 21
-0.076
 31
0.0
  0
ARC
  5
F4
330
B8
100
AcDbEntity
  8
AM_4
100
AcDbCircle
 10
-0.0000000000000001
 20
0.0000000000000001
 30
0.0
 40
0.8748135000000001
100
AcDbArc
 50
4.983891327025638
 51
115.0161086729744
  0
LINE
  5
F5
330
B8
100
AcDbEntity
  8
AM_4
100
AcDbLine
 10
-0.4850886879530904
 20
0.6881982537116766
 30
0.0
 11
-0.3534528265778557
 21
0.7641982537116766
 31
0.0
  0
ARC
  5
F6
330
B8
100
AcDbEntity
  8
AM_4
100
AcDbCircle
 10
0.0000000000000002
 20
-0.0000000000000002
 30
0.0
 40
0.8748135000000004
100
AcDbArc
 50
124.9838913270257
 51
235.0161086729743
  0
LINE
  5
F7
330
B8
100
AcDbEntity
  8
AM_4
100
AcDbLine
 10
-0.3534528265778554
 20
-0.7641982537116769
 30
0.0
 11
-0.48508868795309
 21
-0.6881982537116769
 31
0.0
  0
ARC
  5
F8
330
B8
100
AcDbEntity
  8
AM_4
100
AcDbCircle
 10
0.0
 20
0.0000000000000001
 30
0.0
 40
0.8748135000000001
100
AcDbArc
 50
244.9838913270257
 51
355.0161086729743
  0
ENDBLK
  5
BB
330
B8
100
AcDbEntity
  8
0
100
AcDbBlockEnd
  0
BLOCK
  5
FB
330
F9
100
AcDbEntity
  8
0
100
AcDbBlockBegin
  2
4_129422I_0_in_129155_0
 70
     2
 10
0.0
 20
0.0
 30
0.0
  3
4_129422I_0_in_129155_0
  1

  0
ATTDEF
  5
FD
330
F9
100
AcDbEntity
  8
AM_6
100
AcDbText
 10
7.75
 20
2.0609375
 30
0.0
 40
0.5
  1
GT-I
100
AcDbAttributeDefinition
  3

  2
NN
 70
     8
280
     0
  0
ATTDEF
  5
FE
330
F9
100
AcDbEntity
  8
AM_6
100
AcDbText
 10
7.75
 20
1.5609375
 30
0.0
 40
0.5
  1
GT Normal and Medium Duty Pillow Blocks
100
AcDbAttributeDefinition
  3

  2
NT
 70
     8
280
     0
  0
ATTDEF
  5
FF
330
F9
100
AcDbEntity
  8
AM_6
100
AcDbText
 10
7.75
 20
1.0609375
 30
0.0
 40
0.5
  1
129422I
100
AcDbAttributeDefinition
  3

  2
NB
 70
     8
280
     0
  0
ATTDEF
  5
100
330
F9
100
AcDbEntity
  8
AM_6
100
AcDbText
 10
7.75
 20
0.5609374999999996
 30
0.0
 40
0.5
  1
$PN.$LUBE.I
100
AcDbAttributeDefinition
  3

  2
NBSYN
 70
     8
280
     0
  0
ATTDEF
  5
101
330
F9
100
AcDbEntity
  8
AM_6
100
AcDbText
 10
7.75
 20
0.0609374999999996
 30
0.0
 40
0.5
  1
129422
100
AcDbAttributeDefinition
  3

  2
LINA
 70
     8
280
     0
  0
ATTDEF
  5
102
330
F9
100
AcDbEntity
  8
AM_6
100
AcDbText
 10
7.75
 20
-0.4390625000000004
 30
0.0
 40
0.5
  1
205
100
AcDbAttributeDefinition
  3

  2
SERIES
 70
     8
280
     0
  0
ATTDEF
  5
103
330
F9
100
AcDbEntity
  8
AM_6
100
AcDbText
 10
7.75
 20
-0.9390625000000004
 30
0.0
 40
0.5
  1
129422
100
AcDbAttributeDefinition
  3

  2
PN
 70
     8
280
     0
  0
ATTDEF
  5
104
330
F9
100
AcDbEntity
  8
AM_6
100
AcDbText
 10
7.75
 20
-1.4390625
 30
0.0
 40
0.5
  1
P2B-GT-05
100
AcDbAttributeDefinition
  3

  2
DESCRIPTION
 70
     8
280
     0
  0
ATTDEF
  5
105
330
F9
100
AcDbEntity
  8
AM_6
100
AcDbText
 10
7.75
 20
-1.9390625
 30
0.0
 40
0.5
  1
1-29/64
100
AcDbAttributeDefinition
  3

  2
A
 70
     8
280
     0
  0
ATTDEF
  5
106
330
F9
100
AcDbEntity
  8
AM_6
100
AcDbText
 10
7.75
 20
-2.4390625
 30
0.0
 40
0.5
  1
5-1/2
100
AcDbAttributeDefinition
  3

  2
B
 70
     8
280
     0
  0
ATTDEF
  5
107
330
F9
100
AcDbEntity
  8
AM_6
100
AcDbText
 10
7.75
 20
-2.9390625
 30
0.0
 40
0.5
  1
1-13/32
100
AcDbAttributeDefinition
  3

  2
C
 70
     8
280
     0
  0
ATTDEF
  5
108
330
F9
100
AcDbEntity
  8
AM_6
100
AcDbText
 10
7.75
 20
-3.4390625
 30
0.0
 40
0.5
  1
3-11/16
100
AcDbAttributeDefinition
  3

  2
DMIN
 70
     8
280
     0
  0
ATTDEF
  5
109
330
F9
100
AcDbEntity
  8
AM_6
100
AcDbText
 10
7.75
 20
-3.9390625
 30
0.0
 40
0.5
  1
4-1/2
100
AcDbAttributeDefinition
  3

  2
DMAX
 70
     8
280
     0
  0
ATTDEF
  5
10A
330
F9
100
AcDbEntity
  8
AM_6
100
AcDbText
 10
7.75
 20
-4.4390625
 30
0.0
 40
0.5
  1
3/8
100
AcDbAttributeDefinition
  3

  2
F
 70
     8
280
     0
  0
ATTDEF
  5
10B
330
F9
100
AcDbEntity
  8
AM_6
100
AcDbText
 10
7.75
 20
-4.9390625
 30
0.0
 40
0.5
  1
27/32
100
AcDbAttributeDefinition
  3

  2
G
 70
     8
280
     0
  0
ATTDEF
  5
10C
330
F9
100
AcDbEntity
  8
AM_6
100
AcDbText
 10
7.75
 20
-5.4390625
 30
0.0
 40
0.5
  1
37/64
100
AcDbAttributeDefinition
  3

  2
H
 70
     8
280
     0
  0
ATTDEF
  5
10D
330
F9
100
AcDbEntity
  8
AM_6
100
AcDbText
 10
7.75
 20
-5.9390625
 30
0.0
 40
0.5
  1
2-25/32
100
AcDbAttributeDefinition
  3

  2
J
 70
     8
280
     0
  0
ATTDEF
  5
10E
330
F9
100
AcDbEntity
  8
AM_6
100
AcDbText
 10
7.75
 20
-6.4390625
 30
0.0
 40
0.5
  1
1-51/64
100
AcDbAttributeDefinition
  3

  2
L
 70
     8
280
     0
  0
ATTDEF
  5
10F
330
F9
100
AcDbEntity
  8
AM_6
100
AcDbText
 10
7.75
 20
-6.9390625
 30
0.0
 40
0.5
  1
1-7/16
100
AcDbAttributeDefinition
  3

  2
M
 70
     8
280
     0
  0
ATTDEF
  5
110
330
F9
100
AcDbEntity
  8
AM_6
100
AcDbText
 10
7.75
 20
-7.4390625
 30
0.0
 40
0.5
  1
1/2
100
AcDbAttributeDefinition
  3

  2
R
 70
     8
280
     0
  0
ATTDEF
  5
111
330
F9
100
AcDbEntity
  8
AM_6
100
AcDbText
 10
7.75
 20
-7.9390625
 30
0.0
 40
0.5
  1
61/64
100
AcDbAttributeDefinition
  3

  2
S
 70
     8
280
     0
  0
ATTDEF
  5
112
330
F9
100
AcDbEntity
  8
AM_6
100
AcDbText
 10
7.75
 20
-8.4390625
 30
0.0
 40
0.5
  1
2-1/2
100
AcDbAttributeDefinition
  3

  2
U
 70
     8
280
     0
  0
ATTDEF
  5
113
330
F9
100
AcDbEntity
  8
AM_6
100
AcDbText
 10
7.75
 20
-8.9390625
 30
0.0
 40
0.5
  1
5
100
AcDbAttributeDefinition
  3

  2
V
 70
     8
280
     0
  0
ATTDEF
  5
114
330
F9
100
AcDbEntity
  8
AM_6
100
AcDbText
 10
7.75
 20
-9.4390625
 30
0.0
 40
0.5
  1
1/2
100
AcDbAttributeDefinition
  3

  2
W
 70
     8
280
     0
  0
ATTDEF
  5
115
330
F9
100
AcDbEntity
  8
AM_6
100
AcDbText
 10
7.75
 20
-9.9390625
 30
0.0
 40
0.5
  1
3/16
100
AcDbAttributeDefinition
  3

  2
X
 70
     8
280
     0
  0
ATTDEF
  5
116
330
F9
100
AcDbEntity
  8
AM_6
100
AcDbText
 10
7.75
 20
-10.4390625
 30
0.0
 40
0.5
  1
61/64
100
AcDbAttributeDefinition
  3

  2
Z
 70
     8
280
     0
  0
ATTDEF
  5
117
330
F9
100
AcDbEntity
  8
AM_6
100
AcDbText
 10
7.75
 20
-10.9390625
 30
0.0
 40
0.5
  1
baldor
100
AcDbAttributeDefinition
  3

  2
COMPANY
 70
     8
280
     0
  0
LINE
  5
118
330
F9
100
AcDbEntity
  8
AM_9
100
AcDbLine
 10
1.7749902
 20
-0.8593749999999999
 30
0.0
 11
1.7749902
 21
-1.052083140625
 31
0.0
  0
LINE
  5
119
330
F9
100
AcDbEntity
  8
AM_9
100
AcDbLine
 10
1.69625
 20
-0.8593749999999999
 30
0.0
 11
1.69625
 21
-1.052083140625
 31
0.0
  0
LINE
  5
11A
330
F9
100
AcDbEntity
  8
AM_9
100
AcDbLine
 10
-1.7749902
 20
-0.8593749999999999
 30
0.0
 11
-1.7749902
 21
-1.052083140625
 31
0.0
  0
LINE
  5
11B
330
F9
100
AcDbEntity
  8
AM_9
100
AcDbLine
 10
-1.69625
 20
-0.8593749999999999
 30
0.0
 11
-1.69625
 21
-1.052083140625
 31
0.0
  0
LINE
  5
11C
330
F9
100
AcDbEntity
  8
AM_9
100
AcDbLine
 10
2.75
 20
-1.052083140625
 30
0.0
 11
1.69625
 21
-1.052083140625
 31
0.0
  0
LINE
  5
11D
330
F9
100
AcDbEntity
  8
AM_9
100
AcDbLine
 10
-1.69625
 20
-1.052083140625
 30
0.0
 11
-2.75
 21
-1.052083140625
 31
0.0
  0
LINE
  5
11E
330
F9
100
AcDbEntity
  8
AM_9
100
AcDbLine
 10
0.335166
 20
1.2650098
 30
0.0
 11
0.335166
 21
1.301279299360441
 31
0.0
  0
LINE
  5
11F
330
F9
100
AcDbEntity
  8
AM_9
100
AcDbLine
 10
0.166818
 20
1.2650098
 30
0.0
 11
0.166818
 21
1.333355098005029
 31
0.0
  0
LINE
  5
120
330
F9
100
AcDbEntity
  8
AM_9
100
AcDbLine
 10
0.0688697
 20
1.2650098
 30
0.0
 11
0.0688697
 21
1.341983989070626
 31
0.0
  0
LINE
  5
121
330
F9
100
AcDbEntity
  8
AM_9
100
AcDbLine
 10
-0.224974530935
 20
1.2650098
 30
0.0
 11
-0.224974530935
 21
1.324783198463272
 31
0.0
  0
LINE
  5
122
330
F9
100
AcDbEntity
  8
AM_9
100
AcDbLine
 10
-0.078052404353
 20
1.2650098
 30
0.0
 11
-0.078052404353
 21
1.341481227850288
 31
0.0
  0
LINE
  5
123
330
F9
100
AcDbEntity
  8
AM_9
100
AcDbLine
 10
0.0933567
 20
1.2650098
 30
0.0
 11
0.0933567
 21
1.340503110427242
 31
0.0
  0
LINE
  5
124
330
F9
100
AcDbEntity
  8
AM_9
100
AcDbLine
 10
-0.200487509838
 20
1.2650098
 30
0.0
 11
-0.200487509838
 21
1.328709456916356
 31
0.0
  0
LINE
  5
125
330
F9
100
AcDbEntity
  8
AM_9
100
AcDbLine
 10
0.0505043
 20
1.2650098
 30
0.0
 11
0.0505043
 21
1.342800572751408
 31
0.0
  0
LINE
  5
126
330
F9
100
AcDbEntity
  8
AM_9
100
AcDbLine
 10
-0.18212214559
 20
1.2650098
 30
0.0
 11
-0.18212214559
 21
1.331351038075869
 31
0.0
  0
LINE
  5
127
330
F9
100
AcDbEntity
  8
AM_9
100
AcDbLine
 10
0.111722
 20
1.2650098
 30
0.0
 11
0.111722
 21
1.339097553285794
 31
0.0
  0
LINE
  5
128
330
F9
100
AcDbEntity
  8
AM_9
100
AcDbLine
 10
-0.243339895183
 20
1.2650098
 30
0.0
 11
-0.243339895183
 21
1.321533108897513
 31
0.0
  0
LINE
  5
129
330
F9
100
AcDbEntity
  8
AM_9
100
AcDbLine
 10
-0.096417768601
 20
1.2650098
 30
0.0
 11
-0.096417768601
 21
1.340286415807459
 31
0.0
  0
LINE
  5
12A
330
F9
100
AcDbEntity
  8
AM_9
100
AcDbLine
 10
-0.081113429628
 20
1.2650098
 30
0.0
 11
-0.081113429628
 21
1.341299621275569
 31
0.0
  0
LINE
  5
12B
330
F9
100
AcDbEntity
  8
AM_9
100
AcDbLine
 10
-0.22803555621
 20
1.2650098
 30
0.0
 11
-0.22803555621
 21
1.324259735702931
 31
0.0
  0
LINE
  5
12C
330
F9
100
AcDbEntity
  8
AM_9
100
AcDbLine
 10
0.212731
 20
1.2650098
 30
0.0
 11
0.212731
 21
1.326804274992736
 31
0.0
  0
LINE
  5
12D
330
F9
100
AcDbEntity
  8
AM_9
100
AcDbLine
 10
0.0964177
 20
1.2650098
 30
0.0
 11
0.0964177
 21
1.340286420742488
 31
0.0
  0
LINE
  5
12E
330
F9
100
AcDbEntity
  8
AM_9
100
AcDbLine
 10
-0.197426878264
 20
1.2650098
 30
0.0
 11
-0.197426878264
 21
1.329167668219075
 31
0.0
  0
LINE
  5
12F
330
F9
100
AcDbEntity
  8
AM_9
100
AcDbLine
 10
0.0658091
 20
1.2650098
 30
0.0
 11
0.0658091
 21
1.342137558097973
 31
0.0
  0
LINE
  5
130
330
F9
100
AcDbEntity
  8
AM_9
100
AcDbLine
 10
0.194366
 20
1.2650098
 30
0.0
 11
0.194366
 21
1.329618712467601
 31
0.0
  0
LINE
  5
131
330
F9
100
AcDbEntity
  8
AM_9
100
AcDbLine
 10
-0.087235086477
 20
1.2650098
 30
0.0
 11
-0.087235086477
 21
1.340915397102797
 31
0.0
  0
LINE
  5
132
330
F9
100
AcDbEntity
  8
AM_9
100
AcDbLine
 10
-0.105600450725
 20
1.2650098
 30
0.0
 11
-0.105600450725
 21
1.339594195010816
 31
0.0
  0
LINE
  5
133
330
F9
100
AcDbEntity
  8
AM_9
100
AcDbLine
 10
-0.172939463466
 20
1.2650098
 30
0.0
 11
-0.172939463466
 21
1.332574952667238
 31
0.0
  0
LINE
  5
134
330
F9
100
AcDbEntity
  8
AM_9
100
AcDbLine
 10
0.120905
 20
1.2650098
 30
0.0
 11
0.120905
 21
1.338299683731189
 31
0.0
  0
LINE
  5
135
330
F9
100
AcDbEntity
  8
AM_9
100
AcDbLine
 10
0.059687
 20
1.2650098
 30
0.0
 11
0.059687
 21
1.342423749987686
 31
0.0
  0
LINE
  5
136
330
F9
100
AcDbEntity
  8
AM_9
100
AcDbLine
 10
0.20967
 20
1.2650098
 30
0.0
 11
0.20967
 21
1.327291435066165
 31
0.0
  0
LINE
  5
137
330
F9
100
AcDbEntity
  8
AM_9
100
AcDbLine
 10
-0.252522577307
 20
1.2650098
 30
0.0
 11
-0.252522577307
 21
1.319809232597738
 31
0.0
  0
LINE
  5
138
330
F9
100
AcDbEntity
  8
AM_9
100
AcDbLine
 10
0.191305
 20
1.2650098
 30
0.0
 11
0.191305
 21
1.330062577277852
 31
0.0
  0
LINE
  5
139
330
F9
100
AcDbEntity
  8
AM_9
100
AcDbLine
 10
-0.191304827714
 20
1.2650098
 30
0.0
 11
-0.191304827714
 21
1.330062602058008
 31
0.0
  0
LINE
  5
13A
330
F9
100
AcDbEntity
  8
AM_9
100
AcDbLine
 10
-0.234157213059
 20
1.2650098
 30
0.0
 11
-0.234157213059
 21
1.323191014960592
 31
0.0
  0
LINE
  5
13B
330
F9
100
AcDbEntity
  8
AM_9
100
AcDbLine
 10
0.0413217
 20
1.2650098
 30
0.0
 11
0.0413217
 21
1.343114507258823
 31
0.0
  0
LINE
  5
13C
330
F9
100
AcDbEntity
  8
AM_9
100
AcDbLine
 10
0.102539
 20
1.2650098
 30
0.0
 11
0.102539
 21
1.339832010357642
 31
0.0
  0
LINE
  5
13D
330
F9
100
AcDbEntity
  8
AM_9
100
AcDbLine
 10
0.0321392
 20
1.2650098
 30
0.0
 11
0.0321392
 21
1.343365599650133
 31
0.0
  0
LINE
  5
13E
330
F9
100
AcDbEntity
  8
AM_9
100
AcDbLine
 10
-0.163757175043
 20
1.2650098
 30
0.0
 11
-0.163757175043
 21
1.333734475119368
 31
0.0
  0
LINE
  5
13F
330
F9
100
AcDbEntity
  8
AM_9
100
AcDbLine
 10
0.255583
 20
1.2650098
 30
0.0
 11
0.255583
 21
1.319219994015782
 31
0.0
  0
LINE
  5
140
330
F9
100
AcDbEntity
  8
AM_9
100
AcDbLine
 10
-0.261705259431
 20
1.2650098
 30
0.0
 11
-0.261705259431
 21
1.318019127208006
 31
0.0
  0
LINE
  5
141
330
F9
100
AcDbEntity
  8
AM_9
100
AcDbLine
 10
-0.114783132849
 20
1.2650098
 30
0.0
 11
-0.114783132849
 21
1.338838636622565
 31
0.0
  0
LINE
  5
142
330
F9
100
AcDbEntity
  8
AM_9
100
AcDbLine
 10
-0.0352000977482
 20
1.2650098
 30
0.0
 11
-0.0352000977482
 21
1.34328888018122
 31
0.0
  0
LINE
  5
143
330
F9
100
AcDbEntity
  8
AM_9
100
AcDbLine
 10
0.130087
 20
1.2650098
 30
0.0
 11
0.130087
 21
1.337438385470897
 31
0.0
  0
LINE
  5
144
330
F9
100
AcDbEntity
  8
AM_9
100
AcDbLine
 10
0.182122
 20
1.2650098
 30
0.0
 11
0.182122
 21
1.331351057991843
 31
0.0
  0
LINE
  5
145
330
F9
100
AcDbEntity
  8
AM_9
100
AcDbLine
 10
-0.3290446658729999
 20
1.2650098
 30
0.0
 11
-0.3290446658729999
 21
1.302840615870002
 31
0.0
  0
LINE
  5
146
330
F9
100
AcDbEntity
  8
AM_9
100
AcDbLine
 10
-0.246400920458
 20
1.2650098
 30
0.0
 11
-0.246400920458
 21
1.320965801562421
 31
0.0
  0
LINE
  5
147
330
F9
100
AcDbEntity
  8
AM_9
100
AcDbLine
 10
-0.099478400175
 20
1.2650098
 30
0.0
 11
-0.099478400175
 21
1.34006272629255
 31
0.0
  0
LINE
  5
148
330
F9
100
AcDbEntity
  8
AM_9
100
AcDbLine
 10
-0.179061514016
 20
1.2650098
 30
0.0
 11
-0.179061514016
 21
1.331766134386326
 31
0.0
  0
LINE
  5
149
330
F9
100
AcDbEntity
  8
AM_9
100
AcDbLine
 10
0.0474437
 20
1.2650098
 30
0.0
 11
0.0474437
 21
1.342912192896583
 31
0.0
  0
LINE
  5
14A
330
F9
100
AcDbEntity
  8
AM_9
100
AcDbLine
 10
0.114783
 20
1.2650098
 30
0.0
 11
0.114783
 21
1.338838648012149
 31
0.0
  0
LINE
  5
14B
330
F9
100
AcDbEntity
  8
AM_9
100
AcDbLine
 10
0.197427
 20
1.2650098
 30
0.0
 11
0.197427
 21
1.329167650137107
 31
0.0
  0
LINE
  5
14C
330
F9
100
AcDbEntity
  8
AM_9
100
AcDbLine
 10
0.185183
 20
1.2650098
 30
0.0
 11
0.185183
 21
1.330928743025336
 31
0.0
  0
LINE
  5
14D
330
F9
100
AcDbEntity
  8
AM_9
100
AcDbLine
 10
-0.258644234156
 20
1.2650098
 30
0.0
 11
-0.258644234156
 21
1.318623229978092
 31
0.0
  0
LINE
  5
14E
330
F9
100
AcDbEntity
  8
AM_9
100
AcDbLine
 10
-0.111722107574
 20
1.2650098
 30
0.0
 11
-0.111722107574
 21
1.339097544310803
 31
0.0
  0
LINE
  5
14F
330
F9
100
AcDbEntity
  8
AM_9
100
AcDbLine
 10
-0.166817806617
 20
1.2650098
 30
0.0
 11
-0.166817806617
 21
1.333355122199444
 31
0.0
  0
LINE
  5
150
330
F9
100
AcDbEntity
  8
AM_9
100
AcDbLine
 10
0.0352001
 20
1.2650098
 30
0.0
 11
0.0352001
 21
1.343288880122214
 31
0.0
  0
LINE
  5
151
330
F9
100
AcDbEntity
  8
AM_9
100
AcDbLine
 10
0.127026
 20
1.2650098
 30
0.0
 11
0.127026
 21
1.337732580833703
 31
0.0
  0
LINE
  5
152
330
F9
100
AcDbEntity
  8
AM_9
100
AcDbLine
 10
-0.3474096364199999
 20
1.2650098
 30
0.0
 11
-0.3474096364199999
 21
1.298064176773446
 31
0.0
  0
LINE
  5
153
330
F9
100
AcDbEntity
  8
AM_9
100
AcDbLine
 10
-0.053565383256
 20
1.2650098
 30
0.0
 11
-0.053565383256
 21
1.342681947527649
 31
0.0
  0
LINE
  5
154
330
F9
100
AcDbEntity
  8
AM_9
100
AcDbLine
 10
0.237218
 20
1.2650098
 30
0.0
 11
0.237218
 21
1.322645713324623
 31
0.0
  0
LINE
  5
155
330
F9
100
AcDbEntity
  8
AM_9
100
AcDbLine
 10
0.237218
 20
1.2650098
 30
0.0
 11
0.347409
 21
1.2650098
 31
0.0
  0
LINE
  5
156
330
F9
100
AcDbEntity
  8
AM_9
100
AcDbLine
 10
-0.127026446547
 20
1.2650098
 30
0.0
 11
-0.127026446547
 21
1.337732538431223
 31
0.0
  0
LINE
  5
157
330
F9
100
AcDbEntity
  8
AM_9
100
AcDbLine
 10
-0.053565383256
 20
1.2650098
 30
0.0
 11
0.0688697
 21
1.2650098
 31
0.0
  0
LINE
  5
158
330
F9
100
AcDbEntity
  8
AM_9
100
AcDbLine
 10
0.347409
 20
1.2650098
 30
0.0
 11
0.347409
 21
1.298064347102639
 31
0.0
  0
LINE
  5
159
330
F9
100
AcDbEntity
  8
AM_9
100
AcDbLine
 10
0.0198957
 20
1.2650098
 30
0.0
 11
0.0198957
 21
1.343602703041904
 31
0.0
  0
LINE
  5
15A
330
F9
100
AcDbEntity
  8
AM_9
100
AcDbLine
 10
0.169879
 20
1.2650098
 30
0.0
 11
0.169879
 21
1.332968562217054
 31
0.0
  0
LINE
  5
15B
330
F9
100
AcDbEntity
  8
AM_9
100
AcDbLine
 10
-0.151513467644
 20
1.2650098
 30
0.0
 11
-0.151513467644
 21
1.335180786119427
 31
0.0
  0
LINE
  5
15C
330
F9
100
AcDbEntity
  8
AM_9
100
AcDbLine
 10
0.142331
 20
1.2650098
 30
0.0
 11
0.142331
 21
1.336190835524252
 31
0.0
  0
LINE
  5
15D
330
F9
100
AcDbEntity
  8
AM_9
100
AcDbLine
 10
0.0933567
 20
1.2650098
 30
0.0
 11
0.212731
 21
1.2650098
 31
0.0
  0
LINE
  5
15E
330
F9
100
AcDbEntity
  8
AM_9
100
AcDbLine
 10
-0.273948573129
 20
1.2650098
 30
0.0
 11
-0.273948573129
 21
1.315528882913859
 31
0.0
  0
LINE
  5
15F
330
F9
100
AcDbEntity
  8
AM_9
100
AcDbLine
 10
-0.3474096364199999
 20
1.2650098
 30
0.0
 11
-0.224974530935
 21
1.2650098
 31
0.0
  0
LINE
  5
160
330
F9
100
AcDbEntity
  8
AM_9
100
AcDbLine
 10
-0.200487509838
 20
1.2650098
 30
0.0
 11
-0.078052404353
 21
1.2650098
 31
0.0
  0
LINE
  5
161
330
F9
100
AcDbEntity
  8
AM_9
100
AcDbLine
 10
-2.25
 20
-0.8593749999999999
 30
0.0
 11
-2.25
 21
-1.4375
 31
0.0
  0
LINE
  5
162
330
F9
100
AcDbEntity
  8
AM_9
100
AcDbLine
 10
-2.46875
 20
-0.8593749999999999
 30
0.0
 11
-2.46875
 21
-1.4375
 31
0.0
  0
LINE
  5
163
330
F9
100
AcDbEntity
  8
AM_9
100
AcDbLine
 10
2.25
 20
-0.8593749999999999
 30
0.0
 11
2.25
 21
-1.4375
 31
0.0
  0
LINE
  5
164
330
F9
100
AcDbEntity
  8
AM_9
100
AcDbLine
 10
2.46875
 20
-1.4375
 30
0.0
 11
2.46875
 21
-0.8593749999999999
 31
0.0
  0
LINE
  5
165
330
F9
100
AcDbEntity
  8
AM_9
100
AcDbLine
 10
-1.84375
 20
-0.8593749999999999
 30
0.0
 11
-1.84375
 21
-1.4375
 31
0.0
  0
LINE
  5
166
330
F9
100
AcDbEntity
  8
AM_9
100
AcDbLine
 10
-1.625
 20
-1.4375
 30
0.0
 11
-1.625
 21
-0.8593749999999999
 31
0.0
  0
LINE
  5
167
330
F9
100
AcDbEntity
  8
AM_9
100
AcDbLine
 10
1.84375
 20
-0.8593749999999999
 30
0.0
 11
1.84375
 21
-1.4375
 31
0.0
  0
LINE
  5
168
330
F9
100
AcDbEntity
  8
AM_9
100
AcDbLine
 10
1.625
 20
-0.8593749999999999
 30
0.0
 11
1.625
 21
-1.4375
 31
0.0
  0
LINE
  5
169
330
F9
100
AcDbEntity
  8
AM_9
100
AcDbLine
 10
1.34375
 20
0.2148382217643986
 30
0.0
 11
1.34375
 21
-0.8593749999999999
 31
0.0
  0
LINE
  5
16A
330
F9
100
AcDbEntity
  8
AM_9
100
AcDbLine
 10
-1.34375
 20
-0.8593749999999999
 30
0.0
 11
-1.34375
 21
0.2148382217643981
 31
0.0
  0
LINE
  5
16B
330
F9
100
AcDbEntity
  8
AM_9
100
AcDbLine
 10
2.40625
 20
-0.8593749999999999
 30
0.0
 11
2.40625
 21
-0.9171874999999998
 31
0.0
  0
LINE
  5
16C
330
F9
100
AcDbEntity
  8
AM_9
100
AcDbLine
 10
2.59375
 20
-0.9171874999999998
 30
0.0
 11
2.59375
 21
-0.8593749999999999
 31
0.0
  0
LINE
  5
16D
330
F9
100
AcDbEntity
  8
AM_9
100
AcDbLine
 10
2.40625
 20
-0.9171874999999998
 30
0.0
 11
2.59375
 21
-0.9171874999999998
 31
0.0
  0
LINE
  5
16E
330
F9
100
AcDbEntity
  8
AM_9
100
AcDbLine
 10
-2.59375
 20
-0.8593749999999999
 30
0.0
 11
-2.59375
 21
-0.9171874999999998
 31
0.0
  0
LINE
  5
16F
330
F9
100
AcDbEntity
  8
AM_9
100
AcDbLine
 10
-2.40625
 20
-0.9171874999999998
 30
0.0
 11
-2.40625
 21
-0.8593749999999999
 31
0.0
  0
LINE
  5
170
330
F9
100
AcDbEntity
  8
AM_9
100
AcDbLine
 10
-2.59375
 20
-0.9171874999999998
 30
0.0
 11
-2.40625
 21
-0.9171874999999998
 31
0.0
  0
LINE
  5
173
330
F9
100
AcDbEntity
  8
AM_7
100
AcDbLine
 10
1.84375
 20
-0.9984374999999999
 30
0.0
 11
1.84375
 21
2.0609375
 31
0.0
  0
LINE
  5
174
330
F9
100
AcDbEntity
  8
AM_7
100
AcDbLine
 10
-1.84375
 20
-0.9984374999999999
 30
0.0
 11
-1.84375
 21
2.0609375
 31
0.0
  0
LINE
  5
175
330
F9
100
AcDbEntity
  8
AM_7
100
AcDbLine
 10
0.7632986151342687
 20
0.7632986151342681
 30
0.0
 11
1.261098620829321
 21
1.261098620829321
 31
0.0
  0
LINE
  5
176
330
F9
100
AcDbEntity
  8
AM_7
100
AcDbLine
 10
-2.5
 20
-0.9229687499999998
 30
0.0
 11
-2.5
 21
-0.79578125
 31
0.0
  0
LINE
  5
177
330
F9
100
AcDbEntity
  8
AM_7
100
AcDbLine
 10
2.5
 20
-0.9229687499999998
 30
0.0
 11
2.5
 21
-0.79578125
 31
0.0
  0
LINE
  5
178
330
F9
100
AcDbEntity
  8
AM_7
100
AcDbLine
 10
-1.07478
 20
0.0000000000000001
 30
0.0
 11
1.07478
 21
0.0000000000000001
 31
0.0
  0
LINE
  5
179
330
F9
100
AcDbEntity
  8
AM_7
100
AcDbLine
 10
0.0000000000000001
 20
-1.07478
 30
0.0
 11
0.0000000000000001
 21
1.07478
 31
0.0
  0
LINE
  5
17A
330
F9
100
AcDbEntity
  8
AM_4
100
AcDbLine
 10
1.259996614125228
 20
1.169291430768832
 30
0.0
 11
1.169291431397603
 21
1.259996613496457
 31
0.0
  0
ARC
  5
17B
330
F9
100
AcDbEntity
  8
AM_4
100
AcDbCircle
 10
1.163723657831633
 20
1.254428841188027
 30
0.0
 40
0.0078740200000018
100
AcDbArc
 50
45.00000000000799
 51
107.3006441304133
  0
ARC
  5
17C
330
F9
100
AcDbEntity
  8
AM_4
100
AcDbCircle
 10
1.25442884118803
 20
1.163723657831633
 30
0.0
 40
0.0078740199999991
100
AcDbArc
 50
342.6993558695773
 51
45.00000000000457
  0
LINE
  5
17D
330
F9
100
AcDbEntity
  8
AM_4
100
AcDbLine
 10
1.261946620494051
 20
1.161382037609146
 30
0.0
 11
1.161382037609146
 21
1.261946620494051
 31
0.0
  0
LINE
  5
17E
330
F9
100
AcDbEntity
  8
AM_4
100
AcDbLine
 10
1.161382037609146
 20
1.261946620494051
 30
0.0
 11
1.093911708045769
 21
1.240931120877437
 31
0.0
  0
LINE
  5
17F
330
F9
100
AcDbEntity
  8
AM_4
100
AcDbLine
 10
1.240931120877437
 20
1.093911708045769
 30
0.0
 11
1.261946620494051
 21
1.161382037609146
 31
0.0
  0
LINE
  5
180
330
F9
100
AcDbEntity
  8
AM_4
100
AcDbLine
 10
1.240931120877437
 20
1.093911708045769
 30
0.0
 11
1.093911708045769
 21
1.240931120877437
 31
0.0
  0
ARC
  5
181
330
F9
100
AcDbEntity
  8
AM_4
100
AcDbCircle
 10
1.099765743732708
 20
1.222136720350256
 30
0.0
 40
0.0196850000000015
100
AcDbArc
 50
107.3006441304241
 51
172.217203679468
  0
ARC
  5
182
330
F9
100
AcDbEntity
  8
AM_4
100
AcDbCircle
 10
1.222136720350256
 20
1.099765743732708
 30
0.0
 40
0.0196850000000014
100
AcDbArc
 50
277.7827963205321
 51
342.6993558695765
  0
LINE
  5
183
330
F9
100
AcDbEntity
  8
AM_4
100
AcDbLine
 10
0.9975014294395778
 20
1.153398675701338
 30
0.0
 11
0.9835820324519209
 21
1.139479278713681
 31
0.0
  0
LINE
  5
184
330
F9
100
AcDbEntity
  8
AM_4
100
AcDbLine
 10
1.139479278713682
 20
0.9835820324519206
 30
0.0
 11
1.153398675701339
 21
0.9975014294395773
 31
0.0
  0
LINE
  5
185
330
F9
100
AcDbEntity
  8
AM_4
100
AcDbLine
 10
1.153398675701339
 20
0.9975014294395771
 30
0.0
 11
0.9975014294395776
 21
1.153398675701338
 31
0.0
  0
LINE
  5
186
330
F9
100
AcDbEntity
  8
AM_4
100
AcDbLine
 10
1.224802425324585
 20
1.080262071207004
 30
0.0
 11
1.080262071207004
 21
1.224802425324585
 31
0.0
  0
ARC
  5
187
330
F9
100
AcDbEntity
  8
AM_4
100
AcDbCircle
 10
0.9984292287362139
 20
1.23598711690929
 30
0.0
 40
0.0825936524963879
100
AcDbArc
 50
269.3563657692214
 51
352.2171914605294
  0
ARC
  5
188
330
F9
100
AcDbEntity
  8
AM_4
100
AcDbCircle
 10
1.235987116909289
 20
0.9984292287362143
 30
0.0
 40
0.082593652496387
100
AcDbArc
 50
97.78280853947064
 51
180.6436342307794
  0
LINE
  5
189
330
F9
100
AcDbEntity
  8
AM_4
100
AcDbLine
 10
0.8861455464315391
 20
1.042042792693299
 30
0.0
 11
0.8690450084750619
 21
1.024942254736822
 31
0.0
  0
LINE
  5
18A
330
F9
100
AcDbEntity
  8
AM_4
100
AcDbLine
 10
1.024920662529088
 20
0.8690234162673268
 30
0.0
 11
1.0420427926933
 21
0.8861455464315386
 31
0.0
  0
LINE
  5
18B
330
F9
100
AcDbEntity
  8
AM_4
100
AcDbLine
 10
1.075449345463677
 20
0.852738993661161
 30
0.0
 11
0.8527389936611615
 21
1.075449345463677
 31
0.0
  0
LWPOLYLINE
  5
18C
330
F9
100
AcDbEntity
  8
AM_4
100
AcDbPolyline
 90
        5
 70
     0
 43
0.0
 10
0.9687101608229329
 20
0.9687101608229327
 10
0.9928646051055569
 20
0.9378447321601758
 10
1.0192369811611
 20
0.9089524674747242
 10
1.04862148538611
 20
0.881998950461993
 10
1.080065690277581
 20
0.8573546313682846
  0
LWPOLYLINE
  5
18D
330
F9
100
AcDbEntity
  8
AM_4
100
AcDbPolyline
 90
        5
 70
     0
 43
0.0
 10
1.168270193776935
 20
0.9455591348676392
 10
1.144115749494311
 20
0.9764245635303961
 10
1.117743373438769
 20
1.005316828215848
 10
1.088358869213758
 20
1.032270345228579
 10
1.056914664322287
 20
1.056914664322287
  0
LINE
  5
18E
330
F9
100
AcDbEntity
  8
AM_4
100
AcDbLine
 10
0.8527387348429268
 20
1.075449793752223
 30
0.0
 11
0.9501750313929971
 21
1.172886090302293
 31
0.0
  0
LINE
  5
18F
330
F9
100
AcDbEntity
  8
AM_4
100
AcDbLine
 10
1.172885831484058
 20
0.9501754796815437
 30
0.0
 11
0.950175479681544
 21
1.172885831484058
 31
0.0
  0
LINE
  5
190
330
F9
100
AcDbEntity
  8
AM_4
100
AcDbLine
 10
1.172886090302294
 20
0.950175031392997
 30
0.0
 11
1.075449793752223
 21
0.8527387348429265
 31
0.0
  0
LWPOLYLINE
  5
191
330
F9
100
AcDbEntity
  8
AM_4
100
AcDbPolyline
 90
        5
 70
     0
 43
0.0
 10
1.056914664322287
 20
1.056914664322287
 10
1.032760220039663
 20
1.087780092985044
 10
1.006387843984121
 20
1.116672357670495
 10
0.9770033397591101
 20
1.143625874683227
 10
0.9455591348676391
 20
1.168270193776935
  0
LWPOLYLINE
  5
192
330
F9
100
AcDbEntity
  8
AM_4
100
AcDbPolyline
 90
        5
 70
     0
 43
0.0
 10
0.8573546313682849
 20
1.080065690277581
 10
0.881509075650909
 20
1.049200261614824
 10
0.9078814517064515
 20
1.020307996929372
 10
0.9372659559314621
 20
0.9933544799166413
 10
0.9687101608229329
 20
0.9687101608229327
  0
LINE
  5
193
330
F9
100
AcDbEntity
  8
AM_4
100
AcDbLine
 10
0.9687101608229329
 20
0.9687101608229327
 30
0.0
 11
1.056914664322287
 21
1.056914664322287
 31
0.0
  0
ARC
  5
194
330
F9
100
AcDbEntity
  8
AM_4
100
AcDbCircle
 10
1.0464449
 20
-1.303846959375
 30
0.0
 40
0.0590551000000004
100
AcDbArc
 50
0.0
 51
90.0
  0
ARC
  5
195
330
F9
100
AcDbEntity
  8
AM_4
100
AcDbCircle
 10
-1.0464449
 20
-1.303846959375
 30
0.0
 40
0.0590550999999999
100
AcDbArc
 50
90.0
 51
180.0
  0
LINE
  5
196
330
F9
100
AcDbEntity
  8
AM_4
100
AcDbLine
 10
1.0464449
 20
-1.244791859375
 30
0.0
 11
-1.0464449
 21
-1.244791859375
 31
0.0
  0
ARC
  5
197
330
F9
100
AcDbEntity
  8
AM_4
100
AcDbCircle
 10
0.0000000000000001
 20
0.0000000000000002
 30
0.0
 40
1.0236
100
AcDbArc
 50
173.830995616333
 51
6.169004383667104
  0
LINE
  5
198
330
F9
100
AcDbEntity
  8
AM_4
100
AcDbLine
 10
-2.75
 20
-1.4375
 30
0.0
 11
-1.1055
 21
-1.4375
 31
0.0
  0
LINE
  5
199
330
F9
100
AcDbEntity
  8
AM_4
100
AcDbLine
 10
-2.6909449
 20
-0.8593749999999999
 30
0.0
 11
-1.1
 21
-0.8593750000000004
 31
0.0
  0
LWPOLYLINE
  5
19A
330
F9
100
AcDbEntity
  8
AM_4
100
AcDbPolyline
 90
       19
 70
     0
 43
0.0
 10
-2.75
 20
-0.9184301000000007
 10
-2.749775277515277
 20
-0.9132831088964632
 10
-2.74910282033491
 20
-0.9081752895030623
 10
-2.747987746264083
 20
-0.9031455154095666
 10
-2.746438541689773
 20
-0.8982320662338887
 10
-2.744466996994227
 20
-0.893472336291077
 10
-2.74208811682303
 20
-0.8889025500000003
 10
-2.73932000589069
 20
-0.8845574861936455
 10
-2.736183731192835
 20
-0.8804702134312007
 10
-2.732703161673649
 20
-0.8766718383263503
 10
-2.728904786568799
 20
-0.8731912688071645
 10
-2.724817513806354
 20
-0.8700549941093091
 10
-2.720472449999999
 20
-0.8672868831769696
 10
-2.715902663708922
 20
-0.8649080030057719
 10
-2.711142933766111
 20
-0.862936458310226
 10
-2.706229484590433
 20
-0.8613872537359163
 10
-2.701199710496937
 20
-0.8602721796650886
 10
-2.696091891103536
 20
-0.8595997224847219
 10
-2.6909449
 20
-0.8593749999999999
  0
LINE
  5
19B
330
F9
100
AcDbEntity
  8
AM_4
100
AcDbLine
 10
-2.75
 20
-1.4375
 30
0.0
 11
-2.75
 21
-0.9184300999999999
 31
0.0
  0
LINE
  5
19C
330
F9
100
AcDbEntity
  8
AM_4
100
AcDbLine
 10
-1.1055
 20
-1.4375
 30
0.0
 11
-1.1055
 21
-1.303846959375
 31
0.0
  0
LINE
  5
19D
330
F9
100
AcDbEntity
  8
AM_4
100
AcDbLine
 10
-1.1
 20
0.1099976206297574
 30
0.0
 11
-1.1
 21
-1.278960093360975
 31
0.0
  0
LINE
  5
19E
330
F9
100
AcDbEntity
  8
AM_4
100
AcDbLine
 10
-2.608125000000001
 20
-1.4375
 30
0.0
 11
-2.608125000000001
 21
-0.8593749999999999
 31
0.0
  0
LINE
  5
19F
330
F9
100
AcDbEntity
  8
AM_4
100
AcDbLine
 10
-1.276765717107108
 20
0.4189670227117777
 30
0.0
 11
-1.69625
 21
-0.8593750000000004
 31
0.0
  0
LINE
  5
1A0
330
F9
100
AcDbEntity
  8
AM_4
100
AcDbLine
 10
1.696250000000001
 20
-0.8593750000000006
 30
0.0
 11
1.276765717107109
 21
0.4189670227117768
 31
0.0
  0
LWPOLYLINE
  5
1A1
330
F9
100
AcDbEntity
  8
AM_4
100
AcDbPolyline
 90
       30
 70
     0
 43
0.0
 10
1.276765717107109
 20
0.4189670227117768
 10
1.235391856036188
 20
0.5286501910899722
 10
1.184615916990833
 20
0.6343100123062604
 10
1.124824335526531
 20
0.7351423513220406
 10
1.056472161681369
 20
0.8303798131531719
 10
0.9800795967704785
 20
0.9192975832091679
 10
0.8962280343399245
 20
1.001218943569885
 10
0.8055556354107609
 20
1.075520423217508
 10
0.7087524716883297
 20
1.141636543027458
 10
0.6065552736999072
 20
1.199064119405977
 10
0.4997418238305407
 20
1.247366093821107
 10
0.3891250369294603
 20
1.286174859082017
 10
0.2755467735372254
 20
1.315195057051701
 10
0.1598714328186813
 20
1.334205826500733
 10
0.0429793739633766
 20
1.34306248399459
 10
-0.0742397838794449
 20
1.341697625021947
 10
-0.1908939321397367
 20
1.330121636983712
 10
-0.3060952623115374
 20
1.308422620138628
 10
-0.4189670227117747
 20
1.27676571710711
 10
-0.5286501910899704
 20
1.235391856036189
 10
-0.6343100123062584
 20
1.184615916990835
 10
-0.7351423513220388
 20
1.124824335526533
 10
-0.8303798131531703
 20
1.05647216168137
 10
-0.9192975832091661
 20
0.9800795967704803
 10
-1.001218943569883
 20
0.8962280343399266
 10
-1.075520423217506
 20
0.8055556354107629
 10
-1.141636543027456
 20
0.7087524716883319
 10
-1.199064119405976
 20
0.6065552736999096
 10
-1.247366093821106
 20
0.4997418238305431
 10
-1.276765717107109
 20
0.4189670227117785
  0
LINE
  5
1A2
330
F9
100
AcDbEntity
  8
AM_4
100
AcDbLine
 10
-1.1
 20
0.1099976206297574
 30
0.0
 11
-1.01767258165669
 21
0.109997620629758
 31
0.0
  0
LWPOLYLINE
  5
1A3
330
F9
100
AcDbEntity
  8
AM_4
100
AcDbPolyline
 90
       35
 70
     0
 43
0.0
 10
1.01767258165669
 20
0.1099976206297595
 10
1.004213105913271
 20
0.1982750562022892
 10
0.9831109620734013
 20
0.2850434988753672
 10
0.9545267501935237
 20
0.3696425884080333
 10
0.9186780133856634
 20
0.4514284746466168
 10
0.8758375821829874
 20
0.5297787176131742
 10
0.8263314981347074
 20
0.6040970246495595
 10
0.770536532433022
 20
0.6738177885646052
 10
0.7088773184568423
 20
0.7384103922463694
 10
0.6418231200553783
 20
0.7973832469787536
 10
0.5698842601668972
 20
0.850287533728461
 10
0.4936082369530215
 20
0.8967206189288447
 10
0.4135755570071309
 20
0.9363291187644662
 10
0.3303953173486672
 20
0.9688115886353105
 10
0.2447005698270329
 20
0.9939208173322087
 10
0.1571435032147711
 20
1.011465708463411
 10
0.0683904796572034
 20
1.021312734813513
 10
-0.0208830367458563
 20
1.023386954566195
 10
-0.1099976206297577
 20
1.01767258165669
 10
-0.1982750562022873
 20
1.004213105913272
 10
-0.2850434988753653
 20
0.983110962073402
 10
-0.3696425884080314
 20
0.9545267501935246
 10
-0.4514284746466151
 20
0.9186780133856645
 10
-0.5297787176131725
 20
0.8758375821829884
 10
-0.6040970246495578
 20
0.8263314981347086
 10
-0.6738177885646035
 20
0.7705365324330234
 10
-0.7384103922463678
 20
0.7088773184568438
 10
-0.7973832469787522
 20
0.6418231200553799
 10
-0.8502875337284598
 20
0.5698842601668989
 10
-0.8967206189288436
 20
0.4936082369530233
 10
-0.9363291187644652
 20
0.4135755570071329
 10
-0.9688115886353097
 20
0.330395317348669
 10
-0.9939208173322082
 20
0.2447005698270348
 10
-1.01146570846341
 20
0.157143503214773
 10
-1.01767258165669
 20
0.1099976206297582
  0
LINE
  5
1A4
330
F9
100
AcDbEntity
  8
AM_4
100
AcDbLine
 10
1.01767258165669
 20
0.1099976206297596
 30
0.0
 11
1.100000000000001
 21
0.1099976206297593
 31
0.0
  0
LINE
  5
1A5
330
F9
100
AcDbEntity
  8
AM_4
100
AcDbLine
 10
1.100000000000001
 20
0.1099976206297593
 30
0.0
 11
1.1
 21
-1.278960093360976
 31
0.0
  0
LINE
  5
1A6
330
F9
100
AcDbEntity
  8
AM_4
100
AcDbLine
 10
1.1055
 20
-1.303846959375
 30
0.0
 11
1.1055
 21
-1.4375
 31
0.0
  0
LINE
  5
1A7
330
F9
100
AcDbEntity
  8
AM_4
100
AcDbLine
 10
1.1055
 20
-1.4375
 30
0.0
 11
2.75
 21
-1.4375
 31
0.0
  0
LINE
  5
1A8
330
F9
100
AcDbEntity
  8
AM_4
100
AcDbLine
 10
1.100000000000001
 20
-0.8593750000000004
 30
0.0
 11
2.690944899999999
 21
-0.8593749999999999
 31
0.0
  0
LWPOLYLINE
  5
1A9
330
F9
100
AcDbEntity
  8
AM_4
100
AcDbPolyline
 90
       19
 70
     0
 43
0.0
 10
2.690944899999999
 20
-0.8593749999999991
 10
2.696091891103536
 20
-0.8595997224847213
 10
2.701199710496937
 20
-0.8602721796650878
 10
2.706229484590433
 20
-0.8613872537359155
 10
2.711142933766111
 20
-0.8629364583102253
 10
2.715902663708922
 20
-0.8649080030057711
 10
2.720472449999999
 20
-0.8672868831769688
 10
2.724817513806354
 20
-0.8700549941093084
 10
2.728904786568799
 20
-0.8731912688071637
 10
2.732703161673649
 20
-0.8766718383263497
 10
2.736183731192835
 20
-0.8804702134311998
 10
2.73932000589069
 20
-0.8845574861936448
 10
2.74208811682303
 20
-0.8889025499999994
 10
2.744466996994228
 20
-0.8934723362910764
 10
2.746438541689773
 20
-0.8982320662338881
 10
2.747987746264084
 20
-0.9031455154095659
 10
2.749102820334911
 20
-0.9081752895030615
 10
2.749775277515278
 20
-0.9132831088964627
 10
2.75
 20
-0.9184301000000001
  0
LINE
  5
1AA
330
F9
100
AcDbEntity
  8
AM_4
100
AcDbLine
 10
2.608124999999999
 20
-0.8593749999999999
 30
0.0
 11
2.608125
 21
-1.4375
 31
0.0
  0
LINE
  5
1AB
330
F9
100
AcDbEntity
  8
AM_4
100
AcDbLine
 10
2.75
 20
-0.9184300999999996
 30
0.0
 11
2.75
 21
-1.4375
 31
0.0
  0
ENDBLK
  5
FC
330
F9
100
AcDbEntity
  8
0
100
AcDbBlockEnd
  0
ENDSEC
  0
SECTION
  2
ENTITIES
  0
INSERT
  5
6F
330
1F
100
AcDbEntity
  8
0
100
AcDbBlockReference
  2
1_129155_0
 10
0.0
 20
0.0
 30
0.0
  0
POINT
  5
1AD
330
1F
100
AcDbEntity
  8
ConnectionPoints
100
AcDbPoint
 10
0.0
 20
0.0
 30
0.0
  0
POINT
  5
1AE
330
1F
100
AcDbEntity
  8
ConnectionPoints
100
AcDbPoint
 10
0.0
 20
0.0
 30
-0.5
  0
POINT
  5
1AF
330
1F
100
AcDbEntity
  8
ConnectionPoints
100
AcDbPoint
 10
0.0
 20
0.0
 30
0.0
  0
POINT
  5
1B0
330
1F
100
AcDbEntity
  8
ConnectionPoints
100
AcDbPoint
 10
0.0
 20
0.0
 30
0.0
  0
ENDSEC
  0
SECTION
  2
OBJECTS
  0
DICTIONARY
  5
C
330
0
100
AcDbDictionary
281
     1
  3
ACAD_DETAILVIEWSTYLE
350
1B8
  3
ACAD_GROUP
350
D
  3
ACAD_LAYOUT
350
1A
  3
ACAD_MATERIAL
350
43
  3
ACAD_MLEADERSTYLE
350
6B
  3
ACAD_MLINESTYLE
350
17
  3
ACAD_PLOTSETTINGS
350
19
  3
ACAD_PLOTSTYLENAME
350
E
  3
ACAD_SCALELIST
350
47
  3
ACAD_SECTIONVIEWSTYLE
350
1B9
  3
ACAD_TABLESTYLE
350
69
  3
ACAD_VISUALSTYLE
350
2A
  3
ACDB_RECOMPOSE_DATA
350
1B5
  3
AcDbVariableDictionary
350
1B1
  0
SUN
  5
6D
330
29
100
AcDbSun
 90
        1
290
     0
 63
     7
421
 16777215
 40
1.0
291
     1
 91
  2455826
 92
 54000000
292
     0
 70
     2
 71
   256
280
     1
  0
DICTIONARY
  5
1B8
102
{ACAD_REACTORS
330
C
102
}
330
C
100
AcDbDictionary
281
     1
  0
DICTIONARY
  5
D
102
{ACAD_REACTORS
330
C
102
}
330
C
100
AcDbDictionary
281
     1
  0
DICTIONARY
  5
1A
102
{ACAD_REACTORS
330
C
102
}
330
C
100
AcDbDictionary
281
     1
  3
Layout1
350
1E
  3
Layout2
350
26
  3
Model
350
22
  0
DICTIONARY
  5
43
102
{ACAD_REACTORS
330
C
102
}
330
C
100
AcDbDictionary
281
     1
  3
ByBlock
350
45
  3
ByLayer
350
44
  3
Global
350
46
  0
DICTIONARY
  5
6B
102
{ACAD_REACTORS
330
C
102
}
330
C
100
AcDbDictionary
281
     1
  3
Standard
350
6C
  0
DICTIONARY
  5
17
102
{ACAD_REACTORS
330
C
102
}
330
C
100
AcDbDictionary
281
     1
  3
Standard
350
18
  0
DICTIONARY
  5
19
102
{ACAD_REACTORS
330
C
102
}
330
C
100
AcDbDictionary
281
     1
  0
ACDBDICTIONARYWDFLT
  5
E
102
{ACAD_REACTORS
330
C
102
}
330
C
100
AcDbDictionary
281
     1
  3
Normal
350
F
100
AcDbDictionaryWithDefault
340
F
  0
DICTIONARY
  5
47
102
{ACAD_REACTORS
330
C
102
}
330
C
100
AcDbDictionary
281
     1
  3
A0
350
48
  3
A1
350
49
  3
A2
350
4A
  3
A3
350
4B
  3
A4
350
4C
  3
A5
350
4D
  3
A6
350
4E
  3
A7
350
4F
  3
A8
350
50
  3
A9
350
51
  3
B0
350
52
  3
B1
350
53
  3
B2
350
54
  3
B3
350
55
  3
B4
350
56
  3
B5
350
57
  3
B6
350
58
  3
B7
350
59
  3
B8
350
5A
  3
B9
350
5B
  3
C0
350
5C
  3
C1
350
5D
  3
C2
350
5E
  3
C3
350
5F
  3
C4
350
60
  3
C5
350
61
  3
C6
350
62
  3
C7
350
63
  3
C8
350
64
  3
C9
350
65
  3
D0
350
66
  3
D1
350
67
  3
D2
350
68
  0
DICTIONARY
  5
1B9
102
{ACAD_REACTORS
330
C
102
}
330
C
100
AcDbDictionary
281
     1
  0
DICTIONARY
  5
69
102
{ACAD_REACTORS
330
C
102
}
330
C
100
AcDbDictionary
281
     1
  3
Standard
350
6A
  0
DICTIONARY
  5
2A
102
{ACAD_REACTORS
330
C
102
}
330
C
100
AcDbDictionary
281
     1
  3
2dWireframe
350
2F
  3
Basic
350
32
  3
Brighten
350
36
  3
ColorChange
350
3A
  3
Conceptual
350
34
  3
Dim
350
35
  3
EdgeColorOff
350
3D
  3
Facepattern
350
39
  3
Flat
350
2B
  3
FlatWithEdges
350
2C
  3
Gouraud
350
2D
  3
GouraudWithEdges
350
2E
  3
Hidden
350
31
  3
JitterOff
350
3B
  3
Linepattern
350
38
  3
OverhangOff
350
3C
  3
Realistic
350
33
  3
Shaded
350
42
  3
Shaded with edges
350
41
  3
Shades of Gray
350
3E
  3
Sketchy
350
3F
  3
Thicken
350
37
  3
Wireframe
350
30
  3
X-Ray
350
40
  0
XRECORD
  5
1B5
102
{ACAD_REACTORS
330
C
102
}
330
C
100
AcDbXrecord
280
     1
 90
        1
330
6A
  0
DICTIONARY
  5
1B1
102
{ACAD_REACTORS
330
C
102
}
330
C
100
AcDbDictionary
281
     1
  3
CANNOSCALE
350
1B2
  3
CMLEADERSTYLE
350
1B7
  3
CTABLESTYLE
350
1B6
  0
LAYOUT
  5
1E
102
{ACAD_REACTORS
330
1A
102
}
330
1A
100
AcDbPlotSettings
  1

  2
none_device
  4

  6

 40
0.0
 41
0.0
 42
0.0
 43
0.0
 44
0.0
 45
0.0
 46
0.0
 47
0.0
 48
0.0
 49
0.0
140
0.0
141
0.0
142
1.0
143
1.0
 70
   688
 72
     0
 73
     0
 74
     5
  7

 75
    16
 76
     0
 77
     2
 78
   300
147
1.0
148
0.0
149
0.0
100
AcDbLayout
  1
Layout1
 70
     1
 71
     1
 10
0.0
 20
0.0
 11
12.0
 21
9.0
 12
0.0
 22
0.0
 32
0.0
 14
1.000000000000000E+20
 24
1.000000000000000E+20
 34
1.000000000000000E+20
 15
-1.000000000000000E+20
 25
-1.000000000000000E+20
 35
-1.000000000000000E+20
146
0.0
 13
0.0
 23
0.0
 33
0.0
 16
1.0
 26
0.0
 36
0.0
 17
0.0
 27
1.0
 37
0.0
 76
     0
330
1B
  0
LAYOUT
  5
26
102
{ACAD_REACTORS
330
1A
102
}
330
1A
100
AcDbPlotSettings
  1

  2
none_device
  4

  6

 40
0.0
 41
0.0
 42
0.0
 43
0.0
 44
0.0
 45
0.0
 46
0.0
 47
0.0
 48
0.0
 49
0.0
140
0.0
141
0.0
142
1.0
143
1.0
 70
   688
 72
     0
 73
     0
 74
     5
  7

 75
    16
 76
     0
 77
     2
 78
   300
147
1.0
148
0.0
149
0.0
100
AcDbLayout
  1
Layout2
 70
     1
 71
     2
 10
0.0
 20
0.0
 11
0.0
 21
0.0
 12
0.0
 22
0.0
 32
0.0
 14
0.0
 24
0.0
 34
0.0
 15
0.0
 25
0.0
 35
0.0
146
0.0
 13
0.0
 23
0.0
 33
0.0
 16
1.0
 26
0.0
 36
0.0
 17
0.0
 27
1.0
 37
0.0
 76
     0
330
23
  0
LAYOUT
  5
22
102
{ACAD_REACTORS
330
1A
102
}
330
1A
100
AcDbPlotSettings
  1

  2
none_device
  4
Letter_(8.50_x_11.00_Inches)
  6

 40
6.35
 41
6.35
 42
6.35000508
 43
6.35000508
 44
215.9
 45
279.4
 46
0.0
 47
0.0
 48
0.0
 49
0.0
140
0.0
141
0.0
142
1.0
143
1.0
 70
  1712
 72
     0
 73
     0
 74
     0
  7

 75
     0
 76
     0
 77
     2
 78
   300
147
1.0
148
0.0
149
0.0
100
AcDbLayout
  1
Model
 70
     1
 71
     0
 10
0.0
 20
0.0
 11
12.0
 21
9.0
 12
0.0
 22
0.0
 32
0.0
 14
1.000000000000000E+20
 24
1.000000000000000E+20
 34
1.000000000000000E+20
 15
-1.000000000000000E+20
 25
-1.000000000000000E+20
 35
-1.000000000000000E+20
146
0.0
 13
0.0
 23
0.0
 33
0.0
 16
1.0
 26
0.0
 36
0.0
 17
0.0
 27
1.0
 37
0.0
 76
     0
330
1F
331
29
  0
MATERIAL
  5
45
102
{ACAD_REACTORS
330
43
102
}
330
43
100
AcDbMaterial
  1
ByBlock
 72
     1
 94
      127
  0
MATERIAL
  5
44
102
{ACAD_REACTORS
330
43
102
}
330
43
100
AcDbMaterial
  1
ByLayer
 72
     1
 94
      127
  0
MATERIAL
  5
46
102
{ACAD_REACTORS
330
43
102
}
330
43
100
AcDbMaterial
  1
Global
 72
     1
 94
      127
  0
MLEADERSTYLE
  5
6C
102
{ACAD_REACTORS
330
6B
102
}
330
6B
100
AcDbMLeaderStyle
179
     2
170
     2
171
     1
172
     0
 90
        2
 40
0.0
 41
0.0
173
     1
 91
-1056964608
340
14
 92
       -2
290
     1
 42
0.09
291
     1
 43
0.36
  3
Standard
341
0
 44
0.18
300

342
11
174
     1
178
     6
175
     1
176
     0
 93
-1056964608
 45
0.18
292
     0
297
     0
 46
0.18
343
0
 94
-1056964608
 47
1.0
 49
1.0
140
1.0
293
     1
141
0.0
294
     1
177
     0
142
1.0
295
     0
296
     0
143
0.125
271
     0
272
     9
273
     9
298
     0
  0
MLINESTYLE
  5
18
102
{ACAD_REACTORS
330
17
102
}
330
17
100
AcDbMlineStyle
  2
Standard
 70
     0
  3

 62
   256
 51
90.0
 52
90.0
 71
     2
 49
0.5
 62
   256
  6
BYLAYER
 49
-0.5
 62
   256
  6
BYLAYER
  0
ACDBPLACEHOLDER
  5
F
102
{ACAD_REACTORS
330
E
102
}
330
E
  0
SCALE
  5
48
102
{ACAD_REACTORS
330
47
102
}
330
47
100
AcDbScale
 70
     0
300
1:1
140
1.0
141
1.0
290
     1
  0
SCALE
  5
49
102
{ACAD_REACTORS
330
47
102
}
330
47
100
AcDbScale
 70
     0
300
1:2
140
1.0
141
2.0
290
     0
  0
SCALE
  5
4A
102
{ACAD_REACTORS
330
47
102
}
330
47
100
AcDbScale
 70
     0
300
1:4
140
1.0
141
4.0
290
     0
  0
SCALE
  5
4B
102
{ACAD_REACTORS
330
47
102
}
330
47
100
AcDbScale
 70
     0
300
1:5
140
1.0
141
5.0
290
     0
  0
SCALE
  5
4C
102
{ACAD_REACTORS
330
47
102
}
330
47
100
AcDbScale
 70
     0
300
1:8
140
1.0
141
8.0
290
     0
  0
SCALE
  5
4D
102
{ACAD_REACTORS
330
47
102
}
330
47
100
AcDbScale
 70
     0
300
1:10
140
1.0
141
10.0
290
     0
  0
SCALE
  5
4E
102
{ACAD_REACTORS
330
47
102
}
330
47
100
AcDbScale
 70
     0
300
1:16
140
1.0
141
16.0
290
     0
  0
SCALE
  5
4F
102
{ACAD_REACTORS
330
47
102
}
330
47
100
AcDbScale
 70
     0
300
1:20
140
1.0
141
20.0
290
     0
  0
SCALE
  5
50
102
{ACAD_REACTORS
330
47
102
}
330
47
100
AcDbScale
 70
     0
300
1:30
140
1.0
141
30.0
290
     0
  0
SCALE
  5
51
102
{ACAD_REACTORS
330
47
102
}
330
47
100
AcDbScale
 70
     0
300
1:40
140
1.0
141
40.0
290
     0
  0
SCALE
  5
52
102
{ACAD_REACTORS
330
47
102
}
330
47
100
AcDbScale
 70
     0
300
1:50
140
1.0
141
50.0
290
     0
  0
SCALE
  5
53
102
{ACAD_REACTORS
330
47
102
}
330
47
100
AcDbScale
 70
     0
300
1:100
140
1.0
141
100.0
290
     0
  0
SCALE
  5
54
102
{ACAD_REACTORS
330
47
102
}
330
47
100
AcDbScale
 70
     0
300
2:1
140
2.0
141
1.0
290
     0
  0
SCALE
  5
55
102
{ACAD_REACTORS
330
47
102
}
330
47
100
AcDbScale
 70
     0
300
4:1
140
4.0
141
1.0
290
     0
  0
SCALE
  5
56
102
{ACAD_REACTORS
330
47
102
}
330
47
100
AcDbScale
 70
     0
300
8:1
140
8.0
141
1.0
290
     0
  0
SCALE
  5
57
102
{ACAD_REACTORS
330
47
102
}
330
47
100
AcDbScale
 70
     0
300
10:1
140
10.0
141
1.0
290
     0
  0
SCALE
  5
58
102
{ACAD_REACTORS
330
47
102
}
330
47
100
AcDbScale
 70
     0
300
100:1
140
100.0
141
1.0
290
     0
  0
SCALE
  5
59
102
{ACAD_REACTORS
330
47
102
}
330
47
100
AcDbScale
 70
     0
300
1/128" = 1'-0"
140
0.0078125
141
12.0
290
     0
  0
SCALE
  5
5A
102
{ACAD_REACTORS
330
47
102
}
330
47
100
AcDbScale
 70
     0
300
1/64" = 1'-0"
140
0.015625
141
12.0
290
     0
  0
SCALE
  5
5B
102
{ACAD_REACTORS
330
47
102
}
330
47
100
AcDbScale
 70
     0
300
1/32" = 1'-0"
140
0.03125
141
12.0
290
     0
  0
SCALE
  5
5C
102
{ACAD_REACTORS
330
47
102
}
330
47
100
AcDbScale
 70
     0
300
1/16" = 1'-0"
140
0.0625
141
12.0
290
     0
  0
SCALE
  5
5D
102
{ACAD_REACTORS
330
47
102
}
330
47
100
AcDbScale
 70
     0
300
3/32" = 1'-0"
140
0.09375
141
12.0
290
     0
  0
SCALE
  5
5E
102
{ACAD_REACTORS
330
47
102
}
330
47
100
AcDbScale
 70
     0
300
1/8" = 1'-0"
140
0.125
141
12.0
290
     0
  0
SCALE
  5
5F
102
{ACAD_REACTORS
330
47
102
}
330
47
100
AcDbScale
 70
     0
300
3/16" = 1'-0"
140
0.1875
141
12.0
290
     0
  0
SCALE
  5
60
102
{ACAD_REACTORS
330
47
102
}
330
47
100
AcDbScale
 70
     0
300
1/4" = 1'-0"
140
0.25
141
12.0
290
     0
  0
SCALE
  5
61
102
{ACAD_REACTORS
330
47
102
}
330
47
100
AcDbScale
 70
     0
300
3/8" = 1'-0"
140
0.375
141
12.0
290
     0
  0
SCALE
  5
62
102
{ACAD_REACTORS
330
47
102
}
330
47
100
AcDbScale
 70
     0
300
1/2" = 1'-0"
140
0.5
141
12.0
290
     0
  0
SCALE
  5
63
102
{ACAD_REACTORS
330
47
102
}
330
47
100
AcDbScale
 70
     0
300
3/4" = 1'-0"
140
0.75
141
12.0
290
     0
  0
SCALE
  5
64
102
{ACAD_REACTORS
330
47
102
}
330
47
100
AcDbScale
 70
     0
300
1" = 1'-0"
140
1.0
141
12.0
290
     0
  0
SCALE
  5
65
102
{ACAD_REACTORS
330
47
102
}
330
47
100
AcDbScale
 70
     0
300
1-1/2" = 1'-0"
140
1.5
141
12.0
290
     0
  0
SCALE
  5
66
102
{ACAD_REACTORS
330
47
102
}
330
47
100
AcDbScale
 70
     0
300
3" = 1'-0"
140
3.0
141
12.0
290
     0
  0
SCALE
  5
67
102
{ACAD_REACTORS
330
47
102
}
330
47
100
AcDbScale
 70
     0
300
6" = 1'-0"
140
6.0
141
12.0
290
     0
  0
SCALE
  5
68
102
{ACAD_REACTORS
330
47
102
}
330
47
100
AcDbScale
 70
     0
300
1'-0" = 1'-0"
140
12.0
141
12.0
290
     0
  0
TABLESTYLE
  5
6A
102
{ACAD_REACTORS
330
69
102
}
102
{ACAD_XDICTIONARY
360
1B3
102
}
330
69
100
AcDbTableStyle
  3
Standard
 70
     0
 71
     0
 40
0.06
 41
0.06
280
     0
281
     0
  7
Standard
140
0.18
170
     2
 62
     0
 63
   257
283
     0
 90
        4
 91
        0
  1

274
    -2
284
     1
 64
     0
275
    -2
285
     1
 65
     0
276
    -2
286
     1
 66
     0
277
    -2
287
     1
 67
     0
278
    -2
288
     1
 68
     0
279
    -2
289
     1
 69
     0
  7
Standard
140
0.25
170
     5
 62
     0
 63
   257
283
     0
 90
        4
 91
        0
  1

274
    -2
284
     1
 64
     0
275
    -2
285
     1
 65
     0
276
    -2
286
     1
 66
     0
277
    -2
287
     1
 67
     0
278
    -2
288
     1
 68
     0
279
    -2
289
     1
 69
     0
  7
Standard
140
0.18
170
     5
 62
     0
 63
   257
283
     0
 90
        4
 91
        0
  1

274
    -2
284
     1
 64
     0
275
    -2
285
     1
 65
     0
276
    -2
286
     1
 66
     0
277
    -2
287
     1
 67
     0
278
    -2
288
     1
 68
     0
279
    -2
289
     1
 69
     0
  0
VISUALSTYLE
  5
2F
102
{ACAD_REACTORS
330
2A
102
}
330
2A
100
AcDbVisualStyle
  2
2dWireframe
 70
     4
177
     3
291
     0
 70
    58
 90
        0
176
     1
 90
        2
176
     1
 90
        0
176
     1
 90
        0
176
     1
 40
0.6
176
     1
 40
30.0
176
     1
 62
     7
420
 16777215
176
     1
 90
        1
176
     1
 90
        4
176
     1
 62
     7
176
     1
 62
   257
176
     1
 90
        1
176
     1
 90
        1
176
     1
 40
1.0
176
     1
 90
        0
176
     1
 62
   257
176
     1
 40
1.0
176
     1
 90
        1
176
     1
 90
        6
176
     1
 90
        2
176
     1
 62
     7
176
     1
 90
        5
176
     1
 90
        0
176
     1
 90
        0
176
     1
290
     0
176
     1
 90
        1
176
     1
 40
0.0
176
     1
 90
        0
176
     1
290
     1
176
     1
290
     1
176
     1
290
     0
176
     1
290
     0
176
     1
290
     0
176
     1
290
     0
176
     1
290
     0
176
     1
290
     0
176
     1
290
     0
176
     1
 90
       50
176
     1
 40
0.0
176
     1
 40
1.0
176
     1
 90
        0
176
     1
 62
    18
420
        0
176
     1
 90
       50
176
     1
 90
        3
176
     1
 62
     5
420
      255
176
     1
290
     0
176
     1
 90
       50
176
     1
 90
       50
176
     1
 90
       50
176
     1
290
     0
176
     1
 90
       50
176
     1
 62
   256
176
     0
 40
1.0
176
     0
 90
        2
176
     1
  1
strokes_ogs.tif
176
     1
290
     0
176
     1
 40
1.0
176
     1
 40
1.0
176
     1
  0
VISUALSTYLE
  5
32
102
{ACAD_REACTORS
330
2A
102
}
330
2A
100
AcDbVisualStyle
  2
Basic
 70
     7
177
     3
291
     1
 70
    58
 90
        1
176
     1
 90
        0
176
     1
 90
        1
176
     1
 90
        0
176
     1
 40
0.6
176
     1
 40
30.0
176
     1
 62
     7
420
 16777215
176
     1
 90
        0
176
     1
 90
        4
176
     1
 62
     7
176
     1
 62
   257
176
     1
 90
        1
176
     1
 90
        1
176
     1
 40
1.0
176
     1
 90
        8
176
     1
 62
     7
176
     1
 40
1.0
176
     1
 90
        1
176
     1
 90
        6
176
     1
 90
        2
176
     1
 62
     7
176
     1
 90
        5
176
     1
 90
        0
176
     1
 90
        0
176
     1
290
     0
176
     1
 90
        1
176
     1
 40
0.0
176
     1
 90
        0
176
     1
290
     0
176
     1
290
     1
176
     1
290
     1
176
     1
290
     0
176
     1
290
     0
176
     1
290
     0
176
     1
290
     0
176
     1
290
     0
176
     1
290
     0
176
     1
 90
       50
176
     1
 40
0.0
176
     1
 40
1.0
176
     1
 90
        0
176
     1
 62
    18
420
        0
176
     1
 90
       50
176
     1
 90
        3
176
     1
 62
     5
420
      255
176
     1
290
     0
176
     1
 90
       50
176
     1
 90
       50
176
     1
 90
       50
176
     1
290
     0
176
     1
 90
       50
176
     1
 62
   256
176
     0
 40
1.0
176
     0
 90
        2
176
     1
  1
strokes_ogs.tif
176
     1
290
     0
176
     1
 40
1.0
176
     1
 40
1.0
176
     1
  0
VISUALSTYLE
  5
36
102
{ACAD_REACTORS
330
2A
102
}
330
2A
100
AcDbVisualStyle
  2
Brighten
 70
    12
177
     3
291
     1
 70
    58
 90
        2
176
     1
 90
        2
176
     1
 90
        0
176
     1
 90
        0
176
     1
 40
0.6
176
     1
 40
30.0
176
     1
 62
     7
420
 16777215
176
     1
 90
        1
176
     1
 90
        4
176
     1
 62
     7
176
     1
 62
   257
176
     1
 90
        1
176
     1
 90
        1
176
     1
 40
1.0
176
     1
 90
        8
176
     1
 62
     7
176
     1
 40
1.0
176
     1
 90
        1
176
     1
 90
        6
176
     1
 90
        2
176
     1
 62
     7
176
     1
 90
        5
176
     1
 90
        0
176
     1
 90
        0
176
     1
290
     0
176
     1
 90
        1
176
     1
 40
50.0
176
     1
 90
        0
176
     1
290
     0
176
     1
290
     1
176
     1
290
     1
176
     1
290
     0
176
     1
290
     0
176
     1
290
     0
176
     1
290
     0
176
     1
290
     0
176
     1
290
     0
176
     1
 90
       50
176
     1
 40
0.0
176
     1
 40
1.0
176
     1
 90
        0
176
     1
 62
    18
420
        0
176
     1
 90
       50
176
     1
 90
        3
176
     1
 62
     5
420
      255
176
     1
290
     0
176
     1
 90
       50
176
     1
 90
       50
176
     1
 90
       50
176
     1
290
     0
176
     1
 90
       50
176
     1
 62
   256
176
     0
 40
1.0
176
     0
 90
        2
176
     1
  1
strokes_ogs.tif
176
     1
290
     0
176
     1
 40
1.0
176
     1
 40
1.0
176
     1
  0
VISUALSTYLE
  5
3A
102
{ACAD_REACTORS
330
2A
102
}
330
2A
100
AcDbVisualStyle
  2
ColorChange
 70
    16
177
     3
291
     1
 70
    58
 90
        2
176
     1
 90
        2
176
     1
 90
        3
176
     1
 90
        0
176
     1
 40
0.6
176
     1
 40
30.0
176
     1
 62
     8
420
  8421504
176
     1
 90
        1
176
     1
 90
        4
176
     1
 62
     7
176
     1
 62
   257
176
     1
 90
        1
176
     1
 90
        1
176
     1
 40
1.0
176
     1
 90
        8
176
     1
 62
     8
420
  8421504
176
     1
 40
1.0
176
     1
 90
        1
176
     1
 90
        6
176
     1
 90
        2
176
     1
 62
     7
176
     1
 90
        5
176
     1
 90
        0
176
     1
 90
        0
176
     1
290
     0
176
     1
 90
        1
176
     1
 40
0.0
176
     1
 90
        0
176
     1
290
     0
176
     1
290
     1
176
     1
290
     1
176
     1
290
     0
176
     1
290
     0
176
     1
290
     0
176
     1
290
     0
176
     1
290
     0
176
     1
290
     0
176
     1
 90
       50
176
     1
 40
0.0
176
     1
 40
1.0
176
     1
 90
        0
176
     1
 62
    18
420
        0
176
     1
 90
       50
176
     1
 90
        3
176
     1
 62
     5
420
      255
176
     1
290
     0
176
     1
 90
       50
176
     1
 90
       50
176
     1
 90
       50
176
     1
290
     0
176
     1
 90
       50
176
     1
 62
   256
176
     0
 40
1.0
176
     0
 90
        2
176
     1
  1
strokes_ogs.tif
176
     1
290
     0
176
     1
 40
1.0
176
     1
 40
1.0
176
     1
  0
VISUALSTYLE
  5
34
102
{ACAD_REACTORS
330
2A
102
}
330
2A
100
AcDbVisualStyle
  2
Conceptual
 70
     9
177
     3
291
     0
 70
    58
 90
        3
176
     1
 90
        2
176
     1
 90
        0
176
     1
 90
        0
176
     1
 40
0.6
176
     1
 40
30.0
176
     1
 62
     7
420
 16777215
176
     1
 90
        2
176
     1
 90
        2
176
     1
 62
     7
176
     1
 62
   257
176
     1
 90
        1
176
     1
 90
        1
176
     1
 40
179.0
176
     1
 90
        8
176
     1
 62
     7
176
     1
 40
1.0
176
     1
 90
        1
176
     1
 90
        6
176
     1
 90
        2
176
     1
 62
     7
176
     1
 90
        3
176
     1
 90
        0
176
     1
 90
        0
176
     1
290
     0
176
     1
 90
        1
176
     1
 40
0.0
176
     1
 90
        0
176
     1
290
     0
176
     1
290
     1
176
     1
290
     1
176
     1
290
     0
176
     1
290
     0
176
     1
290
     0
176
     1
290
     0
176
     1
290
     0
176
     1
290
     0
176
     1
 90
       50
176
     1
 40
0.0
176
     1
 40
1.0
176
     1
 90
        0
176
     1
 62
    18
420
        0
176
     1
 90
       50
176
     1
 90
        3
176
     1
 62
     5
420
      255
176
     1
290
     0
176
     1
 90
       50
176
     1
 90
       50
176
     1
 90
       50
176
     1
290
     0
176
     1
 90
       50
176
     1
 62
   256
176
     0
 40
1.0
176
     0
 90
        2
176
     1
  1
strokes_ogs.tif
176
     1
290
     0
176
     1
 40
1.0
176
     1
 40
1.0
176
     1
  0
VISUALSTYLE
  5
35
102
{ACAD_REACTORS
330
2A
102
}
330
2A
100
AcDbVisualStyle
  2
Dim
 70
    11
177
     3
291
     1
 70
    58
 90
        2
176
     1
 90
        2
176
     1
 90
        0
176
     1
 90
        0
176
     1
 40
0.6
176
     1
 40
30.0
176
     1
 62
     7
420
 16777215
176
     1
 90
        1
176
     1
 90
        4
176
     1
 62
     7
176
     1
 62
   257
176
     1
 90
        1
176
     1
 90
        1
176
     1
 40
1.0
176
     1
 90
        8
176
     1
 62
     7
176
     1
 40
1.0
176
     1
 90
        1
176
     1
 90
        6
176
     1
 90
        2
176
     1
 62
     7
176
     1
 90
        5
176
     1
 90
        0
176
     1
 90
        0
176
     1
290
     0
176
     1
 90
        1
176
     1
 40
-50.0
176
     1
 90
        0
176
     1
290
     0
176
     1
290
     1
176
     1
290
     1
176
     1
290
     0
176
     1
290
     0
176
     1
290
     0
176
     1
290
     0
176
     1
290
     0
176
     1
290
     0
176
     1
 90
       50
176
     1
 40
0.0
176
     1
 40
1.0
176
     1
 90
        0
176
     1
 62
    18
420
        0
176
     1
 90
       50
176
     1
 90
        3
176
     1
 62
     5
420
      255
176
     1
290
     0
176
     1
 90
       50
176
     1
 90
       50
176
     1
 90
       50
176
     1
290
     0
176
     1
 90
       50
176
     1
 62
   256
176
     0
 40
1.0
176
     0
 90
        2
176
     1
  1
strokes_ogs.tif
176
     1
290
     0
176
     1
 40
1.0
176
     1
 40
1.0
176
     1
  0
VISUALSTYLE
  5
3D
102
{ACAD_REACTORS
330
2A
102
}
330
2A
100
AcDbVisualStyle
  2
EdgeColorOff
 70
    22
177
     3
291
     1
 70
    58
 90
        2
176
     0
 90
        2
176
     0
 90
        0
176
     0
 90
        0
176
     0
 40
0.6
176
     0
 40
30.0
176
     0
 62
     7
420
 16777215
176
     0
 90
        1
176
     0
 90
        4
176
     0
 62
     7
176
     0
 62
   257
176
     0
 90
        1
176
     0
 90
        1
176
     0
 40
1.0
176
     0
 90
        8
176
     2
 62
     7
176
     0
 40
1.0
176
     0
 90
        1
176
     0
 90
        6
176
     0
 90
        2
176
     0
 62
     7
176
     0
 90
        5
176
     0
 90
        0
176
     0
 90
        0
176
     0
290
     0
176
     0
 90
        1
176
     0
 40
0.0
176
     0
 90
        0
176
     0
290
     0
176
     0
290
     1
176
     0
290
     1
176
     0
290
     0
176
     0
290
     0
176
     0
290
     0
176
     0
290
     0
176
     0
290
     0
176
     0
290
     0
176
     0
 90
       50
176
     0
 40
0.0
176
     0
 40
1.0
176
     0
 90
        0
176
     0
 62
    18
420
        0
176
     0
 90
       50
176
     0
 90
        3
176
     0
 62
     5
420
      255
176
     0
290
     0
176
     0
 90
       50
176
     0
 90
       50
176
     0
 90
       50
176
     0
290
     0
176
     0
 90
       50
176
     0
 62
   256
176
     0
 40
1.0
176
     0
 90
        2
176
     0
  1
strokes_ogs.tif
176
     0
290
     0
176
     0
 40
1.0
176
     0
 40
1.0
176
     0
  0
VISUALSTYLE
  5
39
102
{ACAD_REACTORS
330
2A
102
}
330
2A
100
AcDbVisualStyle
  2
Facepattern
 70
    15
177
     3
291
     1
 70
    58
 90
        2
176
     1
 90
        2
176
     1
 90
        0
176
     1
 90
        0
176
     1
 40
0.6
176
     1
 40
30.0
176
     1
 62
     7
420
 16777215
176
     1
 90
        1
176
     1
 90
        4
176
     1
 62
     7
176
     1
 62
   257
176
     1
 90
        1
176
     1
 90
        1
176
     1
 40
1.0
176
     1
 90
        8
176
     1
 62
     7
176
     1
 40
1.0
176
     1
 90
        1
176
     1
 90
        6
176
     1
 90
        2
176
     1
 62
     7
176
     1
 90
        5
176
     1
 90
        0
176
     1
 90
        0
176
     1
290
     0
176
     1
 90
        1
176
     1
 40
0.0
176
     1
 90
        0
176
     1
290
     0
176
     1
290
     1
176
     1
290
     1
176
     1
290
     0
176
     1
290
     0
176
     1
290
     0
176
     1
290
     0
176
     1
290
     0
176
     1
290
     0
176
     1
 90
       50
176
     1
 40
0.0
176
     1
 40
1.0
176
     1
 90
        0
176
     1
 62
    18
420
        0
176
     1
 90
       50
176
     1
 90
        3
176
     1
 62
     5
420
      255
176
     1
290
     0
176
     1
 90
       50
176
     1
 90
       50
176
     1
 90
       50
176
     1
290
     0
176
     1
 90
       50
176
     1
 62
   256
176
     0
 40
1.0
176
     0
 90
        2
176
     1
  1
strokes_ogs.tif
176
     1
290
     0
176
     1
 40
1.0
176
     1
 40
1.0
176
     1
  0
VISUALSTYLE
  5
2B
102
{ACAD_REACTORS
330
2A
102
}
330
2A
100
AcDbVisualStyle
  2
Flat
 70
     0
177
     3
291
     1
 70
    58
 90
        2
176
     1
 90
        1
176
     1
 90
        1
176
     1
 90
        2
176
     1
 40
0.6
176
     1
 40
30.0
176
     1
 62
     7
420
 16777215
176
     1
 90
        0
176
     1
 90
        0
176
     1
 62
     7
176
     1
 62
   257
176
     1
 90
        1
176
     1
 90
        1
176
     1
 40
1.0
176
     1
 90
        8
176
     1
 62
     7
176
     1
 40
1.0
176
     1
 90
        1
176
     1
 90
        6
176
     1
 90
        2
176
     1
 62
     7
176
     1
 90
        5
176
     1
 90
        0
176
     1
 90
        0
176
     1
290
     0
176
     1
 90
       13
176
     1
 40
0.0
176
     1
 90
        0
176
     1
290
     0
176
     1
290
     1
176
     1
290
     1
176
     1
290
     0
176
     1
290
     0
176
     1
290
     0
176
     1
290
     0
176
     1
290
     0
176
     1
290
     0
176
     1
 90
       50
176
     1
 40
0.0
176
     1
 40
1.0
176
     1
 90
        0
176
     1
 62
    18
420
        0
176
     1
 90
       50
176
     1
 90
        3
176
     1
 62
     5
420
      255
176
     1
290
     0
176
     1
 90
       50
176
     1
 90
       50
176
     1
 90
       50
176
     1
290
     0
176
     1
 90
       50
176
     1
 62
   256
176
     0
 40
1.0
176
     0
 90
        2
176
     1
  1
strokes_ogs.tif
176
     1
290
     0
176
     1
 40
1.0
176
     1
 40
1.0
176
     1
  0
VISUALSTYLE
  5
2C
102
{ACAD_REACTORS
330
2A
102
}
330
2A
100
AcDbVisualStyle
  2
FlatWithEdges
 70
     1
177
     3
291
     1
 70
    58
 90
        2
176
     1
 90
        1
176
     1
 90
        1
176
     1
 90
        2
176
     1
 40
0.6
176
     1
 40
30.0
176
     1
 62
     7
420
 16777215
176
     1
 90
        1
176
     1
 90
        0
176
     1
 62
     7
176
     1
 62
   257
176
     1
 90
        1
176
     1
 90
        1
176
     1
 40
1.0
176
     1
 90
        0
176
     1
 62
   257
176
     1
 40
1.0
176
     1
 90
        1
176
     1
 90
        6
176
     1
 90
        2
176
     1
 62
     7
176
     1
 90
        5
176
     1
 90
        0
176
     1
 90
        0
176
     1
290
     0
176
     1
 90
       13
176
     1
 40
0.0
176
     1
 90
        0
176
     1
290
     0
176
     1
290
     1
176
     1
290
     1
176
     1
290
     0
176
     1
290
     0
176
     1
290
     0
176
     1
290
     0
176
     1
290
     0
176
     1
290
     0
176
     1
 90
       50
176
     1
 40
0.0
176
     1
 40
1.0
176
     1
 90
        0
176
     1
 62
    18
420
        0
176
     1
 90
       50
176
     1
 90
        3
176
     1
 62
     5
420
      255
176
     1
290
     0
176
     1
 90
       50
176
     1
 90
       50
176
     1
 90
       50
176
     1
290
     0
176
     1
 90
       50
176
     1
 62
   256
176
     0
 40
1.0
176
     0
 90
        2
176
     1
  1
strokes_ogs.tif
176
     1
290
     0
176
     1
 40
1.0
176
     1
 40
1.0
176
     1
  0
VISUALSTYLE
  5
2D
102
{ACAD_REACTORS
330
2A
102
}
330
2A
100
AcDbVisualStyle
  2
Gouraud
 70
     2
177
     3
291
     1
 70
    58
 90
        2
176
     1
 90
        2
176
     1
 90
        1
176
     1
 90
        2
176
     1
 40
0.6
176
     1
 40
30.0
176
     1
 62
     7
420
 16777215
176
     1
 90
        0
176
     1
 90
        0
176
     1
 62
     7
176
     1
 62
   257
176
     1
 90
        1
176
     1
 90
        1
176
     1
 40
1.0
176
     1
 90
        0
176
     1
 62
     7
176
     1
 40
1.0
176
     1
 90
        1
176
     1
 90
        6
176
     1
 90
        2
176
     1
 62
     7
176
     1
 90
        5
176
     1
 90
        0
176
     1
 90
        0
176
     1
290
     0
176
     1
 90
       13
176
     1
 40
0.0
176
     1
 90
        0
176
     1
290
     0
176
     1
290
     1
176
     1
290
     1
176
     1
290
     0
176
     1
290
     0
176
     1
290
     0
176
     1
290
     0
176
     1
290
     0
176
     1
290
     0
176
     1
 90
       50
176
     1
 40
0.0
176
     1
 40
1.0
176
     1
 90
        0
176
     1
 62
    18
420
        0
176
     1
 90
       50
176
     1
 90
        3
176
     1
 62
     5
420
      255
176
     1
290
     0
176
     1
 90
       50
176
     1
 90
       50
176
     1
 90
       50
176
     1
290
     0
176
     1
 90
       50
176
     1
 62
   256
176
     0
 40
1.0
176
     0
 90
        2
176
     1
  1
strokes_ogs.tif
176
     1
290
     0
176
     1
 40
1.0
176
     1
 40
1.0
176
     1
  0
VISUALSTYLE
  5
2E
102
{ACAD_REACTORS
330
2A
102
}
330
2A
100
AcDbVisualStyle
  2
GouraudWithEdges
 70
     3
177
     3
291
     1
 70
    58
 90
        2
176
     1
 90
        2
176
     1
 90
        1
176
     1
 90
        2
176
     1
 40
0.6
176
     1
 40
30.0
176
     1
 62
     7
420
 16777215
176
     1
 90
        1
176
     1
 90
        0
176
     1
 62
     7
176
     1
 62
   257
176
     1
 90
        1
176
     1
 90
        1
176
     1
 40
1.0
176
     1
 90
        0
176
     1
 62
   257
176
     1
 40
1.0
176
     1
 90
        1
176
     1
 90
        6
176
     1
 90
        2
176
     1
 62
     7
176
     1
 90
        5
176
     1
 90
        0
176
     1
 90
        0
176
     1
290
     0
176
     1
 90
       13
176
     1
 40
0.0
176
     1
 90
        0
176
     1
290
     0
176
     1
290
     1
176
     1
290
     1
176
     1
290
     0
176
     1
290
     0
176
     1
290
     0
176
     1
290
     0
176
     1
290
     0
176
     1
290
     0
176
     1
 90
       50
176
     1
 40
0.0
176
     1
 40
1.0
176
     1
 90
        0
176
     1
 62
    18
420
        0
176
     1
 90
       50
176
     1
 90
        3
176
     1
 62
     5
420
      255
176
     1
290
     0
176
     1
 90
       50
176
     1
 90
       50
176
     1
 90
       50
176
     1
290
     0
176
     1
 90
       50
176
     1
 62
   256
176
     0
 40
1.0
176
     0
 90
        2
176
     1
  1
strokes_ogs.tif
176
     1
290
     0
176
     1
 40
1.0
176
     1
 40
1.0
176
     1
  0
VISUALSTYLE
  5
31
102
{ACAD_REACTORS
330
2A
102
}
330
2A
100
AcDbVisualStyle
  2
Hidden
 70
     6
177
     3
291
     0
 70
    58
 90
        1
176
     1
 90
        2
176
     1
 90
        2
176
     1
 90
        0
176
     1
 40
0.6
176
     1
 40
30.0
176
     1
 62
     7
420
 16777215
176
     1
 90
        2
176
     1
 90
        2
176
     1
 62
     7
176
     1
 62
   257
176
     1
 90
        2
176
     1
 90
        1
176
     1
 40
40.0
176
     1
 90
        0
176
     1
 62
   257
176
     1
 40
1.0
176
     1
 90
        1
176
     1
 90
        6
176
     1
 90
        2
176
     1
 62
     7
176
     1
 90
        3
176
     1
 90
        0
176
     1
 90
        0
176
     1
290
     0
176
     1
 90
        1
176
     1
 40
0.0
176
     1
 90
        0
176
     1
290
     0
176
     1
290
     1
176
     1
290
     1
176
     1
290
     0
176
     1
290
     0
176
     1
290
     0
176
     1
290
     0
176
     1
290
     0
176
     1
290
     0
176
     1
 90
       50
176
     1
 40
0.0
176
     1
 40
1.0
176
     1
 90
        0
176
     1
 62
    18
420
        0
176
     1
 90
       50
176
     1
 90
        3
176
     1
 62
     5
420
      255
176
     1
290
     0
176
     1
 90
       50
176
     1
 90
       50
176
     1
 90
       50
176
     1
290
     0
176
     1
 90
       50
176
     1
 62
   256
176
     0
 40
1.0
176
     0
 90
        2
176
     1
  1
strokes_ogs.tif
176
     1
290
     0
176
     1
 40
1.0
176
     1
 40
1.0
176
     1
  0
VISUALSTYLE
  5
3B
102
{ACAD_REACTORS
330
2A
102
}
330
2A
100
AcDbVisualStyle
  2
JitterOff
 70
    20
177
     3
291
     1
 70
    58
 90
        2
176
     0
 90
        2
176
     0
 90
        0
176
     0
 90
        0
176
     0
 40
0.6
176
     0
 40
30.0
176
     0
 62
     7
420
 16777215
176
     0
 90
        1
176
     0
 90
        4
176
     0
 62
     7
176
     0
 62
   257
176
     0
 90
        1
176
     0
 90
        1
176
     0
 40
1.0
176
     0
 90
       10
176
     2
 62
     7
176
     0
 40
1.0
176
     0
 90
        1
176
     0
 90
        6
176
     0
 90
        2
176
     0
 62
     7
176
     0
 90
        5
176
     0
 90
        0
176
     0
 90
        0
176
     0
290
     0
176
     0
 90
        1
176
     0
 40
0.0
176
     0
 90
        0
176
     0
290
     0
176
     0
290
     1
176
     0
290
     1
176
     0
290
     0
176
     0
290
     0
176
     0
290
     0
176
     0
290
     0
176
     0
290
     0
176
     0
290
     0
176
     0
 90
       50
176
     0
 40
0.0
176
     0
 40
1.0
176
     0
 90
        0
176
     0
 62
    18
420
        0
176
     0
 90
       50
176
     0
 90
        3
176
     0
 62
     5
420
      255
176
     0
290
     0
176
     0
 90
       50
176
     0
 90
       50
176
     0
 90
       50
176
     0
290
     0
176
     0
 90
       50
176
     0
 62
   256
176
     0
 40
1.0
176
     0
 90
        2
176
     0
  1
strokes_ogs.tif
176
     0
290
     0
176
     0
 40
1.0
176
     0
 40
1.0
176
     0
  0
VISUALSTYLE
  5
38
102
{ACAD_REACTORS
330
2A
102
}
330
2A
100
AcDbVisualStyle
  2
Linepattern
 70
    14
177
     3
291
     1
 70
    58
 90
        2
176
     1
 90
        2
176
     1
 90
        0
176
     1
 90
        0
176
     1
 40
0.6
176
     1
 40
30.0
176
     1
 62
     7
420
 16777215
176
     1
 90
        1
176
     1
 90
        4
176
     1
 62
     7
176
     1
 62
   257
176
     1
 90
        7
176
     1
 90
        7
176
     1
 40
1.0
176
     1
 90
        8
176
     1
 62
     7
176
     1
 40
1.0
176
     1
 90
        1
176
     1
 90
        6
176
     1
 90
        2
176
     1
 62
     7
176
     1
 90
        5
176
     1
 90
        0
176
     1
 90
        0
176
     1
290
     0
176
     1
 90
        1
176
     1
 40
0.0
176
     1
 90
        0
176
     1
290
     0
176
     1
290
     1
176
     1
290
     1
176
     1
290
     0
176
     1
290
     0
176
     1
290
     0
176
     1
290
     0
176
     1
290
     0
176
     1
290
     0
176
     1
 90
       50
176
     1
 40
0.0
176
     1
 40
1.0
176
     1
 90
        0
176
     1
 62
    18
420
        0
176
     1
 90
       50
176
     1
 90
        3
176
     1
 62
     5
420
      255
176
     1
290
     0
176
     1
 90
       50
176
     1
 90
       50
176
     1
 90
       50
176
     1
290
     0
176
     1
 90
       50
176
     1
 62
   256
176
     0
 40
1.0
176
     0
 90
        2
176
     1
  1
strokes_ogs.tif
176
     1
290
     0
176
     1
 40
1.0
176
     1
 40
1.0
176
     1
  0
VISUALSTYLE
  5
3C
102
{ACAD_REACTORS
330
2A
102
}
330
2A
100
AcDbVisualStyle
  2
OverhangOff
 70
    21
177
     3
291
     1
 70
    58
 90
        2
176
     0
 90
        2
176
     0
 90
        0
176
     0
 90
        0
176
     0
 40
0.6
176
     0
 40
30.0
176
     0
 62
     7
420
 16777215
176
     0
 90
        1
176
     0
 90
        4
176
     0
 62
     7
176
     0
 62
   257
176
     0
 90
        1
176
     0
 90
        1
176
     0
 40
1.0
176
     0
 90
        9
176
     2
 62
     7
176
     0
 40
1.0
176
     0
 90
        1
176
     0
 90
        6
176
     0
 90
        2
176
     0
 62
     7
176
     0
 90
        5
176
     0
 90
        0
176
     0
 90
        0
176
     0
290
     0
176
     0
 90
        1
176
     0
 40
0.0
176
     0
 90
        0
176
     0
290
     0
176
     0
290
     1
176
     0
290
     1
176
     0
290
     0
176
     0
290
     0
176
     0
290
     0
176
     0
290
     0
176
     0
290
     0
176
     0
290
     0
176
     0
 90
       50
176
     0
 40
0.0
176
     0
 40
1.0
176
     0
 90
        0
176
     0
 62
    18
420
        0
176
     0
 90
       50
176
     0
 90
        3
176
     0
 62
     5
420
      255
176
     0
290
     0
176
     0
 90
       50
176
     0
 90
       50
176
     0
 90
       50
176
     0
290
     0
176
     0
 90
       50
176
     0
 62
   256
176
     0
 40
1.0
176
     0
 90
        2
176
     0
  1
strokes_ogs.tif
176
     0
290
     0
176
     0
 40
1.0
176
     0
 40
1.0
176
     0
  0
VISUALSTYLE
  5
33
102
{ACAD_REACTORS
330
2A
102
}
330
2A
100
AcDbVisualStyle
  2
Realistic
 70
     8
177
     3
291
     0
 70
    58
 90
        2
176
     1
 90
        3
176
     1
 90
        0
176
     1
 90
        2
176
     1
 40
0.6
176
     1
 40
30.0
176
     1
 62
     7
420
 16777215
176
     1
 90
        0
176
     1
 90
        0
176
     1
 62
     7
176
     1
 62
   257
176
     1
 90
        1
176
     1
 90
        1
176
     1
 40
1.0
176
     1
 90
        8
176
     1
 62
   257
176
     1
 40
1.0
176
     1
 90
        1
176
     1
 90
        6
176
     1
 90
        2
176
     1
 62
     7
176
     1
 90
        3
176
     1
 90
        0
176
     1
 90
        0
176
     1
290
     0
176
     1
 90
       13
176
     1
 40
0.0
176
     1
 90
        0
176
     1
290
     0
176
     1
290
     1
176
     1
290
     1
176
     1
290
     0
176
     1
290
     0
176
     1
290
     0
176
     1
290
     0
176
     1
290
     0
176
     1
290
     0
176
     1
 90
       50
176
     1
 40
0.0
176
     1
 40
1.0
176
     1
 90
        0
176
     1
 62
    18
420
        0
176
     1
 90
       50
176
     1
 90
        3
176
     1
 62
     5
420
      255
176
     1
290
     0
176
     1
 90
       50
176
     1
 90
       50
176
     1
 90
       50
176
     1
290
     0
176
     1
 90
       50
176
     1
 62
   256
176
     0
 40
1.0
176
     0
 90
        2
176
     1
  1
strokes_ogs.tif
176
     1
290
     0
176
     1
 40
1.0
176
     1
 40
1.0
176
     1
  0
VISUALSTYLE
  5
42
102
{ACAD_REACTORS
330
2A
102
}
330
2A
100
AcDbVisualStyle
  2
Shaded
 70
    27
177
     3
291
     0
 70
    58
 90
        2
176
     1
 90
        2
176
     1
 90
        1
176
     1
 90
        2
176
     1
 40
0.6
176
     1
 40
30.0
176
     1
 62
     7
420
 16777215
176
     1
 90
        0
176
     1
 90
        4
176
     1
 62
     7
176
     1
 62
   257
176
     1
 90
        1
176
     1
 90
        1
176
     1
 40
1.0
176
     1
 90
        8
176
     1
 62
   257
176
     1
 40
1.0
176
     1
 90
        1
176
     1
 90
        6
176
     1
 90
        2
176
     1
 62
     8
420
  7895160
176
     1
 90
        3
176
     1
 90
        0
176
     1
 90
        0
176
     1
290
     0
176
     1
 90
        5
176
     1
 40
0.0
176
     1
 90
        0
176
     1
290
     0
176
     1
290
     1
176
     1
290
     1
176
     1
290
     0
176
     1
290
     0
176
     1
290
     0
176
     1
290
     0
176
     1
290
     0
176
     1
290
     0
176
     1
 90
       50
176
     1
 40
0.0
176
     1
 40
1.0
176
     1
 90
        0
176
     1
 62
    18
420
        0
176
     1
 90
       50
176
     1
 90
        3
176
     1
 62
     5
420
      255
176
     1
290
     0
176
     1
 90
       50
176
     1
 90
       50
176
     1
 90
       50
176
     1
290
     0
176
     1
 90
       50
176
     1
 62
   256
176
     0
 40
1.0
176
     0
 90
        2
176
     1
  1
strokes_ogs.tif
176
     1
290
     0
176
     1
 40
1.0
176
     1
 40
1.0
176
     1
  0
VISUALSTYLE
  5
41
102
{ACAD_REACTORS
330
2A
102
}
330
2A
100
AcDbVisualStyle
  2
Shaded with edges
 70
    26
177
     3
291
     0
 70
    58
 90
        2
176
     1
 90
        2
176
     1
 90
        1
176
     1
 90
        2
176
     1
 40
0.6
176
     1
 40
30.0
176
     1
 62
     7
420
 16777215
176
     1
 90
        1
176
     1
 90
       10
176
     1
 62
     7
176
     1
 62
   257
176
     1
 90
        2
176
     1
 90
        1
176
     1
 40
1.0
176
     1
 90
        8
176
     1
 62
   257
176
     1
 40
1.0
176
     1
 90
        1
176
     1
 90
        6
176
     1
 90
        2
176
     1
 62
     7
176
     1
 90
        3
176
     1
 90
        0
176
     1
 90
        0
176
     1
290
     0
176
     1
 90
        5
176
     1
 40
0.0
176
     1
 90
        0
176
     1
290
     0
176
     1
290
     1
176
     1
290
     1
176
     1
290
     0
176
     1
290
     0
176
     1
290
     0
176
     1
290
     0
176
     1
290
     0
176
     1
290
     0
176
     1
 90
       50
176
     1
 40
0.0
176
     1
 40
1.0
176
     1
 90
        0
176
     1
 62
    18
420
        0
176
     1
 90
       50
176
     1
 90
        3
176
     1
 62
     5
420
      255
176
     1
290
     0
176
     1
 90
       50
176
     1
 90
       50
176
     1
 90
       50
176
     1
290
     0
176
     1
 90
       50
176
     1
 62
   256
176
     0
 40
1.0
176
     0
 90
        2
176
     1
  1
strokes_ogs.tif
176
     1
290
     0
176
     1
 40
1.0
176
     1
 40
1.0
176
     1
  0
VISUALSTYLE
  5
3E
102
{ACAD_REACTORS
330
2A
102
}
330
2A
100
AcDbVisualStyle
  2
Shades of Gray
 70
    23
177
     3
291
     0
 70
    58
 90
        2
176
     1
 90
        2
176
     1
 90
        3
176
     1
 90
        0
176
     1
 40
0.6
176
     1
 40
30.0
176
     1
 62
     7
420
 16777215
176
     1
 90
        2
176
     1
 90
        2
176
     1
 62
     7
176
     1
 62
     7
176
     1
 90
        1
176
     1
 90
        1
176
     1
 40
40.0
176
     1
 90
        8
176
     1
 62
     7
176
     1
 40
1.0
176
     1
 90
        1
176
     1
 90
        6
176
     1
 90
        2
176
     1
 62
     7
176
     1
 90
        3
176
     1
 90
        0
176
     1
 90
        0
176
     1
290
     0
176
     1
 90
        1
176
     1
 40
0.0
176
     1
 90
        0
176
     1
290
     0
176
     1
290
     1
176
     1
290
     1
176
     1
290
     0
176
     1
290
     0
176
     1
290
     0
176
     1
290
     0
176
     1
290
     0
176
     1
290
     0
176
     1
 90
       50
176
     1
 40
0.0
176
     1
 40
1.0
176
     1
 90
        0
176
     1
 62
    18
420
        0
176
     1
 90
       50
176
     1
 90
        3
176
     1
 62
     5
420
      255
176
     1
290
     0
176
     1
 90
       50
176
     1
 90
       50
176
     1
 90
       50
176
     1
290
     0
176
     1
 90
       50
176
     1
 62
   256
176
     0
 40
1.0
176
     0
 90
        2
176
     1
  1
strokes_ogs.tif
176
     1
290
     0
176
     1
 40
1.0
176
     1
 40
1.0
176
     1
  0
VISUALSTYLE
  5
3F
102
{ACAD_REACTORS
330
2A
102
}
330
2A
100
AcDbVisualStyle
  2
Sketchy
 70
    24
177
     3
291
     0
 70
    58
 90
        1
176
     1
 90
        2
176
     1
 90
        2
176
     1
 90
        0
176
     1
 40
0.6
176
     1
 40
30.0
176
     1
 62
     7
420
 16777215
176
     1
 90
        2
176
     1
 90
        2
176
     1
 62
     7
176
     1
 62
     7
176
     1
 90
        1
176
     1
 90
        1
176
     1
 40
40.0
176
     1
 90
       11
176
     1
 62
     7
176
     1
 40
1.0
176
     1
 90
        1
176
     1
 90
        6
176
     1
 90
        2
176
     1
 62
     7
176
     1
 90
        6
176
     1
 90
        0
176
     1
 90
        0
176
     1
290
     0
176
     1
 90
        1
176
     1
 40
0.0
176
     1
 90
        0
176
     1
290
     0
176
     1
290
     1
176
     1
290
     1
176
     1
290
     0
176
     1
290
     0
176
     1
290
     0
176
     1
290
     0
176
     1
290
     0
176
     1
290
     0
176
     1
 90
       50
176
     1
 40
0.0
176
     1
 40
1.0
176
     1
 90
        0
176
     1
 62
    18
420
        0
176
     1
 90
       50
176
     1
 90
        3
176
     1
 62
     5
420
      255
176
     1
290
     0
176
     1
 90
       50
176
     1
 90
       50
176
     1
 90
       50
176
     1
290
     0
176
     1
 90
       50
176
     1
 62
   256
176
     0
 40
1.0
176
     0
 90
        2
176
     1
  1
strokes_ogs.tif
176
     1
290
     0
176
     1
 40
1.0
176
     1
 40
1.0
176
     1
  0
VISUALSTYLE
  5
37
102
{ACAD_REACTORS
330
2A
102
}
330
2A
100
AcDbVisualStyle
  2
Thicken
 70
    13
177
     3
291
     1
 70
    58
 90
        2
176
     1
 90
        2
176
     1
 90
        0
176
     1
 90
        0
176
     1
 40
0.6
176
     1
 40
30.0
176
     1
 62
     7
420
 16777215
176
     1
 90
        1
176
     1
 90
        4
176
     1
 62
     7
176
     1
 62
   257
176
     1
 90
        1
176
     1
 90
        1
176
     1
 40
1.0
176
     1
 90
       12
176
     1
 62
     7
176
     1
 40
1.0
176
     1
 90
        1
176
     1
 90
        6
176
     1
 90
        2
176
     1
 62
     7
176
     1
 90
        5
176
     1
 90
        0
176
     1
 90
        0
176
     1
290
     0
176
     1
 90
        1
176
     1
 40
0.0
176
     1
 90
        0
176
     1
290
     0
176
     1
290
     1
176
     1
290
     1
176
     1
290
     0
176
     1
290
     0
176
     1
290
     0
176
     1
290
     0
176
     1
290
     0
176
     1
290
     0
176
     1
 90
       50
176
     1
 40
0.0
176
     1
 40
1.0
176
     1
 90
        0
176
     1
 62
    18
420
        0
176
     1
 90
       50
176
     1
 90
        3
176
     1
 62
     5
420
      255
176
     1
290
     0
176
     1
 90
       50
176
     1
 90
       50
176
     1
 90
       50
176
     1
290
     0
176
     1
 90
       50
176
     1
 62
   256
176
     0
 40
1.0
176
     0
 90
        2
176
     1
  1
strokes_ogs.tif
176
     1
290
     0
176
     1
 40
1.0
176
     1
 40
1.0
176
     1
  0
VISUALSTYLE
  5
30
102
{ACAD_REACTORS
330
2A
102
}
330
2A
100
AcDbVisualStyle
  2
Wireframe
 70
     5
177
     3
291
     0
 70
    58
 90
        0
176
     1
 90
        2
176
     1
 90
        0
176
     1
 90
        0
176
     1
 40
0.6
176
     1
 40
30.0
176
     1
 62
     7
420
 16777215
176
     1
 90
        1
176
     1
 90
        4
176
     1
 62
     7
176
     1
 62
   257
176
     1
 90
        1
176
     1
 90
        1
176
     1
 40
1.0
176
     1
 90
        0
176
     1
 62
   257
176
     1
 40
1.0
176
     1
 90
        1
176
     1
 90
        6
176
     1
 90
        2
176
     1
 62
     7
176
     1
 90
        3
176
     1
 90
        0
176
     1
 90
        0
176
     1
290
     0
176
     1
 90
        1
176
     1
 40
0.0
176
     1
 90
        0
176
     1
290
     0
176
     1
290
     1
176
     1
290
     1
176
     1
290
     0
176
     1
290
     0
176
     1
290
     0
176
     1
290
     0
176
     1
290
     0
176
     1
290
     0
176
     1
 90
       50
176
     1
 40
0.0
176
     1
 40
1.0
176
     1
 90
        0
176
     1
 62
    18
420
        0
176
     1
 90
       50
176
     1
 90
        3
176
     1
 62
     5
420
      255
176
     1
290
     0
176
     1
 90
       50
176
     1
 90
       50
176
     1
 90
       50
176
     1
290
     0
176
     1
 90
       50
176
     1
 62
   256
176
     0
 40
1.0
176
     0
 90
        2
176
     1
  1
strokes_ogs.tif
176
     1
290
     0
176
     1
 40
1.0
176
     1
 40
1.0
176
     1
  0
VISUALSTYLE
  5
40
102
{ACAD_REACTORS
330
2A
102
}
330
2A
100
AcDbVisualStyle
  2
X-Ray
 70
    25
177
     3
291
     0
 70
    58
 90
        2
176
     1
 90
        2
176
     1
 90
        1
176
     1
 90
        1
176
     1
 40
0.5
176
     1
 40
30.0
176
     1
 62
     7
420
 16777215
176
     1
 90
        1
176
     1
 90
        0
176
     1
 62
     7
176
     1
 62
   257
176
     1
 90
        1
176
     1
 90
        1
176
     1
 40
1.0
176
     1
 90
        8
176
     1
 62
     7
176
     1
 40
1.0
176
     1
 90
        1
176
     1
 90
        6
176
     1
 90
        2
176
     1
 62
     7
176
     1
 90
        3
176
     1
 90
        0
176
     1
 90
        0
176
     1
290
     0
176
     1
 90
       13
176
     1
 40
0.0
176
     1
 90
        0
176
     1
290
     0
176
     1
290
     1
176
     1
290
     1
176
     1
290
     0
176
     1
290
     0
176
     1
290
     0
176
     1
290
     0
176
     1
290
     0
176
     1
290
     0
176
     1
 90
       50
176
     1
 40
0.0
176
     1
 40
1.0
176
     1
 90
        0
176
     1
 62
    18
420
        0
176
     1
 90
       50
176
     1
 90
        3
176
     1
 62
     5
420
      255
176
     1
290
     0
176
     1
 90
       50
176
     1
 90
       50
176
     1
 90
       50
176
     1
290
     0
176
     1
 90
       50
176
     1
 62
   256
176
     0
 40
1.0
176
     0
 90
        2
176
     1
  1
strokes_ogs.tif
176
     1
290
     0
176
     1
 40
1.0
176
     1
 40
1.0
176
     1
  0
DICTIONARYVAR
  5
1B2
102
{ACAD_REACTORS
330
1B1
102
}
330
1B1
100
DictionaryVariables
280
     0
  1
1:1
  0
DICTIONARYVAR
  5
1B7
102
{ACAD_REACTORS
330
1B1
102
}
330
1B1
100
DictionaryVariables
280
     0
  1
Standard
  0
DICTIONARYVAR
  5
1B6
102
{ACAD_REACTORS
330
1B1
102
}
330
1B1
100
DictionaryVariables
280
     0
  1
Standard
  0
DICTIONARY
  5
1B3
330
6A
100
AcDbDictionary
280
     1
281
     1
  3
ACAD_ROUNDTRIP_2008_TABLESTYLE_CELLSTYLEMAP
360
1B4
  0
CELLSTYLEMAP
  5
1B4
102
{ACAD_REACTORS
330
1B3
102
}
330
1B3
100
AcDbCellStyleMap
 90
        3
300
CELLSTYLE
  1
TABLEFORMAT_BEGIN
 90
        5
170
     1
 91
        0
 92
    32768
 62
   257
 93
        1
300
CONTENTFORMAT
  1
CONTENTFORMAT_BEGIN
 90
        0
 91
        0
 92
        4
 93
        0
300

 40
0.0
140
1.0
 94
        5
 62
     0
340
11
144
0.25
309
CONTENTFORMAT_END
171
     1
301
MARGIN
  1
CELLMARGIN_BEGIN
 40
0.06
 40
0.06
 40
0.06
 40
0.06
 40
0.06
 40
0.06
309
CELLMARGIN_END
 94
        6
 95
        1
302
GRIDFORMAT
  1
GRIDFORMAT_BEGIN
 90
        0
 91
        1
 62
     0
 92
       -2
340
14
 93
        0
 40
0.045
309
GRIDFORMAT_END
 95
        2
302
GRIDFORMAT
  1
GRIDFORMAT_BEGIN
 90
        0
 91
        1
 62
     0
 92
       -2
340
14
 93
        0
 40
0.045
309
GRIDFORMAT_END
 95
        4
302
GRIDFORMAT
  1
GRIDFORMAT_BEGIN
 90
        0
 91
        1
 62
     0
 92
       -2
340
14
 93
        0
 40
0.045
309
GRIDFORMAT_END
 95
        8
302
GRIDFORMAT
  1
GRIDFORMAT_BEGIN
 90
        0
 91
        1
 62
     0
 92
       -2
340
14
 93
        0
 40
0.045
309
GRIDFORMAT_END
 95
       16
302
GRIDFORMAT
  1
GRIDFORMAT_BEGIN
 90
        0
 91
        1
 62
     0
 92
       -2
340
14
 93
        0
 40
0.045
309
GRIDFORMAT_END
 95
       32
302
GRIDFORMAT
  1
GRIDFORMAT_BEGIN
 90
        0
 91
        1
 62
     0
 92
       -2
340
14
 93
        0
 40
0.045
309
GRIDFORMAT_END
309
TABLEFORMAT_END
  1
CELLSTYLE_BEGIN
 90
        1
 91
        1
300
_TITLE
309
CELLSTYLE_END
300
CELLSTYLE
  1
TABLEFORMAT_BEGIN
 90
        5
170
     1
 91
        0
 92
        0
 62
   257
 93
        1
300
CONTENTFORMAT
  1
CONTENTFORMAT_BEGIN
 90
        0
 91
        0
 92
        4
 93
        0
300

 40
0.0
140
1.0
 94
        5
 62
     0
340
11
144
0.18
309
CONTENTFORMAT_END
171
     1
301
MARGIN
  1
CELLMARGIN_BEGIN
 40
0.06
 40
0.06
 40
0.06
 40
0.06
 40
0.06
 40
0.06
309
CELLMARGIN_END
 94
        6
 95
        1
302
GRIDFORMAT
  1
GRIDFORMAT_BEGIN
 90
        0
 91
        1
 62
     0
 92
       -2
340
14
 93
        0
 40
0.045
309
GRIDFORMAT_END
 95
        2
302
GRIDFORMAT
  1
GRIDFORMAT_BEGIN
 90
        0
 91
        1
 62
     0
 92
       -2
340
14
 93
        0
 40
0.045
309
GRIDFORMAT_END
 95
        4
302
GRIDFORMAT
  1
GRIDFORMAT_BEGIN
 90
        0
 91
        1
 62
     0
 92
       -2
340
14
 93
        0
 40
0.045
309
GRIDFORMAT_END
 95
        8
302
GRIDFORMAT
  1
GRIDFORMAT_BEGIN
 90
        0
 91
        1
 62
     0
 92
       -2
340
14
 93
        0
 40
0.045
309
GRIDFORMAT_END
 95
       16
302
GRIDFORMAT
  1
GRIDFORMAT_BEGIN
 90
        0
 91
        1
 62
     0
 92
       -2
340
14
 93
        0
 40
0.045
309
GRIDFORMAT_END
 95
       32
302
GRIDFORMAT
  1
GRIDFORMAT_BEGIN
 90
        0
 91
        1
 62
     0
 92
       -2
340
14
 93
        0
 40
0.045
309
GRIDFORMAT_END
309
TABLEFORMAT_END
  1
CELLSTYLE_BEGIN
 90
        2
 91
        1
300
_HEADER
309
CELLSTYLE_END
300
CELLSTYLE
  1
TABLEFORMAT_BEGIN
 90
        5
170
     1
 91
        0
 92
        0
 62
   257
 93
        1
300
CONTENTFORMAT
  1
CONTENTFORMAT_BEGIN
 90
        0
 91
        0
 92
        4
 93
        0
300

 40
0.0
140
1.0
 94
        2
 62
     0
340
11
144
0.18
309
CONTENTFORMAT_END
171
     1
301
MARGIN
  1
CELLMARGIN_BEGIN
 40
0.06
 40
0.06
 40
0.06
 40
0.06
 40
0.06
 40
0.06
309
CELLMARGIN_END
 94
        6
 95
        1
302
GRIDFORMAT
  1
GRIDFORMAT_BEGIN
 90
        0
 91
        1
 62
     0
 92
       -2
340
14
 93
        0
 40
0.045
309
GRIDFORMAT_END
 95
        2
302
GRIDFORMAT
  1
GRIDFORMAT_BEGIN
 90
        0
 91
        1
 62
     0
 92
       -2
340
14
 93
        0
 40
0.045
309
GRIDFORMAT_END
 95
        4
302
GRIDFORMAT
  1
GRIDFORMAT_BEGIN
 90
        0
 91
        1
 62
     0
 92
       -2
340
14
 93
        0
 40
0.045
309
GRIDFORMAT_END
 95
        8
302
GRIDFORMAT
  1
GRIDFORMAT_BEGIN
 90
        0
 91
        1
 62
     0
 92
       -2
340
14
 93
        0
 40
0.045
309
GRIDFORMAT_END
 95
       16
302
GRIDFORMAT
  1
GRIDFORMAT_BEGIN
 90
        0
 91
        1
 62
     0
 92
       -2
340
14
 93
        0
 40
0.045
309
GRIDFORMAT_END
 95
       32
302
GRIDFORMAT
  1
GRIDFORMAT_BEGIN
 90
        0
 91
        1
 62
     0
 92
       -2
340
14
 93
        0
 40
0.045
309
GRIDFORMAT_END
309
TABLEFORMAT_END
  1
CELLSTYLE_BEGIN
 90
        3
 91
        2
300
_DATA
309
CELLSTYLE_END
  0
ENDSEC
  0
EOF