0
SECTION
  2
HEADER
  9
$ACADVER
  1
AC1027
  9
$ACADMAINTVER
 70
     8
  9
$DWGCODEPAGE
  3
ANSI_1252
  9
$REQUIREDVERSIONS
160
                 0
  9
$COMMENTS
  1
File was created by Cadenas
  9
$CUSTOMPROPERTYTAG
  1
NN
  9
$CUSTOMPROPERTY
  1
Grip Tight Two-Bolt Pillow Block Inch Bore
  9
$CUSTOMPROPERTYTAG
  1
NT
  9
$CUSTOMPROPERTY
  1
GT Normal Duty Pillow Blocks
  9
$CUSTOMPROPERTYTAG
  1
NB
  9
$CUSTOMPROPERTY
  1
129154
  9
$CUSTOMPROPERTYTAG
  1
NBSYN
  9
$CUSTOMPROPERTY
  1
$PN.$LUBE.
  9
$CUSTOMPROPERTYTAG
  1
LINA
  9
$CUSTOMPROPERTY
  1
129154
  9
$CUSTOMPROPERTYTAG
  1
SERIES
  9
$CUSTOMPROPERTY
  1
204
  9
$CUSTOMPROPERTYTAG
  1
SS
  9
$CUSTOMPROPERTY
  1
3/4
  9
$CUSTOMPROPERTYTAG
  1
PN
  9
$CUSTOMPROPERTY
  1
129154
  9
$CUSTOMPROPERTYTAG
  1
DESCRIPTION
  9
$CUSTOMPROPERTY
  1
P2B-GT-012
  9
$CUSTOMPROPERTYTAG
  1
A
  9
$CUSTOMPROPERTY
  1
1-15/32
  9
$CUSTOMPROPERTYTAG
  1
B
  9
$CUSTOMPROPERTY
  1
5-1/4
  9
$CUSTOMPROPERTYTAG
  1
C
  9
$CUSTOMPROPERTY
  1
1-21/64
  9
$CUSTOMPROPERTYTAG
  1
DMIN
  9
$CUSTOMPROPERTY
  1
3-3/8
  9
$CUSTOMPROPERTYTAG
  1
DMAX
  9
$CUSTOMPROPERTY
  1
4-3/16
  9
$CUSTOMPROPERTYTAG
  1
F
  9
$CUSTOMPROPERTY
  1
3/8
  9
$CUSTOMPROPERTYTAG
  1
G
  9
$CUSTOMPROPERTY
  1
27/32
  9
$CUSTOMPROPERTYTAG
  1
H
  9
$CUSTOMPROPERTY
  1
33/64
  9
$CUSTOMPROPERTYTAG
  1
J
  9
$CUSTOMPROPERTY
  1
2-35/64
  9
$CUSTOMPROPERTYTAG
  1
L
  9
$CUSTOMPROPERTY
  1
1-1/2
  9
$CUSTOMPROPERTYTAG
  1
M
  9
$CUSTOMPROPERTY
  1
1-5/16
  9
$CUSTOMPROPERTYTAG
  1
R
  9
$CUSTOMPROPERTY
  1
31/64
  9
$CUSTOMPROPERTYTAG
  1
S
  9
$CUSTOMPROPERTY
  1
63/64
  9
$CUSTOMPROPERTYTAG
  1
U
  9
$CUSTOMPROPERTY
  1
2-1/4
  9
$CUSTOMPROPERTYTAG
  1
V
  9
$CUSTOMPROPERTY
  1
4-1/2
  9
$CUSTOMPROPERTYTAG
  1
W
  9
$CUSTOMPROPERTY
  1
1/2
  9
$CUSTOMPROPERTYTAG
  1
X
  9
$CUSTOMPROPERTY
  1
1/8
  9
$CUSTOMPROPERTYTAG
  1
Z
  9
$CUSTOMPROPERTY
  1
63/64
  9
$CUSTOMPROPERTYTAG
  1
COMPANY
  9
$CUSTOMPROPERTY
  1
baldor
  9
$INSBASE
 10
0.0
 20
0.0
 30
0.0
  9
$EXTMIN
 10
1.000000000000000E+20
 20
1.000000000000000E+20
 30
1.000000000000000E+20
  9
$EXTMAX
 10
-1.000000000000000E+20
 20
-1.000000000000000E+20
 30
-1.000000000000000E+20
  9
$LIMMIN
 10
0.0
 20
0.0
  9
$LIMMAX
 10
12.0
 20
9.0
  9
$ORTHOMODE
 70
     0
  9
$REGENMODE
 70
     1
  9
$FILLMODE
 70
     1
  9
$QTEXTMODE
 70
     0
  9
$MIRRTEXT
 70
     1
  9
$LTSCALE
 40
1.0
  9
$ATTMODE
 70
     1
  9
$TEXTSIZE
 40
0.2
  9
$TRACEWID
 40
0.05
  9
$TEXTSTYLE
  7
Standard
  9
$CLAYER
  8
0
  9
$CELTYPE
  6
ByLayer
  9
$CECOLOR
 62
   256
  9
$CELTSCALE
 40
1.0
  9
$DISPSILH
 70
     0
  9
$DIMSCALE
 40
1.0
  9
$DIMASZ
 40
0.18
  9
$DIMEXO
 40
0.0625
  9
$DIMDLI
 40
0.38
  9
$DIMRND
 40
0.0
  9
$DIMDLE
 40
0.0
  9
$DIMEXE
 40
0.18
  9
$DIMTP
 40
0.0
  9
$DIMTM
 40
0.0
  9
$DIMTXT
 40
0.18
  9
$DIMCEN
 40
0.09
  9
$DIMTSZ
 40
0.0
  9
$DIMTOL
 70
     0
  9
$DIMLIM
 70
     0
  9
$DIMTIH
 70
     1
  9
$DIMTOH
 70
     1
  9
$DIMSE1
 70
     0
  9
$DIMSE2
 70
     0
  9
$DIMTAD
 70
     0
  9
$DIMZIN
 70
     0
  9
$DIMBLK
  1

  9
$DIMASO
 70
     1
  9
$DIMSHO
 70
     1
  9
$DIMPOST
  1

  9
$DIMAPOST
  1

  9
$DIMALT
 70
     0
  9
$DIMALTD
 70
     2
  9
$DIMALTF
 40
25.4
  9
$DIMLFAC
 40
1.0
  9
$DIMTOFL
 70
     0
  9
$DIMTVP
 40
0.0
  9
$DIMTIX
 70
     0
  9
$DIMSOXD
 70
     0
  9
$DIMSAH
 70
     0
  9
$DIMBLK1
  1

  9
$DIMBLK2
  1

  9
$DIMSTYLE
  2
Standard
  9
$DIMCLRD
 70
     0
  9
$DIMCLRE
 70
     0
  9
$DIMCLRT
 70
     0
  9
$DIMTFAC
 40
1.0
  9
$DIMGAP
 40
0.09
  9
$DIMJUST
 70
     0
  9
$DIMSD1
 70
     0
  9
$DIMSD2
 70
     0
  9
$DIMTOLJ
 70
     1
  9
$DIMTZIN
 70
     0
  9
$DIMALTZ
 70
     0
  9
$DIMALTTZ
 70
     0
  9
$DIMUPT
 70
     0
  9
$DIMDEC
 70
     4
  9
$DIMTDEC
 70
     4
  9
$DIMALTU
 70
     2
  9
$DIMALTTD
 70
     2
  9
$DIMTXSTY
  7
Standard
  9
$DIMAUNIT
 70
     0
  9
$DIMADEC
 70
     0
  9
$DIMALTRND
 40
0.0
  9
$DIMAZIN
 70
     0
  9
$DIMDSEP
 70
    46
  9
$DIMATFIT
 70
     3
  9
$DIMFRAC
 70
     0
  9
$DIMLDRBLK
  1

  9
$DIMLUNIT
 70
     2
  9
$DIMLWD
 70
    -2
  9
$DIMLWE
 70
    -2
  9
$DIMTMOVE
 70
     0
  9
$DIMFXL
 40
1.0
  9
$DIMFXLON
 70
     0
  9
$DIMJOGANG
 40
0.7853981633974483
  9
$DIMTFILL
 70
     0
  9
$DIMTFILLCLR
 70
     0
  9
$DIMARCSYM
 70
     0
  9
$DIMLTYPE
  6

  9
$DIMLTEX1
  6

  9
$DIMLTEX2
  6

  9
$DIMTXTDIRECTION
 70
     0
  9
$LUNITS
 70
     2
  9
$LUPREC
 70
     4
  9
$SKETCHINC
 40
0.1
  9
$FILLETRAD
 40
0.5
  9
$AUNITS
 70
     0
  9
$AUPREC
 70
     0
  9
$MENU
  1
.
  9
$ELEVATION
 40
0.0
  9
$PELEVATION
 40
0.0
  9
$THICKNESS
 40
0.0
  9
$LIMCHECK
 70
     0
  9
$CHAMFERA
 40
0.0
  9
$CHAMFERB
 40
0.0
  9
$CHAMFERC
 40
0.0
  9
$CHAMFERD
 40
0.0
  9
$SKPOLY
 70
     0
  9
$TDCREATE
 40
2458168.99430029
  9
$TDUCREATE
 40
2458168.952633623
  9
$TDUPDATE
 40
2458168.994300648
  9
$TDUUPDATE
 40
2458168.952633982
  9
$TDINDWG
 40
0.0000000116
  9
$TDUSRTIMER
 40
0.0000000116
  9
$USRTIMER
 70
     1
  9
$ANGBASE
 50
0.0
  9
$ANGDIR
 70
     0
  9
$PDMODE
 70
     0
  9
$PDSIZE
 40
0.0
  9
$PLINEWID
 40
0.0
  9
$SPLFRAME
 70
     0
  9
$SPLINETYPE
 70
     6
  9
$SPLINESEGS
 70
     8
  9
$HANDSEED
  5
281
  9
$SURFTAB1
 70
     6
  9
$SURFTAB2
 70
     6
  9
$SURFTYPE
 70
     6
  9
$SURFU
 70
     6
  9
$SURFV
 70
     6
  9
$UCSBASE
  2

  9
$UCSNAME
  2

  9
$UCSORG
 10
0.0
 20
0.0
 30
0.0
  9
$UCSXDIR
 10
1.0
 20
0.0
 30
0.0
  9
$UCSYDIR
 10
0.0
 20
1.0
 30
0.0
  9
$UCSORTHOREF
  2

  9
$UCSORTHOVIEW
 70
     0
  9
$UCSORGTOP
 10
0.0
 20
0.0
 30
0.0
  9
$UCSORGBOTTOM
 10
0.0
 20
0.0
 30
0.0
  9
$UCSORGLEFT
 10
0.0
 20
0.0
 30
0.0
  9
$UCSORGRIGHT
 10
0.0
 20
0.0
 30
0.0
  9
$UCSORGFRONT
 10
0.0
 20
0.0
 30
0.0
  9
$UCSORGBACK
 10
0.0
 20
0.0
 30
0.0
  9
$PUCSBASE
  2

  9
$PUCSNAME
  2

  9
$PUCSORG
 10
0.0
 20
0.0
 30
0.0
  9
$PUCSXDIR
 10
1.0
 20
0.0
 30
0.0
  9
$PUCSYDIR
 10
0.0
 20
1.0
 30
0.0
  9
$PUCSORTHOREF
  2

  9
$PUCSORTHOVIEW
 70
     0
  9
$PUCSORGTOP
 10
0.0
 20
0.0
 30
0.0
  9
$PUCSORGBOTTOM
 10
0.0
 20
0.0
 30
0.0
  9
$PUCSORGLEFT
 10
0.0
 20
0.0
 30
0.0
  9
$PUCSORGRIGHT
 10
0.0
 20
0.0
 30
0.0
  9
$PUCSORGFRONT
 10
0.0
 20
0.0
 30
0.0
  9
$PUCSORGBACK
 10
0.0
 20
0.0
 30
0.0
  9
$USERI1
 70
     0
  9
$USERI2
 70
     0
  9
$USERI3
 70
     0
  9
$USERI4
 70
     0
  9
$USERI5
 70
     0
  9
$USERR1
 40
0.0
  9
$USERR2
 40
0.0
  9
$USERR3
 40
0.0
  9
$USERR4
 40
0.0
  9
$USERR5
 40
0.0
  9
$WORLDVIEW
 70
     1
  9
$SHADEDGE
 70
     3
  9
$SHADEDIF
 70
    70
  9
$TILEMODE
 70
     1
  9
$MAXACTVP
 70
    64
  9
$PINSBASE
 10
0.0
 20
0.0
 30
0.0
  9
$PLIMCHECK
 70
     0
  9
$PEXTMIN
 10
1.000000000000000E+20
 20
1.000000000000000E+20
 30
1.000000000000000E+20
  9
$PEXTMAX
 10
-1.000000000000000E+20
 20
-1.000000000000000E+20
 30
-1.000000000000000E+20
  9
$PLIMMIN
 10
0.0
 20
0.0
  9
$PLIMMAX
 10
12.0
 20
9.0
  9
$UNITMODE
 70
     0
  9
$VISRETAIN
 70
     1
  9
$PLINEGEN
 70
     0
  9
$PSLTSCALE
 70
     1
  9
$TREEDEPTH
 70
  3020
  9
$CMLSTYLE
  2
Standard
  9
$CMLJUST
 70
     0
  9
$CMLSCALE
 40
1.0
  9
$PROXYGRAPHICS
 70
     1
  9
$MEASUREMENT
 70
     0
  9
$CELWEIGHT
370
    -1
  9
$ENDCAPS
280
     0
  9
$JOINSTYLE
280
     0
  9
$LWDISPLAY
290
     0
  9
$INSUNITS
 70
     1
  9
$HYPERLINKBASE
  1

  9
$STYLESHEET
  1

  9
$XEDIT
290
     1
  9
$CEPSNTYPE
380
     0
  9
$PSTYLEMODE
290
     1
  9
$FINGERPRINTGUID
  2
{0FD67208-6473-4D17-AC18-C5A98A71A005}
  9
$VERSIONGUID
  2
{FAEB1C32-E019-11D5-929B-00C0DF256EC4}
  9
$EXTNAMES
290
     1
  9
$PSVPSCALE
 40
0.0
  9
$OLESTARTUP
290
     0
  9
$SORTENTS
280
   127
  9
$INDEXCTL
280
     0
  9
$HIDETEXT
280
     1
  9
$XCLIPFRAME
280
     2
  9
$HALOGAP
280
     0
  9
$OBSCOLOR
 70
   257
  9
$OBSLTYPE
280
     0
  9
$INTERSECTIONDISPLAY
280
     0
  9
$INTERSECTIONCOLOR
 70
   257
  9
$DIMASSOC
280
     2
  9
$PROJECTNAME
  1

  9
$CAMERADISPLAY
290
     0
  9
$LENSLENGTH
 40
50.0
  9
$CAMERAHEIGHT
 40
0.0
  9
$STEPSPERSEC
 40
2.0
  9
$STEPSIZE
 40
6.0
  9
$3DDWFPREC
 40
2.0
  9
$PSOLWIDTH
 40
0.25
  9
$PSOLHEIGHT
 40
4.0
  9
$LOFTANG1
 40
1.570796326794897
  9
$LOFTANG2
 40
1.570796326794897
  9
$LOFTMAG1
 40
0.0
  9
$LOFTMAG2
 40
0.0
  9
$LOFTPARAM
 70
     7
  9
$LOFTNORMALS
280
     1
  9
$LATITUDE
 40
37.795
  9
$LONGITUDE
 40
-122.394
  9
$NORTHDIRECTION
 40
0.0
  9
$TIMEZONE
 70
 -8000
  9
$LIGHTGLYPHDISPLAY
280
     1
  9
$TILEMODELIGHTSYNCH
280
     1
  9
$CMATERIAL
347
44
  9
$SOLIDHIST
280
     0
  9
$SHOWHIST
280
     1
  9
$DWFFRAME
280
     2
  9
$DGNFRAME
280
     2
  9
$REALWORLDSCALE
290
     1
  9
$INTERFERECOLOR
 62
   256
  9
$CSHADOW
280
     0
  9
$SHADOWPLANELOCATION
 40
0.0
  0
ENDSEC
  0
SECTION
  2
CLASSES
  0
CLASS
  1
ACDBDICTIONARYWDFLT
  2
AcDbDictionaryWithDefault
  3
ObjectDBX Classes
 90
        0
 91
        4
280
     0
281
     0
  0
CLASS
  1
VISUALSTYLE
  2
AcDbVisualStyle
  3
ObjectDBX Classes
 90
     4095
 91
        4
280
     0
281
     0
  0
CLASS
  1
MATERIAL
  2
AcDbMaterial
  3
ObjectDBX Classes
 90
     1153
 91
        4
280
     0
281
     0
  0
CLASS
  1
SCALE
  2
AcDbScale
  3
ObjectDBX Classes
 90
     1153
 91
        4
280
     0
281
     0
  0
CLASS
  1
TABLESTYLE
  2
AcDbTableStyle
  3
ObjectDBX Classes
 90
     4095
 91
        4
280
     0
281
     0
  0
CLASS
  1
MLEADERSTYLE
  2
AcDbMLeaderStyle
  3
ACDB_MLEADERSTYLE_CLASS
 90
     4095
 91
        4
280
     0
281
     0
  0
CLASS
  1
SUN
  2
AcDbSun
  3
SCENEOE
 90
     1153
 91
        4
280
     0
281
     0
  0
CLASS
  1
DICTIONARYVAR
  2
AcDbDictionaryVar
  3
ObjectDBX Classes
 90
        0
 91
        4
280
     0
281
     0
  0
CLASS
  1
CELLSTYLEMAP
  2
AcDbCellStyleMap
  3
ObjectDBX Classes
 90
     1152
 91
        4
280
     0
281
     0
  0
ENDSEC
  0
SECTION
  2
TABLES
  0
TABLE
  2
VPORT
  5
8
330
0
100
AcDbSymbolTable
 70
     1
  0
VPORT
  5
29
330
8
100
AcDbSymbolTableRecord
100
AcDbViewportTableRecord
  2
*Active
 70
     0
 10
0.0
 20
0.0
 11
1.0
 21
1.0
 12
0.0
 22
-0.1636718750000004
 13
0.0
 23
0.0
 14
0.5
 24
0.5
 15
0.5
 25
0.5
 16
0.0
 26
0.0
 36
1.0
 17
0.0
 27
0.0
 37
0.0
 40
1.824046875
 41
2.935779816513761
 42
50.0
 43
0.0
 44
0.0
 50
0.0
 51
0.0
 71
     0
 72
   100
 73
     1
 74
     3
 75
     0
 76
     0
 77
     0
 78
     0
281
     0
 65
     1
110
0.0
120
0.0
130
0.0
111
1.0
121
0.0
131
0.0
112
0.0
122
1.0
132
0.0
 79
     0
146
0.0
348
2F
 60
     3
 61
     5
292
     1
282
     1
141
0.0
142
0.0
 63
   250
361
6D
  0
ENDTAB
  0
TABLE
  2
LTYPE
  5
5
330
0
100
AcDbSymbolTable
 70
     3
  0
LTYPE
  5
14
330
5
100
AcDbSymbolTableRecord
100
AcDbLinetypeTableRecord
  2
ByBlock
 70
     0
  3

 72
    65
 73
     0
 40
0.0
  0
LTYPE
  5
15
330
5
100
AcDbSymbolTableRecord
100
AcDbLinetypeTableRecord
  2
ByLayer
 70
     0
  3

 72
    65
 73
     0
 40
0.0
  0
LTYPE
  5
16
330
5
100
AcDbSymbolTableRecord
100
AcDbLinetypeTableRecord
  2
Continuous
 70
     0
  3
Solid line
 72
    65
 73
     0
 40
0.0
  0
LTYPE
  5
A5
330
5
100
AcDbSymbolTableRecord
100
AcDbLinetypeTableRecord
  2
Dashed
 70
     0
  3

 72
    65
 73
     2
 40
2.0
 49
1.0
 74
     0
 49
-1.0
 74
     0
  0
LTYPE
  5
112
330
5
100
AcDbSymbolTableRecord
100
AcDbLinetypeTableRecord
  2
Center
 70
     0
  3

 72
    65
 73
     4
 40
1.5
 49
0.45
 74
     0
 49
-0.5
 74
     0
 49
0.05
 74
     0
 49
-0.5
 74
     0
  0
ENDTAB
  0
TABLE
  2
LAYER
  5
2
330
0
100
AcDbSymbolTable
 70
     7
  0
LAYER
  5
10
330
2
100
AcDbSymbolTableRecord
100
AcDbLayerTableRecord
  2
0
 70
     0
 62
     7
  6
Continuous
370
    -3
390
F
347
46
348
0
  0
LAYER
  5
72
330
2
100
AcDbSymbolTableRecord
100
AcDbLayerTableRecord
  2
AM_6
 70
     0
 62
    -2
  6
Continuous
370
    35
390
F
347
46
348
0
  0
LAYER
  5
A6
330
2
100
AcDbSymbolTableRecord
100
AcDbLayerTableRecord
  2
AM_9
 70
     0
 62
     6
  6
Dashed
370
    25
390
F
347
46
348
0
  0
LAYER
  5
110
330
2
100
AcDbSymbolTableRecord
100
AcDbLayerTableRecord
  2
AM_5
 70
     0
 62
     3
  6
Continuous
370
    25
390
F
347
46
348
0
  0
LAYER
  5
113
330
2
100
AcDbSymbolTableRecord
100
AcDbLayerTableRecord
  2
AM_7
 70
     0
 62
     7
  6
Center
370
    25
390
F
347
46
348
0
  0
LAYER
  5
115
330
2
100
AcDbSymbolTableRecord
100
AcDbLayerTableRecord
  2
AM_4
 70
     0
 62
     7
  6
Continuous
370
    50
390
F
347
46
348
0
  0
LAYER
  5
273
330
2
100
AcDbSymbolTableRecord
100
AcDbLayerTableRecord
  2
ConnectionPoints
 70
     0
 62
     7
  6
Continuous
370
    50
390
F
347
46
348
0
  0
ENDTAB
  0
TABLE
  2
STYLE
  5
3
330
0
100
AcDbSymbolTable
 70
     1
  0
STYLE
  5
11
330
3
100
AcDbSymbolTableRecord
100
AcDbTextStyleTableRecord
  2
Standard
 70
     0
 40
0.0
 41
1.0
 50
0.0
 71
     0
 42
0.2
  3
txt
  4

  0
ENDTAB
  0
TABLE
  2
VIEW
  5
6
330
0
100
AcDbSymbolTable
 70
     0
  0
ENDTAB
  0
TABLE
  2
UCS
  5
7
330
0
100
AcDbSymbolTable
 70
     0
  0
ENDTAB
  0
TABLE
  2
APPID
  5
9
330
0
100
AcDbSymbolTable
 70
     1
  0
APPID
  5
12
330
9
100
AcDbSymbolTableRecord
100
AcDbRegAppTableRecord
  2
ACAD
 70
     0
  0
ENDTAB
  0
TABLE
  2
DIMSTYLE
  5
A
330
0
100
AcDbSymbolTable
 70
     1
100
AcDbDimStyleTable
  0
DIMSTYLE
105
27
330
A
100
AcDbSymbolTableRecord
100
AcDbDimStyleTableRecord
  2
Standard
 70
     0
178
     0
340
11
  0
ENDTAB
  0
TABLE
  2
BLOCK_RECORD
  5
1
330
0
100
AcDbSymbolTable
 70
     5
  0
BLOCK_RECORD
  5
1F
330
1
100
AcDbSymbolTableRecord
100
AcDbBlockTableRecord
  2
*Model_Space
340
22
 70
     0
280
     1
281
     0
  0
BLOCK_RECORD
  5
1B
330
1
100
AcDbSymbolTableRecord
100
AcDbBlockTableRecord
  2
*Paper_Space
340
1E
 70
     0
280
     1
281
     0
  0
BLOCK_RECORD
  5
23
330
1
100
AcDbSymbolTableRecord
100
AcDbBlockTableRecord
  2
*Paper_Space0
340
26
 70
     0
280
     1
281
     0
  0
BLOCK_RECORD
  5
6E
330
1
100
AcDbSymbolTableRecord
100
AcDbBlockTableRecord
  2
1_129154_4
340
0
102
{BLKREFS
331
6F
102
}
 70
     0
280
     1
281
     0
  0
BLOCK_RECORD
  5
8F
330
1
100
AcDbSymbolTableRecord
100
AcDbBlockTableRecord
  2
2_129517I_0_in_129154_4
340
0
102
{BLKREFS
331
90
102
}
 70
     0
280
     1
281
     0
  0
BLOCK_RECORD
  5
D4
330
1
100
AcDbSymbolTableRecord
100
AcDbBlockTableRecord
  2
3_129904_0_in_129154_4
340
0
102
{BLKREFS
331
D5
102
}
 70
     0
280
     1
281
     0
  0
BLOCK_RECORD
  5
12D
330
1
100
AcDbSymbolTableRecord
100
AcDbBlockTableRecord
  2
4_129421I_0_in_129154_4
340
0
102
{BLKREFS
331
12E
102
}
 70
     0
280
     1
281
     0
  0
ENDTAB
  0
ENDSEC
  0
SECTION
  2
BLOCKS
  0
BLOCK
  5
20
330
1F
100
AcDbEntity
  8
0
100
AcDbBlockBegin
  2
*Model_Space
 70
     0
 10
0.0
 20
0.0
 30
0.0
  3
*Model_Space
  1

  0
ENDBLK
  5
21
330
1F
100
AcDbEntity
  8
0
100
AcDbBlockEnd
  0
BLOCK
  5
1C
330
1B
100
AcDbEntity
 67
     1
  8
0
100
AcDbBlockBegin
  2
*Paper_Space
 70
     0
 10
0.0
 20
0.0
 30
0.0
  3
*Paper_Space
  1

  0
ENDBLK
  5
1D
330
1B
100
AcDbEntity
 67
     1
  8
0
100
AcDbBlockEnd
  0
BLOCK
  5
24
330
23
100
AcDbEntity
  8
0
100
AcDbBlockBegin
  2
*Paper_Space0
 70
     0
 10
0.0
 20
0.0
 30
0.0
  3
*Paper_Space0
  1

  0
ENDBLK
  5
25
330
23
100
AcDbEntity
  8
0
100
AcDbBlockEnd
  0
BLOCK
  5
70
330
6E
100
AcDbEntity
  8
0
100
AcDbBlockBegin
  2
1_129154_4
 70
     2
 10
0.0
 20
0.0
 30
0.0
  3
1_129154_4
  1

  0
ATTDEF
  5
73
330
6E
100
AcDbEntity
  8
AM_6
100
AcDbText
 10
7.625
 20
0.73046875
 30
0.0
 40
0.5
  1
Grip Tight Two-Bolt Pillow Block Inch Bore
100
AcDbAttributeDefinition
  3

  2
NN
 70
     8
280
     0
  0
ATTDEF
  5
74
330
6E
100
AcDbEntity
  8
AM_6
100
AcDbText
 10
7.625
 20
0.23046875
 30
0.0
 40
0.5
  1
GT Normal Duty Pillow Blocks
100
AcDbAttributeDefinition
  3

  2
NT
 70
     8
280
     0
  0
ATTDEF
  5
75
330
6E
100
AcDbEntity
  8
AM_6
100
AcDbText
 10
7.625
 20
-0.26953125
 30
0.0
 40
0.5
  1
129154
100
AcDbAttributeDefinition
  3

  2
NB
 70
     8
280
     0
  0
ATTDEF
  5
76
330
6E
100
AcDbEntity
  8
AM_6
100
AcDbText
 10
7.625
 20
-0.76953125
 30
0.0
 40
0.5
  1
$PN.$LUBE.
100
AcDbAttributeDefinition
  3

  2
NBSYN
 70
     8
280
     0
  0
ATTDEF
  5
77
330
6E
100
AcDbEntity
  8
AM_6
100
AcDbText
 10
7.625
 20
-1.26953125
 30
0.0
 40
0.5
  1
129154
100
AcDbAttributeDefinition
  3

  2
LINA
 70
     8
280
     0
  0
ATTDEF
  5
78
330
6E
100
AcDbEntity
  8
AM_6
100
AcDbText
 10
7.625
 20
-1.76953125
 30
0.0
 40
0.5
  1
204
100
AcDbAttributeDefinition
  3

  2
SERIES
 70
     8
280
     0
  0
ATTDEF
  5
79
330
6E
100
AcDbEntity
  8
AM_6
100
AcDbText
 10
7.625
 20
-2.26953125
 30
0.0
 40
0.5
  1
3/4
100
AcDbAttributeDefinition
  3

  2
SS
 70
     8
280
     0
  0
ATTDEF
  5
7A
330
6E
100
AcDbEntity
  8
AM_6
100
AcDbText
 10
7.625
 20
-2.76953125
 30
0.0
 40
0.5
  1
129154
100
AcDbAttributeDefinition
  3

  2
PN
 70
     8
280
     0
  0
ATTDEF
  5
7B
330
6E
100
AcDbEntity
  8
AM_6
100
AcDbText
 10
7.625
 20
-3.26953125
 30
0.0
 40
0.5
  1
P2B-GT-012
100
AcDbAttributeDefinition
  3

  2
DESCRIPTION
 70
     8
280
     0
  0
ATTDEF
  5
7C
330
6E
100
AcDbEntity
  8
AM_6
100
AcDbText
 10
7.625
 20
-3.76953125
 30
0.0
 40
0.5
  1
1-15/32
100
AcDbAttributeDefinition
  3

  2
A
 70
     8
280
     0
  0
ATTDEF
  5
7D
330
6E
100
AcDbEntity
  8
AM_6
100
AcDbText
 10
7.625
 20
-4.26953125
 30
0.0
 40
0.5
  1
5-1/4
100
AcDbAttributeDefinition
  3

  2
B
 70
     8
280
     0
  0
ATTDEF
  5
7E
330
6E
100
AcDbEntity
  8
AM_6
100
AcDbText
 10
7.625
 20
-4.76953125
 30
0.0
 40
0.5
  1
1-21/64
100
AcDbAttributeDefinition
  3

  2
C
 70
     8
280
     0
  0
ATTDEF
  5
7F
330
6E
100
AcDbEntity
  8
AM_6
100
AcDbText
 10
7.625
 20
-5.26953125
 30
0.0
 40
0.5
  1
3-3/8
100
AcDbAttributeDefinition
  3

  2
DMIN
 70
     8
280
     0
  0
ATTDEF
  5
80
330
6E
100
AcDbEntity
  8
AM_6
100
AcDbText
 10
7.625
 20
-5.76953125
 30
0.0
 40
0.5
  1
4-3/16
100
AcDbAttributeDefinition
  3

  2
DMAX
 70
     8
280
     0
  0
ATTDEF
  5
81
330
6E
100
AcDbEntity
  8
AM_6
100
AcDbText
 10
7.625
 20
-6.26953125
 30
0.0
 40
0.5
  1
3/8
100
AcDbAttributeDefinition
  3

  2
F
 70
     8
280
     0
  0
ATTDEF
  5
82
330
6E
100
AcDbEntity
  8
AM_6
100
AcDbText
 10
7.625
 20
-6.76953125
 30
0.0
 40
0.5
  1
27/32
100
AcDbAttributeDefinition
  3

  2
G
 70
     8
280
     0
  0
ATTDEF
  5
83
330
6E
100
AcDbEntity
  8
AM_6
100
AcDbText
 10
7.625
 20
-7.26953125
 30
0.0
 40
0.5
  1
33/64
100
AcDbAttributeDefinition
  3

  2
H
 70
     8
280
     0
  0
ATTDEF
  5
84
330
6E
100
AcDbEntity
  8
AM_6
100
AcDbText
 10
7.625
 20
-7.76953125
 30
0.0
 40
0.5
  1
2-35/64
100
AcDbAttributeDefinition
  3

  2
J
 70
     8
280
     0
  0
ATTDEF
  5
85
330
6E
100
AcDbEntity
  8
AM_6
100
AcDbText
 10
7.625
 20
-8.26953125
 30
0.0
 40
0.5
  1
1-1/2
100
AcDbAttributeDefinition
  3

  2
L
 70
     8
280
     0
  0
ATTDEF
  5
86
330
6E
100
AcDbEntity
  8
AM_6
100
AcDbText
 10
7.625
 20
-8.76953125
 30
0.0
 40
0.5
  1
1-5/16
100
AcDbAttributeDefinition
  3

  2
M
 70
     8
280
     0
  0
ATTDEF
  5
87
330
6E
100
AcDbEntity
  8
AM_6
100
AcDbText
 10
7.625
 20
-9.26953125
 30
0.0
 40
0.5
  1
31/64
100
AcDbAttributeDefinition
  3

  2
R
 70
     8
280
     0
  0
ATTDEF
  5
88
330
6E
100
AcDbEntity
  8
AM_6
100
AcDbText
 10
7.625
 20
-9.76953125
 30
0.0
 40
0.5
  1
63/64
100
AcDbAttributeDefinition
  3

  2
S
 70
     8
280
     0
  0
ATTDEF
  5
89
330
6E
100
AcDbEntity
  8
AM_6
100
AcDbText
 10
7.625
 20
-10.26953125
 30
0.0
 40
0.5
  1
2-1/4
100
AcDbAttributeDefinition
  3

  2
U
 70
     8
280
     0
  0
ATTDEF
  5
8A
330
6E
100
AcDbEntity
  8
AM_6
100
AcDbText
 10
7.625
 20
-10.76953125
 30
0.0
 40
0.5
  1
4-1/2
100
AcDbAttributeDefinition
  3

  2
V
 70
     8
280
     0
  0
ATTDEF
  5
8B
330
6E
100
AcDbEntity
  8
AM_6
100
AcDbText
 10
7.625
 20
-11.26953125
 30
0.0
 40
0.5
  1
1/2
100
AcDbAttributeDefinition
  3

  2
W
 70
     8
280
     0
  0
ATTDEF
  5
8C
330
6E
100
AcDbEntity
  8
AM_6
100
AcDbText
 10
7.625
 20
-11.76953125
 30
0.0
 40
0.5
  1
1/8
100
AcDbAttributeDefinition
  3

  2
X
 70
     8
280
     0
  0
ATTDEF
  5
8D
330
6E
100
AcDbEntity
  8
AM_6
100
AcDbText
 10
7.625
 20
-12.26953125
 30
0.0
 40
0.5
  1
63/64
100
AcDbAttributeDefinition
  3

  2
Z
 70
     8
280
     0
  0
ATTDEF
  5
8E
330
6E
100
AcDbEntity
  8
AM_6
100
AcDbText
 10
7.625
 20
-12.76953125
 30
0.0
 40
0.5
  1
baldor
100
AcDbAttributeDefinition
  3

  2
COMPANY
 70
     8
280
     0
  0
INSERT
  5
90
330
6E
100
AcDbEntity
  8
0
100
AcDbBlockReference
  2
2_129517I_0_in_129154_4
 10
0.0
 20
0.0
 30
0.0
  0
INSERT
  5
D5
330
6E
100
AcDbEntity
  8
0
100
AcDbBlockReference
  2
3_129904_0_in_129154_4
 10
0.0
 20
0.0
 30
0.0
  0
INSERT
  5
12E
330
6E
100
AcDbEntity
  8
0
100
AcDbBlockReference
  2
4_129421I_0_in_129154_4
 10
0.0
 20
0.0
 30
0.0
  0
ENDBLK
  5
71
330
6E
100
AcDbEntity
  8
0
100
AcDbBlockEnd
  0
BLOCK
  5
91
330
8F
100
AcDbEntity
  8
0
100
AcDbBlockBegin
  2
2_129517I_0_in_129154_4
 70
     2
 10
0.0
 20
0.0
 30
0.0
  3
2_129517I_0_in_129154_4
  1

  0
ATTDEF
  5
93
330
8F
100
AcDbEntity
  8
AM_6
100
AcDbText
 10
5.925197302728476
 20
0.414
 30
0.0
 40
0.5
  1
INS-GT B
100
AcDbAttributeDefinition
  3

  2
NN
 70
     8
280
     0
  0
ATTDEF
  5
94
330
8F
100
AcDbEntity
  8
AM_6
100
AcDbText
 10
5.925197302728476
 20
-0.086
 30
0.0
 40
0.5
  1
GT Normal Duty Bearing Inserts
100
AcDbAttributeDefinition
  3

  2
NT
 70
     8
280
     0
  0
ATTDEF
  5
95
330
8F
100
AcDbEntity
  8
AM_6
100
AcDbText
 10
5.925197302728476
 20
-0.586
 30
0.0
 40
0.5
  1
129517I
100
AcDbAttributeDefinition
  3

  2
NB
 70
     8
280
     0
  0
ATTDEF
  5
96
330
8F
100
AcDbEntity
  8
AM_6
100
AcDbText
 10
5.925197302728476
 20
-1.086
 30
0.0
 40
0.5
  1
$PN.I
100
AcDbAttributeDefinition
  3

  2
NBSYN
 70
     8
280
     0
  0
ATTDEF
  5
97
330
8F
100
AcDbEntity
  8
AM_6
100
AcDbText
 10
5.925197302728476
 20
-1.586
 30
0.0
 40
0.5
  1
129517
100
AcDbAttributeDefinition
  3

  2
LINA
 70
     8
280
     0
  0
ATTDEF
  5
98
330
8F
100
AcDbEntity
  8
AM_6
100
AcDbText
 10
5.925197302728476
 20
-2.086
 30
0.0
 40
0.5
  1
204
100
AcDbAttributeDefinition
  3

  2
SERIES
 70
     8
280
     0
  0
ATTDEF
  5
99
330
8F
100
AcDbEntity
  8
AM_6
100
AcDbText
 10
5.925197302728476
 20
-2.586
 30
0.0
 40
0.5
  1
129517
100
AcDbAttributeDefinition
  3

  2
PN
 70
     8
280
     0
  0
ATTDEF
  5
9A
330
8F
100
AcDbEntity
  8
AM_6
100
AcDbText
 10
5.925197302728476
 20
-3.086
 30
0.0
 40
0.5
  1
INS-GT-04
100
AcDbAttributeDefinition
  3

  2
DESCRIPTION
 70
     8
280
     0
  0
ATTDEF
  5
9B
330
8F
100
AcDbEntity
  8
AM_6
100
AcDbText
 10
5.925197302728476
 20
-3.586
 30
0.0
 40
0.5
  1
1.48
100
AcDbAttributeDefinition
  3

  2
A
 70
     8
280
     0
  0
ATTDEF
  5
9C
330
8F
100
AcDbEntity
  8
AM_6
100
AcDbText
 10
5.925197302728476
 20
-4.086
 30
0.0
 40
0.5
  1
0.58
100
AcDbAttributeDefinition
  3

  2
C
 70
     8
280
     0
  0
ATTDEF
  5
9D
330
8F
100
AcDbEntity
  8
AM_6
100
AcDbText
 10
5.925197302728476
 20
-4.586
 30
0.0
 40
0.5
  1
1.8504
100
AcDbAttributeDefinition
  3

  2
D
 70
     8
280
     0
  0
ATTDEF
  5
9E
330
8F
100
AcDbEntity
  8
AM_6
100
AcDbText
 10
5.925197302728476
 20
-5.086
 30
0.0
 40
0.5
  1
0.15
100
AcDbAttributeDefinition
  3

  2
J
 70
     8
280
     0
  0
ATTDEF
  5
9F
330
8F
100
AcDbEntity
  8
AM_6
100
AcDbText
 10
5.925197302728476
 20
-5.586
 30
0.0
 40
0.5
  1
1.50
100
AcDbAttributeDefinition
  3

  2
L
 70
     8
280
     0
  0
ATTDEF
  5
A0
330
8F
100
AcDbEntity
  8
AM_6
100
AcDbText
 10
5.925197302728476
 20
-6.086
 30
0.0
 40
0.5
  1
#10 - 32 x 1/4
100
AcDbAttributeDefinition
  3

  2
N
 70
     8
280
     0
  0
ATTDEF
  5
A1
330
8F
100
AcDbEntity
  8
AM_6
100
AcDbText
 10
5.925197302728476
 20
-6.586
 30
0.0
 40
0.5
  1
0.46000
100
AcDbAttributeDefinition
  3

  2
W
 70
     8
280
     0
  0
ATTDEF
  5
A2
330
8F
100
AcDbEntity
  8
AM_6
100
AcDbText
 10
5.925197302728476
 20
-7.086
 30
0.0
 40
0.5
  1
1.03
100
AcDbAttributeDefinition
  3

  2
X
 70
     8
280
     0
  0
ATTDEF
  5
A3
330
8F
100
AcDbEntity
  8
AM_6
100
AcDbText
 10
5.925197302728476
 20
-7.586
 30
0.0
 40
0.5
  1
1.02
100
AcDbAttributeDefinition
  3

  2
Y
 70
     8
280
     0
  0
ATTDEF
  5
A4
330
8F
100
AcDbEntity
  8
AM_6
100
AcDbText
 10
5.925197302728476
 20
-8.086
 30
0.0
 40
0.5
  1
baldor
100
AcDbAttributeDefinition
  3

  2
COMPANY
 70
     8
280
     0
  0
LINE
  5
A7
330
8F
100
AcDbEntity
  8
AM_9
100
AcDbLine
 10
0.5595237666666666
 20
-0.7724993459486921
 30
0.0
 11
0.5595237666666666
 21
-0.3862493459486921
 31
0.0
  0
LINE
  5
A8
330
8F
100
AcDbEntity
  8
AM_9
100
AcDbLine
 10
-0.5595237666666666
 20
-0.3862493459486921
 30
0.0
 11
-0.5595237666666666
 21
-0.7724993459486921
 31
0.0
  0
LINE
  5
A9
330
8F
100
AcDbEntity
  8
AM_9
100
AcDbLine
 10
-0.5595237666666666
 20
-0.3862493459486921
 30
0.0
 11
0.5595237666666666
 21
-0.3862493459486921
 31
0.0
  0
LINE
  5
AA
330
8F
100
AcDbEntity
  8
AM_9
100
AcDbLine
 10
0.5595238095238096
 20
-0.3862481186806878
 30
0.0
 11
0.5874690896124627
 21
0.4139999999999999
 31
0.0
  0
LINE
  5
AB
330
8F
100
AcDbEntity
  8
AM_9
100
AcDbLine
 10
-0.5874690896124627
 20
0.4139999999999999
 30
0.0
 11
-0.5595238095238096
 21
-0.3862481186806878
 31
0.0
  0
LINE
  5
AC
330
8F
100
AcDbEntity
  8
AM_9
100
AcDbLine
 10
0.6130952166666666
 20
-0.643749345948692
 30
0.0
 11
0.6130952166666666
 21
-0.514999345948692
 31
0.0
  0
LINE
  5
AD
330
8F
100
AcDbEntity
  8
AM_9
100
AcDbLine
 10
-0.6130952166666666
 20
-0.514999345948692
 30
0.0
 11
-0.6130952166666666
 21
-0.643749345948692
 31
0.0
  0
LINE
  5
AE
330
8F
100
AcDbEntity
  8
AM_9
100
AcDbLine
 10
0.6434666666666665
 20
-0.7724993459486921
 30
0.0
 11
0.6666666666666666
 21
-0.7492993459486921
 31
0.0
  0
LINE
  5
AF
330
8F
100
AcDbEntity
  8
AM_9
100
AcDbLine
 10
-0.6666666666666666
 20
-0.7492993459486921
 30
0.0
 11
-0.6434666666666665
 21
-0.7724993459486921
 31
0.0
  0
LINE
  5
B0
330
8F
100
AcDbEntity
  8
AM_9
100
AcDbLine
 10
-0.6434666666666665
 20
-0.7724993459486921
 30
0.0
 11
0.6434666666666665
 21
-0.7724993459486921
 31
0.0
  0
LINE
  5
B1
330
8F
100
AcDbEntity
  8
AM_9
100
AcDbLine
 10
0.6666666666666666
 20
-0.7492993459486921
 30
0.0
 11
0.6666666666666666
 21
-0.643749345948692
 31
0.0
  0
LINE
  5
B2
330
8F
100
AcDbEntity
  8
AM_9
100
AcDbLine
 10
-0.6666666666666666
 20
-0.643749345948692
 30
0.0
 11
-0.6666666666666666
 21
-0.7492993459486921
 31
0.0
  0
LINE
  5
B3
330
8F
100
AcDbEntity
  8
AM_9
100
AcDbLine
 10
-0.6666666666666666
 20
-0.7492993459486921
 30
0.0
 11
0.6666666666666666
 21
-0.7492993459486921
 31
0.0
  0
LINE
  5
B4
330
8F
100
AcDbEntity
  8
AM_9
100
AcDbLine
 10
-0.6666666666666666
 20
-0.643749345948692
 30
0.0
 11
0.6666666666666666
 21
-0.643749345948692
 31
0.0
  0
LINE
  5
B5
330
8F
100
AcDbEntity
  8
AM_9
100
AcDbLine
 10
-0.6434666666666665
 20
0.414
 30
0.0
 11
0.6434666666666665
 21
0.414
 31
0.0
  0
LINE
  5
B6
330
8F
100
AcDbEntity
  8
AM_9
100
AcDbLine
 10
-0.6434666666666665
 20
0.414
 30
0.0
 11
-0.6666666666666666
 21
0.3908
 31
0.0
  0
LINE
  5
B7
330
8F
100
AcDbEntity
  8
AM_9
100
AcDbLine
 10
0.6666666666666666
 20
0.3908
 30
0.0
 11
0.6434666666666665
 21
0.414
 31
0.0
  0
LINE
  5
B8
330
8F
100
AcDbEntity
  8
AM_9
100
AcDbLine
 10
-0.6666666666666665
 20
0.3908
 30
0.0
 11
0.6666666666666665
 21
0.3908
 31
0.0
  0
LINE
  5
B9
330
8F
100
AcDbEntity
  8
AM_9
100
AcDbLine
 10
0.6666666666666665
 20
0.29
 30
0.0
 11
0.6666666666666665
 21
0.3908
 31
0.0
  0
LINE
  5
BA
330
8F
100
AcDbEntity
  8
AM_9
100
AcDbLine
 10
-0.6666666666666665
 20
0.3908
 30
0.0
 11
-0.6666666666666665
 21
0.29
 31
0.0
  0
LINE
  5
BB
330
8F
100
AcDbEntity
  8
AM_9
100
AcDbLine
 10
0.6666666666666665
 20
-0.514999345948692
 30
0.0
 11
0.6666666666666665
 21
-0.2899999999999999
 31
0.0
  0
LINE
  5
BC
330
8F
100
AcDbEntity
  8
AM_9
100
AcDbLine
 10
-0.6666666666666665
 20
-0.2899999999999999
 30
0.0
 11
-0.6666666666666665
 21
-0.514999345948692
 31
0.0
  0
LINE
  5
BD
330
8F
100
AcDbEntity
  8
AM_9
100
AcDbLine
 10
-0.6666666666666665
 20
-0.514999345948692
 30
0.0
 11
0.6666666666666665
 21
-0.514999345948692
 31
0.0
  0
LINE
  5
BE
330
8F
100
AcDbEntity
  8
AM_9
100
AcDbLine
 10
0.8672
 20
-0.18
 30
0.0
 11
0.8672
 21
-0.12
 31
0.0
  0
LINE
  5
BF
330
8F
100
AcDbEntity
  8
AM_9
100
AcDbLine
 10
-0.8672
 20
-0.12
 30
0.0
 11
-0.8672
 21
-0.18
 31
0.0
  0
LINE
  5
C0
330
8F
100
AcDbEntity
  8
AM_9
100
AcDbLine
 10
-0.8515575530557441
 20
0.29
 30
0.0
 11
0.8515575530557441
 21
0.29
 31
0.0
  0
ARC
  5
C1
330
8F
100
AcDbEntity
  8
AM_9
100
AcDbCircle
 10
0.851557553055744
 20
0.2667999999999996
 30
0.0
 40
0.0232000000000004
100
AcDbArc
 50
21.41246704688472
 51
90.0
  0
ARC
  5
C2
330
8F
100
AcDbEntity
  8
AM_9
100
AcDbCircle
 10
-0.851557553055744
 20
0.2667999999999996
 30
0.0
 40
0.0232000000000003
100
AcDbArc
 50
90.0
 51
158.5875329531153
  0
LINE
  5
C3
330
8F
100
AcDbEntity
  8
AM_9
100
AcDbLine
 10
-0.8515575530557445
 20
-0.29
 30
0.0
 11
0.8515575530557445
 21
-0.29
 31
0.0
  0
ARC
  5
C4
330
8F
100
AcDbEntity
  8
AM_9
100
AcDbCircle
 10
0.8515575530557448
 20
-0.2668000000000007
 30
0.0
 40
0.0231999999999993
100
AcDbArc
 50
270.0
 51
338.5875329531167
  0
ARC
  5
C5
330
8F
100
AcDbEntity
  8
AM_9
100
AcDbCircle
 10
-0.8515575530557445
 20
-0.2668000000000005
 30
0.0
 40
0.0231999999999996
100
AcDbArc
 50
201.4124670468835
 51
270.0
  0
LINE
  5
C6
330
8F
100
AcDbEntity
  8
AM_9
100
AcDbLine
 10
-0.8731562055337044
 20
-0.2752698412698414
 30
0.0
 11
0.8731562055337044
 21
-0.2752698412698414
 31
0.0
  0
ARC
  5
C7
330
8F
100
AcDbEntity
  8
AM_9
100
AcDbCircle
 10
0.1712000000000018
 20
-0.0000000000000009
 30
0.0
 40
0.753999999999998
100
AcDbArc
 50
338.587532953116
 51
345.621327830502
  0
ARC
  5
C8
330
8F
100
AcDbEntity
  8
AM_9
100
AcDbCircle
 10
-0.171200000000032
 20
-0.0000000000000103
 30
0.0
 40
0.7539999999999665
100
AcDbArc
 50
194.3786721694979
 51
201.4124670468842
  0
LINE
  5
C9
330
8F
100
AcDbEntity
  8
AM_9
100
AcDbLine
 10
-0.9015814525863005
 20
-0.1872403100775195
 30
0.0
 11
0.9015814525863005
 21
-0.1872403100775195
 31
0.0
  0
LINE
  5
CA
330
8F
100
AcDbEntity
  8
AM_9
100
AcDbLine
 10
-0.895963133720252
 20
-0.18
 30
0.0
 11
0.895963133720252
 21
-0.18
 31
0.0
  0
ARC
  5
CB
330
8F
100
AcDbEntity
  8
AM_9
100
AcDbCircle
 10
0.8959631337202519
 20
-0.1858000000000001
 30
0.0
 40
0.0058000000000001
100
AcDbArc
 50
345.6213278305023
 51
90.0
  0
ARC
  5
CC
330
8F
100
AcDbEntity
  8
AM_9
100
AcDbCircle
 10
-0.8959631337202519
 20
-0.1858000000000001
 30
0.0
 40
0.0058
100
AcDbArc
 50
90.0
 51
194.3786721694978
  0
LINE
  5
CD
330
8F
100
AcDbEntity
  8
AM_9
100
AcDbLine
 10
-0.9106332965183636
 20
-0.1200000000000001
 30
0.0
 11
0.9106332965183636
 21
-0.1200000000000001
 31
0.0
  0
ARC
  5
CE
330
8F
100
AcDbEntity
  8
AM_9
100
AcDbCircle
 10
0.9106332965183634
 20
-0.1141999999999999
 30
0.0
 40
0.0058000000000002
100
AcDbArc
 50
270.0
 51
351.2203530087226
  0
ARC
  5
CF
330
8F
100
AcDbEntity
  8
AM_9
100
AcDbCircle
 10
-0.9106332965183634
 20
-0.1141999999999999
 30
0.0
 40
0.0058000000000001
100
AcDbArc
 50
188.7796469912774
 51
270.0
  0
LINE
  5
D0
330
8F
100
AcDbEntity
  8
AM_9
100
AcDbLine
 10
-0.8731562055337044
 20
0.2752698412698413
 30
0.0
 11
0.8731562055337044
 21
0.2752698412698413
 31
0.0
  0
ARC
  5
D1
330
8F
100
AcDbEntity
  8
AM_9
100
AcDbCircle
 10
0.1712000000000089
 20
0.000000000000001
 30
0.0
 40
0.7539999999999913
100
AcDbArc
 50
351.2204562958438
 51
21.41246704688425
  0
ARC
  5
D2
330
8F
100
AcDbEntity
  8
AM_9
100
AcDbCircle
 10
-0.1712000000000079
 20
0.0000000000000009
 30
0.0
 40
0.7539999999999922
100
AcDbArc
 50
158.5875329531158
 51
188.7795437041561
  0
LINE
  5
D3
330
8F
100
AcDbEntity
  8
AM_9
100
AcDbLine
 10
-0.9163653359683859
 20
-0.1150852817310822
 30
0.0
 11
0.9163653359683859
 21
-0.1150852817310822
 31
0.0
  0
ENDBLK
  5
92
330
8F
100
AcDbEntity
  8
0
100
AcDbBlockEnd
  0
BLOCK
  5
D6
330
D4
100
AcDbEntity
  8
0
100
AcDbBlockBegin
  2
3_129904_0_in_129154_4
 70
     2
 10
0.0
 20
0.0
 30
0.0
  3
3_129904_0_in_129154_4
  1

  0
ATTDEF
  5
D8
330
D4
100
AcDbEntity
  8
AM_6
100
AcDbText
 10
5.746139397163827
 20
0.4843750000000001
 30
0.0
 40
0.5
  1
Grip Tight Normal Duty Adapter and Nut Inch Bore
100
AcDbAttributeDefinition
  3

  2
NN
 70
     8
280
     0
  0
ATTDEF
  5
D9
330
D4
100
AcDbEntity
  8
AM_6
100
AcDbText
 10
5.746139397163827
 20
-0.0156249999999999
 30
0.0
 40
0.5
  1
GT and GTM Adapter & Lock Nut Assemblies
100
AcDbAttributeDefinition
  3

  2
NT
 70
     8
280
     0
  0
ATTDEF
  5
DA
330
D4
100
AcDbEntity
  8
AM_6
100
AcDbText
 10
5.746139397163827
 20
-0.515625
 30
0.0
 40
0.5
  1
129904
100
AcDbAttributeDefinition
  3

  2
NB
 70
     8
280
     0
  0
ATTDEF
  5
DB
330
D4
100
AcDbEntity
  8
AM_6
100
AcDbText
 10
5.746139397163827
 20
-1.015625
 30
0.0
 40
0.5
  1
$PN.
100
AcDbAttributeDefinition
  3

  2
NBSYN
 70
     8
280
     0
  0
ATTDEF
  5
DC
330
D4
100
AcDbEntity
  8
AM_6
100
AcDbText
 10
5.746139397163827
 20
-1.515625
 30
0.0
 40
0.5
  1
129904
100
AcDbAttributeDefinition
  3

  2
LINA
 70
     8
280
     0
  0
ATTDEF
  5
DD
330
D4
100
AcDbEntity
  8
AM_6
100
AcDbText
 10
5.746139397163827
 20
-2.015625
 30
0.0
 40
0.5
  1
204
100
AcDbAttributeDefinition
  3

  2
SERIES
 70
     8
280
     0
  0
ATTDEF
  5
DE
330
D4
100
AcDbEntity
  8
AM_6
100
AcDbText
 10
5.746139397163827
 20
-2.515625
 30
0.0
 40
0.5
  1
3/4
100
AcDbAttributeDefinition
  3

  2
SS
 70
     8
280
     0
  0
ATTDEF
  5
DF
330
D4
100
AcDbEntity
  8
AM_6
100
AcDbText
 10
5.746139397163827
 20
-3.015625
 30
0.0
 40
0.5
  1
129904
100
AcDbAttributeDefinition
  3

  2
PN
 70
     8
280
     0
  0
ATTDEF
  5
E0
330
D4
100
AcDbEntity
  8
AM_6
100
AcDbText
 10
5.746139397163827
 20
-3.515625
 30
0.0
 40
0.5
  1
AN-GT-04-012
100
AcDbAttributeDefinition
  3

  2
DESCRIPTION
 70
     8
280
     0
  0
ATTDEF
  5
E1
330
D4
100
AcDbEntity
  8
AM_6
100
AcDbText
 10
5.746139397163827
 20
-4.015625
 30
0.0
 40
0.5
  1
1-15/32
100
AcDbAttributeDefinition
  3

  2
A
 70
     8
280
     0
  0
ATTDEF
  5
E2
330
D4
100
AcDbEntity
  8
AM_6
100
AcDbText
 10
5.746139397163827
 20
-4.515625
 30
0.0
 40
0.5
  1
0.5906
100
AcDbAttributeDefinition
  3

  2
C
 70
     8
280
     0
  0
ATTDEF
  5
E3
330
D4
100
AcDbEntity
  8
AM_6
100
AcDbText
 10
5.746139397163827
 20
-5.015625
 30
0.0
 40
0.5
  1
1.8504
100
AcDbAttributeDefinition
  3

  2
D
 70
     8
280
     0
  0
ATTDEF
  5
E4
330
D4
100
AcDbEntity
  8
AM_6
100
AcDbText
 10
5.746139397163827
 20
-5.515625
 30
0.0
 40
0.5
  1
0.152
100
AcDbAttributeDefinition
  3

  2
J
 70
     8
280
     0
  0
ATTDEF
  5
E5
330
D4
100
AcDbEntity
  8
AM_6
100
AcDbText
 10
5.746139397163827
 20
-6.015625
 30
0.0
 40
0.5
  1
1-1/2
100
AcDbAttributeDefinition
  3

  2
L
 70
     8
280
     0
  0
ATTDEF
  5
E6
330
D4
100
AcDbEntity
  8
AM_6
100
AcDbText
 10
5.746139397163827
 20
-6.515625
 30
0.0
 40
0.5
  1
10 - 32 x 1/4
100
AcDbAttributeDefinition
  3

  2
N
 70
     8
280
     0
  0
ATTDEF
  5
E7
330
D4
100
AcDbEntity
  8
AM_6
100
AcDbText
 10
5.746139397163827
 20
-7.015625
 30
0.0
 40
0.5
  1
31/64
100
AcDbAttributeDefinition
  3

  2
W
 70
     8
280
     0
  0
ATTDEF
  5
E8
330
D4
100
AcDbEntity
  8
AM_6
100
AcDbText
 10
5.746139397163827
 20
-7.515625
 30
0.0
 40
0.5
  1
63/64
100
AcDbAttributeDefinition
  3

  2
X
 70
     8
280
     0
  0
ATTDEF
  5
E9
330
D4
100
AcDbEntity
  8
AM_6
100
AcDbText
 10
5.746139397163827
 20
-8.015625
 30
0.0
 40
0.5
  1
63/64
100
AcDbAttributeDefinition
  3

  2
Y
 70
     8
280
     0
  0
ATTDEF
  5
EA
330
D4
100
AcDbEntity
  8
AM_6
100
AcDbText
 10
5.746139397163827
 20
-8.515625
 30
0.0
 40
0.5
  1
baldor
100
AcDbAttributeDefinition
  3

  2
COMPANY
 70
     8
280
     0
  0
LINE
  5
EB
330
D4
100
AcDbEntity
  8
AM_9
100
AcDbLine
 10
-0.72745
 20
-0.9337730416772501
 30
0.0
 11
-0.58505
 21
-0.9337730416772501
 31
0.0
  0
LINE
  5
EC
330
D4
100
AcDbEntity
  8
AM_9
100
AcDbLine
 10
-0.58505
 20
-0.7888730416772501
 30
0.0
 11
-0.72745
 21
-0.7888730416772501
 31
0.0
  0
LINE
  5
ED
330
D4
100
AcDbEntity
  8
AM_9
100
AcDbLine
 10
0.6999998729997459
 20
-0.4921874999999999
 30
0.0
 11
0.6999998729997459
 21
-0.9843749999999999
 31
0.0
  0
LINE
  5
EE
330
D4
100
AcDbEntity
  8
AM_9
100
AcDbLine
 10
-0.72745
 20
-0.7888730416772501
 30
0.0
 11
-0.7499999999999999
 21
-0.7663230416772502
 31
0.0
  0
LINE
  5
EF
330
D4
100
AcDbEntity
  8
AM_9
100
AcDbLine
 10
-0.7499999999999999
 20
-0.95632304167725
 30
0.0
 11
-0.72745
 21
-0.9337730416772501
 31
0.0
  0
LINE
  5
F0
330
D4
100
AcDbEntity
  8
AM_9
100
AcDbLine
 10
-0.72745
 20
-0.7888730416772501
 30
0.0
 11
-0.72745
 21
-0.9337730416772501
 31
0.0
  0
LINE
  5
F1
330
D4
100
AcDbEntity
  8
AM_9
100
AcDbLine
 10
-0.58505
 20
-0.9337730416772501
 30
0.0
 11
-0.5625
 21
-0.95632304167725
 31
0.0
  0
LINE
  5
F2
330
D4
100
AcDbEntity
  8
AM_9
100
AcDbLine
 10
-0.5625
 20
-0.7663230416772502
 30
0.0
 11
-0.58505
 21
-0.7888730416772501
 31
0.0
  0
LINE
  5
F3
330
D4
100
AcDbEntity
  8
AM_9
100
AcDbLine
 10
-0.5625
 20
-0.7663230416772502
 30
0.0
 11
-0.5625
 21
-0.95632304167725
 31
0.0
  0
LINE
  5
F4
330
D4
100
AcDbEntity
  8
AM_9
100
AcDbLine
 10
-0.58505
 20
-0.7888730416772501
 30
0.0
 11
-0.58505
 21
-0.9337730416772501
 31
0.0
  0
LINE
  5
F5
330
D4
100
AcDbEntity
  8
AM_9
100
AcDbLine
 10
0.3749999999999999
 20
-0.9843750000000001
 30
0.0
 11
0.3749999999999999
 21
0.4843750000000001
 31
0.0
  0
LINE
  5
F6
330
D4
100
AcDbEntity
  8
AM_9
100
AcDbLine
 10
-0.3749999999999999
 20
0.4843750000000001
 30
0.0
 11
-0.3749999999999999
 21
-0.9843750000000001
 31
0.0
  0
LINE
  5
F7
330
D4
100
AcDbEntity
  8
AM_9
100
AcDbLine
 10
0.5595238095238096
 20
-0.7382812500000002
 30
0.0
 11
0.5595238095238096
 21
-0.3691406249999996
 31
0.0
  0
LINE
  5
F8
330
D4
100
AcDbEntity
  8
AM_9
100
AcDbLine
 10
-0.5595238095238096
 20
-0.3691406249999996
 30
0.0
 11
-0.5595238095238096
 21
-0.7382812500000002
 31
0.0
  0
LINE
  5
F9
330
D4
100
AcDbEntity
  8
AM_9
100
AcDbLine
 10
-0.05
 20
0.4766008856979193
 30
0.0
 11
-0.05
 21
-0.9843749999999999
 31
0.0
  0
LINE
  5
FA
330
D4
100
AcDbEntity
  8
AM_9
100
AcDbLine
 10
0.05
 20
0.47659122158665
 30
0.0
 11
0.05
 21
-0.9843749999999999
 31
0.0
  0
LINE
  5
FB
330
D4
100
AcDbEntity
  8
AM_9
100
AcDbLine
 10
-0.5595238095238095
 20
-0.3691406249999996
 30
0.0
 11
0.5595238095238095
 21
-0.3691406249999996
 31
0.0
  0
LINE
  5
FC
330
D4
100
AcDbEntity
  8
AM_9
100
AcDbLine
 10
0.3606370347630252
 20
0.484375
 30
0.0
 11
0.5893292319220396
 21
0.484375
 31
0.0
  0
LINE
  5
FD
330
D4
100
AcDbEntity
  8
AM_9
100
AcDbLine
 10
0.5595238095238095
 20
-0.3691406249999996
 30
0.0
 11
0.5893292319220396
 21
0.484375
 31
0.0
  0
LINE
  5
FE
330
D4
100
AcDbEntity
  8
AM_9
100
AcDbLine
 10
-0.5893292319220396
 20
0.484375
 30
0.0
 11
-0.5595238095238095
 21
-0.3691406249999996
 31
0.0
  0
LINE
  5
FF
330
D4
100
AcDbEntity
  8
AM_9
100
AcDbLine
 10
-0.5893292319220396
 20
0.484375
 30
0.0
 11
-0.3606370347630252
 21
0.484375
 31
0.0
  0
LINE
  5
100
330
D4
100
AcDbEntity
  8
AM_9
100
AcDbLine
 10
-0.7263759999999999
 20
-0.4921874999999999
 30
0.0
 11
-0.7499999999999999
 21
-0.5158115
 31
0.0
  0
LINE
  5
101
330
D4
100
AcDbEntity
  8
AM_9
100
AcDbLine
 10
-0.7263759999999999
 20
-0.4921874999999999
 30
0.0
 11
-0.4970751220855003
 21
-0.4921874999999999
 31
0.0
  0
LINE
  5
102
330
D4
100
AcDbEntity
  8
AM_9
100
AcDbLine
 10
-0.7499999999999999
 20
-0.5158115
 30
0.0
 11
-0.7499999999999999
 21
-0.5181862080767635
 31
0.0
  0
LINE
  5
103
330
D4
100
AcDbEntity
  8
AM_9
100
AcDbLine
 10
-0.7499999999999999
 20
-0.5158115
 30
0.0
 11
-0.7337670466904248
 21
-0.5158115
 31
0.0
  0
LINE
  5
104
330
D4
100
AcDbEntity
  8
AM_9
100
AcDbLine
 10
-0.7472775488589692
 20
-0.9279479698354762
 30
0.0
 11
-0.7467769201994581
 21
-0.9213128043362299
 31
0.0
  0
LINE
  5
105
330
D4
100
AcDbEntity
  8
AM_9
100
AcDbLine
 10
0.6130952380952381
 20
-0.6152343750000001
 30
0.0
 11
0.6130952380952381
 21
-0.4921874999999999
 31
0.0
  0
LINE
  5
106
330
D4
100
AcDbEntity
  8
AM_9
100
AcDbLine
 10
-0.6130952380952381
 20
-0.4921874999999999
 30
0.0
 11
-0.6130952380952381
 21
-0.6152343750000001
 31
0.0
  0
LINE
  5
107
330
D4
100
AcDbEntity
  8
AM_9
100
AcDbLine
 10
-0.2841820058122558
 20
-0.4921874999999999
 30
0.0
 11
-0.2841820058122558
 21
-0.9843749999999999
 31
0.0
  0
LINE
  5
108
330
D4
100
AcDbEntity
  8
AM_9
100
AcDbLine
 10
-0.6666666666666662
 20
-0.7382812500000002
 30
0.0
 11
0.6666666666666662
 21
-0.7382812500000002
 31
0.0
  0
LINE
  5
109
330
D4
100
AcDbEntity
  8
AM_9
100
AcDbLine
 10
-0.6666666666666662
 20
-0.6152343750000001
 30
0.0
 11
0.6666666666666662
 21
-0.6152343750000001
 31
0.0
  0
LINE
  5
10A
330
D4
100
AcDbEntity
  8
AM_9
100
AcDbLine
 10
0.6666666666666662
 20
-0.7382812500000002
 30
0.0
 11
0.6666666666666662
 21
-0.6152343750000001
 31
0.0
  0
LINE
  5
10B
330
D4
100
AcDbEntity
  8
AM_9
100
AcDbLine
 10
-0.6666666666666662
 20
-0.6152343750000001
 30
0.0
 11
-0.6666666666666662
 21
-0.7382812500000002
 31
0.0
  0
LINE
  5
10C
330
D4
100
AcDbEntity
  8
AM_9
100
AcDbLine
 10
0.7461393971638274
 20
-0.5158115
 30
0.0
 11
0.7461393971638276
 21
-0.5176081108832657
 31
0.0
  0
LINE
  5
10D
330
D4
100
AcDbEntity
  8
AM_9
100
AcDbLine
 10
0.7223891564634672
 20
-0.4921875000000001
 30
0.0
 11
0.7461393971638274
 21
-0.5158115
 31
0.0
  0
LINE
  5
10E
330
D4
100
AcDbEntity
  8
AM_9
100
AcDbLine
 10
0.4970751220855003
 20
-0.4921874999999999
 30
0.0
 11
0.7223891564634672
 21
-0.4921875000000001
 31
0.0
  0
LINE
  5
10F
330
D4
100
AcDbEntity
  8
AM_9
100
AcDbLine
 10
0.7337670466904248
 20
-0.5158115
 30
0.0
 11
0.7461393971638274
 21
-0.5158115
 31
0.0
  0
LINE
  5
111
330
D4
100
AcDbEntity
  8
AM_5
100
AcDbLine
 10
-0.7499999999999999
 20
-0.95632304167725
 30
0.0
 11
-0.5625
 21
-0.95632304167725
 31
0.0
  0
LINE
  5
114
330
D4
100
AcDbEntity
  8
AM_7
100
AcDbLine
 10
-0.5531250000000001
 20
-0.86132304167725
 30
0.0
 11
-0.7593749999999999
 21
-0.86132304167725
 31
0.0
  0
LINE
  5
116
330
D4
100
AcDbEntity
  8
AM_4
100
AcDbLine
 10
-0.05
 20
0.4766008856979193
 30
0.0
 11
-0.05
 21
0.4843750000000001
 31
0.0
  0
LINE
  5
117
330
D4
100
AcDbEntity
  8
AM_4
100
AcDbLine
 10
0.05
 20
0.47659122158665
 30
0.0
 11
0.05
 21
0.4843750000000001
 31
0.0
  0
LINE
  5
118
330
D4
100
AcDbEntity
  8
AM_4
100
AcDbLine
 10
-0.3606370347630252
 20
0.484375
 30
0.0
 11
0.3606370347630252
 21
0.484375
 31
0.0
  0
LWPOLYLINE
  5
119
330
D4
100
AcDbEntity
  8
AM_4
100
AcDbPolyline
 90
        7
 70
     0
 43
0.0
 10
-0.7471638339037145
 20
-0.92649947126287
 10
-0.7479462746587645
 20
-0.9359061480007769
 10
-0.7486956930853401
 20
-0.9439312963935919
 10
-0.7493737494657841
 20
-0.9505834527038549
 10
-0.7498370845266041
 20
-0.9548630113846642
 10
-0.7499987337664696
 20
-0.9563117782123812
 10
-0.7499999999999934
 20
-0.9563230416771931
  0
LINE
  5
11A
330
D4
100
AcDbEntity
  8
AM_4
100
AcDbLine
 10
-0.7499999999999999
 20
-0.5181862080767635
 30
0.0
 11
-0.7499999999999999
 21
-0.7663230416772502
 31
0.0
  0
LINE
  5
11B
330
D4
100
AcDbEntity
  8
AM_4
100
AcDbLine
 10
-0.7499999999999999
 20
-0.9563230416772501
 30
0.0
 11
-0.7499999999999999
 21
-0.9607510000000001
 31
0.0
  0
LINE
  5
11C
330
D4
100
AcDbEntity
  8
AM_4
100
AcDbLine
 10
-0.7337670466904248
 20
-0.5158115
 30
0.0
 11
-0.4388876292695315
 21
-0.5158114999999999
 31
0.0
  0
LWPOLYLINE
  5
11D
330
D4
100
AcDbEntity
  8
AM_4
100
AcDbPolyline
 90
       16
 70
     0
 43
0.0
 10
-0.7499999999999873
 20
-0.7663230416773619
 10
-0.7499890176379512
 20
-0.7664207759015464
 10
-0.749785572221813
 20
-0.7682493664870622
 10
-0.7493301737554963
 20
-0.7724754700661786
 10
-0.7486921589334075
 20
-0.7787508339196177
 10
-0.7479075867801454
 20
-0.7871773874242125
 10
-0.7470559419911073
 20
-0.797550971614479
 10
-0.7462163940333905
 20
-0.8097542791882091
 10
-0.7454760416103974
 20
-0.8236342804798661
 10
-0.744927840945358
 20
-0.8388618575453671
 10
-0.7446500578035411
 20
-0.8549323100293411
 10
-0.7446891965115077
 20
-0.8716260204617956
 10
-0.745047757566378
 20
-0.8878703522269343
 10
-0.7457063781227194
 20
-0.9038159752668018
 10
-0.7463861751547347
 20
-0.9155794281356772
 10
-0.7471638339037145
 20
-0.92649947126287
  0
LINE
  5
11E
330
D4
100
AcDbEntity
  8
AM_4
100
AcDbLine
 10
-0.4270125089193514
 20
-0.4921874999999999
 30
0.0
 11
-0.4388876292695315
 21
-0.5158114999999999
 31
0.0
  0
LINE
  5
11F
330
D4
100
AcDbEntity
  8
AM_4
100
AcDbLine
 10
-0.4388876292695315
 20
-0.5158114999999999
 30
0.0
 11
-0.4388876292695315
 21
-0.9607510000000001
 31
0.0
  0
LINE
  5
120
330
D4
100
AcDbEntity
  8
AM_4
100
AcDbLine
 10
-0.4388876292695315
 20
-0.9607510000000001
 30
0.0
 11
-0.4270125089193514
 21
-0.9843750000000001
 31
0.0
  0
LINE
  5
121
330
D4
100
AcDbEntity
  8
AM_4
100
AcDbLine
 10
-0.7499999999999999
 20
-0.9607510000000001
 30
0.0
 11
-0.7263759999999999
 21
-0.9843750000000001
 31
0.0
  0
LINE
  5
122
330
D4
100
AcDbEntity
  8
AM_4
100
AcDbLine
 10
-0.7499999999999999
 20
-0.9607510000000001
 30
0.0
 11
-0.4388876292695315
 21
-0.9607510000000001
 31
0.0
  0
LINE
  5
123
330
D4
100
AcDbEntity
  8
AM_4
100
AcDbLine
 10
-0.4158178671874905
 20
-0.4921874999999999
 30
0.0
 11
-0.4158178671874905
 21
-0.9843749999999999
 31
0.0
  0
LINE
  5
124
330
D4
100
AcDbEntity
  8
AM_4
100
AcDbLine
 10
0.7461393971638276
 20
-0.5176081108832657
 30
0.0
 11
0.7461393971638276
 21
-0.9607510000000001
 31
0.0
  0
LINE
  5
125
330
D4
100
AcDbEntity
  8
AM_4
100
AcDbLine
 10
-0.3072517678942966
 20
-0.9607510000000001
 30
0.0
 11
-0.3072517678942966
 21
-0.5158114999999999
 31
0.0
  0
LINE
  5
126
330
D4
100
AcDbEntity
  8
AM_4
100
AcDbLine
 10
0.7461393971638276
 20
-0.9607510000000001
 30
0.0
 11
0.7223891564634672
 21
-0.9843749999999999
 31
0.0
  0
LINE
  5
127
330
D4
100
AcDbEntity
  8
AM_4
100
AcDbLine
 10
-0.3072517678942966
 20
-0.9607510000000001
 30
0.0
 11
0.7461393971638276
 21
-0.9607510000000001
 31
0.0
  0
LINE
  5
128
330
D4
100
AcDbEntity
  8
AM_4
100
AcDbLine
 10
-0.2953766475441165
 20
-0.9843750000000001
 30
0.0
 11
-0.3072517678942966
 21
-0.9607510000000001
 31
0.0
  0
LINE
  5
129
330
D4
100
AcDbEntity
  8
AM_4
100
AcDbLine
 10
-0.7263759999999999
 20
-0.9843750000000001
 30
0.0
 11
0.7223891564634672
 21
-0.9843749999999999
 31
0.0
  0
LINE
  5
12A
330
D4
100
AcDbEntity
  8
AM_4
100
AcDbLine
 10
-0.4970751220855003
 20
-0.4921874999999999
 30
0.0
 11
0.4970751220855003
 21
-0.4921874999999999
 31
0.0
  0
LINE
  5
12B
330
D4
100
AcDbEntity
  8
AM_4
100
AcDbLine
 10
-0.3072517678942966
 20
-0.5158114999999999
 30
0.0
 11
-0.2953766475441166
 21
-0.4921874999999999
 31
0.0
  0
LINE
  5
12C
330
D4
100
AcDbEntity
  8
AM_4
100
AcDbLine
 10
-0.3072517678942966
 20
-0.5158114999999999
 30
0.0
 11
0.7337670466904248
 21
-0.5158115
 31
0.0
  0
ENDBLK
  5
D7
330
D4
100
AcDbEntity
  8
0
100
AcDbBlockEnd
  0
BLOCK
  5
12F
330
12D
100
AcDbEntity
  8
0
100
AcDbBlockBegin
  2
4_129421I_0_in_129154_4
 70
     2
 10
0.0
 20
0.0
 30
0.0
  3
4_129421I_0_in_129154_4
  1

  0
ATTDEF
  5
131
330
12D
100
AcDbEntity
  8
AM_6
100
AcDbText
 10
7.625
 20
0.73046875
 30
0.0
 40
0.5
  1
GT-I
100
AcDbAttributeDefinition
  3

  2
NN
 70
     8
280
     0
  0
ATTDEF
  5
132
330
12D
100
AcDbEntity
  8
AM_6
100
AcDbText
 10
7.625
 20
0.23046875
 30
0.0
 40
0.5
  1
GT Normal and Medium Duty Pillow Blocks
100
AcDbAttributeDefinition
  3

  2
NT
 70
     8
280
     0
  0
ATTDEF
  5
133
330
12D
100
AcDbEntity
  8
AM_6
100
AcDbText
 10
7.625
 20
-0.26953125
 30
0.0
 40
0.5
  1
129421I
100
AcDbAttributeDefinition
  3

  2
NB
 70
     8
280
     0
  0
ATTDEF
  5
134
330
12D
100
AcDbEntity
  8
AM_6
100
AcDbText
 10
7.625
 20
-0.76953125
 30
0.0
 40
0.5
  1
$PN.$LUBE.I
100
AcDbAttributeDefinition
  3

  2
NBSYN
 70
     8
280
     0
  0
ATTDEF
  5
135
330
12D
100
AcDbEntity
  8
AM_6
100
AcDbText
 10
7.625
 20
-1.26953125
 30
0.0
 40
0.5
  1
129421
100
AcDbAttributeDefinition
  3

  2
LINA
 70
     8
280
     0
  0
ATTDEF
  5
136
330
12D
100
AcDbEntity
  8
AM_6
100
AcDbText
 10
7.625
 20
-1.76953125
 30
0.0
 40
0.5
  1
204
100
AcDbAttributeDefinition
  3

  2
SERIES
 70
     8
280
     0
  0
ATTDEF
  5
137
330
12D
100
AcDbEntity
  8
AM_6
100
AcDbText
 10
7.625
 20
-2.26953125
 30
0.0
 40
0.5
  1
129421
100
AcDbAttributeDefinition
  3

  2
PN
 70
     8
280
     0
  0
ATTDEF
  5
138
330
12D
100
AcDbEntity
  8
AM_6
100
AcDbText
 10
7.625
 20
-2.76953125
 30
0.0
 40
0.5
  1
P2B-GT-04
100
AcDbAttributeDefinition
  3

  2
DESCRIPTION
 70
     8
280
     0
  0
ATTDEF
  5
139
330
12D
100
AcDbEntity
  8
AM_6
100
AcDbText
 10
7.625
 20
-3.26953125
 30
0.0
 40
0.5
  1
1-15/32
100
AcDbAttributeDefinition
  3

  2
A
 70
     8
280
     0
  0
ATTDEF
  5
13A
330
12D
100
AcDbEntity
  8
AM_6
100
AcDbText
 10
7.625
 20
-3.76953125
 30
0.0
 40
0.5
  1
5-1/4
100
AcDbAttributeDefinition
  3

  2
B
 70
     8
280
     0
  0
ATTDEF
  5
13B
330
12D
100
AcDbEntity
  8
AM_6
100
AcDbText
 10
7.625
 20
-4.26953125
 30
0.0
 40
0.5
  1
1-21/64
100
AcDbAttributeDefinition
  3

  2
C
 70
     8
280
     0
  0
ATTDEF
  5
13C
330
12D
100
AcDbEntity
  8
AM_6
100
AcDbText
 10
7.625
 20
-4.76953125
 30
0.0
 40
0.5
  1
3-3/8
100
AcDbAttributeDefinition
  3

  2
DMIN
 70
     8
280
     0
  0
ATTDEF
  5
13D
330
12D
100
AcDbEntity
  8
AM_6
100
AcDbText
 10
7.625
 20
-5.26953125
 30
0.0
 40
0.5
  1
4-3/16
100
AcDbAttributeDefinition
  3

  2
DMAX
 70
     8
280
     0
  0
ATTDEF
  5
13E
330
12D
100
AcDbEntity
  8
AM_6
100
AcDbText
 10
7.625
 20
-5.76953125
 30
0.0
 40
0.5
  1
3/8
100
AcDbAttributeDefinition
  3

  2
F
 70
     8
280
     0
  0
ATTDEF
  5
13F
330
12D
100
AcDbEntity
  8
AM_6
100
AcDbText
 10
7.625
 20
-6.26953125
 30
0.0
 40
0.5
  1
27/32
100
AcDbAttributeDefinition
  3

  2
G
 70
     8
280
     0
  0
ATTDEF
  5
140
330
12D
100
AcDbEntity
  8
AM_6
100
AcDbText
 10
7.625
 20
-6.76953125
 30
0.0
 40
0.5
  1
33/64
100
AcDbAttributeDefinition
  3

  2
H
 70
     8
280
     0
  0
ATTDEF
  5
141
330
12D
100
AcDbEntity
  8
AM_6
100
AcDbText
 10
7.625
 20
-7.26953125
 30
0.0
 40
0.5
  1
2-35/64
100
AcDbAttributeDefinition
  3

  2
J
 70
     8
280
     0
  0
ATTDEF
  5
142
330
12D
100
AcDbEntity
  8
AM_6
100
AcDbText
 10
7.625
 20
-7.76953125
 30
0.0
 40
0.5
  1
1-1/2
100
AcDbAttributeDefinition
  3

  2
L
 70
     8
280
     0
  0
ATTDEF
  5
143
330
12D
100
AcDbEntity
  8
AM_6
100
AcDbText
 10
7.625
 20
-8.26953125
 30
0.0
 40
0.5
  1
1-5/16
100
AcDbAttributeDefinition
  3

  2
M
 70
     8
280
     0
  0
ATTDEF
  5
144
330
12D
100
AcDbEntity
  8
AM_6
100
AcDbText
 10
7.625
 20
-8.76953125
 30
0.0
 40
0.5
  1
31/64
100
AcDbAttributeDefinition
  3

  2
R
 70
     8
280
     0
  0
ATTDEF
  5
145
330
12D
100
AcDbEntity
  8
AM_6
100
AcDbText
 10
7.625
 20
-9.26953125
 30
0.0
 40
0.5
  1
63/64
100
AcDbAttributeDefinition
  3

  2
S
 70
     8
280
     0
  0
ATTDEF
  5
146
330
12D
100
AcDbEntity
  8
AM_6
100
AcDbText
 10
7.625
 20
-9.76953125
 30
0.0
 40
0.5
  1
2-1/4
100
AcDbAttributeDefinition
  3

  2
U
 70
     8
280
     0
  0
ATTDEF
  5
147
330
12D
100
AcDbEntity
  8
AM_6
100
AcDbText
 10
7.625
 20
-10.26953125
 30
0.0
 40
0.5
  1
4-1/2
100
AcDbAttributeDefinition
  3

  2
V
 70
     8
280
     0
  0
ATTDEF
  5
148
330
12D
100
AcDbEntity
  8
AM_6
100
AcDbText
 10
7.625
 20
-10.76953125
 30
0.0
 40
0.5
  1
1/2
100
AcDbAttributeDefinition
  3

  2
W
 70
     8
280
     0
  0
ATTDEF
  5
149
330
12D
100
AcDbEntity
  8
AM_6
100
AcDbText
 10
7.625
 20
-11.26953125
 30
0.0
 40
0.5
  1
1/8
100
AcDbAttributeDefinition
  3

  2
X
 70
     8
280
     0
  0
ATTDEF
  5
14A
330
12D
100
AcDbEntity
  8
AM_6
100
AcDbText
 10
7.625
 20
-11.76953125
 30
0.0
 40
0.5
  1
63/64
100
AcDbAttributeDefinition
  3

  2
Z
 70
     8
280
     0
  0
ATTDEF
  5
14B
330
12D
100
AcDbEntity
  8
AM_6
100
AcDbText
 10
7.625
 20
-12.26953125
 30
0.0
 40
0.5
  1
baldor
100
AcDbAttributeDefinition
  3

  2
COMPANY
 70
     8
280
     0
  0
LINE
  5
14C
330
12D
100
AcDbEntity
  8
AM_9
100
AcDbLine
 10
-0.9961949
 20
-0.5666667109375002
 30
0.0
 11
-0.9961949
 21
0.5666667109374999
 31
0.0
  0
LINE
  5
14D
330
12D
100
AcDbEntity
  8
AM_9
100
AcDbLine
 10
-1.05525
 20
-0.6640625000000001
 30
0.0
 11
-1.05525
 21
0.6640624999999998
 31
0.0
  0
LINE
  5
14E
330
12D
100
AcDbEntity
  8
AM_9
100
AcDbLine
 10
1.05525
 20
-0.6640625000000001
 30
0.0
 11
1.05525
 21
0.6640624999999998
 31
0.0
  0
LINE
  5
14F
330
12D
100
AcDbEntity
  8
AM_9
100
AcDbLine
 10
0.9961948999999996
 20
-0.5666667109375
 30
0.0
 11
0.9961948999999996
 21
0.5666667109375001
 31
0.0
  0
LWPOLYLINE
  5
150
330
12D
100
AcDbEntity
  8
AM_9
100
AcDbPolyline
 90
        5
 70
     0
 43
0.0
 10
1.002725886085303
 20
-0.0909214090671168
 10
0.9993620574289233
 20
-0.0460980447457687
 10
0.9981104495802818
 20
-0.0008744807129145
 10
0.9993053527654221
 20
0.0450211226067941
 10
1.002725886085303
 20
0.0909214090671169
  0
LINE
  5
151
330
12D
100
AcDbEntity
  8
AM_9
100
AcDbLine
 10
1.002725886085303
 20
-0.0909214090671168
 30
0.0
 11
1.090930389584657
 21
-0.0909214090671168
 31
0.0
  0
LINE
  5
152
330
12D
100
AcDbEntity
  8
AM_9
100
AcDbLine
 10
1.002725886085303
 20
0.0909214090671169
 30
0.0
 11
1.090930389584657
 21
0.0909214090671169
 31
0.0
  0
LINE
  5
153
330
12D
100
AcDbEntity
  8
AM_9
100
AcDbLine
 10
0.9252
 20
-0.5666667109375
 30
0.0
 11
0.9252
 21
0.5666667109375002
 31
0.0
  0
LINE
  5
154
330
12D
100
AcDbEntity
  8
AM_9
100
AcDbLine
 10
-0.9252
 20
0.5666667109375002
 30
0.0
 11
-0.9252
 21
-0.5666667109375001
 31
0.0
  0
LINE
  5
155
330
12D
100
AcDbEntity
  8
AM_9
100
AcDbLine
 10
0.7461393971638274
 20
-0.5666667109375
 30
0.0
 11
-0.7499999999999999
 21
-0.5666667109375002
 31
0.0
  0
LINE
  5
156
330
12D
100
AcDbEntity
  8
AM_9
100
AcDbLine
 10
0.8867543653701412
 20
0.1102360000000001
 30
0.0
 11
0.8728124573600163
 21
0.1102360000000001
 31
0.0
  0
LINE
  5
157
330
12D
100
AcDbEntity
  8
AM_9
100
AcDbLine
 10
0.8728323601011725
 20
-0.110236
 30
0.0
 11
0.8867543653701412
 21
-0.110236
 31
0.0
  0
LWPOLYLINE
  5
158
330
12D
100
AcDbEntity
  8
AM_9
100
AcDbPolyline
 90
       20
 70
     0
 43
0.0
 10
0.8728421862384311
 20
0.1102359995227557
 10
0.8639136204408295
 20
0.1095189599737673
 10
0.8508635690581449
 20
0.1058666029968949
 10
0.8382615035742139
 20
0.0992553051030897
 10
0.8264856787975057
 20
0.0898185753947255
 10
0.8159141077262992
 20
0.0778676953575934
 10
0.8068809559909099
 20
0.063652364092854
 10
0.7997055698258603
 20
0.0476385833479963
 10
0.7946643364754299
 20
0.0302532861680996
 10
0.7919040906011525
 20
0.0120085963296503
 10
0.7915566561302056
 20
-0.0065183661311389
 10
0.793584637707732
 20
-0.0248610815486146
 10
0.7979416849046134
 20
-0.0424631763037059
 10
0.8044424461851523
 20
-0.0588733299481636
 10
0.812917958974523
 20
-0.0736497322207745
 10
0.8230414296383378
 20
-0.086357286123292
 10
0.8345349441085586
 20
-0.0966333926058053
 10
0.8469865043788775
 20
-0.104181895635488
 10
0.8599962983307297
 20
-0.1087412671270369
 10
0.8728372578040489
 20
-0.1102359999509737
  0
LWPOLYLINE
  5
159
330
12D
100
AcDbEntity
  8
AM_9
100
AcDbPolyline
 90
       12
 70
     0
 43
0.0
 10
0.8728372578040489
 20
-0.1102359999509737
 10
0.8731846597289555
 20
-0.1102348900321755
 10
0.8861193948678762
 20
-0.1085864998467811
 10
0.8984958749553523
 20
-0.1038980082745825
 10
0.9099745124775015
 20
-0.0962634491898614
 10
0.9202870785092119
 20
-0.0859389004864825
 10
0.9291994535769423
 20
-0.0731320052570167
 10
0.9364937007780629
 20
-0.0582655517615434
 10
0.9419954314798801
 20
-0.0417029179494235
 10
0.9455980855678389
 20
-0.0239563729848275
 10
0.9468694082620963
 20
-0.0120507206449659
 10
0.9472959832030782
 20
0.0
  0
LWPOLYLINE
  5
15A
330
12D
100
AcDbEntity
  8
AM_9
100
AcDbPolyline
 90
        5
 70
     0
 43
0.0
 10
1.002725886085303
 20
0.0909214090671169
 10
0.9719134646433794
 20
0.1133330912277909
 10
0.9429681927370942
 20
0.135944873244218
 10
0.9160578935296168
 20
0.1588926749040724
 10
0.8913703566306546
 20
0.1818428181342338
  0
LWPOLYLINE
  5
15B
330
12D
100
AcDbEntity
  8
AM_9
100
AcDbPolyline
 90
        5
 70
     0
 43
0.0
 10
0.8913703566306546
 20
-0.1818428181342336
 10
0.915455120759819
 20
-0.1594311359735595
 10
0.9418971769688214
 20
-0.1368193539571324
 10
0.9711972825465797
 20
-0.1138715522972782
 10
1.002725886085303
 20
-0.0909214090671168
  0
ELLIPSE
  5
15C
330
12D
100
AcDbEntity
  8
AM_9
100
AcDbEllipse
 10
0.8867543653701411
 20
0.0000000000000001
 30
0.0
 11
-2.892860668945895E-17
 21
-0.1574800000000009
 31
0.0
210
0.0
220
0.0
230
1.0
 40
0.7071067811865478
 41
0.0
 42
6.283185307179586
  0
ELLIPSE
  5
15D
330
12D
100
AcDbEntity
  8
AM_9
100
AcDbEllipse
 10
0.9841908513905233
 20
0.0000000000000002
 30
0.0
 11
6.750008227540349E-18
 21
0.1102359999999995
 31
0.0
210
0.0
220
0.0
230
1.0
 40
0.7071067811865478
 41
3.141592653589793
 42
6.283185307179586
  0
ELLIPSE
  5
15E
330
12D
100
AcDbEntity
  8
AM_9
100
AcDbEllipse
 10
0.9981102483781785
 20
-0.0000000000000009
 30
0.0
 11
6.750008227540435E-18
 21
0.1102360000000009
 31
0.0
210
0.0
220
0.0
230
1.0
 40
0.7071067811865549
 41
5.244388595674399
 42
5.688483476420677
  0
LINE
  5
15F
330
12D
100
AcDbEntity
  8
AM_9
100
AcDbLine
 10
1.090930389584657
 20
-0.0909214090671168
 30
0.0
 11
1.075476205071076
 21
-0.1055020495850065
 31
0.0
  0
LWPOLYLINE
  5
160
330
12D
100
AcDbEntity
  8
AM_9
100
AcDbPolyline
 90
        5
 70
     0
 43
0.0
 10
1.090930389584657
 20
0.0909214090671169
 10
1.094294218241037
 20
0.0460980447457688
 10
1.095545826089678
 20
0.0008744807129146
 10
1.094350922904538
 20
-0.0450211226067939
 10
1.090930389584657
 20
-0.0909214090671168
  0
LINE
  5
161
330
12D
100
AcDbEntity
  8
AM_9
100
AcDbLine
 10
1.075368183491538
 20
0.1056014632625462
 30
0.0
 11
1.090930389584657
 21
0.0909214090671169
 31
0.0
  0
ELLIPSE
  5
162
330
12D
100
AcDbEntity
  8
AM_9
100
AcDbEllipse
 10
0.9841908513905226
 20
-0.0000000000000007
 30
0.0
 11
9.642868896486340E-18
 21
0.1574800000000013
 31
0.0
210
0.0
220
0.0
230
1.0
 40
0.7071067811865454
 41
3.99017660332292
 42
5.437094076234017
  0
ELLIPSE
  5
163
330
12D
100
AcDbEntity
  8
AM_9
100
AcDbEllipse
 10
0.9981102483781812
 20
-0.0000000000000048
 30
0.0
 11
6.750008227539924E-18
 21
0.1102359999999925
 31
0.0
210
0.0
220
0.0
230
1.0
 40
0.7071067811865661
 41
3.736034832659012
 42
4.139666386113882
  0
LWPOLYLINE
  5
164
330
12D
100
AcDbEntity
  8
AM_9
100
AcDbPolyline
 90
        3
 70
     0
 43
0.0
 10
1.023790713691708
 20
-0.0717561565647488
 10
1.021334828150722
 20
-0.0681439768275449
 10
1.020510351127982
 20
-0.0668255304526101
  0
LWPOLYLINE
  5
165
330
12D
100
AcDbEntity
  8
AM_9
100
AcDbPolyline
 90
        3
 70
     0
 43
0.0
 10
1.026999657010237
 20
-0.0758352566702814
 10
1.024878303793069
 20
-0.0732159800679744
 10
1.023790713691708
 20
-0.0717561565647488
  0
LWPOLYLINE
  5
166
330
12D
100
AcDbEntity
  8
AM_9
100
AcDbPolyline
 90
       25
 70
     0
 43
0.0
 10
1.076053660220624
 20
0.0000000000000001
 10
1.07597781547666
 20
-0.0048468414917397
 10
1.075342172277595
 20
-0.0148062898467484
 10
1.074078581619667
 20
-0.02453997587347
 10
1.072227371230624
 20
-0.0338892505215149
 10
1.069849034151465
 20
-0.0427095883113364
 10
1.067023508991729
 20
-0.0508700038675693
 10
1.063848721661664
 20
-0.0582575355490497
 10
1.060438363749067
 20
-0.0647818197658816
 10
1.056918763260776
 20
-0.0703795124395826
 10
1.05342673835587
 20
-0.0750158559585379
 10
1.050106737014714
 20
-0.0786876107033735
 10
1.047095739040041
 20
-0.0814359608359831
 10
1.044518869033454
 20
-0.0833408492632525
 10
1.042479953223939
 20
-0.0845200255529461
 10
1.041047364080394
 20
-0.0851272896777728
 10
1.040223977824567
 20
-0.0853489272506316
 10
1.039851354003886
 20
-0.0853850375595103
 10
1.039354421963843
 20
-0.0853173159743057
 10
1.038355698519401
 20
-0.0850063804951631
 10
1.036730885344387
 20
-0.0842471802752691
 10
1.034558648046785
 20
-0.0828947969298427
 10
1.031619992569672
 20
-0.0805656307050802
 10
1.028348723894738
 20
-0.0773514480036838
 10
1.026999657010237
 20
-0.0758352566702814
  0
LWPOLYLINE
  5
167
330
12D
100
AcDbEntity
  8
AM_9
100
AcDbPolyline
 90
       24
 70
     0
 43
0.0
 10
1.029576062897197
 20
0.0786333766919545
 10
1.03095983686559
 20
0.0799691428870082
 10
1.033799957236649
 20
0.0823456883696288
 10
1.036158403351423
 20
0.0839244645538693
 10
1.037944232405049
 20
0.0848388543950917
 10
1.039111561372492
 20
0.0852572198071255
 10
1.039706075678539
 20
0.0853763924927146
 10
1.040054762140641
 20
0.0853738093124824
 10
1.040780798005475
 20
0.0852126932476591
 10
1.042088170388971
 20
0.0847073270765242
 10
1.043987038462676
 20
0.0836787385906229
 10
1.046389200941192
 20
0.0820006037967545
 10
1.0494839565976
 20
0.0793010675962422
 10
1.052855774017118
 20
0.0756963950327243
 10
1.056372893571053
 20
0.0711604811820558
 10
1.059909227865964
 20
0.0656900628024113
 10
1.063340870713484
 20
0.0593101465499005
 10
1.066546941269129
 20
0.0520798647914491
 10
1.069418864346517
 20
0.0440809006704669
 10
1.071862649808446
 20
0.0354120413045354
 10
1.073798494200643
 20
0.0261915199750186
 10
1.07516303219035
 20
0.0165534892567554
 10
1.075911055264293
 20
0.006644231300704
 10
1.076053660220624
 20
0.0000000000000001
  0
LINE
  5
168
330
12D
100
AcDbEntity
  8
AM_9
100
AcDbLine
 10
1.020354540181328
 20
0.0665699847787012
 30
0.0
 11
1.021125177432257
 21
0.0678140189585664
 31
0.0
  0
ELLIPSE
  5
169
330
12D
100
AcDbEntity
  8
AM_9
100
AcDbEllipse
 10
1.075192445982509
 20
-0.0000000000000064
 30
0.0
 11
6.258279876479817E-18
 21
0.1022054666020778
 31
0.0
210
0.0
220
0.0
230
1.0
 40
0.7071067811868356
 41
-3.999081141364143
 42
-3.852958565003886
  0
ELLIPSE
  5
16A
330
12D
100
AcDbEntity
  8
AM_9
100
AcDbEllipse
 10
1.075192445982473
 20
0.0000000000000001
 30
0.0
 11
6.258279876480412E-18
 21
0.1022054666020876
 31
0.0
210
0.0
220
0.0
230
1.0
 40
0.7071067811865489
 41
2.44780655576658
 42
7.121050739791968
  0
ELLIPSE
  5
16B
330
12D
100
AcDbEntity
  8
AM_9
100
AcDbEllipse
 10
1.090081610269325
 20
-0.0000000000000004
 30
0.0
 11
6.365617546288512E-18
 21
0.1039584237793379
 31
0.0
210
0.0
220
0.0
230
1.0
 40
0.7071067811865442
 41
3.700828904437188
 42
5.716891003872729
  0
ELLIPSE
  5
16C
330
12D
100
AcDbEntity
  8
AM_9
100
AcDbEllipse
 10
1.134324524859319
 20
-0.0000000000000006
 30
0.0
 11
4.354225479599060E-18
 21
0.07110989850511414
 31
0.0
210
0.0
220
0.0
230
1.0
 40
0.7071067811865551
 41
3.813752789385163
 42
5.650995746307089
  0
LINE
  5
16D
330
12D
100
AcDbEntity
  8
AM_9
100
AcDbLine
 10
1.159599346066123
 20
-0.0595605748476727
 30
0.0
 11
1.159803652408272
 21
-0.0613443333841824
 31
0.0
  0
LWPOLYLINE
  5
16E
330
12D
100
AcDbEntity
  8
AM_9
100
AcDbPolyline
 90
        8
 70
     0
 43
0.0
 10
1.159589859615198
 20
0.059476433811205
 10
1.159366415028116
 20
0.0573248578340671
 10
1.157321951343667
 20
0.0335006611713577
 10
1.156330090643318
 20
0.0092244183564943
 10
1.156414311087853
 20
-0.0127577128343596
 10
1.157391672055997
 20
-0.0346408598564438
 10
1.159208924611507
 20
-0.0559919830410542
 10
1.159599346066123
 20
-0.0595605748476727
  0
LINE
  5
16F
330
12D
100
AcDbEntity
  8
AM_9
100
AcDbLine
 10
1.159802627423481
 20
0.0613355156156522
 30
0.0
 11
1.159589859615198
 21
0.059476433811205
 31
0.0
  0
LWPOLYLINE
  5
170
330
12D
100
AcDbEntity
  8
AM_9
100
AcDbPolyline
 90
       11
 70
     0
 43
0.0
 10
0.9472959832030782
 20
0.0
 10
0.9462861959336333
 20
0.018463837871637
 10
0.9433034326362248
 20
0.0364062244711372
 10
0.9383855420587601
 20
0.0533055391020977
 10
0.9316601329155397
 20
0.0687068587602988
 10
0.9232253919909149
 20
0.082186025252401
 10
0.9133061198036466
 20
0.0933527438505038
 10
0.9020940362924584
 20
0.1018687695367853
 10
0.8898994021040219
 20
0.1075077210409645
 10
0.8770625449259408
 20
0.1100616045841765
 10
0.8728421862384311
 20
0.1102359995227557
  0
ELLIPSE
  5
171
330
12D
100
AcDbEntity
  8
AM_9
100
AcDbEllipse
 10
0.8867543653701413
 20
-0.0000000000000001
 30
0.0
 11
6.750008227540376E-18
 21
0.1102359999999999
 31
0.0
210
0.0
220
0.0
230
1.0
 40
0.707106781186547
 41
0.0
 42
6.283185307179586
  0
LINE
  5
172
330
12D
100
AcDbEntity
  8
AM_7
100
AcDbLine
 10
-2.315625
 20
-0.5000000000000002
 30
0.0
 11
-2.184375
 21
-0.5000000000000002
 31
0.0
  0
LINE
  5
173
330
12D
100
AcDbEntity
  8
AM_7
100
AcDbLine
 10
-2.25
 20
-0.5656250000000003
 30
0.0
 11
-2.25
 21
-0.4343750000000002
 31
0.0
  0
LINE
  5
174
330
12D
100
AcDbEntity
  8
AM_7
100
AcDbLine
 10
2.184375
 20
-0.4999999999999999
 30
0.0
 11
2.315625
 21
-0.4999999999999999
 31
0.0
  0
LINE
  5
175
330
12D
100
AcDbEntity
  8
AM_7
100
AcDbLine
 10
2.25
 20
-0.5656249999999999
 30
0.0
 11
2.25
 21
-0.434375
 31
0.0
  0
LINE
  5
176
330
12D
100
AcDbEntity
  8
AM_7
100
AcDbLine
 10
0.0
 20
0.73046875
 30
0.0
 11
0.0
 21
-1.0578125
 31
0.0
  0
LINE
  5
177
330
12D
100
AcDbEntity
  8
AM_7
100
AcDbLine
 10
1.4578125
 20
0.0000000000000001
 30
0.0
 11
2.3234375
 21
0.0000000000000001
 31
0.0
  0
LINE
  5
178
330
12D
100
AcDbEntity
  8
AM_7
100
AcDbLine
 10
1.6875
 20
-0.2296874999999999
 30
0.0
 11
1.6875
 21
0.2296875000000001
 31
0.0
  0
LINE
  5
179
330
12D
100
AcDbEntity
  8
AM_7
100
AcDbLine
 10
-2.3234375
 20
0.0000000000000002
 30
0.0
 11
-1.4578125
 21
0.0
 31
0.0
  0
LINE
  5
17A
330
12D
100
AcDbEntity
  8
AM_7
100
AcDbLine
 10
-1.6875
 20
-0.2296875
 30
0.0
 11
-1.6875
 21
0.2296875
 31
0.0
  0
LINE
  5
17B
330
12D
100
AcDbEntity
  8
AM_7
100
AcDbLine
 10
2.09375
 20
-0.2296874999999999
 30
0.0
 11
2.09375
 21
0.2296875000000001
 31
0.0
  0
LINE
  5
17C
330
12D
100
AcDbEntity
  8
AM_7
100
AcDbLine
 10
-2.09375
 20
-0.2296874999999999
 30
0.0
 11
-2.09375
 21
0.2296875000000002
 31
0.0
  0
LINE
  5
17D
330
12D
100
AcDbEntity
  8
AM_4
100
AcDbLine
 10
2.4915625
 20
0.6640625000000001
 30
0.0
 11
1.05
 21
0.6640624999999998
 31
0.0
  0
LINE
  5
17E
330
12D
100
AcDbEntity
  8
AM_4
100
AcDbLine
 10
2.625
 20
-0.5306249999999999
 30
0.0
 11
2.625
 21
0.5306250000000002
 31
0.0
  0
LINE
  5
17F
330
12D
100
AcDbEntity
  8
AM_4
100
AcDbLine
 10
2.625
 20
0.5306250000000002
 30
0.0
 11
2.4915625
 21
0.6640625000000001
 31
0.0
  0
LINE
  5
180
330
12D
100
AcDbEntity
  8
AM_4
100
AcDbLine
 10
-1.05
 20
0.6640624999999998
 30
0.0
 11
-2.4915625
 21
0.6640624999999998
 31
0.0
  0
LINE
  5
181
330
12D
100
AcDbEntity
  8
AM_4
100
AcDbLine
 10
-2.625
 20
0.5306249999999998
 30
0.0
 11
-2.625
 21
-0.5306250000000002
 31
0.0
  0
LINE
  5
182
330
12D
100
AcDbEntity
  8
AM_4
100
AcDbLine
 10
-2.4915625
 20
0.6640624999999998
 30
0.0
 11
-2.625
 21
0.5306249999999998
 31
0.0
  0
LINE
  5
183
330
12D
100
AcDbEntity
  8
AM_4
100
AcDbLine
 10
-2.09375
 20
-0.2187499999999999
 30
0.0
 11
-1.6875
 21
-0.21875
 31
0.0
  0
ARC
  5
184
330
12D
100
AcDbEntity
  8
AM_4
100
AcDbCircle
 10
-1.6312402
 20
0.6099902000000004
 30
0.0
 40
0.0787402000000004
100
AcDbArc
 50
270.0
 51
0.0
  0
ARC
  5
185
330
12D
100
AcDbEntity
  8
AM_4
100
AcDbCircle
 10
-2.09375
 20
0.0000000000000001
 30
0.0
 40
0.21875
100
AcDbArc
 50
90.0
 51
270.0
  0
ARC
  5
186
330
12D
100
AcDbEntity
  8
AM_4
100
AcDbCircle
 10
-1.6875
 20
0.0
 30
0.0
 40
0.21875
100
AcDbArc
 50
270.0
 51
90.0
  0
LINE
  5
187
330
12D
100
AcDbEntity
  8
AM_4
100
AcDbLine
 10
-1.6875
 20
0.2187500000000001
 30
0.0
 11
-2.09375
 21
0.2187500000000001
 31
0.0
  0
LINE
  5
188
330
12D
100
AcDbEntity
  8
AM_4
100
AcDbLine
 10
-2.625
 20
-0.5306250000000005
 30
0.0
 11
-2.4915625
 21
-0.6640625000000001
 31
0.0
  0
ARC
  5
189
330
12D
100
AcDbEntity
  8
AM_4
100
AcDbCircle
 10
-2.093750000000001
 20
0.0000000000000022
 30
0.0
 40
0.5312499999999982
100
AcDbArc
 50
90.0
 51
152.7275240760312
  0
LINE
  5
18A
330
12D
100
AcDbEntity
  8
AM_4
100
AcDbLine
 10
-2.09375
 20
0.5312500000000003
 30
0.0
 11
-1.6312402
 21
0.53125
 31
0.0
  0
CIRCLE
  5
18B
330
12D
100
AcDbEntity
  8
AM_4
100
AcDbCircle
 10
-2.25
 20
-0.5000000000000002
 30
0.0
 40
0.0625
  0
LINE
  5
18C
330
12D
100
AcDbEntity
  8
AM_4
100
AcDbLine
 10
-1.05
 20
-0.6640625000000001
 30
0.0
 11
-2.4915625
 21
-0.6640625000000001
 31
0.0
  0
LINE
  5
18D
330
12D
100
AcDbEntity
  8
AM_4
100
AcDbLine
 10
-2.5659449
 20
-0.5896801000000005
 30
0.0
 11
-2.5659449
 21
0.2434307682155036
 31
0.0
  0
LWPOLYLINE
  5
18E
330
12D
100
AcDbEntity
  8
AM_4
100
AcDbPolyline
 90
       10
 70
     0
 43
0.0
 10
-2.5659449
 20
0.2434307682155036
 10
-2.577049784479887
 20
0.2205626460253305
 10
-2.587069660633993
 20
0.1971351691909946
 10
-2.596039452360792
 20
0.1730082903998997
 10
-2.603801101996632
 20
0.148574681059801
 10
-2.612978235358409
 20
0.1123770532920032
 10
-2.619570521894724
 20
0.0757584401526347
 10
-2.623608138342524
 20
0.038430661355179
 10
-2.624999291370532
 20
0.0008677086533993
 10
-2.625
 20
0.0000000000000001
  0
LINE
  5
18F
330
12D
100
AcDbEntity
  8
AM_4
100
AcDbLine
 10
2.4915625
 20
-0.6640625000000001
 30
0.0
 11
2.625
 21
-0.5306249999999999
 31
0.0
  0
CIRCLE
  5
190
330
12D
100
AcDbEntity
  8
AM_4
100
AcDbCircle
 10
2.25
 20
-0.4999999999999999
 30
0.0
 40
0.0625
  0
LINE
  5
191
330
12D
100
AcDbEntity
  8
AM_4
100
AcDbLine
 10
2.09375
 20
0.21875
 30
0.0
 11
1.6875
 21
0.2187500000000001
 31
0.0
  0
ARC
  5
192
330
12D
100
AcDbEntity
  8
AM_4
100
AcDbCircle
 10
2.09375
 20
0.0
 30
0.0
 40
0.2187499999999999
100
AcDbArc
 50
270.0
 51
90.0
  0
LINE
  5
193
330
12D
100
AcDbEntity
  8
AM_4
100
AcDbLine
 10
1.6875
 20
-0.2187499999999999
 30
0.0
 11
2.09375
 21
-0.2187499999999999
 31
0.0
  0
ARC
  5
194
330
12D
100
AcDbEntity
  8
AM_4
100
AcDbCircle
 10
1.6875
 20
0.0000000000000001
 30
0.0
 40
0.21875
100
AcDbArc
 50
90.0
 51
270.0
  0
ARC
  5
195
330
12D
100
AcDbEntity
  8
AM_4
100
AcDbCircle
 10
1.6312402
 20
0.6099902000000001
 30
0.0
 40
0.0787402000000001
100
AcDbArc
 50
180.0
 51
270.0
  0
LINE
  5
196
330
12D
100
AcDbEntity
  8
AM_4
100
AcDbLine
 10
2.4915625
 20
-0.6640625000000001
 30
0.0
 11
1.05
 21
-0.6640625000000001
 31
0.0
  0
ARC
  5
197
330
12D
100
AcDbEntity
  8
AM_4
100
AcDbCircle
 10
2.09375
 20
-0.0000000000000008
 30
0.0
 40
0.5312500000000009
100
AcDbArc
 50
27.27247592396917
 51
90.0
  0
LINE
  5
198
330
12D
100
AcDbEntity
  8
AM_4
100
AcDbLine
 10
1.6312402
 20
0.5312500000000001
 30
0.0
 11
2.09375
 21
0.53125
 31
0.0
  0
LWPOLYLINE
  5
199
330
12D
100
AcDbEntity
  8
AM_4
100
AcDbPolyline
 90
       10
 70
     0
 43
0.0
 10
2.625
 20
0.0000000000000001
 10
2.624999291370532
 20
0.000867708653385
 10
2.623674590228401
 20
0.0375032154789588
 10
2.61978630930444
 20
0.0742452947557218
 10
2.613187505435361
 20
0.1114057469212831
 10
2.603801101996631
 20
0.1485746810598021
 10
2.596255673818554
 20
0.1723792629064191
 10
2.58748821222113
 20
0.1960845233379784
 10
2.577364480026816
 20
0.219871774469559
 10
2.565944899999999
 20
0.2434307682155047
  0
LINE
  5
19A
330
12D
100
AcDbEntity
  8
AM_4
100
AcDbLine
 10
2.565944899999999
 20
-0.5896801000000005
 30
0.0
 11
2.565944899999999
 21
0.2434307682155047
 31
0.0
  0
LWPOLYLINE
  5
19B
330
12D
100
AcDbEntity
  8
AM_4
100
AcDbPolyline
 90
       13
 70
     0
 43
0.0
 10
-1.552499999999999
 20
-0.5138108236501057
 10
-1.508232151790603
 20
-0.5000895930714542
 10
-1.465328640150966
 20
-0.4825623787271768
 10
-1.424115986710515
 20
-0.4613625733016546
 10
-1.384907844646813
 20
-0.4366515201149687
 10
-1.348002611595487
 20
-0.4086172852028112
 10
-1.313681158664048
 20
-0.3774732260203976
 10
-1.282204692833163
 20
-0.3434563676634033
 10
-1.253812769013815
 20
-0.3068255989638658
 10
-1.228721466889781
 20
-0.2678597021898511
 10
-1.207121746420768
 20
-0.2268552313440614
 10
-1.189177994521814
 20
-0.1841242552088096
 10
-1.175222006570305
 20
-0.1407047261027345
  0
LINE
  5
19C
330
12D
100
AcDbEntity
  8
AM_4
100
AcDbLine
 10
-1.552499999999999
 20
-0.6640625000000001
 30
0.0
 11
-1.552499999999999
 21
-0.5138108236501057
 31
0.0
  0
LWPOLYLINE
  5
19D
330
12D
100
AcDbEntity
  8
AM_4
100
AcDbPolyline
 90
       13
 70
     0
 43
0.0
 10
-1.175222006570305
 20
0.1407047261027342
 10
-1.189434603907849
 20
0.18481727115064
 10
-1.207437779649764
 20
0.2275232451693699
 10
-1.229094518758037
 20
0.2684976299100694
 10
-1.254240000371359
 20
0.3074285855638517
 10
-1.282682852191396
 20
0.3440198240510379
 10
-1.314206606941533
 20
0.3779928639523464
 10
-1.348571349813559
 20
0.409089149920646
 10
-1.385515544364217
 20
0.4370720204432673
 10
-1.424758022965464
 20
0.4617285089790137
 10
-1.466000126659887
 20
0.4828709647621335
 10
-1.508927978135708
 20
0.5003384809379533
 10
-1.552499999999999
 20
0.5138108236501053
  0
LINE
  5
19E
330
12D
100
AcDbEntity
  8
AM_4
100
AcDbLine
 10
-1.552499999999999
 20
0.5138108236501053
 30
0.0
 11
-1.552499999999999
 21
0.6640624999999998
 31
0.0
  0
LWPOLYLINE
  5
19F
330
12D
100
AcDbEntity
  8
AM_4
100
AcDbPolyline
 90
       13
 70
     0
 43
0.0
 10
1.5525
 20
0.5138108236501057
 10
1.508232151790603
 20
0.5000895930714543
 10
1.465328640150966
 20
0.4825623787271768
 10
1.424115986710515
 20
0.4613625733016547
 10
1.384907844646813
 20
0.4366515201149687
 10
1.348002611595487
 20
0.4086172852028113
 10
1.313681158664048
 20
0.3774732260203978
 10
1.282204692833163
 20
0.3434563676634036
 10
1.253812769013815
 20
0.306825598963866
 10
1.228721466889781
 20
0.2678597021898513
 10
1.207121746420768
 20
0.2268552313440617
 10
1.189177994521814
 20
0.1841242552088099
 10
1.175222006570305
 20
0.1407047261027334
  0
LINE
  5
1A0
330
12D
100
AcDbEntity
  8
AM_4
100
AcDbLine
 10
1.5525
 20
0.5138108236501057
 30
0.0
 11
1.5525
 21
0.6640624999999998
 31
0.0
  0
LWPOLYLINE
  5
1A1
330
12D
100
AcDbEntity
  8
AM_4
100
AcDbPolyline
 90
       13
 70
     0
 43
0.0
 10
1.175222006570305
 20
-0.140704726102733
 10
1.189434603907849
 20
-0.1848172711506388
 10
1.207437779649763
 20
-0.2275232451693689
 10
1.229094518758037
 20
-0.2684976299100684
 10
1.254240000371359
 20
-0.3074285855638508
 10
1.282682852191396
 20
-0.3440198240510369
 10
1.314206606941532
 20
-0.3779928639523457
 10
1.348571349813558
 20
-0.4090891499206455
 10
1.385515544364216
 20
-0.4370720204432668
 10
1.424758022965463
 20
-0.4617285089790133
 10
1.466000126659886
 20
-0.4828709647621331
 10
1.508927978135707
 20
-0.5003384809379531
 10
1.5525
 20
-0.5138108236501056
  0
LINE
  5
1A2
330
12D
100
AcDbEntity
  8
AM_4
100
AcDbLine
 10
1.5525
 20
-0.6640625000000001
 30
0.0
 11
1.5525
 21
-0.5138108236501056
 31
0.0
  0
LINE
  5
1A3
330
12D
100
AcDbEntity
  8
AM_4
100
AcDbLine
 10
-0.7499999999999999
 20
-0.5666667109375002
 30
0.0
 11
-1.05
 21
-0.5666667109375001
 31
0.0
  0
LINE
  5
1A4
330
12D
100
AcDbEntity
  8
AM_4
100
AcDbLine
 10
1.05
 20
-0.5666667109374999
 30
0.0
 11
0.7461393971638274
 21
-0.5666667109375
 31
0.0
  0
LINE
  5
1A5
330
12D
100
AcDbEntity
  8
AM_4
100
AcDbLine
 10
0.9981102483781804
 20
0.1102359999999998
 30
0.0
 11
0.9841908513905229
 21
0.1102359999999998
 31
0.0
  0
LINE
  5
1A6
330
12D
100
AcDbEntity
  8
AM_4
100
AcDbLine
 10
0.9841908513905229
 20
-0.1102359999999997
 30
0.0
 11
0.9981102483781804
 21
-0.1102359999999997
 31
0.0
  0
ELLIPSE
  5
1A7
330
12D
100
AcDbEntity
  8
AM_4
100
AcDbEllipse
 10
0.9841908513905225
 20
0.0000000000000001
 30
0.0
 11
6.750008227540366E-18
 21
0.1102359999999998
 31
0.0
210
0.0
220
0.0
230
1.0
 40
0.707106781186549
 41
0.0
 42
3.141592653589793
  0
ELLIPSE
  5
1A8
330
12D
100
AcDbEntity
  8
AM_4
100
AcDbEllipse
 10
0.9981102483781806
 20
0.0000000000000001
 30
0.0
 11
6.750008227540366E-18
 21
0.1102359999999998
 31
0.0
210
0.0
220
0.0
230
1.0
 40
0.707106781186549
 41
5.688483476420691
 42
10.01922013983859
  0
LINE
  5
1A9
330
12D
100
AcDbEntity
  8
AM_4
100
AcDbLine
 10
0.8913703566306546
 20
0.1818428181342338
 30
0.0
 11
0.9795748601300092
 21
0.1818428181342338
 31
0.0
  0
LWPOLYLINE
  5
1AA
330
12D
100
AcDbEntity
  8
AM_4
100
AcDbPolyline
 90
        5
 70
     0
 43
0.0
 10
0.8913703566306546
 20
0.1818428181342338
 10
0.8605579351887311
 20
0.1594311359735597
 10
0.8316126632824462
 20
0.1368193539571326
 10
0.8047023640749688
 20
0.1138715522972784
 10
0.7800148271760066
 20
0.0909214090671169
  0
LWPOLYLINE
  5
1AB
330
12D
100
AcDbEntity
  8
AM_4
100
AcDbPolyline
 90
        5
 70
     0
 43
0.0
 10
0.7800148271760066
 20
-0.0909214090671168
 10
0.804099591305171
 20
-0.1133330912277909
 10
0.8305416475141731
 20
-0.135944873244218
 10
0.8598417530919316
 20
-0.1588926749040722
 10
0.8913703566306546
 20
-0.1818428181342336
  0
LINE
  5
1AC
330
12D
100
AcDbEntity
  8
AM_4
100
AcDbLine
 10
0.8913703566306546
 20
-0.1818428181342336
 30
0.0
 11
0.9795748601300092
 21
-0.1818428181342336
 31
0.0
  0
LINE
  5
1AD
330
12D
100
AcDbEntity
  8
AM_4
100
AcDbLine
 10
0.7800148271760066
 20
0.0909214090671169
 30
0.0
 11
0.8682193306753612
 21
0.0909214090671169
 31
0.0
  0
LWPOLYLINE
  5
1AE
330
12D
100
AcDbEntity
  8
AM_4
100
AcDbPolyline
 90
        5
 70
     0
 43
0.0
 10
0.7800148271760066
 20
0.0909214090671169
 10
0.776650998519627
 20
0.0460980447457688
 10
0.7753993906709856
 20
0.0008744807129146
 10
0.7765942938561261
 20
-0.045021122606794
 10
0.7800148271760066
 20
-0.0909214090671168
  0
LINE
  5
1AF
330
12D
100
AcDbEntity
  8
AM_4
100
AcDbLine
 10
0.7800148271760066
 20
-0.0909214090671168
 30
0.0
 11
0.8682193306753612
 21
-0.0909214090671168
 31
0.0
  0
LWPOLYLINE
  5
1B0
330
12D
100
AcDbEntity
  8
AM_4
100
AcDbPolyline
 90
        5
 70
     0
 43
0.0
 10
1.075476205071076
 20
-0.1055020495850065
 10
1.066845625455493
 20
-0.1133330912277908
 10
1.040403569246491
 20
-0.135944873244218
 10
1.011103463668732
 20
-0.1588926749040722
 10
0.9795748601300092
 20
-0.1818428181342336
  0
LWPOLYLINE
  5
1B1
330
12D
100
AcDbEntity
  8
AM_4
100
AcDbPolyline
 90
        5
 70
     0
 43
0.0
 10
0.9795748601300092
 20
0.1818428181342338
 10
1.010387281571933
 20
0.1594311359735597
 10
1.039332553478218
 20
0.1368193539571326
 10
1.066242852685695
 20
0.1138715522972784
 10
1.075368183491538
 20
0.1056014632625462
  0
LWPOLYLINE
  5
1B2
330
12D
100
AcDbEntity
  8
AM_4
100
AcDbPolyline
 90
        5
 70
     0
 43
0.0
 10
0.8682193306753612
 20
0.0909214090671169
 10
0.8990317521172847
 20
0.113333091227791
 10
0.9279770240235696
 20
0.1359448732442181
 10
0.9548873232310472
 20
0.1588926749040724
 10
0.9795748601300092
 20
0.1818428181342338
  0
LWPOLYLINE
  5
1B3
330
12D
100
AcDbEntity
  8
AM_4
100
AcDbPolyline
 90
        5
 70
     0
 43
0.0
 10
0.8682193306753612
 20
-0.0909214090671168
 10
0.8715831593317407
 20
-0.0460980447457686
 10
0.8728347671803821
 20
-0.0008744807129145
 10
0.8716398639952416
 20
0.0450211226067941
 10
0.8682193306753612
 20
0.0909214090671169
  0
LWPOLYLINE
  5
1B4
330
12D
100
AcDbEntity
  8
AM_4
100
AcDbPolyline
 90
        5
 70
     0
 43
0.0
 10
0.9795748601300092
 20
-0.1818428181342336
 10
0.9554900960008448
 20
-0.1594311359735596
 10
0.9290480397918427
 20
-0.1368193539571325
 10
0.8997479342140843
 20
-0.1138715522972783
 10
0.8682193306753612
 20
-0.0909214090671168
  0
ELLIPSE
  5
1B5
330
12D
100
AcDbEntity
  8
AM_4
100
AcDbEllipse
 10
0.9841908513905229
 20
0.0
 30
0.0
 11
9.642868896486266E-18
 21
0.1574800000000001
 31
0.0
210
0.0
220
0.0
230
1.0
 40
0.7071067811865479
 41
5.437094076234017
 42
10.2733619105025
  0
ELLIPSE
  5
1B6
330
12D
100
AcDbEntity
  8
AM_4
100
AcDbEllipse
 10
1.075192445982313
 20
-0.0000000000001904
 30
0.0
 11
6.258279876462329E-18
 21
0.1022054666017922
 31
0.0
210
0.0
220
0.0
230
1.0
 40
0.7071067811865824
 41
-4.037710126846479
 42
-3.999081141363908
  0
LWPOLYLINE
  5
1B7
330
12D
100
AcDbEntity
  8
AM_4
100
AcDbPolyline
 90
       15
 70
     0
 43
0.0
 10
1.122872684071885
 20
0.0930865288280103
 10
1.117582431397999
 20
0.0965687547415692
 10
1.109320454981945
 20
0.1008134472166738
 10
1.100791497798392
 20
0.1038406923579149
 10
1.092119030242119
 20
0.1056377171133273
 10
1.083414487317959
 20
0.1062140393180957
 10
1.074774798616009
 20
0.1055921047426383
 10
1.066292139497799
 20
0.1038015715425818
 10
1.058046713581888
 20
0.1008756688941471
 10
1.050105150768245
 20
0.0968447191384664
 10
1.042534986997649
 20
0.0917389759215142
 10
1.035409134813289
 20
0.0855952840662218
 10
1.028806550635916
 20
0.0784650873938724
 10
1.022808534791766
 20
0.0704201544679728
 10
1.020250153068973
 20
0.0663976415865708
  0
LWPOLYLINE
  5
1B8
330
12D
100
AcDbEntity
  8
AM_4
100
AcDbPolyline
 90
        3
 70
     0
 43
0.0
 10
1.129610029457265
 20
0.0876502797419769
 10
1.12544936449193
 20
0.0911489139925593
 10
1.123932238492632
 20
0.092309904839951
  0
LWPOLYLINE
  5
1B9
330
12D
100
AcDbEntity
  8
AM_4
100
AcDbPolyline
 90
       15
 70
     0
 43
0.0
 10
1.02012787136868
 20
-0.0661947756400354
 10
1.025565947215601
 20
-0.0743350389340494
 10
1.032062654895799
 20
-0.0821768503742927
 10
1.039212243637626
 20
-0.089051902963341
 10
1.046916583786706
 20
-0.094855854704314
 10
1.055058612979316
 20
-0.0995061969608172
 10
1.063511131514999
 20
-0.1029499365471666
 10
1.072148035406399
 20
-0.1051648476797416
 10
1.080853277944183
 20
-0.1061539039546858
 10
1.08952500733898
 20
-0.1059361792158184
 10
1.098072283897138
 20
-0.1045387615843863
 10
1.106405907159298
 20
-0.1019950183280942
 10
1.114458101857032
 20
-0.0983361710042614
 10
1.122162282755761
 20
-0.0935919067721672
 10
1.129120895289575
 20
-0.0880867196114631
  0
LINE
  5
1BA
330
12D
100
AcDbEntity
  8
AM_4
100
AcDbLine
 10
1.018686249040255
 20
-0.0637223715316982
 30
0.0
 11
1.02012787136868
 21
-0.0661947756400354
 31
0.0
  0
ELLIPSE
  5
1BB
330
12D
100
AcDbEntity
  8
AM_4
100
AcDbEllipse
 10
1.075192445982473
 20
0.0000000000000001
 30
0.0
 11
6.258279876480411E-18
 21
0.1022054666020875
 31
0.0
210
0.0
220
0.0
230
1.0
 40
0.7071067811865447
 41
0.8635737705774016
 42
2.245475180333159
  0
LINE
  5
1BC
330
12D
100
AcDbEntity
  8
AM_4
100
AcDbLine
 10
1.160722596956733
 20
0.0605219071451573
 30
0.0
 11
1.128674014755221
 21
0.0884794128974547
 31
0.0
  0
LINE
  5
1BD
330
12D
100
AcDbEntity
  8
AM_4
100
AcDbLine
 10
1.128674014755221
 20
-0.0884794128974546
 30
0.0
 11
1.160722596956733
 21
-0.0605219071451572
 31
0.0
  0
ELLIPSE
  5
1BE
330
12D
100
AcDbEntity
  8
AM_4
100
AcDbEllipse
 10
1.090081610269325
 20
0.0000000000000001
 30
0.0
 11
6.365617546288465E-18
 21
0.1039584237793371
 31
0.0
210
0.0
220
0.0
230
1.0
 40
0.7071067811865475
 41
5.730473253052752
 42
9.977490014896214
  0
ELLIPSE
  5
1BF
330
12D
100
AcDbEntity
  8
AM_4
100
AcDbEllipse
 10
1.13432452485932
 20
0.0000000000000001
 30
0.0
 11
4.354225479598962E-18
 21
0.07110989850511254
 31
0.0
210
0.0
220
0.0
230
1.0
 40
0.707106781186546
 41
5.730473253052753
 42
9.977490014896212
  0
ELLIPSE
  5
1C0
330
12D
100
AcDbEntity
  8
AM_4
100
AcDbEllipse
 10
1.134324524859238
 20
-0.000000000000025
 30
0.0
 11
4.354225479600811E-18
 21
0.07110989850514274
 31
0.0
210
0.0
220
0.0
230
1.0
 40
0.7071067811870826
 41
-0.6321895608732309
 42
-0.5527120541277037
  0
ELLIPSE
  5
1C1
330
12D
100
AcDbEntity
  8
AM_4
100
AcDbEllipse
 10
1.137304218254752
 20
0.0000000000000001
 30
0.0
 11
-1.178200542891334E-17
 21
-0.06413825024007704
 31
0.0
210
0.0
220
0.0
230
1.0
 40
0.7071067811865489
 41
0.0
 42
6.283185307179586
  0
LWPOLYLINE
  5
1C2
330
12D
100
AcDbEntity
  8
AM_4
100
AcDbPolyline
 90
        3
 70
     0
 43
0.0
 10
1.168039497139745
 20
0.0528264461802779
 10
1.167025161109002
 20
0.0540693534884486
 10
1.164209538620945
 20
0.057202437639582
  0
LWPOLYLINE
  5
1C3
330
12D
100
AcDbEntity
  8
AM_4
100
AcDbPolyline
 90
        8
 70
     0
 43
0.0
 10
1.184963056995752
 20
0.0000000000000001
 10
1.184837061726661
 20
0.004981018609191
 10
1.183931335341688
 20
0.0141904737400244
 10
1.182161339302868
 20
0.0231803063466761
 10
1.179548474821345
 20
0.0318018673808948
 10
1.176124204933727
 20
0.0399147126834708
 10
1.171930801886844
 20
0.0473822276569699
 10
1.168513701870497
 20
0.0522225679023364
  0
LWPOLYLINE
  5
1C4
330
12D
100
AcDbEntity
  8
AM_4
100
AcDbPolyline
 90
        8
 70
     0
 43
0.0
 10
1.16892895386645
 20
-0.0516812624757639
 10
1.170082184943251
 20
-0.0501134203197359
 10
1.174509067357944
 20
-0.0430366281630538
 10
1.178225687718877
 20
-0.0352336086646642
 10
1.181168592817848
 20
-0.026842247526836
 10
1.183290720773608
 20
-0.0180096817300216
 10
1.184561267578351
 20
-0.0088829181565986
 10
1.184963056995752
 20
0.0000000000000001
  0
LINE
  5
1C5
330
12D
100
AcDbEntity
  8
AM_4
100
AcDbLine
 10
1.165872606606172
 20
-0.0554056313430819
 30
0.0
 11
1.168433902632182
 21
-0.0523252407353873
 31
0.0
  0
ELLIPSE
  5
1C6
330
12D
100
AcDbEntity
  8
AM_4
100
AcDbEllipse
 10
1.134324524859306
 20
0.0000000000000292
 30
0.0
 11
4.354225479601122E-18
 21
0.07110989850514782
 31
0.0
210
0.0
220
0.0
230
1.0
 40
0.7071067811865481
 41
3.69430470771665
 42
3.813752789385099
  0
LINE
  5
1C7
330
12D
100
AcDbEntity
  8
AM_4
100
AcDbLine
 10
-0.243339895183
 20
0.0218509000000001
 30
0.0
 11
-0.243339895183
 21
-0.0218508779411999
 31
0.0
  0
LINE
  5
1C8
330
12D
100
AcDbEntity
  8
AM_4
100
AcDbLine
 10
-0.2464009204580001
 20
0.0335047000000005
 30
0.0
 11
-0.243339895183
 21
0.0218509000000002
 31
0.0
  0
LINE
  5
1C9
330
12D
100
AcDbEntity
  8
AM_4
100
AcDbLine
 10
-0.3290446658729999
 20
-0.0509854606029999
 30
0.0
 11
-0.3290446658729999
 21
0.0509854
 31
0.0
  0
LINE
  5
1CA
330
12D
100
AcDbEntity
  8
AM_4
100
AcDbLine
 10
-0.273948573129
 20
-0.0509854606029999
 30
0.0
 11
-0.3290446658729999
 21
-0.0509854606029999
 31
0.0
  0
LINE
  5
1CB
330
12D
100
AcDbEntity
  8
AM_4
100
AcDbLine
 10
-0.261705259431
 20
-0.0480720732029999
 30
0.0
 11
-0.2739485731290001
 21
-0.0509854606029999
 31
0.0
  0
LINE
  5
1CC
330
12D
100
AcDbEntity
  8
AM_4
100
AcDbLine
 10
-0.2525225773070002
 20
-0.042244904702
 30
0.0
 11
-0.261705259431
 21
-0.0480720732029999
 31
0.0
  0
LINE
  5
1CD
330
12D
100
AcDbEntity
  8
AM_4
100
AcDbLine
 10
-0.2464009204579999
 20
-0.0335047031318997
 30
0.0
 11
-0.2525225773069999
 21
-0.0422449047019998
 31
0.0
  0
LINE
  5
1CE
330
12D
100
AcDbEntity
  8
AM_4
100
AcDbLine
 10
-0.2433398951830001
 20
-0.0218508779412003
 30
0.0
 11
-0.2464009204579999
 21
-0.0335047031318997
 31
0.0
  0
LINE
  5
1CF
330
12D
100
AcDbEntity
  8
AM_4
100
AcDbLine
 10
-0.252522577307
 20
0.0422449000000001
 30
0.0
 11
-0.246400920458
 21
0.0335047
 31
0.0
  0
LINE
  5
1D0
330
12D
100
AcDbEntity
  8
AM_4
100
AcDbLine
 10
-0.2617052594309998
 20
0.048072
 30
0.0
 11
-0.252522577307
 21
0.0422449000000001
 31
0.0
  0
LINE
  5
1D1
330
12D
100
AcDbEntity
  8
AM_4
100
AcDbLine
 10
-0.2739485731290002
 20
0.0509854
 30
0.0
 11
-0.2617052594310001
 21
0.048072
 31
0.0
  0
LINE
  5
1D2
330
12D
100
AcDbEntity
  8
AM_4
100
AcDbLine
 10
-0.3290446658729999
 20
0.0509854
 30
0.0
 11
-0.273948573129
 21
0.0509854000000001
 31
0.0
  0
LINE
  5
1D3
330
12D
100
AcDbEntity
  8
AM_4
100
AcDbLine
 10
-0.096417768601
 20
0.0218509000000001
 30
0.0
 11
-0.096417768601
 21
-0.0218508779411999
 31
0.0
  0
LINE
  5
1D4
330
12D
100
AcDbEntity
  8
AM_4
100
AcDbLine
 10
-0.0994784001750001
 20
0.0335047000000004
 30
0.0
 11
-0.096417768601
 21
0.0218509000000003
 31
0.0
  0
LINE
  5
1D5
330
12D
100
AcDbEntity
  8
AM_4
100
AcDbLine
 10
-0.1821221455900006
 20
0.0218508999999973
 30
0.0
 11
-0.1790615140159999
 21
0.0335047000000001
 31
0.0
  0
LINE
  5
1D6
330
12D
100
AcDbEntity
  8
AM_4
100
AcDbLine
 10
-0.18212214559
 20
-0.0218508779411999
 30
0.0
 11
-0.18212214559
 21
0.0218509000000001
 31
0.0
  0
LINE
  5
1D7
330
12D
100
AcDbEntity
  8
AM_4
100
AcDbLine
 10
-0.1790615140159995
 20
-0.033504703131902
 30
0.0
 11
-0.1821221455900002
 21
-0.0218508779411991
 31
0.0
  0
LINE
  5
1D8
330
12D
100
AcDbEntity
  8
AM_4
100
AcDbLine
 10
-0.172939463466
 20
-0.0422449047019999
 30
0.0
 11
-0.1790615140159994
 21
-0.0335047031319007
 31
0.0
  0
LINE
  5
1D9
330
12D
100
AcDbEntity
  8
AM_4
100
AcDbLine
 10
-0.1637571750429999
 20
-0.0480720732029999
 30
0.0
 11
-0.1729394634660001
 21
-0.0422449047019998
 31
0.0
  0
LINE
  5
1DA
330
12D
100
AcDbEntity
  8
AM_4
100
AcDbLine
 10
-0.1515134676439994
 20
-0.050985460603
 30
0.0
 11
-0.1637571750429999
 21
-0.0480720732029999
 31
0.0
  0
LINE
  5
1DB
330
12D
100
AcDbEntity
  8
AM_4
100
AcDbLine
 10
-0.127026446547
 20
-0.0509854606029999
 30
0.0
 11
-0.151513467644
 21
-0.0509854606029999
 31
0.0
  0
LINE
  5
1DC
330
12D
100
AcDbEntity
  8
AM_4
100
AcDbLine
 10
-0.114783132849
 20
-0.048072073203
 30
0.0
 11
-0.1270264465469999
 21
-0.0509854606029999
 31
0.0
  0
LINE
  5
1DD
330
12D
100
AcDbEntity
  8
AM_4
100
AcDbLine
 10
-0.105600450725
 20
-0.0422449047019999
 30
0.0
 11
-0.114783132849
 21
-0.0480720732029999
 31
0.0
  0
LINE
  5
1DE
330
12D
100
AcDbEntity
  8
AM_4
100
AcDbLine
 10
-0.0994784001749999
 20
-0.0335047031318999
 30
0.0
 11
-0.105600450725
 21
-0.0422449047020001
 31
0.0
  0
LINE
  5
1DF
330
12D
100
AcDbEntity
  8
AM_4
100
AcDbLine
 10
-0.0964177686009999
 20
-0.0218508779411997
 30
0.0
 11
-0.0994784001749999
 21
-0.0335047031318998
 31
0.0
  0
LINE
  5
1E0
330
12D
100
AcDbEntity
  8
AM_4
100
AcDbLine
 10
-0.1056004507250001
 20
0.0422449000000002
 30
0.0
 11
-0.0994784001750001
 21
0.0335047000000001
 31
0.0
  0
LINE
  5
1E1
330
12D
100
AcDbEntity
  8
AM_4
100
AcDbLine
 10
-0.114783132849
 20
0.0480720000000001
 30
0.0
 11
-0.1056004507250002
 21
0.0422449000000002
 31
0.0
  0
LINE
  5
1E2
330
12D
100
AcDbEntity
  8
AM_4
100
AcDbLine
 10
-0.127026446547
 20
0.0509854000000001
 30
0.0
 11
-0.1147831328489999
 21
0.0480720000000001
 31
0.0
  0
LINE
  5
1E3
330
12D
100
AcDbEntity
  8
AM_4
100
AcDbLine
 10
-0.151513467644
 20
0.0509854
 30
0.0
 11
-0.127026446547
 21
0.0509854000000001
 31
0.0
  0
LINE
  5
1E4
330
12D
100
AcDbEntity
  8
AM_4
100
AcDbLine
 10
-0.1637571750430003
 20
0.0480719999999999
 30
0.0
 11
-0.1515134676440009
 21
0.0509853999999998
 31
0.0
  0
LINE
  5
1E5
330
12D
100
AcDbEntity
  8
AM_4
100
AcDbLine
 10
-0.1729394634660005
 20
0.0422448999999997
 30
0.0
 11
-0.1637571750430003
 21
0.0480719999999998
 31
0.0
  0
LINE
  5
1E6
330
12D
100
AcDbEntity
  8
AM_4
100
AcDbLine
 10
-0.1790615140159999
 20
0.0335047000000003
 30
0.0
 11
-0.1729394634660005
 21
0.0422448999999994
 31
0.0
  0
LINE
  5
1E7
330
12D
100
AcDbEntity
  8
AM_4
100
AcDbLine
 10
0.0198957
 20
-0.0509854606029999
 30
0.0
 11
-0.0352000977482
 21
-0.0509854606029999
 31
0.0
  0
LINE
  5
1E8
330
12D
100
AcDbEntity
  8
AM_4
100
AcDbLine
 10
-0.0352000977482
 20
0.0509854
 30
0.0
 11
0.0198957
 21
0.0509854000000001
 31
0.0
  0
LINE
  5
1E9
330
12D
100
AcDbEntity
  8
AM_4
100
AcDbLine
 10
0.0321391999999999
 20
-0.0480720732029999
 30
0.0
 11
0.0198957000000001
 21
-0.0509854606029999
 31
0.0
  0
LINE
  5
1EA
330
12D
100
AcDbEntity
  8
AM_4
100
AcDbLine
 10
0.0413216999999999
 20
-0.042244904702
 30
0.0
 11
0.0321391999999999
 21
-0.048072073203
 31
0.0
  0
LINE
  5
1EB
330
12D
100
AcDbEntity
  8
AM_4
100
AcDbLine
 10
0.0474437000000001
 20
-0.0335047031318997
 30
0.0
 11
0.0413216999999999
 21
-0.0422449047020001
 31
0.0
  0
LINE
  5
1EC
330
12D
100
AcDbEntity
  8
AM_4
100
AcDbLine
 10
0.0505042999999999
 20
-0.0218508779412003
 30
0.0
 11
0.0474437000000001
 21
-0.0335047031318995
 31
0.0
  0
LINE
  5
1ED
330
12D
100
AcDbEntity
  8
AM_4
100
AcDbLine
 10
0.0505043
 20
0.0218509000000001
 30
0.0
 11
0.0505043
 21
-0.0218508779411999
 31
0.0
  0
LINE
  5
1EE
330
12D
100
AcDbEntity
  8
AM_4
100
AcDbLine
 10
0.0474437
 20
0.0335047000000001
 30
0.0
 11
0.0505043
 21
0.0218508999999998
 31
0.0
  0
LINE
  5
1EF
330
12D
100
AcDbEntity
  8
AM_4
100
AcDbLine
 10
0.0413217
 20
0.0422449
 30
0.0
 11
0.0474437
 21
0.0335047000000001
 31
0.0
  0
LINE
  5
1F0
330
12D
100
AcDbEntity
  8
AM_4
100
AcDbLine
 10
0.0321392000000001
 20
0.0480720000000001
 30
0.0
 11
0.0413217
 21
0.0422449000000001
 31
0.0
  0
LINE
  5
1F1
330
12D
100
AcDbEntity
  8
AM_4
100
AcDbLine
 10
0.0198956999999999
 20
0.0509854
 30
0.0
 11
0.0321392000000001
 21
0.048072
 31
0.0
  0
LINE
  5
1F2
330
12D
100
AcDbEntity
  8
AM_4
100
AcDbLine
 10
-0.0352000977482
 20
-0.0509854606029999
 30
0.0
 11
-0.0352000977482
 21
0.0509854
 31
0.0
  0
LINE
  5
1F3
330
12D
100
AcDbEntity
  8
AM_4
100
AcDbLine
 10
1.5525
 20
-0.6640625000000001
 30
0.0
 11
1.175222006570305
 21
-0.5360813496518319
 31
0.0
  0
LINE
  5
1F4
330
12D
100
AcDbEntity
  8
AM_4
100
AcDbLine
 10
-1.175222006570305
 20
-0.536081349651832
 30
0.0
 11
-1.552499999999999
 21
-0.6640625000000001
 31
0.0
  0
LINE
  5
1F5
330
12D
100
AcDbEntity
  8
AM_4
100
AcDbLine
 10
-1.05
 20
-0.6640625000000001
 30
0.0
 11
-1.05
 21
-0.5666667109375001
 31
0.0
  0
LWPOLYLINE
  5
1F6
330
12D
100
AcDbEntity
  8
AM_4
100
AcDbPolyline
 90
       35
 70
     0
 43
0.0
 10
0.9201145034224817
 20
-0.5666667109375
 10
0.9081701685656444
 20
-0.5579678553627013
 10
0.8893141103578819
 20
-0.5494155459877483
 10
0.8636898347877544
 20
-0.54107487105101
 10
0.8314923580647114
 20
-0.5330093081249923
 10
0.7929667224279829
 20
-0.5252802410136819
 10
0.7484061312271798
 20
-0.5179464925847345
 10
0.6981497174677601
 20
-0.5110638770919327
 10
0.6425799628040857
 20
-0.5046847753950134
 10
0.5821197866230825
 20
-0.4988577363096974
 10
0.5172293273723403
 20
-0.4936271071218862
 10
0.4484024406286877
 20
-0.4890326960780392
 10
0.3761629405590545
 20
-0.4851094694203814
 10
0.3010606133783735
 20
-0.4818872852726865
 10
0.2236670331445144
 20
-0.4793906664019267
 10
0.1445712117345785
 20
-0.4776386135852079
 10
0.064375116108858
 20
-0.4766444610023839
 10
-0.0163109130212087
 20
-0.4764157747548956
 10
-0.0968728062543854
 20
-0.4769542952831711
 10
-0.1766974389385666
 20
-0.4782559241208224
 10
-0.2551772974195947
 20
-0.4803107550864502
 10
-0.3317151025869947
 20
-0.4831031496756652
 10
-0.4057283555286524
 20
-0.4866118560795494
 10
-0.4766537706992579
 20
-0.4908101709237545
 10
-0.5439515628634263
 20
-0.4956661424973042
 10
-0.6071095551872703
 20
-0.5011428139244081
 10
-0.6656470772133671
 20
-0.5071985044286011
 10
-0.7191186230531758
 20
-0.5137871265486206
 10
-0.7671172419558533
 20
-0.5208585368918145
 10
-0.8092776354491917
 20
-0.5283589177556365
 10
-0.8452789374815655
 20
-0.5362311867128594
 10
-0.8748471564063272
 20
-0.5444154310433126
 10
-0.897757260223681
 20
-0.5528493637058596
 10
-0.9138348892100778
 20
-0.5614687973803906
 10
-0.9201145034224817
 20
-0.5666667109375001
  0
LINE
  5
1F7
330
12D
100
AcDbEntity
  8
AM_4
100
AcDbLine
 10
1.05
 20
-0.5666667109374999
 30
0.0
 11
1.05
 21
-0.6640625000000001
 31
0.0
  0
LINE
  5
1F8
330
12D
100
AcDbEntity
  8
AM_4
100
AcDbLine
 10
-0.053565383256
 20
0.0684661000000001
 30
0.0
 11
0.0198957
 21
0.0684661000000001
 31
0.0
  0
LINE
  5
1F9
330
12D
100
AcDbEntity
  8
AM_4
100
AcDbLine
 10
0.0198957
 20
-0.0684661787039999
 30
0.0
 11
-0.053565383256
 21
-0.0684661787039999
 31
0.0
  0
LINE
  5
1FA
330
12D
100
AcDbEntity
  8
AM_4
100
AcDbLine
 10
0.347409
 20
-0.0684661787039999
 30
0.0
 11
0.237218
 21
-0.0684661787039999
 31
0.0
  0
LINE
  5
1FB
330
12D
100
AcDbEntity
  8
AM_4
100
AcDbLine
 10
0.237218
 20
-0.0684661787039999
 30
0.0
 11
0.237218
 21
0.0684661000000001
 31
0.0
  0
LINE
  5
1FC
330
12D
100
AcDbEntity
  8
AM_4
100
AcDbLine
 10
0.237218
 20
0.0684661000000001
 30
0.0
 11
0.347409
 21
0.0684661000000001
 31
0.0
  0
LINE
  5
1FD
330
12D
100
AcDbEntity
  8
AM_4
100
AcDbLine
 10
0.347409
 20
0.0684661000000001
 30
0.0
 11
0.347409
 21
0.0509854000000001
 31
0.0
  0
LINE
  5
1FE
330
12D
100
AcDbEntity
  8
AM_4
100
AcDbLine
 10
0.347409
 20
0.0509854000000001
 30
0.0
 11
0.255583
 21
0.0509854
 31
0.0
  0
LINE
  5
1FF
330
12D
100
AcDbEntity
  8
AM_4
100
AcDbLine
 10
0.255583
 20
0.0509854
 30
0.0
 11
0.255583
 21
0.0131105000000001
 31
0.0
  0
LINE
  5
200
330
12D
100
AcDbEntity
  8
AM_4
100
AcDbLine
 10
0.255583
 20
0.0131105000000001
 30
0.0
 11
0.335166
 21
0.0131105
 31
0.0
  0
LINE
  5
201
330
12D
100
AcDbEntity
  8
AM_4
100
AcDbLine
 10
0.335166
 20
0.0131105
 30
0.0
 11
0.335166
 21
-0.0043701598401999
 31
0.0
  0
LINE
  5
202
330
12D
100
AcDbEntity
  8
AM_4
100
AcDbLine
 10
0.335166
 20
-0.0043701598401999
 30
0.0
 11
0.255583
 21
-0.0043701598401999
 31
0.0
  0
LINE
  5
203
330
12D
100
AcDbEntity
  8
AM_4
100
AcDbLine
 10
0.255583
 20
-0.0043701598401999
 30
0.0
 11
0.255583
 21
-0.0509854606029999
 31
0.0
  0
LINE
  5
204
330
12D
100
AcDbEntity
  8
AM_4
100
AcDbLine
 10
0.255583
 20
-0.0509854606029999
 30
0.0
 11
0.347409
 21
-0.0509854606029999
 31
0.0
  0
LINE
  5
205
330
12D
100
AcDbEntity
  8
AM_4
100
AcDbLine
 10
0.347409
 20
-0.0509854606029999
 30
0.0
 11
0.347409
 21
-0.0684661787039999
 31
0.0
  0
LINE
  5
206
330
12D
100
AcDbEntity
  8
AM_4
100
AcDbLine
 10
0.0933567
 20
-0.0218508779411999
 30
0.0
 11
0.0933567
 21
0.0218509000000001
 31
0.0
  0
LINE
  5
207
330
12D
100
AcDbEntity
  8
AM_4
100
AcDbLine
 10
0.0933566999999996
 20
0.0218508999999982
 30
0.0
 11
0.0964176999999998
 21
0.0364180999999994
 31
0.0
  0
LINE
  5
208
330
12D
100
AcDbEntity
  8
AM_4
100
AcDbLine
 10
0.0964176999999999
 20
0.0364180999999998
 30
0.0
 11
0.1025389999999992
 21
0.0480719999999984
 31
0.0
  0
LINE
  5
209
330
12D
100
AcDbEntity
  8
AM_4
100
AcDbLine
 10
0.1025389999999991
 20
0.0480719999999993
 30
0.0
 11
0.1147829999999996
 21
0.0597255999999997
 31
0.0
  0
LINE
  5
20A
330
12D
100
AcDbEntity
  8
AM_4
100
AcDbLine
 10
0.1147829999999996
 20
0.0597255999999998
 30
0.0
 11
0.1270260000000004
 21
0.0655528000000002
 31
0.0
  0
LINE
  5
20B
330
12D
100
AcDbEntity
  8
AM_4
100
AcDbLine
 10
0.1270260000000004
 20
0.0655528
 30
0.0
 11
0.1423309999999997
 21
0.0684660999999999
 31
0.0
  0
LINE
  5
20C
330
12D
100
AcDbEntity
  8
AM_4
100
AcDbLine
 10
0.142331
 20
0.0684661000000001
 30
0.0
 11
0.169879
 21
0.0684661000000001
 31
0.0
  0
LINE
  5
20D
330
12D
100
AcDbEntity
  8
AM_4
100
AcDbLine
 10
0.1698790000000001
 20
0.0684661
 30
0.0
 11
0.1851829999999999
 21
0.0655528000000001
 31
0.0
  0
LINE
  5
20E
330
12D
100
AcDbEntity
  8
AM_4
100
AcDbLine
 10
0.1851830000000001
 20
0.0655528000000001
 30
0.0
 11
0.197427
 21
0.0597256000000001
 31
0.0
  0
LINE
  5
20F
330
12D
100
AcDbEntity
  8
AM_4
100
AcDbLine
 10
0.197427
 20
0.0597256
 30
0.0
 11
0.2096699999999999
 21
0.0480720000000001
 31
0.0
  0
LINE
  5
210
330
12D
100
AcDbEntity
  8
AM_4
100
AcDbLine
 10
0.2096699999999999
 20
0.0480720000000005
 30
0.0
 11
0.212731
 21
0.0335047
 31
0.0
  0
LINE
  5
211
330
12D
100
AcDbEntity
  8
AM_4
100
AcDbLine
 10
0.212731
 20
0.0335047000000001
 30
0.0
 11
0.194366
 21
0.0335047
 31
0.0
  0
LINE
  5
212
330
12D
100
AcDbEntity
  8
AM_4
100
AcDbLine
 10
0.1943660000000004
 20
0.0335046999999988
 30
0.0
 11
0.1913050000000003
 21
0.0422448999999992
 31
0.0
  0
LINE
  5
213
330
12D
100
AcDbEntity
  8
AM_4
100
AcDbLine
 10
0.1913050000000003
 20
0.0422448999999998
 30
0.0
 11
0.1821220000000003
 21
0.0480719999999998
 31
0.0
  0
LINE
  5
214
330
12D
100
AcDbEntity
  8
AM_4
100
AcDbLine
 10
0.1821220000000003
 20
0.0480719999999998
 30
0.0
 11
0.1698790000000007
 21
0.0509853999999998
 31
0.0
  0
LINE
  5
215
330
12D
100
AcDbEntity
  8
AM_4
100
AcDbLine
 10
0.169879
 20
0.0509854000000001
 30
0.0
 11
0.142331
 21
0.0509854
 31
0.0
  0
LINE
  5
216
330
12D
100
AcDbEntity
  8
AM_4
100
AcDbLine
 10
0.142331
 20
0.0509854
 30
0.0
 11
0.1300870000000001
 21
0.048072
 31
0.0
  0
LINE
  5
217
330
12D
100
AcDbEntity
  8
AM_4
100
AcDbLine
 10
0.1300870000000001
 20
0.0480720000000001
 30
0.0
 11
0.120905
 21
0.0422449000000001
 31
0.0
  0
LINE
  5
218
330
12D
100
AcDbEntity
  8
AM_4
100
AcDbLine
 10
0.120905
 20
0.0422448999999999
 30
0.0
 11
0.1147830000000002
 21
0.0335047000000002
 31
0.0
  0
LINE
  5
219
330
12D
100
AcDbEntity
  8
AM_4
100
AcDbLine
 10
0.1147829999999999
 20
0.0335046999999998
 30
0.0
 11
0.1117220000000001
 21
0.0218509000000006
 31
0.0
  0
LINE
  5
21A
330
12D
100
AcDbEntity
  8
AM_4
100
AcDbLine
 10
0.111722
 20
0.0218509000000001
 30
0.0
 11
0.111722
 21
-0.0218508779411999
 31
0.0
  0
LINE
  5
21B
330
12D
100
AcDbEntity
  8
AM_4
100
AcDbLine
 10
0.1117219999999999
 20
-0.0218508779411997
 30
0.0
 11
0.114783
 21
-0.0335047031319
 31
0.0
  0
LINE
  5
21C
330
12D
100
AcDbEntity
  8
AM_4
100
AcDbLine
 10
0.114783
 20
-0.0335047031319
 30
0.0
 11
0.1209050000000001
 21
-0.0422449047020001
 31
0.0
  0
LINE
  5
21D
330
12D
100
AcDbEntity
  8
AM_4
100
AcDbLine
 10
0.1209050000000001
 20
-0.042244904702
 30
0.0
 11
0.130087
 21
-0.048072073203
 31
0.0
  0
LINE
  5
21E
330
12D
100
AcDbEntity
  8
AM_4
100
AcDbLine
 10
0.130087
 20
-0.0480720732029999
 30
0.0
 11
0.1423310000000001
 21
-0.0509854606029999
 31
0.0
  0
LINE
  5
21F
330
12D
100
AcDbEntity
  8
AM_4
100
AcDbLine
 10
0.142331
 20
-0.0509854606029999
 30
0.0
 11
0.169879
 21
-0.0509854606029999
 31
0.0
  0
LINE
  5
220
330
12D
100
AcDbEntity
  8
AM_4
100
AcDbLine
 10
0.1698789999999991
 20
-0.0509854606030001
 30
0.0
 11
0.1821219999999999
 21
-0.0480720732029999
 31
0.0
  0
LINE
  5
221
330
12D
100
AcDbEntity
  8
AM_4
100
AcDbLine
 10
0.182122
 20
-0.0480720732029999
 30
0.0
 11
0.1913049999999999
 21
-0.0422449047019999
 31
0.0
  0
LINE
  5
222
330
12D
100
AcDbEntity
  8
AM_4
100
AcDbLine
 10
0.1913049999999998
 20
-0.0422449047020005
 30
0.0
 11
0.1943659999999999
 21
-0.0335047031319003
 31
0.0
  0
LINE
  5
223
330
12D
100
AcDbEntity
  8
AM_4
100
AcDbLine
 10
0.194366
 20
-0.0335047031318999
 30
0.0
 11
0.194366
 21
-0.0101970921205999
 31
0.0
  0
LINE
  5
224
330
12D
100
AcDbEntity
  8
AM_4
100
AcDbLine
 10
0.194366
 20
-0.0101970921205999
 30
0.0
 11
0.166818
 21
-0.0101970921206
 31
0.0
  0
LINE
  5
225
330
12D
100
AcDbEntity
  8
AM_4
100
AcDbLine
 10
0.166818
 20
-0.0101970921206
 30
0.0
 11
0.166818
 21
0.0072836200000001
 31
0.0
  0
LINE
  5
226
330
12D
100
AcDbEntity
  8
AM_4
100
AcDbLine
 10
0.166818
 20
0.0072836200000001
 30
0.0
 11
0.212731
 21
0.0072836200000001
 31
0.0
  0
LINE
  5
227
330
12D
100
AcDbEntity
  8
AM_4
100
AcDbLine
 10
0.212731
 20
0.0072836200000001
 30
0.0
 11
0.212731
 21
-0.0364181299019999
 31
0.0
  0
LINE
  5
228
330
12D
100
AcDbEntity
  8
AM_4
100
AcDbLine
 10
0.2127309999999998
 20
-0.0364181299020005
 30
0.0
 11
0.20967
 21
-0.0480720732029999
 31
0.0
  0
LINE
  5
229
330
12D
100
AcDbEntity
  8
AM_4
100
AcDbLine
 10
0.20967
 20
-0.0480720732029999
 30
0.0
 11
0.1974269999999999
 21
-0.0597256228029999
 31
0.0
  0
LINE
  5
22A
330
12D
100
AcDbEntity
  8
AM_4
100
AcDbLine
 10
0.197427
 20
-0.0597256228029998
 30
0.0
 11
0.1851830000000001
 21
-0.0655527913039998
 31
0.0
  0
LINE
  5
22B
330
12D
100
AcDbEntity
  8
AM_4
100
AcDbLine
 10
0.1851830000000001
 20
-0.0655527913039999
 30
0.0
 11
0.1698789999999999
 21
-0.0684661787039999
 31
0.0
  0
LINE
  5
22C
330
12D
100
AcDbEntity
  8
AM_4
100
AcDbLine
 10
0.169879
 20
-0.0684661787039999
 30
0.0
 11
0.142331
 21
-0.0684661787039999
 31
0.0
  0
LINE
  5
22D
330
12D
100
AcDbEntity
  8
AM_4
100
AcDbLine
 10
0.1423310000000002
 20
-0.068466178704
 30
0.0
 11
0.1270260000000009
 21
-0.0655527913040001
 31
0.0
  0
LINE
  5
22E
330
12D
100
AcDbEntity
  8
AM_4
100
AcDbLine
 10
0.1270260000000008
 20
-0.0655527913040004
 30
0.0
 11
0.1147830000000001
 21
-0.0597256228030001
 31
0.0
  0
LINE
  5
22F
330
12D
100
AcDbEntity
  8
AM_4
100
AcDbLine
 10
0.1147830000000001
 20
-0.059725622803
 30
0.0
 11
0.1025389999999996
 21
-0.0480720732029995
 31
0.0
  0
LINE
  5
230
330
12D
100
AcDbEntity
  8
AM_4
100
AcDbLine
 10
0.1025390000000007
 20
-0.0480720732030012
 30
0.0
 11
0.0964177000000003
 21
-0.0364181299020004
 31
0.0
  0
LINE
  5
231
330
12D
100
AcDbEntity
  8
AM_4
100
AcDbLine
 10
0.0964177000000003
 20
-0.0364181299020014
 30
0.0
 11
0.0933567
 21
-0.0218508779412001
 31
0.0
  0
LINE
  5
232
330
12D
100
AcDbEntity
  8
AM_4
100
AcDbLine
 10
-0.053565383256
 20
-0.0684661787039999
 30
0.0
 11
-0.053565383256
 21
0.0684661000000001
 31
0.0
  0
LINE
  5
233
330
12D
100
AcDbEntity
  8
AM_4
100
AcDbLine
 10
0.0198957
 20
0.0684661000000002
 30
0.0
 11
0.0352000999999999
 21
0.0655528000000002
 31
0.0
  0
LINE
  5
234
330
12D
100
AcDbEntity
  8
AM_4
100
AcDbLine
 10
0.0352000999999999
 20
0.0655528000000002
 30
0.0
 11
0.0474437
 21
0.0597256000000001
 31
0.0
  0
LINE
  5
235
330
12D
100
AcDbEntity
  8
AM_4
100
AcDbLine
 10
0.0474437
 20
0.0597256
 30
0.0
 11
0.0596870000000001
 21
0.0480719999999999
 31
0.0
  0
LINE
  5
236
330
12D
100
AcDbEntity
  8
AM_4
100
AcDbLine
 10
0.0596870000000001
 20
0.048072
 30
0.0
 11
0.0658091000000001
 21
0.0364181000000001
 31
0.0
  0
LINE
  5
237
330
12D
100
AcDbEntity
  8
AM_4
100
AcDbLine
 10
0.0658091000000001
 20
0.0364180999999997
 30
0.0
 11
0.0688697000000001
 21
0.0218508999999996
 31
0.0
  0
LINE
  5
238
330
12D
100
AcDbEntity
  8
AM_4
100
AcDbLine
 10
0.0688697
 20
0.0218509000000001
 30
0.0
 11
0.0688697
 21
-0.0218508779411999
 31
0.0
  0
LINE
  5
239
330
12D
100
AcDbEntity
  8
AM_4
100
AcDbLine
 10
0.0688697
 20
-0.0218508779412001
 30
0.0
 11
0.0658090999999999
 21
-0.0364181299020002
 31
0.0
  0
LINE
  5
23A
330
12D
100
AcDbEntity
  8
AM_4
100
AcDbLine
 10
0.0658091
 20
-0.036418129902
 30
0.0
 11
0.059687
 21
-0.048072073203
 31
0.0
  0
LINE
  5
23B
330
12D
100
AcDbEntity
  8
AM_4
100
AcDbLine
 10
0.059687
 20
-0.0480720732029999
 30
0.0
 11
0.0474437000000001
 21
-0.0597256228029998
 31
0.0
  0
LINE
  5
23C
330
12D
100
AcDbEntity
  8
AM_4
100
AcDbLine
 10
0.0474437000000001
 20
-0.0597256228029999
 30
0.0
 11
0.0352001000000001
 21
-0.0655527913039999
 31
0.0
  0
LINE
  5
23D
330
12D
100
AcDbEntity
  8
AM_4
100
AcDbLine
 10
0.0352001000000001
 20
-0.0655527913039999
 30
0.0
 11
0.0198957000000001
 21
-0.0684661787039999
 31
0.0
  0
LINE
  5
23E
330
12D
100
AcDbEntity
  8
AM_4
100
AcDbLine
 10
-0.200487509838
 20
-0.0218508779411999
 30
0.0
 11
-0.200487509838
 21
0.0218509000000001
 31
0.0
  0
LINE
  5
23F
330
12D
100
AcDbEntity
  8
AM_4
100
AcDbLine
 10
-0.2004875098380009
 20
0.0218508999999958
 30
0.0
 11
-0.1974268782639997
 21
0.0364181000000012
 31
0.0
  0
LINE
  5
240
330
12D
100
AcDbEntity
  8
AM_4
100
AcDbLine
 10
-0.1974268782639997
 20
0.0364181000000005
 30
0.0
 11
-0.1913048277140007
 21
0.0480719999999988
 31
0.0
  0
LINE
  5
241
330
12D
100
AcDbEntity
  8
AM_4
100
AcDbLine
 10
-0.1913048277140007
 20
0.0480719999999995
 30
0.0
 11
-0.1790615140159999
 21
0.0597256000000003
 31
0.0
  0
LINE
  5
242
330
12D
100
AcDbEntity
  8
AM_4
100
AcDbLine
 10
-0.1790615140159999
 20
0.0597256000000001
 30
0.0
 11
-0.1668178066170007
 21
0.0655527999999997
 31
0.0
  0
LINE
  5
243
330
12D
100
AcDbEntity
  8
AM_4
100
AcDbLine
 10
-0.1668178066170007
 20
0.0655527999999999
 30
0.0
 11
-0.1515134676440009
 21
0.0684660999999999
 31
0.0
  0
LINE
  5
244
330
12D
100
AcDbEntity
  8
AM_4
100
AcDbLine
 10
-0.151513467644
 20
0.0684661000000001
 30
0.0
 11
-0.127026446547
 21
0.0684661000000001
 31
0.0
  0
LINE
  5
245
330
12D
100
AcDbEntity
  8
AM_4
100
AcDbLine
 10
-0.1270264465470001
 20
0.0684661000000001
 30
0.0
 11
-0.111722107574
 21
0.0655528000000001
 31
0.0
  0
LINE
  5
246
330
12D
100
AcDbEntity
  8
AM_4
100
AcDbLine
 10
-0.111722107574
 20
0.0655528000000001
 30
0.0
 11
-0.0994784001750001
 21
0.0597256000000002
 31
0.0
  0
LINE
  5
247
330
12D
100
AcDbEntity
  8
AM_4
100
AcDbLine
 10
-0.0994784001750001
 20
0.0597256
 30
0.0
 11
-0.087235086477
 21
0.048072
 31
0.0
  0
LINE
  5
248
330
12D
100
AcDbEntity
  8
AM_4
100
AcDbLine
 10
-0.087235086477
 20
0.0480720000000002
 30
0.0
 11
-0.0811134296279999
 21
0.0364180999999999
 31
0.0
  0
LINE
  5
249
330
12D
100
AcDbEntity
  8
AM_4
100
AcDbLine
 10
-0.0811134296280001
 20
0.0364181000000005
 30
0.0
 11
-0.078052404353
 21
0.0218508999999998
 31
0.0
  0
LINE
  5
24A
330
12D
100
AcDbEntity
  8
AM_4
100
AcDbLine
 10
-0.078052404353
 20
0.0218509000000001
 30
0.0
 11
-0.078052404353
 21
-0.0218508779411999
 31
0.0
  0
LINE
  5
24B
330
12D
100
AcDbEntity
  8
AM_4
100
AcDbLine
 10
-0.0780524043530001
 20
-0.0218508779412004
 30
0.0
 11
-0.081113429628
 21
-0.0364181299019998
 31
0.0
  0
LINE
  5
24C
330
12D
100
AcDbEntity
  8
AM_4
100
AcDbLine
 10
-0.081113429628
 20
-0.0364181299019998
 30
0.0
 11
-0.0872350864769999
 21
-0.0480720732029996
 31
0.0
  0
LINE
  5
24D
330
12D
100
AcDbEntity
  8
AM_4
100
AcDbLine
 10
-0.0872350864769999
 20
-0.0480720732029997
 30
0.0
 11
-0.0994784001749999
 21
-0.0597256228029997
 31
0.0
  0
LINE
  5
24E
330
12D
100
AcDbEntity
  8
AM_4
100
AcDbLine
 10
-0.0994784001749999
 20
-0.0597256228029999
 30
0.0
 11
-0.1117221075740001
 21
-0.065552791304
 31
0.0
  0
LINE
  5
24F
330
12D
100
AcDbEntity
  8
AM_4
100
AcDbLine
 10
-0.1117221075740001
 20
-0.0655527913039999
 30
0.0
 11
-0.1270264465469999
 21
-0.0684661787039998
 31
0.0
  0
LINE
  5
250
330
12D
100
AcDbEntity
  8
AM_4
100
AcDbLine
 10
-0.127026446547
 20
-0.0684661787039999
 30
0.0
 11
-0.151513467644
 21
-0.0684661787039999
 31
0.0
  0
LINE
  5
251
330
12D
100
AcDbEntity
  8
AM_4
100
AcDbLine
 10
-0.1515134676439994
 20
-0.068466178704
 30
0.0
 11
-0.1668178066170003
 21
-0.0655527913039999
 31
0.0
  0
LINE
  5
252
330
12D
100
AcDbEntity
  8
AM_4
100
AcDbLine
 10
-0.1668178066170002
 20
-0.0655527913039999
 30
0.0
 11
-0.1790615140159994
 21
-0.0597256228030002
 31
0.0
  0
LINE
  5
253
330
12D
100
AcDbEntity
  8
AM_4
100
AcDbLine
 10
-0.1790615140159995
 20
-0.0597256228030004
 30
0.0
 11
-0.1913048277140003
 21
-0.0480720732029996
 31
0.0
  0
LINE
  5
254
330
12D
100
AcDbEntity
  8
AM_4
100
AcDbLine
 10
-0.1913048277140003
 20
-0.0480720732029994
 30
0.0
 11
-0.1974268782639993
 21
-0.0364181299020012
 31
0.0
  0
LINE
  5
255
330
12D
100
AcDbEntity
  8
AM_4
100
AcDbLine
 10
-0.1974268782639994
 20
-0.0364181299020028
 30
0.0
 11
-0.2004875098379995
 21
-0.0218508779412023
 31
0.0
  0
LINE
  5
256
330
12D
100
AcDbEntity
  8
AM_4
100
AcDbLine
 10
-0.3474096364199999
 20
-0.0684661787039999
 30
0.0
 11
-0.3474096364199999
 21
0.0684661000000001
 31
0.0
  0
LINE
  5
257
330
12D
100
AcDbEntity
  8
AM_4
100
AcDbLine
 10
-0.3474096364199999
 20
0.0684661000000001
 30
0.0
 11
-0.273948573129
 21
0.0684661000000001
 31
0.0
  0
LINE
  5
258
330
12D
100
AcDbEntity
  8
AM_4
100
AcDbLine
 10
-0.2739485731289998
 20
0.0684661000000001
 30
0.0
 11
-0.258644234156
 21
0.0655528000000001
 31
0.0
  0
LINE
  5
259
330
12D
100
AcDbEntity
  8
AM_4
100
AcDbLine
 10
-0.258644234156
 20
0.0655528000000001
 30
0.0
 11
-0.246400920458
 21
0.0597256000000001
 31
0.0
  0
LINE
  5
25A
330
12D
100
AcDbEntity
  8
AM_4
100
AcDbLine
 10
-0.246400920458
 20
0.0597255999999999
 30
0.0
 11
-0.2341572130589999
 21
0.0480719999999999
 31
0.0
  0
LINE
  5
25B
330
12D
100
AcDbEntity
  8
AM_4
100
AcDbLine
 10
-0.234157213059
 20
0.0480720000000003
 30
0.0
 11
-0.2280355562099999
 21
0.0364181000000001
 31
0.0
  0
LINE
  5
25C
330
12D
100
AcDbEntity
  8
AM_4
100
AcDbLine
 10
-0.2280355562099998
 20
0.0364180999999996
 30
0.0
 11
-0.224974530935
 21
0.0218509000000002
 31
0.0
  0
LINE
  5
25D
330
12D
100
AcDbEntity
  8
AM_4
100
AcDbLine
 10
-0.224974530935
 20
0.0218509000000001
 30
0.0
 11
-0.224974530935
 21
-0.0218508779411999
 31
0.0
  0
LINE
  5
25E
330
12D
100
AcDbEntity
  8
AM_4
100
AcDbLine
 10
-0.2249745309349999
 20
-0.0218508779412
 30
0.0
 11
-0.22803555621
 21
-0.0364181299020005
 31
0.0
  0
LINE
  5
25F
330
12D
100
AcDbEntity
  8
AM_4
100
AcDbLine
 10
-0.22803555621
 20
-0.036418129902
 30
0.0
 11
-0.2341572130589998
 21
-0.0480720732029997
 31
0.0
  0
LINE
  5
260
330
12D
100
AcDbEntity
  8
AM_4
100
AcDbLine
 10
-0.2341572130590001
 20
-0.048072073203
 30
0.0
 11
-0.2464009204580002
 21
-0.059725622803
 31
0.0
  0
LINE
  5
261
330
12D
100
AcDbEntity
  8
AM_4
100
AcDbLine
 10
-0.2464009204579999
 20
-0.0597256228029998
 30
0.0
 11
-0.2586442341559999
 21
-0.0655527913039998
 31
0.0
  0
LINE
  5
262
330
12D
100
AcDbEntity
  8
AM_4
100
AcDbLine
 10
-0.2586442341559999
 20
-0.0655527913039999
 30
0.0
 11
-0.2739485731290001
 21
-0.0684661787039999
 31
0.0
  0
LINE
  5
263
330
12D
100
AcDbEntity
  8
AM_4
100
AcDbLine
 10
-0.273948573129
 20
-0.0684661787039999
 30
0.0
 11
-0.3474096364199999
 21
-0.0684661787039999
 31
0.0
  0
LWPOLYLINE
  5
264
330
12D
100
AcDbEntity
  8
AM_4
100
AcDbPolyline
 90
       13
 70
     0
 43
0.0
 10
-1.175222006570305
 20
-0.1407047261027337
 10
-1.170430069983696
 20
-0.1219054354853626
 10
-1.166071957547132
 20
-0.101660858193547
 10
-1.162334212662515
 20
-0.0801714307605968
 10
-1.159366415028116
 20
-0.0573248578340679
 10
-1.157321951343667
 20
-0.0335006611713582
 10
-1.156330090643318
 20
-0.0092244183564947
 10
-1.156414311087853
 20
0.0127577128343593
 10
-1.157391672055997
 20
0.0346408598564435
 10
-1.159208924611507
 20
0.0559919830410539
 10
-1.163187212916372
 20
0.0855359719980741
 10
-1.168421768823108
 20
0.1130679106478435
 10
-1.175222006570305
 20
0.1407047261027334
  0
LINE
  5
265
330
12D
100
AcDbEntity
  8
AM_4
100
AcDbLine
 10
-1.175222006570305
 20
-0.536081349651832
 30
0.0
 11
-1.175222006570305
 21
-0.1407047261027337
 31
0.0
  0
LWPOLYLINE
  5
266
330
12D
100
AcDbEntity
  8
AM_4
100
AcDbPolyline
 90
       30
 70
     0
 43
0.0
 10
1.175222006570305
 20
-0.5360813496518319
 10
1.137845334786373
 20
-0.5250759307225329
 10
1.09180897295492
 20
-0.5144673854002785
 10
1.037463285586997
 20
-0.5043364511205856
 10
0.9752218761782975
 20
-0.4947602304105482
 10
0.9055584394368127
 20
-0.4858116040920499
 10
0.8290031561800785
 20
-0.4775586766147026
 10
0.7461386583390217
 20
-0.4700642577398629
 10
0.6575955947771656
 20
-0.4633853845204221
 10
0.5640478316719788
 20
-0.457572887214394
 10
0.4662073239863756
 20
-0.4526710024359595
 10
0.3648186970615574
 20
-0.4487170364881213
 10
0.2606535795685486
 20
-0.4457410814392124
 10
0.1545047309480887
 20
-0.4437657861040858
 10
0.0471800080326067
 20
-0.4428061836729578
 10
-0.0605037832320713
 20
-0.4428695772997528
 10
-0.16772710417317
 20
-0.4439554845206932
 10
-0.2736739205751165
 20
-0.4460556409261385
 10
-0.3775379131926549
 20
-0.4491540630577345
 10
-0.4785286143271726
 20
-0.453227170052181
 10
-0.5758774237631832
 20
-0.4582439631058414
 10
-0.6688434582800602
 20
-0.4641662613943546
 10
-0.7567191902207042
 20
-0.4709489926517635
 10
-0.8388358322042286
 20
-0.4785405361976744
 10
-0.9145684270017557
 20
-0.4868831158018033
 10
-0.9833406038382841
 20
-0.4959132393959757
 10
-1.044628964922313
 20
-0.505562182287102
 10
-1.097967068819068
 20
-0.51575651019359
 10
-1.142948980351468
 20
-0.5264186381245676
 10
-1.175222006570305
 20
-0.536081349651832
  0
LINE
  5
267
330
12D
100
AcDbEntity
  8
AM_4
100
AcDbLine
 10
1.175222006570305
 20
-0.5360813496518319
 30
0.0
 11
1.175222006570305
 21
-0.1407047261027324
 31
0.0
  0
LWPOLYLINE
  5
268
330
12D
100
AcDbEntity
  8
AM_4
100
AcDbPolyline
 90
        4
 70
     0
 43
0.0
 10
1.159803652408272
 20
-0.0613443333841824
 10
1.163187212916372
 20
-0.0855359719980744
 10
1.168421768823108
 20
-0.1130679106478438
 10
1.175222006570305
 20
-0.1407047261027324
  0
LWPOLYLINE
  5
269
330
12D
100
AcDbEntity
  8
AM_4
100
AcDbPolyline
 90
        5
 70
     0
 43
0.0
 10
1.175222006570305
 20
0.1407047261027327
 10
1.170430069983696
 20
0.1219054354853615
 10
1.166071957547132
 20
0.101660858193546
 10
1.162334212662515
 20
0.0801714307605958
 10
1.159802627423481
 20
0.0613355156156522
  0
LINE
  5
26A
330
12D
100
AcDbEntity
  8
AM_4
100
AcDbLine
 10
1.175222006570305
 20
0.1407047261027327
 30
0.0
 11
1.175222006570305
 21
0.536081349651832
 31
0.0
  0
LINE
  5
26B
330
12D
100
AcDbEntity
  8
AM_4
100
AcDbLine
 10
-1.175222006570305
 20
0.1407047261027342
 30
0.0
 11
-1.175222006570305
 21
0.5360813496518322
 31
0.0
  0
LINE
  5
26C
330
12D
100
AcDbEntity
  8
AM_4
100
AcDbLine
 10
1.175222006570305
 20
0.536081349651832
 30
0.0
 11
1.5525
 21
0.6640624999999998
 31
0.0
  0
LINE
  5
26D
330
12D
100
AcDbEntity
  8
AM_4
100
AcDbLine
 10
1.05
 20
0.6640624999999998
 30
0.0
 11
1.05
 21
0.5666667109375001
 31
0.0
  0
LINE
  5
26E
330
12D
100
AcDbEntity
  8
AM_4
100
AcDbLine
 10
1.05
 20
0.5666667109375001
 30
0.0
 11
-1.05
 21
0.5666667109374999
 31
0.0
  0
LWPOLYLINE
  5
26F
330
12D
100
AcDbEntity
  8
AM_4
100
AcDbPolyline
 90
       35
 70
     0
 43
0.0
 10
-0.9201145034224817
 20
0.5666667109375
 10
-0.9081701685656444
 20
0.5579678553627014
 10
-0.889314110357882
 20
0.5494155459877484
 10
-0.8636898347877545
 20
0.5410748710510102
 10
-0.8314923580647116
 20
0.5330093081249924
 10
-0.7929667224279833
 20
0.525280241013682
 10
-0.7484061312271799
 20
0.5179464925847346
 10
-0.6981497174677603
 20
0.5110638770919328
 10
-0.642579962804086
 20
0.5046847753950136
 10
-0.5821197866230827
 20
0.4988577363096975
 10
-0.5172293273723404
 20
0.4936271071218862
 10
-0.4484024406286879
 20
0.4890326960780392
 10
-0.3761629405590548
 20
0.4851094694203815
 10
-0.3010606133783738
 20
0.4818872852726867
 10
-0.2236670331445147
 20
0.4793906664019267
 10
-0.1445712117345788
 20
0.4776386135852079
 10
-0.0643751161088583
 20
0.4766444610023839
 10
0.0163109130212084
 20
0.4764157747548957
 10
0.0968728062543851
 20
0.4769542952831711
 10
0.1766974389385663
 20
0.4782559241208225
 10
0.2551772974195943
 20
0.4803107550864503
 10
0.3317151025869943
 20
0.4831031496756653
 10
0.4057283555286522
 20
0.4866118560795495
 10
0.4766537706992576
 20
0.4908101709237546
 10
0.543951562863426
 20
0.4956661424973043
 10
0.6071095551872701
 20
0.5011428139244081
 10
0.6656470772133668
 20
0.5071985044286011
 10
0.7191186230531758
 20
0.5137871265486207
 10
0.7671172419558533
 20
0.5208585368918145
 10
0.8092776354491917
 20
0.5283589177556366
 10
0.8452789374815655
 20
0.5362311867128594
 10
0.8748471564063272
 20
0.5444154310433126
 10
0.897757260223681
 20
0.5528493637058596
 10
0.9138348892100778
 20
0.5614687973803907
 10
0.9201145034224817
 20
0.5666667109375002
  0
LINE
  5
270
330
12D
100
AcDbEntity
  8
AM_4
100
AcDbLine
 10
-1.05
 20
0.5666667109374999
 30
0.0
 11
-1.05
 21
0.6640624999999998
 31
0.0
  0
LINE
  5
271
330
12D
100
AcDbEntity
  8
AM_4
100
AcDbLine
 10
-1.552499999999999
 20
0.6640624999999998
 30
0.0
 11
-1.175222006570305
 21
0.5360813496518322
 31
0.0
  0
LWPOLYLINE
  5
272
330
12D
100
AcDbEntity
  8
AM_4
100
AcDbPolyline
 90
       30
 70
     0
 43
0.0
 10
-1.175222006570305
 20
0.536081349651832
 10
-1.137845334786373
 20
0.525075930722533
 10
-1.09180897295492
 20
0.5144673854002785
 10
-1.037463285586997
 20
0.5043364511205857
 10
-0.9752218761782978
 20
0.4947602304105483
 10
-0.9055584394368132
 20
0.48581160409205
 10
-0.8290031561800787
 20
0.4775586766147026
 10
-0.7461386583390223
 20
0.470064257739863
 10
-0.6575955947771661
 20
0.4633853845204222
 10
-0.5640478316719792
 20
0.4575728872143942
 10
-0.4662073239863762
 20
0.4526710024359596
 10
-0.364818697061558
 20
0.4487170364881215
 10
-0.2606535795685491
 20
0.4457410814392125
 10
-0.1545047309480893
 20
0.443765786104086
 10
-0.0471800080326072
 20
0.4428061836729578
 10
0.0605037832320708
 20
0.4428695772997529
 10
0.1677271041731695
 20
0.4439554845206932
 10
0.273673920575116
 20
0.4460556409261385
 10
0.3775379131926545
 20
0.4491540630577345
 10
0.4785286143271721
 20
0.4532271700521811
 10
0.5758774237631827
 20
0.4582439631058414
 10
0.6688434582800599
 20
0.4641662613943546
 10
0.7567191902207037
 20
0.4709489926517637
 10
0.8388358322042284
 20
0.4785405361976744
 10
0.9145684270017551
 20
0.4868831158018034
 10
0.9833406038382841
 20
0.4959132393959757
 10
1.044628964922313
 20
0.5055621822871021
 10
1.097967068819068
 20
0.51575651019359
 10
1.142948980351468
 20
0.5264186381245677
 10
1.175222006570305
 20
0.5360813496518319
  0
ENDBLK
  5
130
330
12D
100
AcDbEntity
  8
0
100
AcDbBlockEnd
  0
ENDSEC
  0
SECTION
  2
ENTITIES
  0
INSERT
  5
6F
330
1F
100
AcDbEntity
  8
0
100
AcDbBlockReference
  2
1_129154_4
 10
0.0
 20
0.0
 30
0.0
  0
POINT
  5
274
330
1F
100
AcDbEntity
  8
ConnectionPoints
100
AcDbPoint
 10
0.0
 20
0.0
 30
0.0
  0
POINT
  5
275
330
1F
100
AcDbEntity
  8
ConnectionPoints
100
AcDbPoint
 10
0.0
 20
0.484375
 30
0.0
  0
POINT
  5
276
330
1F
100
AcDbEntity
  8
ConnectionPoints
100
AcDbPoint
 10
0.0
 20
0.0
 30
0.0
  0
POINT
  5
277
330
1F
100
AcDbEntity
  8
ConnectionPoints
100
AcDbPoint
 10
0.0
 20
0.0
 30
0.0
  0
ENDSEC
  0
SECTION
  2
OBJECTS
  0
DICTIONARY
  5
C
330
0
100
AcDbDictionary
281
     1
  3
ACAD_DETAILVIEWSTYLE
350
27F
  3
ACAD_GROUP
350
D
  3
ACAD_LAYOUT
350
1A
  3
ACAD_MATERIAL
350
43
  3
ACAD_MLEADERSTYLE
350
6B
  3
ACAD_MLINESTYLE
350
17
  3
ACAD_PLOTSETTINGS
350
19
  3
ACAD_PLOTSTYLENAME
350
E
  3
ACAD_SCALELIST
350
47
  3
ACAD_SECTIONVIEWSTYLE
350
280
  3
ACAD_TABLESTYLE
350
69
  3
ACAD_VISUALSTYLE
350
2A
  3
ACDB_RECOMPOSE_DATA
350
27C
  3
AcDbVariableDictionary
350
278
  0
SUN
  5
6D
330
29
100
AcDbSun
 90
        1
290
     0
 63
     7
421
 16777215
 40
1.0
291
     1
 91
  2455826
 92
 54000000
292
     0
 70
     2
 71
   256
280
     1
  0
DICTIONARY
  5
27F
102
{ACAD_REACTORS
330
C
102
}
330
C
100
AcDbDictionary
281
     1
  0
DICTIONARY
  5
D
102
{ACAD_REACTORS
330
C
102
}
330
C
100
AcDbDictionary
281
     1
  0
DICTIONARY
  5
1A
102
{ACAD_REACTORS
330
C
102
}
330
C
100
AcDbDictionary
281
     1
  3
Layout1
350
1E
  3
Layout2
350
26
  3
Model
350
22
  0
DICTIONARY
  5
43
102
{ACAD_REACTORS
330
C
102
}
330
C
100
AcDbDictionary
281
     1
  3
ByBlock
350
45
  3
ByLayer
350
44
  3
Global
350
46
  0
DICTIONARY
  5
6B
102
{ACAD_REACTORS
330
C
102
}
330
C
100
AcDbDictionary
281
     1
  3
Standard
350
6C
  0
DICTIONARY
  5
17
102
{ACAD_REACTORS
330
C
102
}
330
C
100
AcDbDictionary
281
     1
  3
Standard
350
18
  0
DICTIONARY
  5
19
102
{ACAD_REACTORS
330
C
102
}
330
C
100
AcDbDictionary
281
     1
  0
ACDBDICTIONARYWDFLT
  5
E
102
{ACAD_REACTORS
330
C
102
}
330
C
100
AcDbDictionary
281
     1
  3
Normal
350
F
100
AcDbDictionaryWithDefault
340
F
  0
DICTIONARY
  5
47
102
{ACAD_REACTORS
330
C
102
}
330
C
100
AcDbDictionary
281
     1
  3
A0
350
48
  3
A1
350
49
  3
A2
350
4A
  3
A3
350
4B
  3
A4
350
4C
  3
A5
350
4D
  3
A6
350
4E
  3
A7
350
4F
  3
A8
350
50
  3
A9
350
51
  3
B0
350
52
  3
B1
350
53
  3
B2
350
54
  3
B3
350
55
  3
B4
350
56
  3
B5
350
57
  3
B6
350
58
  3
B7
350
59
  3
B8
350
5A
  3
B9
350
5B
  3
C0
350
5C
  3
C1
350
5D
  3
C2
350
5E
  3
C3
350
5F
  3
C4
350
60
  3
C5
350
61
  3
C6
350
62
  3
C7
350
63
  3
C8
350
64
  3
C9
350
65
  3
D0
350
66
  3
D1
350
67
  3
D2
350
68
  0
DICTIONARY
  5
280
102
{ACAD_REACTORS
330
C
102
}
330
C
100
AcDbDictionary
281
     1
  0
DICTIONARY
  5
69
102
{ACAD_REACTORS
330
C
102
}
330
C
100
AcDbDictionary
281
     1
  3
Standard
350
6A
  0
DICTIONARY
  5
2A
102
{ACAD_REACTORS
330
C
102
}
330
C
100
AcDbDictionary
281
     1
  3
2dWireframe
350
2F
  3
Basic
350
32
  3
Brighten
350
36
  3
ColorChange
350
3A
  3
Conceptual
350
34
  3
Dim
350
35
  3
EdgeColorOff
350
3D
  3
Facepattern
350
39
  3
Flat
350
2B
  3
FlatWithEdges
350
2C
  3
Gouraud
350
2D
  3
GouraudWithEdges
350
2E
  3
Hidden
350
31
  3
JitterOff
350
3B
  3
Linepattern
350
38
  3
OverhangOff
350
3C
  3
Realistic
350
33
  3
Shaded
350
42
  3
Shaded with edges
350
41
  3
Shades of Gray
350
3E
  3
Sketchy
350
3F
  3
Thicken
350
37
  3
Wireframe
350
30
  3
X-Ray
350
40
  0
XRECORD
  5
27C
102
{ACAD_REACTORS
330
C
102
}
330
C
100
AcDbXrecord
280
     1
 90
        1
330
6A
  0
DICTIONARY
  5
278
102
{ACAD_REACTORS
330
C
102
}
330
C
100
AcDbDictionary
281
     1
  3
CANNOSCALE
350
279
  3
CMLEADERSTYLE
350
27E
  3
CTABLESTYLE
350
27D
  0
LAYOUT
  5
1E
102
{ACAD_REACTORS
330
1A
102
}
330
1A
100
AcDbPlotSettings
  1

  2
none_device
  4

  6

 40
0.0
 41
0.0
 42
0.0
 43
0.0
 44
0.0
 45
0.0
 46
0.0
 47
0.0
 48
0.0
 49
0.0
140
0.0
141
0.0
142
1.0
143
1.0
 70
   688
 72
     0
 73
     0
 74
     5
  7

 75
    16
 76
     0
 77
     2
 78
   300
147
1.0
148
0.0
149
0.0
100
AcDbLayout
  1
Layout1
 70
     1
 71
     1
 10
0.0
 20
0.0
 11
12.0
 21
9.0
 12
0.0
 22
0.0
 32
0.0
 14
1.000000000000000E+20
 24
1.000000000000000E+20
 34
1.000000000000000E+20
 15
-1.000000000000000E+20
 25
-1.000000000000000E+20
 35
-1.000000000000000E+20
146
0.0
 13
0.0
 23
0.0
 33
0.0
 16
1.0
 26
0.0
 36
0.0
 17
0.0
 27
1.0
 37
0.0
 76
     0
330
1B
  0
LAYOUT
  5
26
102
{ACAD_REACTORS
330
1A
102
}
330
1A
100
AcDbPlotSettings
  1

  2
none_device
  4

  6

 40
0.0
 41
0.0
 42
0.0
 43
0.0
 44
0.0
 45
0.0
 46
0.0
 47
0.0
 48
0.0
 49
0.0
140
0.0
141
0.0
142
1.0
143
1.0
 70
   688
 72
     0
 73
     0
 74
     5
  7

 75
    16
 76
     0
 77
     2
 78
   300
147
1.0
148
0.0
149
0.0
100
AcDbLayout
  1
Layout2
 70
     1
 71
     2
 10
0.0
 20
0.0
 11
0.0
 21
0.0
 12
0.0
 22
0.0
 32
0.0
 14
0.0
 24
0.0
 34
0.0
 15
0.0
 25
0.0
 35
0.0
146
0.0
 13
0.0
 23
0.0
 33
0.0
 16
1.0
 26
0.0
 36
0.0
 17
0.0
 27
1.0
 37
0.0
 76
     0
330
23
  0
LAYOUT
  5
22
102
{ACAD_REACTORS
330
1A
102
}
330
1A
100
AcDbPlotSettings
  1

  2
none_device
  4
Letter_(8.50_x_11.00_Inches)
  6

 40
6.35
 41
6.35
 42
6.35000508
 43
6.35000508
 44
215.9
 45
279.4
 46
0.0
 47
0.0
 48
0.0
 49
0.0
140
0.0
141
0.0
142
1.0
143
1.0
 70
  1712
 72
     0
 73
     0
 74
     0
  7

 75
     0
 76
     0
 77
     2
 78
   300
147
1.0
148
0.0
149
0.0
100
AcDbLayout
  1
Model
 70
     1
 71
     0
 10
0.0
 20
0.0
 11
12.0
 21
9.0
 12
0.0
 22
0.0
 32
0.0
 14
1.000000000000000E+20
 24
1.000000000000000E+20
 34
1.000000000000000E+20
 15
-1.000000000000000E+20
 25
-1.000000000000000E+20
 35
-1.000000000000000E+20
146
0.0
 13
0.0
 23
0.0
 33
0.0
 16
1.0
 26
0.0
 36
0.0
 17
0.0
 27
1.0
 37
0.0
 76
     0
330
1F
331
29
  0
MATERIAL
  5
45
102
{ACAD_REACTORS
330
43
102
}
330
43
100
AcDbMaterial
  1
ByBlock
 72
     1
 94
      127
  0
MATERIAL
  5
44
102
{ACAD_REACTORS
330
43
102
}
330
43
100
AcDbMaterial
  1
ByLayer
 72
     1
 94
      127
  0
MATERIAL
  5
46
102
{ACAD_REACTORS
330
43
102
}
330
43
100
AcDbMaterial
  1
Global
 72
     1
 94
      127
  0
MLEADERSTYLE
  5
6C
102
{ACAD_REACTORS
330
6B
102
}
330
6B
100
AcDbMLeaderStyle
179
     2
170
     2
171
     1
172
     0
 90
        2
 40
0.0
 41
0.0
173
     1
 91
-1056964608
340
14
 92
       -2
290
     1
 42
0.09
291
     1
 43
0.36
  3
Standard
341
0
 44
0.18
300

342
11
174
     1
178
     6
175
     1
176
     0
 93
-1056964608
 45
0.18
292
     0
297
     0
 46
0.18
343
0
 94
-1056964608
 47
1.0
 49
1.0
140
1.0
293
     1
141
0.0
294
     1
177
     0
142
1.0
295
     0
296
     0
143
0.125
271
     0
272
     9
273
     9
298
     0
  0
MLINESTYLE
  5
18
102
{ACAD_REACTORS
330
17
102
}
330
17
100
AcDbMlineStyle
  2
Standard
 70
     0
  3

 62
   256
 51
90.0
 52
90.0
 71
     2
 49
0.5
 62
   256
  6
BYLAYER
 49
-0.5
 62
   256
  6
BYLAYER
  0
ACDBPLACEHOLDER
  5
F
102
{ACAD_REACTORS
330
E
102
}
330
E
  0
SCALE
  5
48
102
{ACAD_REACTORS
330
47
102
}
330
47
100
AcDbScale
 70
     0
300
1:1
140
1.0
141
1.0
290
     1
  0
SCALE
  5
49
102
{ACAD_REACTORS
330
47
102
}
330
47
100
AcDbScale
 70
     0
300
1:2
140
1.0
141
2.0
290
     0
  0
SCALE
  5
4A
102
{ACAD_REACTORS
330
47
102
}
330
47
100
AcDbScale
 70
     0
300
1:4
140
1.0
141
4.0
290
     0
  0
SCALE
  5
4B
102
{ACAD_REACTORS
330
47
102
}
330
47
100
AcDbScale
 70
     0
300
1:5
140
1.0
141
5.0
290
     0
  0
SCALE
  5
4C
102
{ACAD_REACTORS
330
47
102
}
330
47
100
AcDbScale
 70
     0
300
1:8
140
1.0
141
8.0
290
     0
  0
SCALE
  5
4D
102
{ACAD_REACTORS
330
47
102
}
330
47
100
AcDbScale
 70
     0
300
1:10
140
1.0
141
10.0
290
     0
  0
SCALE
  5
4E
102
{ACAD_REACTORS
330
47
102
}
330
47
100
AcDbScale
 70
     0
300
1:16
140
1.0
141
16.0
290
     0
  0
SCALE
  5
4F
102
{ACAD_REACTORS
330
47
102
}
330
47
100
AcDbScale
 70
     0
300
1:20
140
1.0
141
20.0
290
     0
  0
SCALE
  5
50
102
{ACAD_REACTORS
330
47
102
}
330
47
100
AcDbScale
 70
     0
300
1:30
140
1.0
141
30.0
290
     0
  0
SCALE
  5
51
102
{ACAD_REACTORS
330
47
102
}
330
47
100
AcDbScale
 70
     0
300
1:40
140
1.0
141
40.0
290
     0
  0
SCALE
  5
52
102
{ACAD_REACTORS
330
47
102
}
330
47
100
AcDbScale
 70
     0
300
1:50
140
1.0
141
50.0
290
     0
  0
SCALE
  5
53
102
{ACAD_REACTORS
330
47
102
}
330
47
100
AcDbScale
 70
     0
300
1:100
140
1.0
141
100.0
290
     0
  0
SCALE
  5
54
102
{ACAD_REACTORS
330
47
102
}
330
47
100
AcDbScale
 70
     0
300
2:1
140
2.0
141
1.0
290
     0
  0
SCALE
  5
55
102
{ACAD_REACTORS
330
47
102
}
330
47
100
AcDbScale
 70
     0
300
4:1
140
4.0
141
1.0
290
     0
  0
SCALE
  5
56
102
{ACAD_REACTORS
330
47
102
}
330
47
100
AcDbScale
 70
     0
300
8:1
140
8.0
141
1.0
290
     0
  0
SCALE
  5
57
102
{ACAD_REACTORS
330
47
102
}
330
47
100
AcDbScale
 70
     0
300
10:1
140
10.0
141
1.0
290
     0
  0
SCALE
  5
58
102
{ACAD_REACTORS
330
47
102
}
330
47
100
AcDbScale
 70
     0
300
100:1
140
100.0
141
1.0
290
     0
  0
SCALE
  5
59
102
{ACAD_REACTORS
330
47
102
}
330
47
100
AcDbScale
 70
     0
300
1/128" = 1'-0"
140
0.0078125
141
12.0
290
     0
  0
SCALE
  5
5A
102
{ACAD_REACTORS
330
47
102
}
330
47
100
AcDbScale
 70
     0
300
1/64" = 1'-0"
140
0.015625
141
12.0
290
     0
  0
SCALE
  5
5B
102
{ACAD_REACTORS
330
47
102
}
330
47
100
AcDbScale
 70
     0
300
1/32" = 1'-0"
140
0.03125
141
12.0
290
     0
  0
SCALE
  5
5C
102
{ACAD_REACTORS
330
47
102
}
330
47
100
AcDbScale
 70
     0
300
1/16" = 1'-0"
140
0.0625
141
12.0
290
     0
  0
SCALE
  5
5D
102
{ACAD_REACTORS
330
47
102
}
330
47
100
AcDbScale
 70
     0
300
3/32" = 1'-0"
140
0.09375
141
12.0
290
     0
  0
SCALE
  5
5E
102
{ACAD_REACTORS
330
47
102
}
330
47
100
AcDbScale
 70
     0
300
1/8" = 1'-0"
140
0.125
141
12.0
290
     0
  0
SCALE
  5
5F
102
{ACAD_REACTORS
330
47
102
}
330
47
100
AcDbScale
 70
     0
300
3/16" = 1'-0"
140
0.1875
141
12.0
290
     0
  0
SCALE
  5
60
102
{ACAD_REACTORS
330
47
102
}
330
47
100
AcDbScale
 70
     0
300
1/4" = 1'-0"
140
0.25
141
12.0
290
     0
  0
SCALE
  5
61
102
{ACAD_REACTORS
330
47
102
}
330
47
100
AcDbScale
 70
     0
300
3/8" = 1'-0"
140
0.375
141
12.0
290
     0
  0
SCALE
  5
62
102
{ACAD_REACTORS
330
47
102
}
330
47
100
AcDbScale
 70
     0
300
1/2" = 1'-0"
140
0.5
141
12.0
290
     0
  0
SCALE
  5
63
102
{ACAD_REACTORS
330
47
102
}
330
47
100
AcDbScale
 70
     0
300
3/4" = 1'-0"
140
0.75
141
12.0
290
     0
  0
SCALE
  5
64
102
{ACAD_REACTORS
330
47
102
}
330
47
100
AcDbScale
 70
     0
300
1" = 1'-0"
140
1.0
141
12.0
290
     0
  0
SCALE
  5
65
102
{ACAD_REACTORS
330
47
102
}
330
47
100
AcDbScale
 70
     0
300
1-1/2" = 1'-0"
140
1.5
141
12.0
290
     0
  0
SCALE
  5
66
102
{ACAD_REACTORS
330
47
102
}
330
47
100
AcDbScale
 70
     0
300
3" = 1'-0"
140
3.0
141
12.0
290
     0
  0
SCALE
  5
67
102
{ACAD_REACTORS
330
47
102
}
330
47
100
AcDbScale
 70
     0
300
6" = 1'-0"
140
6.0
141
12.0
290
     0
  0
SCALE
  5
68
102
{ACAD_REACTORS
330
47
102
}
330
47
100
AcDbScale
 70
     0
300
1'-0" = 1'-0"
140
12.0
141
12.0
290
     0
  0
TABLESTYLE
  5
6A
102
{ACAD_REACTORS
330
69
102
}
102
{ACAD_XDICTIONARY
360
27A
102
}
330
69
100
AcDbTableStyle
  3
Standard
 70
     0
 71
     0
 40
0.06
 41
0.06
280
     0
281
     0
  7
Standard
140
0.18
170
     2
 62
     0
 63
   257
283
     0
 90
        4
 91
        0
  1

274
    -2
284
     1
 64
     0
275
    -2
285
     1
 65
     0
276
    -2
286
     1
 66
     0
277
    -2
287
     1
 67
     0
278
    -2
288
     1
 68
     0
279
    -2
289
     1
 69
     0
  7
Standard
140
0.25
170
     5
 62
     0
 63
   257
283
     0
 90
        4
 91
        0
  1

274
    -2
284
     1
 64
     0
275
    -2
285
     1
 65
     0
276
    -2
286
     1
 66
     0
277
    -2
287
     1
 67
     0
278
    -2
288
     1
 68
     0
279
    -2
289
     1
 69
     0
  7
Standard
140
0.18
170
     5
 62
     0
 63
   257
283
     0
 90
        4
 91
        0
  1

274
    -2
284
     1
 64
     0
275
    -2
285
     1
 65
     0
276
    -2
286
     1
 66
     0
277
    -2
287
     1
 67
     0
278
    -2
288
     1
 68
     0
279
    -2
289
     1
 69
     0
  0
VISUALSTYLE
  5
2F
102
{ACAD_REACTORS
330
2A
102
}
330
2A
100
AcDbVisualStyle
  2
2dWireframe
 70
     4
177
     3
291
     0
 70
    58
 90
        0
176
     1
 90
        2
176
     1
 90
        0
176
     1
 90
        0
176
     1
 40
0.6
176
     1
 40
30.0
176
     1
 62
     7
420
 16777215
176
     1
 90
        1
176
     1
 90
        4
176
     1
 62
     7
176
     1
 62
   257
176
     1
 90
        1
176
     1
 90
        1
176
     1
 40
1.0
176
     1
 90
        0
176
     1
 62
   257
176
     1
 40
1.0
176
     1
 90
        1
176
     1
 90
        6
176
     1
 90
        2
176
     1
 62
     7
176
     1
 90
        5
176
     1
 90
        0
176
     1
 90
        0
176
     1
290
     0
176
     1
 90
        1
176
     1
 40
0.0
176
     1
 90
        0
176
     1
290
     1
176
     1
290
     1
176
     1
290
     0
176
     1
290
     0
176
     1
290
     0
176
     1
290
     0
176
     1
290
     0
176
     1
290
     0
176
     1
290
     0
176
     1
 90
       50
176
     1
 40
0.0
176
     1
 40
1.0
176
     1
 90
        0
176
     1
 62
    18
420
        0
176
     1
 90
       50
176
     1
 90
        3
176
     1
 62
     5
420
      255
176
     1
290
     0
176
     1
 90
       50
176
     1
 90
       50
176
     1
 90
       50
176
     1
290
     0
176
     1
 90
       50
176
     1
 62
   256
176
     0
 40
1.0
176
     0
 90
        2
176
     1
  1
strokes_ogs.tif
176
     1
290
     0
176
     1
 40
1.0
176
     1
 40
1.0
176
     1
  0
VISUALSTYLE
  5
32
102
{ACAD_REACTORS
330
2A
102
}
330
2A
100
AcDbVisualStyle
  2
Basic
 70
     7
177
     3
291
     1
 70
    58
 90
        1
176
     1
 90
        0
176
     1
 90
        1
176
     1
 90
        0
176
     1
 40
0.6
176
     1
 40
30.0
176
     1
 62
     7
420
 16777215
176
     1
 90
        0
176
     1
 90
        4
176
     1
 62
     7
176
     1
 62
   257
176
     1
 90
        1
176
     1
 90
        1
176
     1
 40
1.0
176
     1
 90
        8
176
     1
 62
     7
176
     1
 40
1.0
176
     1
 90
        1
176
     1
 90
        6
176
     1
 90
        2
176
     1
 62
     7
176
     1
 90
        5
176
     1
 90
        0
176
     1
 90
        0
176
     1
290
     0
176
     1
 90
        1
176
     1
 40
0.0
176
     1
 90
        0
176
     1
290
     0
176
     1
290
     1
176
     1
290
     1
176
     1
290
     0
176
     1
290
     0
176
     1
290
     0
176
     1
290
     0
176
     1
290
     0
176
     1
290
     0
176
     1
 90
       50
176
     1
 40
0.0
176
     1
 40
1.0
176
     1
 90
        0
176
     1
 62
    18
420
        0
176
     1
 90
       50
176
     1
 90
        3
176
     1
 62
     5
420
      255
176
     1
290
     0
176
     1
 90
       50
176
     1
 90
       50
176
     1
 90
       50
176
     1
290
     0
176
     1
 90
       50
176
     1
 62
   256
176
     0
 40
1.0
176
     0
 90
        2
176
     1
  1
strokes_ogs.tif
176
     1
290
     0
176
     1
 40
1.0
176
     1
 40
1.0
176
     1
  0
VISUALSTYLE
  5
36
102
{ACAD_REACTORS
330
2A
102
}
330
2A
100
AcDbVisualStyle
  2
Brighten
 70
    12
177
     3
291
     1
 70
    58
 90
        2
176
     1
 90
        2
176
     1
 90
        0
176
     1
 90
        0
176
     1
 40
0.6
176
     1
 40
30.0
176
     1
 62
     7
420
 16777215
176
     1
 90
        1
176
     1
 90
        4
176
     1
 62
     7
176
     1
 62
   257
176
     1
 90
        1
176
     1
 90
        1
176
     1
 40
1.0
176
     1
 90
        8
176
     1
 62
     7
176
     1
 40
1.0
176
     1
 90
        1
176
     1
 90
        6
176
     1
 90
        2
176
     1
 62
     7
176
     1
 90
        5
176
     1
 90
        0
176
     1
 90
        0
176
     1
290
     0
176
     1
 90
        1
176
     1
 40
50.0
176
     1
 90
        0
176
     1
290
     0
176
     1
290
     1
176
     1
290
     1
176
     1
290
     0
176
     1
290
     0
176
     1
290
     0
176
     1
290
     0
176
     1
290
     0
176
     1
290
     0
176
     1
 90
       50
176
     1
 40
0.0
176
     1
 40
1.0
176
     1
 90
        0
176
     1
 62
    18
420
        0
176
     1
 90
       50
176
     1
 90
        3
176
     1
 62
     5
420
      255
176
     1
290
     0
176
     1
 90
       50
176
     1
 90
       50
176
     1
 90
       50
176
     1
290
     0
176
     1
 90
       50
176
     1
 62
   256
176
     0
 40
1.0
176
     0
 90
        2
176
     1
  1
strokes_ogs.tif
176
     1
290
     0
176
     1
 40
1.0
176
     1
 40
1.0
176
     1
  0
VISUALSTYLE
  5
3A
102
{ACAD_REACTORS
330
2A
102
}
330
2A
100
AcDbVisualStyle
  2
ColorChange
 70
    16
177
     3
291
     1
 70
    58
 90
        2
176
     1
 90
        2
176
     1
 90
        3
176
     1
 90
        0
176
     1
 40
0.6
176
     1
 40
30.0
176
     1
 62
     8
420
  8421504
176
     1
 90
        1
176
     1
 90
        4
176
     1
 62
     7
176
     1
 62
   257
176
     1
 90
        1
176
     1
 90
        1
176
     1
 40
1.0
176
     1
 90
        8
176
     1
 62
     8
420
  8421504
176
     1
 40
1.0
176
     1
 90
        1
176
     1
 90
        6
176
     1
 90
        2
176
     1
 62
     7
176
     1
 90
        5
176
     1
 90
        0
176
     1
 90
        0
176
     1
290
     0
176
     1
 90
        1
176
     1
 40
0.0
176
     1
 90
        0
176
     1
290
     0
176
     1
290
     1
176
     1
290
     1
176
     1
290
     0
176
     1
290
     0
176
     1
290
     0
176
     1
290
     0
176
     1
290
     0
176
     1
290
     0
176
     1
 90
       50
176
     1
 40
0.0
176
     1
 40
1.0
176
     1
 90
        0
176
     1
 62
    18
420
        0
176
     1
 90
       50
176
     1
 90
        3
176
     1
 62
     5
420
      255
176
     1
290
     0
176
     1
 90
       50
176
     1
 90
       50
176
     1
 90
       50
176
     1
290
     0
176
     1
 90
       50
176
     1
 62
   256
176
     0
 40
1.0
176
     0
 90
        2
176
     1
  1
strokes_ogs.tif
176
     1
290
     0
176
     1
 40
1.0
176
     1
 40
1.0
176
     1
  0
VISUALSTYLE
  5
34
102
{ACAD_REACTORS
330
2A
102
}
330
2A
100
AcDbVisualStyle
  2
Conceptual
 70
     9
177
     3
291
     0
 70
    58
 90
        3
176
     1
 90
        2
176
     1
 90
        0
176
     1
 90
        0
176
     1
 40
0.6
176
     1
 40
30.0
176
     1
 62
     7
420
 16777215
176
     1
 90
        2
176
     1
 90
        2
176
     1
 62
     7
176
     1
 62
   257
176
     1
 90
        1
176
     1
 90
        1
176
     1
 40
179.0
176
     1
 90
        8
176
     1
 62
     7
176
     1
 40
1.0
176
     1
 90
        1
176
     1
 90
        6
176
     1
 90
        2
176
     1
 62
     7
176
     1
 90
        3
176
     1
 90
        0
176
     1
 90
        0
176
     1
290
     0
176
     1
 90
        1
176
     1
 40
0.0
176
     1
 90
        0
176
     1
290
     0
176
     1
290
     1
176
     1
290
     1
176
     1
290
     0
176
     1
290
     0
176
     1
290
     0
176
     1
290
     0
176
     1
290
     0
176
     1
290
     0
176
     1
 90
       50
176
     1
 40
0.0
176
     1
 40
1.0
176
     1
 90
        0
176
     1
 62
    18
420
        0
176
     1
 90
       50
176
     1
 90
        3
176
     1
 62
     5
420
      255
176
     1
290
     0
176
     1
 90
       50
176
     1
 90
       50
176
     1
 90
       50
176
     1
290
     0
176
     1
 90
       50
176
     1
 62
   256
176
     0
 40
1.0
176
     0
 90
        2
176
     1
  1
strokes_ogs.tif
176
     1
290
     0
176
     1
 40
1.0
176
     1
 40
1.0
176
     1
  0
VISUALSTYLE
  5
35
102
{ACAD_REACTORS
330
2A
102
}
330
2A
100
AcDbVisualStyle
  2
Dim
 70
    11
177
     3
291
     1
 70
    58
 90
        2
176
     1
 90
        2
176
     1
 90
        0
176
     1
 90
        0
176
     1
 40
0.6
176
     1
 40
30.0
176
     1
 62
     7
420
 16777215
176
     1
 90
        1
176
     1
 90
        4
176
     1
 62
     7
176
     1
 62
   257
176
     1
 90
        1
176
     1
 90
        1
176
     1
 40
1.0
176
     1
 90
        8
176
     1
 62
     7
176
     1
 40
1.0
176
     1
 90
        1
176
     1
 90
        6
176
     1
 90
        2
176
     1
 62
     7
176
     1
 90
        5
176
     1
 90
        0
176
     1
 90
        0
176
     1
290
     0
176
     1
 90
        1
176
     1
 40
-50.0
176
     1
 90
        0
176
     1
290
     0
176
     1
290
     1
176
     1
290
     1
176
     1
290
     0
176
     1
290
     0
176
     1
290
     0
176
     1
290
     0
176
     1
290
     0
176
     1
290
     0
176
     1
 90
       50
176
     1
 40
0.0
176
     1
 40
1.0
176
     1
 90
        0
176
     1
 62
    18
420
        0
176
     1
 90
       50
176
     1
 90
        3
176
     1
 62
     5
420
      255
176
     1
290
     0
176
     1
 90
       50
176
     1
 90
       50
176
     1
 90
       50
176
     1
290
     0
176
     1
 90
       50
176
     1
 62
   256
176
     0
 40
1.0
176
     0
 90
        2
176
     1
  1
strokes_ogs.tif
176
     1
290
     0
176
     1
 40
1.0
176
     1
 40
1.0
176
     1
  0
VISUALSTYLE
  5
3D
102
{ACAD_REACTORS
330
2A
102
}
330
2A
100
AcDbVisualStyle
  2
EdgeColorOff
 70
    22
177
     3
291
     1
 70
    58
 90
        2
176
     0
 90
        2
176
     0
 90
        0
176
     0
 90
        0
176
     0
 40
0.6
176
     0
 40
30.0
176
     0
 62
     7
420
 16777215
176
     0
 90
        1
176
     0
 90
        4
176
     0
 62
     7
176
     0
 62
   257
176
     0
 90
        1
176
     0
 90
        1
176
     0
 40
1.0
176
     0
 90
        8
176
     2
 62
     7
176
     0
 40
1.0
176
     0
 90
        1
176
     0
 90
        6
176
     0
 90
        2
176
     0
 62
     7
176
     0
 90
        5
176
     0
 90
        0
176
     0
 90
        0
176
     0
290
     0
176
     0
 90
        1
176
     0
 40
0.0
176
     0
 90
        0
176
     0
290
     0
176
     0
290
     1
176
     0
290
     1
176
     0
290
     0
176
     0
290
     0
176
     0
290
     0
176
     0
290
     0
176
     0
290
     0
176
     0
290
     0
176
     0
 90
       50
176
     0
 40
0.0
176
     0
 40
1.0
176
     0
 90
        0
176
     0
 62
    18
420
        0
176
     0
 90
       50
176
     0
 90
        3
176
     0
 62
     5
420
      255
176
     0
290
     0
176
     0
 90
       50
176
     0
 90
       50
176
     0
 90
       50
176
     0
290
     0
176
     0
 90
       50
176
     0
 62
   256
176
     0
 40
1.0
176
     0
 90
        2
176
     0
  1
strokes_ogs.tif
176
     0
290
     0
176
     0
 40
1.0
176
     0
 40
1.0
176
     0
  0
VISUALSTYLE
  5
39
102
{ACAD_REACTORS
330
2A
102
}
330
2A
100
AcDbVisualStyle
  2
Facepattern
 70
    15
177
     3
291
     1
 70
    58
 90
        2
176
     1
 90
        2
176
     1
 90
        0
176
     1
 90
        0
176
     1
 40
0.6
176
     1
 40
30.0
176
     1
 62
     7
420
 16777215
176
     1
 90
        1
176
     1
 90
        4
176
     1
 62
     7
176
     1
 62
   257
176
     1
 90
        1
176
     1
 90
        1
176
     1
 40
1.0
176
     1
 90
        8
176
     1
 62
     7
176
     1
 40
1.0
176
     1
 90
        1
176
     1
 90
        6
176
     1
 90
        2
176
     1
 62
     7
176
     1
 90
        5
176
     1
 90
        0
176
     1
 90
        0
176
     1
290
     0
176
     1
 90
        1
176
     1
 40
0.0
176
     1
 90
        0
176
     1
290
     0
176
     1
290
     1
176
     1
290
     1
176
     1
290
     0
176
     1
290
     0
176
     1
290
     0
176
     1
290
     0
176
     1
290
     0
176
     1
290
     0
176
     1
 90
       50
176
     1
 40
0.0
176
     1
 40
1.0
176
     1
 90
        0
176
     1
 62
    18
420
        0
176
     1
 90
       50
176
     1
 90
        3
176
     1
 62
     5
420
      255
176
     1
290
     0
176
     1
 90
       50
176
     1
 90
       50
176
     1
 90
       50
176
     1
290
     0
176
     1
 90
       50
176
     1
 62
   256
176
     0
 40
1.0
176
     0
 90
        2
176
     1
  1
strokes_ogs.tif
176
     1
290
     0
176
     1
 40
1.0
176
     1
 40
1.0
176
     1
  0
VISUALSTYLE
  5
2B
102
{ACAD_REACTORS
330
2A
102
}
330
2A
100
AcDbVisualStyle
  2
Flat
 70
     0
177
     3
291
     1
 70
    58
 90
        2
176
     1
 90
        1
176
     1
 90
        1
176
     1
 90
        2
176
     1
 40
0.6
176
     1
 40
30.0
176
     1
 62
     7
420
 16777215
176
     1
 90
        0
176
     1
 90
        0
176
     1
 62
     7
176
     1
 62
   257
176
     1
 90
        1
176
     1
 90
        1
176
     1
 40
1.0
176
     1
 90
        8
176
     1
 62
     7
176
     1
 40
1.0
176
     1
 90
        1
176
     1
 90
        6
176
     1
 90
        2
176
     1
 62
     7
176
     1
 90
        5
176
     1
 90
        0
176
     1
 90
        0
176
     1
290
     0
176
     1
 90
       13
176
     1
 40
0.0
176
     1
 90
        0
176
     1
290
     0
176
     1
290
     1
176
     1
290
     1
176
     1
290
     0
176
     1
290
     0
176
     1
290
     0
176
     1
290
     0
176
     1
290
     0
176
     1
290
     0
176
     1
 90
       50
176
     1
 40
0.0
176
     1
 40
1.0
176
     1
 90
        0
176
     1
 62
    18
420
        0
176
     1
 90
       50
176
     1
 90
        3
176
     1
 62
     5
420
      255
176
     1
290
     0
176
     1
 90
       50
176
     1
 90
       50
176
     1
 90
       50
176
     1
290
     0
176
     1
 90
       50
176
     1
 62
   256
176
     0
 40
1.0
176
     0
 90
        2
176
     1
  1
strokes_ogs.tif
176
     1
290
     0
176
     1
 40
1.0
176
     1
 40
1.0
176
     1
  0
VISUALSTYLE
  5
2C
102
{ACAD_REACTORS
330
2A
102
}
330
2A
100
AcDbVisualStyle
  2
FlatWithEdges
 70
     1
177
     3
291
     1
 70
    58
 90
        2
176
     1
 90
        1
176
     1
 90
        1
176
     1
 90
        2
176
     1
 40
0.6
176
     1
 40
30.0
176
     1
 62
     7
420
 16777215
176
     1
 90
        1
176
     1
 90
        0
176
     1
 62
     7
176
     1
 62
   257
176
     1
 90
        1
176
     1
 90
        1
176
     1
 40
1.0
176
     1
 90
        0
176
     1
 62
   257
176
     1
 40
1.0
176
     1
 90
        1
176
     1
 90
        6
176
     1
 90
        2
176
     1
 62
     7
176
     1
 90
        5
176
     1
 90
        0
176
     1
 90
        0
176
     1
290
     0
176
     1
 90
       13
176
     1
 40
0.0
176
     1
 90
        0
176
     1
290
     0
176
     1
290
     1
176
     1
290
     1
176
     1
290
     0
176
     1
290
     0
176
     1
290
     0
176
     1
290
     0
176
     1
290
     0
176
     1
290
     0
176
     1
 90
       50
176
     1
 40
0.0
176
     1
 40
1.0
176
     1
 90
        0
176
     1
 62
    18
420
        0
176
     1
 90
       50
176
     1
 90
        3
176
     1
 62
     5
420
      255
176
     1
290
     0
176
     1
 90
       50
176
     1
 90
       50
176
     1
 90
       50
176
     1
290
     0
176
     1
 90
       50
176
     1
 62
   256
176
     0
 40
1.0
176
     0
 90
        2
176
     1
  1
strokes_ogs.tif
176
     1
290
     0
176
     1
 40
1.0
176
     1
 40
1.0
176
     1
  0
VISUALSTYLE
  5
2D
102
{ACAD_REACTORS
330
2A
102
}
330
2A
100
AcDbVisualStyle
  2
Gouraud
 70
     2
177
     3
291
     1
 70
    58
 90
        2
176
     1
 90
        2
176
     1
 90
        1
176
     1
 90
        2
176
     1
 40
0.6
176
     1
 40
30.0
176
     1
 62
     7
420
 16777215
176
     1
 90
        0
176
     1
 90
        0
176
     1
 62
     7
176
     1
 62
   257
176
     1
 90
        1
176
     1
 90
        1
176
     1
 40
1.0
176
     1
 90
        0
176
     1
 62
     7
176
     1
 40
1.0
176
     1
 90
        1
176
     1
 90
        6
176
     1
 90
        2
176
     1
 62
     7
176
     1
 90
        5
176
     1
 90
        0
176
     1
 90
        0
176
     1
290
     0
176
     1
 90
       13
176
     1
 40
0.0
176
     1
 90
        0
176
     1
290
     0
176
     1
290
     1
176
     1
290
     1
176
     1
290
     0
176
     1
290
     0
176
     1
290
     0
176
     1
290
     0
176
     1
290
     0
176
     1
290
     0
176
     1
 90
       50
176
     1
 40
0.0
176
     1
 40
1.0
176
     1
 90
        0
176
     1
 62
    18
420
        0
176
     1
 90
       50
176
     1
 90
        3
176
     1
 62
     5
420
      255
176
     1
290
     0
176
     1
 90
       50
176
     1
 90
       50
176
     1
 90
       50
176
     1
290
     0
176
     1
 90
       50
176
     1
 62
   256
176
     0
 40
1.0
176
     0
 90
        2
176
     1
  1
strokes_ogs.tif
176
     1
290
     0
176
     1
 40
1.0
176
     1
 40
1.0
176
     1
  0
VISUALSTYLE
  5
2E
102
{ACAD_REACTORS
330
2A
102
}
330
2A
100
AcDbVisualStyle
  2
GouraudWithEdges
 70
     3
177
     3
291
     1
 70
    58
 90
        2
176
     1
 90
        2
176
     1
 90
        1
176
     1
 90
        2
176
     1
 40
0.6
176
     1
 40
30.0
176
     1
 62
     7
420
 16777215
176
     1
 90
        1
176
     1
 90
        0
176
     1
 62
     7
176
     1
 62
   257
176
     1
 90
        1
176
     1
 90
        1
176
     1
 40
1.0
176
     1
 90
        0
176
     1
 62
   257
176
     1
 40
1.0
176
     1
 90
        1
176
     1
 90
        6
176
     1
 90
        2
176
     1
 62
     7
176
     1
 90
        5
176
     1
 90
        0
176
     1
 90
        0
176
     1
290
     0
176
     1
 90
       13
176
     1
 40
0.0
176
     1
 90
        0
176
     1
290
     0
176
     1
290
     1
176
     1
290
     1
176
     1
290
     0
176
     1
290
     0
176
     1
290
     0
176
     1
290
     0
176
     1
290
     0
176
     1
290
     0
176
     1
 90
       50
176
     1
 40
0.0
176
     1
 40
1.0
176
     1
 90
        0
176
     1
 62
    18
420
        0
176
     1
 90
       50
176
     1
 90
        3
176
     1
 62
     5
420
      255
176
     1
290
     0
176
     1
 90
       50
176
     1
 90
       50
176
     1
 90
       50
176
     1
290
     0
176
     1
 90
       50
176
     1
 62
   256
176
     0
 40
1.0
176
     0
 90
        2
176
     1
  1
strokes_ogs.tif
176
     1
290
     0
176
     1
 40
1.0
176
     1
 40
1.0
176
     1
  0
VISUALSTYLE
  5
31
102
{ACAD_REACTORS
330
2A
102
}
330
2A
100
AcDbVisualStyle
  2
Hidden
 70
     6
177
     3
291
     0
 70
    58
 90
        1
176
     1
 90
        2
176
     1
 90
        2
176
     1
 90
        0
176
     1
 40
0.6
176
     1
 40
30.0
176
     1
 62
     7
420
 16777215
176
     1
 90
        2
176
     1
 90
        2
176
     1
 62
     7
176
     1
 62
   257
176
     1
 90
        2
176
     1
 90
        1
176
     1
 40
40.0
176
     1
 90
        0
176
     1
 62
   257
176
     1
 40
1.0
176
     1
 90
        1
176
     1
 90
        6
176
     1
 90
        2
176
     1
 62
     7
176
     1
 90
        3
176
     1
 90
        0
176
     1
 90
        0
176
     1
290
     0
176
     1
 90
        1
176
     1
 40
0.0
176
     1
 90
        0
176
     1
290
     0
176
     1
290
     1
176
     1
290
     1
176
     1
290
     0
176
     1
290
     0
176
     1
290
     0
176
     1
290
     0
176
     1
290
     0
176
     1
290
     0
176
     1
 90
       50
176
     1
 40
0.0
176
     1
 40
1.0
176
     1
 90
        0
176
     1
 62
    18
420
        0
176
     1
 90
       50
176
     1
 90
        3
176
     1
 62
     5
420
      255
176
     1
290
     0
176
     1
 90
       50
176
     1
 90
       50
176
     1
 90
       50
176
     1
290
     0
176
     1
 90
       50
176
     1
 62
   256
176
     0
 40
1.0
176
     0
 90
        2
176
     1
  1
strokes_ogs.tif
176
     1
290
     0
176
     1
 40
1.0
176
     1
 40
1.0
176
     1
  0
VISUALSTYLE
  5
3B
102
{ACAD_REACTORS
330
2A
102
}
330
2A
100
AcDbVisualStyle
  2
JitterOff
 70
    20
177
     3
291
     1
 70
    58
 90
        2
176
     0
 90
        2
176
     0
 90
        0
176
     0
 90
        0
176
     0
 40
0.6
176
     0
 40
30.0
176
     0
 62
     7
420
 16777215
176
     0
 90
        1
176
     0
 90
        4
176
     0
 62
     7
176
     0
 62
   257
176
     0
 90
        1
176
     0
 90
        1
176
     0
 40
1.0
176
     0
 90
       10
176
     2
 62
     7
176
     0
 40
1.0
176
     0
 90
        1
176
     0
 90
        6
176
     0
 90
        2
176
     0
 62
     7
176
     0
 90
        5
176
     0
 90
        0
176
     0
 90
        0
176
     0
290
     0
176
     0
 90
        1
176
     0
 40
0.0
176
     0
 90
        0
176
     0
290
     0
176
     0
290
     1
176
     0
290
     1
176
     0
290
     0
176
     0
290
     0
176
     0
290
     0
176
     0
290
     0
176
     0
290
     0
176
     0
290
     0
176
     0
 90
       50
176
     0
 40
0.0
176
     0
 40
1.0
176
     0
 90
        0
176
     0
 62
    18
420
        0
176
     0
 90
       50
176
     0
 90
        3
176
     0
 62
     5
420
      255
176
     0
290
     0
176
     0
 90
       50
176
     0
 90
       50
176
     0
 90
       50
176
     0
290
     0
176
     0
 90
       50
176
     0
 62
   256
176
     0
 40
1.0
176
     0
 90
        2
176
     0
  1
strokes_ogs.tif
176
     0
290
     0
176
     0
 40
1.0
176
     0
 40
1.0
176
     0
  0
VISUALSTYLE
  5
38
102
{ACAD_REACTORS
330
2A
102
}
330
2A
100
AcDbVisualStyle
  2
Linepattern
 70
    14
177
     3
291
     1
 70
    58
 90
        2
176
     1
 90
        2
176
     1
 90
        0
176
     1
 90
        0
176
     1
 40
0.6
176
     1
 40
30.0
176
     1
 62
     7
420
 16777215
176
     1
 90
        1
176
     1
 90
        4
176
     1
 62
     7
176
     1
 62
   257
176
     1
 90
        7
176
     1
 90
        7
176
     1
 40
1.0
176
     1
 90
        8
176
     1
 62
     7
176
     1
 40
1.0
176
     1
 90
        1
176
     1
 90
        6
176
     1
 90
        2
176
     1
 62
     7
176
     1
 90
        5
176
     1
 90
        0
176
     1
 90
        0
176
     1
290
     0
176
     1
 90
        1
176
     1
 40
0.0
176
     1
 90
        0
176
     1
290
     0
176
     1
290
     1
176
     1
290
     1
176
     1
290
     0
176
     1
290
     0
176
     1
290
     0
176
     1
290
     0
176
     1
290
     0
176
     1
290
     0
176
     1
 90
       50
176
     1
 40
0.0
176
     1
 40
1.0
176
     1
 90
        0
176
     1
 62
    18
420
        0
176
     1
 90
       50
176
     1
 90
        3
176
     1
 62
     5
420
      255
176
     1
290
     0
176
     1
 90
       50
176
     1
 90
       50
176
     1
 90
       50
176
     1
290
     0
176
     1
 90
       50
176
     1
 62
   256
176
     0
 40
1.0
176
     0
 90
        2
176
     1
  1
strokes_ogs.tif
176
     1
290
     0
176
     1
 40
1.0
176
     1
 40
1.0
176
     1
  0
VISUALSTYLE
  5
3C
102
{ACAD_REACTORS
330
2A
102
}
330
2A
100
AcDbVisualStyle
  2
OverhangOff
 70
    21
177
     3
291
     1
 70
    58
 90
        2
176
     0
 90
        2
176
     0
 90
        0
176
     0
 90
        0
176
     0
 40
0.6
176
     0
 40
30.0
176
     0
 62
     7
420
 16777215
176
     0
 90
        1
176
     0
 90
        4
176
     0
 62
     7
176
     0
 62
   257
176
     0
 90
        1
176
     0
 90
        1
176
     0
 40
1.0
176
     0
 90
        9
176
     2
 62
     7
176
     0
 40
1.0
176
     0
 90
        1
176
     0
 90
        6
176
     0
 90
        2
176
     0
 62
     7
176
     0
 90
        5
176
     0
 90
        0
176
     0
 90
        0
176
     0
290
     0
176
     0
 90
        1
176
     0
 40
0.0
176
     0
 90
        0
176
     0
290
     0
176
     0
290
     1
176
     0
290
     1
176
     0
290
     0
176
     0
290
     0
176
     0
290
     0
176
     0
290
     0
176
     0
290
     0
176
     0
290
     0
176
     0
 90
       50
176
     0
 40
0.0
176
     0
 40
1.0
176
     0
 90
        0
176
     0
 62
    18
420
        0
176
     0
 90
       50
176
     0
 90
        3
176
     0
 62
     5
420
      255
176
     0
290
     0
176
     0
 90
       50
176
     0
 90
       50
176
     0
 90
       50
176
     0
290
     0
176
     0
 90
       50
176
     0
 62
   256
176
     0
 40
1.0
176
     0
 90
        2
176
     0
  1
strokes_ogs.tif
176
     0
290
     0
176
     0
 40
1.0
176
     0
 40
1.0
176
     0
  0
VISUALSTYLE
  5
33
102
{ACAD_REACTORS
330
2A
102
}
330
2A
100
AcDbVisualStyle
  2
Realistic
 70
     8
177
     3
291
     0
 70
    58
 90
        2
176
     1
 90
        3
176
     1
 90
        0
176
     1
 90
        2
176
     1
 40
0.6
176
     1
 40
30.0
176
     1
 62
     7
420
 16777215
176
     1
 90
        0
176
     1
 90
        0
176
     1
 62
     7
176
     1
 62
   257
176
     1
 90
        1
176
     1
 90
        1
176
     1
 40
1.0
176
     1
 90
        8
176
     1
 62
   257
176
     1
 40
1.0
176
     1
 90
        1
176
     1
 90
        6
176
     1
 90
        2
176
     1
 62
     7
176
     1
 90
        3
176
     1
 90
        0
176
     1
 90
        0
176
     1
290
     0
176
     1
 90
       13
176
     1
 40
0.0
176
     1
 90
        0
176
     1
290
     0
176
     1
290
     1
176
     1
290
     1
176
     1
290
     0
176
     1
290
     0
176
     1
290
     0
176
     1
290
     0
176
     1
290
     0
176
     1
290
     0
176
     1
 90
       50
176
     1
 40
0.0
176
     1
 40
1.0
176
     1
 90
        0
176
     1
 62
    18
420
        0
176
     1
 90
       50
176
     1
 90
        3
176
     1
 62
     5
420
      255
176
     1
290
     0
176
     1
 90
       50
176
     1
 90
       50
176
     1
 90
       50
176
     1
290
     0
176
     1
 90
       50
176
     1
 62
   256
176
     0
 40
1.0
176
     0
 90
        2
176
     1
  1
strokes_ogs.tif
176
     1
290
     0
176
     1
 40
1.0
176
     1
 40
1.0
176
     1
  0
VISUALSTYLE
  5
42
102
{ACAD_REACTORS
330
2A
102
}
330
2A
100
AcDbVisualStyle
  2
Shaded
 70
    27
177
     3
291
     0
 70
    58
 90
        2
176
     1
 90
        2
176
     1
 90
        1
176
     1
 90
        2
176
     1
 40
0.6
176
     1
 40
30.0
176
     1
 62
     7
420
 16777215
176
     1
 90
        0
176
     1
 90
        4
176
     1
 62
     7
176
     1
 62
   257
176
     1
 90
        1
176
     1
 90
        1
176
     1
 40
1.0
176
     1
 90
        8
176
     1
 62
   257
176
     1
 40
1.0
176
     1
 90
        1
176
     1
 90
        6
176
     1
 90
        2
176
     1
 62
     8
420
  7895160
176
     1
 90
        3
176
     1
 90
        0
176
     1
 90
        0
176
     1
290
     0
176
     1
 90
        5
176
     1
 40
0.0
176
     1
 90
        0
176
     1
290
     0
176
     1
290
     1
176
     1
290
     1
176
     1
290
     0
176
     1
290
     0
176
     1
290
     0
176
     1
290
     0
176
     1
290
     0
176
     1
290
     0
176
     1
 90
       50
176
     1
 40
0.0
176
     1
 40
1.0
176
     1
 90
        0
176
     1
 62
    18
420
        0
176
     1
 90
       50
176
     1
 90
        3
176
     1
 62
     5
420
      255
176
     1
290
     0
176
     1
 90
       50
176
     1
 90
       50
176
     1
 90
       50
176
     1
290
     0
176
     1
 90
       50
176
     1
 62
   256
176
     0
 40
1.0
176
     0
 90
        2
176
     1
  1
strokes_ogs.tif
176
     1
290
     0
176
     1
 40
1.0
176
     1
 40
1.0
176
     1
  0
VISUALSTYLE
  5
41
102
{ACAD_REACTORS
330
2A
102
}
330
2A
100
AcDbVisualStyle
  2
Shaded with edges
 70
    26
177
     3
291
     0
 70
    58
 90
        2
176
     1
 90
        2
176
     1
 90
        1
176
     1
 90
        2
176
     1
 40
0.6
176
     1
 40
30.0
176
     1
 62
     7
420
 16777215
176
     1
 90
        1
176
     1
 90
       10
176
     1
 62
     7
176
     1
 62
   257
176
     1
 90
        2
176
     1
 90
        1
176
     1
 40
1.0
176
     1
 90
        8
176
     1
 62
   257
176
     1
 40
1.0
176
     1
 90
        1
176
     1
 90
        6
176
     1
 90
        2
176
     1
 62
     7
176
     1
 90
        3
176
     1
 90
        0
176
     1
 90
        0
176
     1
290
     0
176
     1
 90
        5
176
     1
 40
0.0
176
     1
 90
        0
176
     1
290
     0
176
     1
290
     1
176
     1
290
     1
176
     1
290
     0
176
     1
290
     0
176
     1
290
     0
176
     1
290
     0
176
     1
290
     0
176
     1
290
     0
176
     1
 90
       50
176
     1
 40
0.0
176
     1
 40
1.0
176
     1
 90
        0
176
     1
 62
    18
420
        0
176
     1
 90
       50
176
     1
 90
        3
176
     1
 62
     5
420
      255
176
     1
290
     0
176
     1
 90
       50
176
     1
 90
       50
176
     1
 90
       50
176
     1
290
     0
176
     1
 90
       50
176
     1
 62
   256
176
     0
 40
1.0
176
     0
 90
        2
176
     1
  1
strokes_ogs.tif
176
     1
290
     0
176
     1
 40
1.0
176
     1
 40
1.0
176
     1
  0
VISUALSTYLE
  5
3E
102
{ACAD_REACTORS
330
2A
102
}
330
2A
100
AcDbVisualStyle
  2
Shades of Gray
 70
    23
177
     3
291
     0
 70
    58
 90
        2
176
     1
 90
        2
176
     1
 90
        3
176
     1
 90
        0
176
     1
 40
0.6
176
     1
 40
30.0
176
     1
 62
     7
420
 16777215
176
     1
 90
        2
176
     1
 90
        2
176
     1
 62
     7
176
     1
 62
     7
176
     1
 90
        1
176
     1
 90
        1
176
     1
 40
40.0
176
     1
 90
        8
176
     1
 62
     7
176
     1
 40
1.0
176
     1
 90
        1
176
     1
 90
        6
176
     1
 90
        2
176
     1
 62
     7
176
     1
 90
        3
176
     1
 90
        0
176
     1
 90
        0
176
     1
290
     0
176
     1
 90
        1
176
     1
 40
0.0
176
     1
 90
        0
176
     1
290
     0
176
     1
290
     1
176
     1
290
     1
176
     1
290
     0
176
     1
290
     0
176
     1
290
     0
176
     1
290
     0
176
     1
290
     0
176
     1
290
     0
176
     1
 90
       50
176
     1
 40
0.0
176
     1
 40
1.0
176
     1
 90
        0
176
     1
 62
    18
420
        0
176
     1
 90
       50
176
     1
 90
        3
176
     1
 62
     5
420
      255
176
     1
290
     0
176
     1
 90
       50
176
     1
 90
       50
176
     1
 90
       50
176
     1
290
     0
176
     1
 90
       50
176
     1
 62
   256
176
     0
 40
1.0
176
     0
 90
        2
176
     1
  1
strokes_ogs.tif
176
     1
290
     0
176
     1
 40
1.0
176
     1
 40
1.0
176
     1
  0
VISUALSTYLE
  5
3F
102
{ACAD_REACTORS
330
2A
102
}
330
2A
100
AcDbVisualStyle
  2
Sketchy
 70
    24
177
     3
291
     0
 70
    58
 90
        1
176
     1
 90
        2
176
     1
 90
        2
176
     1
 90
        0
176
     1
 40
0.6
176
     1
 40
30.0
176
     1
 62
     7
420
 16777215
176
     1
 90
        2
176
     1
 90
        2
176
     1
 62
     7
176
     1
 62
     7
176
     1
 90
        1
176
     1
 90
        1
176
     1
 40
40.0
176
     1
 90
       11
176
     1
 62
     7
176
     1
 40
1.0
176
     1
 90
        1
176
     1
 90
        6
176
     1
 90
        2
176
     1
 62
     7
176
     1
 90
        6
176
     1
 90
        0
176
     1
 90
        0
176
     1
290
     0
176
     1
 90
        1
176
     1
 40
0.0
176
     1
 90
        0
176
     1
290
     0
176
     1
290
     1
176
     1
290
     1
176
     1
290
     0
176
     1
290
     0
176
     1
290
     0
176
     1
290
     0
176
     1
290
     0
176
     1
290
     0
176
     1
 90
       50
176
     1
 40
0.0
176
     1
 40
1.0
176
     1
 90
        0
176
     1
 62
    18
420
        0
176
     1
 90
       50
176
     1
 90
        3
176
     1
 62
     5
420
      255
176
     1
290
     0
176
     1
 90
       50
176
     1
 90
       50
176
     1
 90
       50
176
     1
290
     0
176
     1
 90
       50
176
     1
 62
   256
176
     0
 40
1.0
176
     0
 90
        2
176
     1
  1
strokes_ogs.tif
176
     1
290
     0
176
     1
 40
1.0
176
     1
 40
1.0
176
     1
  0
VISUALSTYLE
  5
37
102
{ACAD_REACTORS
330
2A
102
}
330
2A
100
AcDbVisualStyle
  2
Thicken
 70
    13
177
     3
291
     1
 70
    58
 90
        2
176
     1
 90
        2
176
     1
 90
        0
176
     1
 90
        0
176
     1
 40
0.6
176
     1
 40
30.0
176
     1
 62
     7
420
 16777215
176
     1
 90
        1
176
     1
 90
        4
176
     1
 62
     7
176
     1
 62
   257
176
     1
 90
        1
176
     1
 90
        1
176
     1
 40
1.0
176
     1
 90
       12
176
     1
 62
     7
176
     1
 40
1.0
176
     1
 90
        1
176
     1
 90
        6
176
     1
 90
        2
176
     1
 62
     7
176
     1
 90
        5
176
     1
 90
        0
176
     1
 90
        0
176
     1
290
     0
176
     1
 90
        1
176
     1
 40
0.0
176
     1
 90
        0
176
     1
290
     0
176
     1
290
     1
176
     1
290
     1
176
     1
290
     0
176
     1
290
     0
176
     1
290
     0
176
     1
290
     0
176
     1
290
     0
176
     1
290
     0
176
     1
 90
       50
176
     1
 40
0.0
176
     1
 40
1.0
176
     1
 90
        0
176
     1
 62
    18
420
        0
176
     1
 90
       50
176
     1
 90
        3
176
     1
 62
     5
420
      255
176
     1
290
     0
176
     1
 90
       50
176
     1
 90
       50
176
     1
 90
       50
176
     1
290
     0
176
     1
 90
       50
176
     1
 62
   256
176
     0
 40
1.0
176
     0
 90
        2
176
     1
  1
strokes_ogs.tif
176
     1
290
     0
176
     1
 40
1.0
176
     1
 40
1.0
176
     1
  0
VISUALSTYLE
  5
30
102
{ACAD_REACTORS
330
2A
102
}
330
2A
100
AcDbVisualStyle
  2
Wireframe
 70
     5
177
     3
291
     0
 70
    58
 90
        0
176
     1
 90
        2
176
     1
 90
        0
176
     1
 90
        0
176
     1
 40
0.6
176
     1
 40
30.0
176
     1
 62
     7
420
 16777215
176
     1
 90
        1
176
     1
 90
        4
176
     1
 62
     7
176
     1
 62
   257
176
     1
 90
        1
176
     1
 90
        1
176
     1
 40
1.0
176
     1
 90
        0
176
     1
 62
   257
176
     1
 40
1.0
176
     1
 90
        1
176
     1
 90
        6
176
     1
 90
        2
176
     1
 62
     7
176
     1
 90
        3
176
     1
 90
        0
176
     1
 90
        0
176
     1
290
     0
176
     1
 90
        1
176
     1
 40
0.0
176
     1
 90
        0
176
     1
290
     0
176
     1
290
     1
176
     1
290
     1
176
     1
290
     0
176
     1
290
     0
176
     1
290
     0
176
     1
290
     0
176
     1
290
     0
176
     1
290
     0
176
     1
 90
       50
176
     1
 40
0.0
176
     1
 40
1.0
176
     1
 90
        0
176
     1
 62
    18
420
        0
176
     1
 90
       50
176
     1
 90
        3
176
     1
 62
     5
420
      255
176
     1
290
     0
176
     1
 90
       50
176
     1
 90
       50
176
     1
 90
       50
176
     1
290
     0
176
     1
 90
       50
176
     1
 62
   256
176
     0
 40
1.0
176
     0
 90
        2
176
     1
  1
strokes_ogs.tif
176
     1
290
     0
176
     1
 40
1.0
176
     1
 40
1.0
176
     1
  0
VISUALSTYLE
  5
40
102
{ACAD_REACTORS
330
2A
102
}
330
2A
100
AcDbVisualStyle
  2
X-Ray
 70
    25
177
     3
291
     0
 70
    58
 90
        2
176
     1
 90
        2
176
     1
 90
        1
176
     1
 90
        1
176
     1
 40
0.5
176
     1
 40
30.0
176
     1
 62
     7
420
 16777215
176
     1
 90
        1
176
     1
 90
        0
176
     1
 62
     7
176
     1
 62
   257
176
     1
 90
        1
176
     1
 90
        1
176
     1
 40
1.0
176
     1
 90
        8
176
     1
 62
     7
176
     1
 40
1.0
176
     1
 90
        1
176
     1
 90
        6
176
     1
 90
        2
176
     1
 62
     7
176
     1
 90
        3
176
     1
 90
        0
176
     1
 90
        0
176
     1
290
     0
176
     1
 90
       13
176
     1
 40
0.0
176
     1
 90
        0
176
     1
290
     0
176
     1
290
     1
176
     1
290
     1
176
     1
290
     0
176
     1
290
     0
176
     1
290
     0
176
     1
290
     0
176
     1
290
     0
176
     1
290
     0
176
     1
 90
       50
176
     1
 40
0.0
176
     1
 40
1.0
176
     1
 90
        0
176
     1
 62
    18
420
        0
176
     1
 90
       50
176
     1
 90
        3
176
     1
 62
     5
420
      255
176
     1
290
     0
176
     1
 90
       50
176
     1
 90
       50
176
     1
 90
       50
176
     1
290
     0
176
     1
 90
       50
176
     1
 62
   256
176
     0
 40
1.0
176
     0
 90
        2
176
     1
  1
strokes_ogs.tif
176
     1
290
     0
176
     1
 40
1.0
176
     1
 40
1.0
176
     1
  0
DICTIONARYVAR
  5
279
102
{ACAD_REACTORS
330
278
102
}
330
278
100
DictionaryVariables
280
     0
  1
1:1
  0
DICTIONARYVAR
  5
27E
102
{ACAD_REACTORS
330
278
102
}
330
278
100
DictionaryVariables
280
     0
  1
Standard
  0
DICTIONARYVAR
  5
27D
102
{ACAD_REACTORS
330
278
102
}
330
278
100
DictionaryVariables
280
     0
  1
Standard
  0
DICTIONARY
  5
27A
330
6A
100
AcDbDictionary
280
     1
281
     1
  3
ACAD_ROUNDTRIP_2008_TABLESTYLE_CELLSTYLEMAP
360
27B
  0
CELLSTYLEMAP
  5
27B
102
{ACAD_REACTORS
330
27A
102
}
330
27A
100
AcDbCellStyleMap
 90
        3
300
CELLSTYLE
  1
TABLEFORMAT_BEGIN
 90
        5
170
     1
 91
        0
 92
    32768
 62
   257
 93
        1
300
CONTENTFORMAT
  1
CONTENTFORMAT_BEGIN
 90
        0
 91
        0
 92
        4
 93
        0
300

 40
0.0
140
1.0
 94
        5
 62
     0
340
11
144
0.25
309
CONTENTFORMAT_END
171
     1
301
MARGIN
  1
CELLMARGIN_BEGIN
 40
0.06
 40
0.06
 40
0.06
 40
0.06
 40
0.06
 40
0.06
309
CELLMARGIN_END
 94
        6
 95
        1
302
GRIDFORMAT
  1
GRIDFORMAT_BEGIN
 90
        0
 91
        1
 62
     0
 92
       -2
340
14
 93
        0
 40
0.045
309
GRIDFORMAT_END
 95
        2
302
GRIDFORMAT
  1
GRIDFORMAT_BEGIN
 90
        0
 91
        1
 62
     0
 92
       -2
340
14
 93
        0
 40
0.045
309
GRIDFORMAT_END
 95
        4
302
GRIDFORMAT
  1
GRIDFORMAT_BEGIN
 90
        0
 91
        1
 62
     0
 92
       -2
340
14
 93
        0
 40
0.045
309
GRIDFORMAT_END
 95
        8
302
GRIDFORMAT
  1
GRIDFORMAT_BEGIN
 90
        0
 91
        1
 62
     0
 92
       -2
340
14
 93
        0
 40
0.045
309
GRIDFORMAT_END
 95
       16
302
GRIDFORMAT
  1
GRIDFORMAT_BEGIN
 90
        0
 91
        1
 62
     0
 92
       -2
340
14
 93
        0
 40
0.045
309
GRIDFORMAT_END
 95
       32
302
GRIDFORMAT
  1
GRIDFORMAT_BEGIN
 90
        0
 91
        1
 62
     0
 92
       -2
340
14
 93
        0
 40
0.045
309
GRIDFORMAT_END
309
TABLEFORMAT_END
  1
CELLSTYLE_BEGIN
 90
        1
 91
        1
300
_TITLE
309
CELLSTYLE_END
300
CELLSTYLE
  1
TABLEFORMAT_BEGIN
 90
        5
170
     1
 91
        0
 92
        0
 62
   257
 93
        1
300
CONTENTFORMAT
  1
CONTENTFORMAT_BEGIN
 90
        0
 91
        0
 92
        4
 93
        0
300

 40
0.0
140
1.0
 94
        5
 62
     0
340
11
144
0.18
309
CONTENTFORMAT_END
171
     1
301
MARGIN
  1
CELLMARGIN_BEGIN
 40
0.06
 40
0.06
 40
0.06
 40
0.06
 40
0.06
 40
0.06
309
CELLMARGIN_END
 94
        6
 95
        1
302
GRIDFORMAT
  1
GRIDFORMAT_BEGIN
 90
        0
 91
        1
 62
     0
 92
       -2
340
14
 93
        0
 40
0.045
309
GRIDFORMAT_END
 95
        2
302
GRIDFORMAT
  1
GRIDFORMAT_BEGIN
 90
        0
 91
        1
 62
     0
 92
       -2
340
14
 93
        0
 40
0.045
309
GRIDFORMAT_END
 95
        4
302
GRIDFORMAT
  1
GRIDFORMAT_BEGIN
 90
        0
 91
        1
 62
     0
 92
       -2
340
14
 93
        0
 40
0.045
309
GRIDFORMAT_END
 95
        8
302
GRIDFORMAT
  1
GRIDFORMAT_BEGIN
 90
        0
 91
        1
 62
     0
 92
       -2
340
14
 93
        0
 40
0.045
309
GRIDFORMAT_END
 95
       16
302
GRIDFORMAT
  1
GRIDFORMAT_BEGIN
 90
        0
 91
        1
 62
     0
 92
       -2
340
14
 93
        0
 40
0.045
309
GRIDFORMAT_END
 95
       32
302
GRIDFORMAT
  1
GRIDFORMAT_BEGIN
 90
        0
 91
        1
 62
     0
 92
       -2
340
14
 93
        0
 40
0.045
309
GRIDFORMAT_END
309
TABLEFORMAT_END
  1
CELLSTYLE_BEGIN
 90
        2
 91
        1
300
_HEADER
309
CELLSTYLE_END
300
CELLSTYLE
  1
TABLEFORMAT_BEGIN
 90
        5
170
     1
 91
        0
 92
        0
 62
   257
 93
        1
300
CONTENTFORMAT
  1
CONTENTFORMAT_BEGIN
 90
        0
 91
        0
 92
        4
 93
        0
300

 40
0.0
140
1.0
 94
        2
 62
     0
340
11
144
0.18
309
CONTENTFORMAT_END
171
     1
301
MARGIN
  1
CELLMARGIN_BEGIN
 40
0.06
 40
0.06
 40
0.06
 40
0.06
 40
0.06
 40
0.06
309
CELLMARGIN_END
 94
        6
 95
        1
302
GRIDFORMAT
  1
GRIDFORMAT_BEGIN
 90
        0
 91
        1
 62
     0
 92
       -2
340
14
 93
        0
 40
0.045
309
GRIDFORMAT_END
 95
        2
302
GRIDFORMAT
  1
GRIDFORMAT_BEGIN
 90
        0
 91
        1
 62
     0
 92
       -2
340
14
 93
        0
 40
0.045
309
GRIDFORMAT_END
 95
        4
302
GRIDFORMAT
  1
GRIDFORMAT_BEGIN
 90
        0
 91
        1
 62
     0
 92
       -2
340
14
 93
        0
 40
0.045
309
GRIDFORMAT_END
 95
        8
302
GRIDFORMAT
  1
GRIDFORMAT_BEGIN
 90
        0
 91
        1
 62
     0
 92
       -2
340
14
 93
        0
 40
0.045
309
GRIDFORMAT_END
 95
       16
302
GRIDFORMAT
  1
GRIDFORMAT_BEGIN
 90
        0
 91
        1
 62
     0
 92
       -2
340
14
 93
        0
 40
0.045
309
GRIDFORMAT_END
 95
       32
302
GRIDFORMAT
  1
GRIDFORMAT_BEGIN
 90
        0
 91
        1
 62
     0
 92
       -2
340
14
 93
        0
 40
0.045
309
GRIDFORMAT_END
309
TABLEFORMAT_END
  1
CELLSTYLE_BEGIN
 90
        3
 91
        2
300
_DATA
309
CELLSTYLE_END
  0
ENDSEC
  0
EOF