0
SECTION
  2
HEADER
  9
$ACADVER
  1
AC1027
  9
$ACADMAINTVER
 70
     8
  9
$DWGCODEPAGE
  3
ANSI_1252
  9
$REQUIREDVERSIONS
160
                 0
  9
$COMMENTS
  1
File was created by Cadenas
  9
$CUSTOMPROPERTYTAG
  1
NN
  9
$CUSTOMPROPERTY
  1
Grip Tight Tapped Base Inch Bore
  9
$CUSTOMPROPERTYTAG
  1
NT
  9
$CUSTOMPROPERTY
  1
GT Normal Duty Tapped Base Pillow Blocks
  9
$CUSTOMPROPERTYTAG
  1
NB
  9
$CUSTOMPROPERTY
  1
129148
  9
$CUSTOMPROPERTYTAG
  1
NBSYN
  9
$CUSTOMPROPERTY
  1
$PN.$LUBE.
  9
$CUSTOMPROPERTYTAG
  1
LINA
  9
$CUSTOMPROPERTY
  1
129148
  9
$CUSTOMPROPERTYTAG
  1
SERIES
  9
$CUSTOMPROPERTY
  1
205
  9
$CUSTOMPROPERTYTAG
  1
SS
  9
$CUSTOMPROPERTY
  1
7/8
  9
$CUSTOMPROPERTYTAG
  1
PN
  9
$CUSTOMPROPERTY
  1
129148
  9
$CUSTOMPROPERTYTAG
  1
DESCRIPTION
  9
$CUSTOMPROPERTY
  1
TB-GT-014
  9
$CUSTOMPROPERTYTAG
  1
A
  9
$CUSTOMPROPERTY
  1
1-29/64
  9
$CUSTOMPROPERTYTAG
  1
B
  9
$CUSTOMPROPERTY
  1
3
  9
$CUSTOMPROPERTYTAG
  1
C
  9
$CUSTOMPROPERTY
  1
1-1/2
  9
$CUSTOMPROPERTYTAG
  1
D
  9
$CUSTOMPROPERTY
  1
2
  9
$CUSTOMPROPERTYTAG
  1
J
  9
$CUSTOMPROPERTY
  1
2-13/16
  9
$CUSTOMPROPERTYTAG
  1
L
  9
$CUSTOMPROPERTY
  1
1-51/64
  9
$CUSTOMPROPERTYTAG
  1
M
  9
$CUSTOMPROPERTY
  1
1-7/16
  9
$CUSTOMPROPERTYTAG
  1
N
  9
$CUSTOMPROPERTY
  1
1/2
  9
$CUSTOMPROPERTYTAG
  1
R
  9
$CUSTOMPROPERTY
  1
3/8-16
  9
$CUSTOMPROPERTYTAG
  1
S
  9
$CUSTOMPROPERTY
  1
61/64
  9
$CUSTOMPROPERTYTAG
  1
Z
  9
$CUSTOMPROPERTY
  1
61/64
  9
$CUSTOMPROPERTYTAG
  1
COMPANY
  9
$CUSTOMPROPERTY
  1
baldor
  9
$INSBASE
 10
0.0
 20
0.0
 30
0.0
  9
$EXTMIN
 10
1.000000000000000E+20
 20
1.000000000000000E+20
 30
1.000000000000000E+20
  9
$EXTMAX
 10
-1.000000000000000E+20
 20
-1.000000000000000E+20
 30
-1.000000000000000E+20
  9
$LIMMIN
 10
0.0
 20
0.0
  9
$LIMMAX
 10
12.0
 20
9.0
  9
$ORTHOMODE
 70
     0
  9
$REGENMODE
 70
     1
  9
$FILLMODE
 70
     1
  9
$QTEXTMODE
 70
     0
  9
$MIRRTEXT
 70
     1
  9
$LTSCALE
 40
1.0
  9
$ATTMODE
 70
     1
  9
$TEXTSIZE
 40
0.2
  9
$TRACEWID
 40
0.05
  9
$TEXTSTYLE
  7
Standard
  9
$CLAYER
  8
0
  9
$CELTYPE
  6
ByLayer
  9
$CECOLOR
 62
   256
  9
$CELTSCALE
 40
1.0
  9
$DISPSILH
 70
     0
  9
$DIMSCALE
 40
1.0
  9
$DIMASZ
 40
0.18
  9
$DIMEXO
 40
0.0625
  9
$DIMDLI
 40
0.38
  9
$DIMRND
 40
0.0
  9
$DIMDLE
 40
0.0
  9
$DIMEXE
 40
0.18
  9
$DIMTP
 40
0.0
  9
$DIMTM
 40
0.0
  9
$DIMTXT
 40
0.18
  9
$DIMCEN
 40
0.09
  9
$DIMTSZ
 40
0.0
  9
$DIMTOL
 70
     0
  9
$DIMLIM
 70
     0
  9
$DIMTIH
 70
     1
  9
$DIMTOH
 70
     1
  9
$DIMSE1
 70
     0
  9
$DIMSE2
 70
     0
  9
$DIMTAD
 70
     0
  9
$DIMZIN
 70
     0
  9
$DIMBLK
  1

  9
$DIMASO
 70
     1
  9
$DIMSHO
 70
     1
  9
$DIMPOST
  1

  9
$DIMAPOST
  1

  9
$DIMALT
 70
     0
  9
$DIMALTD
 70
     2
  9
$DIMALTF
 40
25.4
  9
$DIMLFAC
 40
1.0
  9
$DIMTOFL
 70
     0
  9
$DIMTVP
 40
0.0
  9
$DIMTIX
 70
     0
  9
$DIMSOXD
 70
     0
  9
$DIMSAH
 70
     0
  9
$DIMBLK1
  1

  9
$DIMBLK2
  1

  9
$DIMSTYLE
  2
Standard
  9
$DIMCLRD
 70
     0
  9
$DIMCLRE
 70
     0
  9
$DIMCLRT
 70
     0
  9
$DIMTFAC
 40
1.0
  9
$DIMGAP
 40
0.09
  9
$DIMJUST
 70
     0
  9
$DIMSD1
 70
     0
  9
$DIMSD2
 70
     0
  9
$DIMTOLJ
 70
     1
  9
$DIMTZIN
 70
     0
  9
$DIMALTZ
 70
     0
  9
$DIMALTTZ
 70
     0
  9
$DIMUPT
 70
     0
  9
$DIMDEC
 70
     4
  9
$DIMTDEC
 70
     4
  9
$DIMALTU
 70
     2
  9
$DIMALTTD
 70
     2
  9
$DIMTXSTY
  7
Standard
  9
$DIMAUNIT
 70
     0
  9
$DIMADEC
 70
     0
  9
$DIMALTRND
 40
0.0
  9
$DIMAZIN
 70
     0
  9
$DIMDSEP
 70
    46
  9
$DIMATFIT
 70
     3
  9
$DIMFRAC
 70
     0
  9
$DIMLDRBLK
  1

  9
$DIMLUNIT
 70
     2
  9
$DIMLWD
 70
    -2
  9
$DIMLWE
 70
    -2
  9
$DIMTMOVE
 70
     0
  9
$DIMFXL
 40
1.0
  9
$DIMFXLON
 70
     0
  9
$DIMJOGANG
 40
0.7853981633974483
  9
$DIMTFILL
 70
     0
  9
$DIMTFILLCLR
 70
     0
  9
$DIMARCSYM
 70
     0
  9
$DIMLTYPE
  6

  9
$DIMLTEX1
  6

  9
$DIMLTEX2
  6

  9
$DIMTXTDIRECTION
 70
     0
  9
$LUNITS
 70
     2
  9
$LUPREC
 70
     4
  9
$SKETCHINC
 40
0.1
  9
$FILLETRAD
 40
0.5
  9
$AUNITS
 70
     0
  9
$AUPREC
 70
     0
  9
$MENU
  1
.
  9
$ELEVATION
 40
0.0
  9
$PELEVATION
 40
0.0
  9
$THICKNESS
 40
0.0
  9
$LIMCHECK
 70
     0
  9
$CHAMFERA
 40
0.0
  9
$CHAMFERB
 40
0.0
  9
$CHAMFERC
 40
0.0
  9
$CHAMFERD
 40
0.0
  9
$SKPOLY
 70
     0
  9
$TDCREATE
 40
2458168.994263935
  9
$TDUCREATE
 40
2458168.952597268
  9
$TDUPDATE
 40
2458168.994264294
  9
$TDUUPDATE
 40
2458168.952597627
  9
$TDINDWG
 40
0.0000000116
  9
$TDUSRTIMER
 40
0.0000000116
  9
$USRTIMER
 70
     1
  9
$ANGBASE
 50
0.0
  9
$ANGDIR
 70
     0
  9
$PDMODE
 70
     0
  9
$PDSIZE
 40
0.0
  9
$PLINEWID
 40
0.0
  9
$SPLFRAME
 70
     0
  9
$SPLINETYPE
 70
     6
  9
$SPLINESEGS
 70
     8
  9
$HANDSEED
  5
2E5
  9
$SURFTAB1
 70
     6
  9
$SURFTAB2
 70
     6
  9
$SURFTYPE
 70
     6
  9
$SURFU
 70
     6
  9
$SURFV
 70
     6
  9
$UCSBASE
  2

  9
$UCSNAME
  2

  9
$UCSORG
 10
0.0
 20
0.0
 30
0.0
  9
$UCSXDIR
 10
1.0
 20
0.0
 30
0.0
  9
$UCSYDIR
 10
0.0
 20
1.0
 30
0.0
  9
$UCSORTHOREF
  2

  9
$UCSORTHOVIEW
 70
     0
  9
$UCSORGTOP
 10
0.0
 20
0.0
 30
0.0
  9
$UCSORGBOTTOM
 10
0.0
 20
0.0
 30
0.0
  9
$UCSORGLEFT
 10
0.0
 20
0.0
 30
0.0
  9
$UCSORGRIGHT
 10
0.0
 20
0.0
 30
0.0
  9
$UCSORGFRONT
 10
0.0
 20
0.0
 30
0.0
  9
$UCSORGBACK
 10
0.0
 20
0.0
 30
0.0
  9
$PUCSBASE
  2

  9
$PUCSNAME
  2

  9
$PUCSORG
 10
0.0
 20
0.0
 30
0.0
  9
$PUCSXDIR
 10
1.0
 20
0.0
 30
0.0
  9
$PUCSYDIR
 10
0.0
 20
1.0
 30
0.0
  9
$PUCSORTHOREF
  2

  9
$PUCSORTHOVIEW
 70
     0
  9
$PUCSORGTOP
 10
0.0
 20
0.0
 30
0.0
  9
$PUCSORGBOTTOM
 10
0.0
 20
0.0
 30
0.0
  9
$PUCSORGLEFT
 10
0.0
 20
0.0
 30
0.0
  9
$PUCSORGRIGHT
 10
0.0
 20
0.0
 30
0.0
  9
$PUCSORGFRONT
 10
0.0
 20
0.0
 30
0.0
  9
$PUCSORGBACK
 10
0.0
 20
0.0
 30
0.0
  9
$USERI1
 70
     0
  9
$USERI2
 70
     0
  9
$USERI3
 70
     0
  9
$USERI4
 70
     0
  9
$USERI5
 70
     0
  9
$USERR1
 40
0.0
  9
$USERR2
 40
0.0
  9
$USERR3
 40
0.0
  9
$USERR4
 40
0.0
  9
$USERR5
 40
0.0
  9
$WORLDVIEW
 70
     1
  9
$SHADEDGE
 70
     3
  9
$SHADEDIF
 70
    70
  9
$TILEMODE
 70
     1
  9
$MAXACTVP
 70
    64
  9
$PINSBASE
 10
0.0
 20
0.0
 30
0.0
  9
$PLIMCHECK
 70
     0
  9
$PEXTMIN
 10
1.000000000000000E+20
 20
1.000000000000000E+20
 30
1.000000000000000E+20
  9
$PEXTMAX
 10
-1.000000000000000E+20
 20
-1.000000000000000E+20
 30
-1.000000000000000E+20
  9
$PLIMMIN
 10
0.0
 20
0.0
  9
$PLIMMAX
 10
12.0
 20
9.0
  9
$UNITMODE
 70
     0
  9
$VISRETAIN
 70
     1
  9
$PLINEGEN
 70
     0
  9
$PSLTSCALE
 70
     1
  9
$TREEDEPTH
 70
  3020
  9
$CMLSTYLE
  2
Standard
  9
$CMLJUST
 70
     0
  9
$CMLSCALE
 40
1.0
  9
$PROXYGRAPHICS
 70
     1
  9
$MEASUREMENT
 70
     0
  9
$CELWEIGHT
370
    -1
  9
$ENDCAPS
280
     0
  9
$JOINSTYLE
280
     0
  9
$LWDISPLAY
290
     0
  9
$INSUNITS
 70
     1
  9
$HYPERLINKBASE
  1

  9
$STYLESHEET
  1

  9
$XEDIT
290
     1
  9
$CEPSNTYPE
380
     0
  9
$PSTYLEMODE
290
     1
  9
$FINGERPRINTGUID
  2
{1FF730E8-2060-4AAE-B5A3-9607D3A5F1AE}
  9
$VERSIONGUID
  2
{FAEB1C32-E019-11D5-929B-00C0DF256EC4}
  9
$EXTNAMES
290
     1
  9
$PSVPSCALE
 40
0.0
  9
$OLESTARTUP
290
     0
  9
$SORTENTS
280
   127
  9
$INDEXCTL
280
     0
  9
$HIDETEXT
280
     1
  9
$XCLIPFRAME
280
     2
  9
$HALOGAP
280
     0
  9
$OBSCOLOR
 70
   257
  9
$OBSLTYPE
280
     0
  9
$INTERSECTIONDISPLAY
280
     0
  9
$INTERSECTIONCOLOR
 70
   257
  9
$DIMASSOC
280
     2
  9
$PROJECTNAME
  1

  9
$CAMERADISPLAY
290
     0
  9
$LENSLENGTH
 40
50.0
  9
$CAMERAHEIGHT
 40
0.0
  9
$STEPSPERSEC
 40
2.0
  9
$STEPSIZE
 40
6.0
  9
$3DDWFPREC
 40
2.0
  9
$PSOLWIDTH
 40
0.25
  9
$PSOLHEIGHT
 40
4.0
  9
$LOFTANG1
 40
1.570796326794897
  9
$LOFTANG2
 40
1.570796326794897
  9
$LOFTMAG1
 40
0.0
  9
$LOFTMAG2
 40
0.0
  9
$LOFTPARAM
 70
     7
  9
$LOFTNORMALS
280
     1
  9
$LATITUDE
 40
37.795
  9
$LONGITUDE
 40
-122.394
  9
$NORTHDIRECTION
 40
0.0
  9
$TIMEZONE
 70
 -8000
  9
$LIGHTGLYPHDISPLAY
280
     1
  9
$TILEMODELIGHTSYNCH
280
     1
  9
$CMATERIAL
347
44
  9
$SOLIDHIST
280
     0
  9
$SHOWHIST
280
     1
  9
$DWFFRAME
280
     2
  9
$DGNFRAME
280
     2
  9
$REALWORLDSCALE
290
     1
  9
$INTERFERECOLOR
 62
   256
  9
$CSHADOW
280
     0
  9
$SHADOWPLANELOCATION
 40
0.0
  0
ENDSEC
  0
SECTION
  2
CLASSES
  0
CLASS
  1
ACDBDICTIONARYWDFLT
  2
AcDbDictionaryWithDefault
  3
ObjectDBX Classes
 90
        0
 91
        4
280
     0
281
     0
  0
CLASS
  1
VISUALSTYLE
  2
AcDbVisualStyle
  3
ObjectDBX Classes
 90
     4095
 91
        4
280
     0
281
     0
  0
CLASS
  1
MATERIAL
  2
AcDbMaterial
  3
ObjectDBX Classes
 90
     1153
 91
        4
280
     0
281
     0
  0
CLASS
  1
SCALE
  2
AcDbScale
  3
ObjectDBX Classes
 90
     1153
 91
        4
280
     0
281
     0
  0
CLASS
  1
TABLESTYLE
  2
AcDbTableStyle
  3
ObjectDBX Classes
 90
     4095
 91
        4
280
     0
281
     0
  0
CLASS
  1
MLEADERSTYLE
  2
AcDbMLeaderStyle
  3
ACDB_MLEADERSTYLE_CLASS
 90
     4095
 91
        4
280
     0
281
     0
  0
CLASS
  1
SUN
  2
AcDbSun
  3
SCENEOE
 90
     1153
 91
        4
280
     0
281
     0
  0
CLASS
  1
DICTIONARYVAR
  2
AcDbDictionaryVar
  3
ObjectDBX Classes
 90
        0
 91
        4
280
     0
281
     0
  0
CLASS
  1
CELLSTYLEMAP
  2
AcDbCellStyleMap
  3
ObjectDBX Classes
 90
     1152
 91
        4
280
     0
281
     0
  0
ENDSEC
  0
SECTION
  2
TABLES
  0
TABLE
  2
VPORT
  5
8
330
0
100
AcDbSymbolTable
 70
     1
  0
VPORT
  5
29
330
8
100
AcDbSymbolTableRecord
100
AcDbViewportTableRecord
  2
*Active
 70
     0
 10
0.0
 20
0.0
 11
1.0
 21
1.0
 12
0.0
 22
-0.1003906250000002
 13
0.0
 23
0.0
 14
0.5
 24
0.5
 15
0.5
 25
0.5
 16
0.0
 26
0.0
 36
1.0
 17
0.0
 27
0.0
 37
0.0
 40
1.887796874999999
 41
1.620937104263403
 42
50.0
 43
0.0
 44
0.0
 50
0.0
 51
0.0
 71
     0
 72
   100
 73
     1
 74
     3
 75
     0
 76
     0
 77
     0
 78
     0
281
     0
 65
     1
110
0.0
120
0.0
130
0.0
111
1.0
121
0.0
131
0.0
112
0.0
122
1.0
132
0.0
 79
     0
146
0.0
348
2F
 60
     3
 61
     5
292
     1
282
     1
141
0.0
142
0.0
 63
   250
361
6D
  0
ENDTAB
  0
TABLE
  2
LTYPE
  5
5
330
0
100
AcDbSymbolTable
 70
     3
  0
LTYPE
  5
14
330
5
100
AcDbSymbolTableRecord
100
AcDbLinetypeTableRecord
  2
ByBlock
 70
     0
  3

 72
    65
 73
     0
 40
0.0
  0
LTYPE
  5
15
330
5
100
AcDbSymbolTableRecord
100
AcDbLinetypeTableRecord
  2
ByLayer
 70
     0
  3

 72
    65
 73
     0
 40
0.0
  0
LTYPE
  5
16
330
5
100
AcDbSymbolTableRecord
100
AcDbLinetypeTableRecord
  2
Continuous
 70
     0
  3
Solid line
 72
    65
 73
     0
 40
0.0
  0
LTYPE
  5
9E
330
5
100
AcDbSymbolTableRecord
100
AcDbLinetypeTableRecord
  2
Dashed
 70
     0
  3

 72
    65
 73
     2
 40
2.0
 49
1.0
 74
     0
 49
-1.0
 74
     0
  0
LTYPE
  5
10C
330
5
100
AcDbSymbolTableRecord
100
AcDbLinetypeTableRecord
  2
Center
 70
     0
  3

 72
    65
 73
     4
 40
1.5
 49
0.45
 74
     0
 49
-0.5
 74
     0
 49
0.05
 74
     0
 49
-0.5
 74
     0
  0
ENDTAB
  0
TABLE
  2
LAYER
  5
2
330
0
100
AcDbSymbolTable
 70
     7
  0
LAYER
  5
10
330
2
100
AcDbSymbolTableRecord
100
AcDbLayerTableRecord
  2
0
 70
     0
 62
     7
  6
Continuous
370
    -3
390
F
347
46
348
0
  0
LAYER
  5
72
330
2
100
AcDbSymbolTableRecord
100
AcDbLayerTableRecord
  2
AM_6
 70
     0
 62
    -2
  6
Continuous
370
    35
390
F
347
46
348
0
  0
LAYER
  5
9F
330
2
100
AcDbSymbolTableRecord
100
AcDbLayerTableRecord
  2
AM_9
 70
     0
 62
     6
  6
Dashed
370
    25
390
F
347
46
348
0
  0
LAYER
  5
10A
330
2
100
AcDbSymbolTableRecord
100
AcDbLayerTableRecord
  2
AM_5
 70
     0
 62
     3
  6
Continuous
370
    25
390
F
347
46
348
0
  0
LAYER
  5
10D
330
2
100
AcDbSymbolTableRecord
100
AcDbLayerTableRecord
  2
AM_7
 70
     0
 62
     7
  6
Center
370
    25
390
F
347
46
348
0
  0
LAYER
  5
10F
330
2
100
AcDbSymbolTableRecord
100
AcDbLayerTableRecord
  2
AM_4
 70
     0
 62
     7
  6
Continuous
370
    50
390
F
347
46
348
0
  0
LAYER
  5
2D7
330
2
100
AcDbSymbolTableRecord
100
AcDbLayerTableRecord
  2
ConnectionPoints
 70
     0
 62
     7
  6
Continuous
370
    50
390
F
347
46
348
0
  0
ENDTAB
  0
TABLE
  2
STYLE
  5
3
330
0
100
AcDbSymbolTable
 70
     1
  0
STYLE
  5
11
330
3
100
AcDbSymbolTableRecord
100
AcDbTextStyleTableRecord
  2
Standard
 70
     0
 40
0.0
 41
1.0
 50
0.0
 71
     0
 42
0.2
  3
txt
  4

  0
ENDTAB
  0
TABLE
  2
VIEW
  5
6
330
0
100
AcDbSymbolTable
 70
     0
  0
ENDTAB
  0
TABLE
  2
UCS
  5
7
330
0
100
AcDbSymbolTable
 70
     0
  0
ENDTAB
  0
TABLE
  2
APPID
  5
9
330
0
100
AcDbSymbolTable
 70
     1
  0
APPID
  5
12
330
9
100
AcDbSymbolTableRecord
100
AcDbRegAppTableRecord
  2
ACAD
 70
     0
  0
ENDTAB
  0
TABLE
  2
DIMSTYLE
  5
A
330
0
100
AcDbSymbolTable
 70
     1
100
AcDbDimStyleTable
  0
DIMSTYLE
105
27
330
A
100
AcDbSymbolTableRecord
100
AcDbDimStyleTableRecord
  2
Standard
 70
     0
178
     0
340
11
  0
ENDTAB
  0
TABLE
  2
BLOCK_RECORD
  5
1
330
0
100
AcDbSymbolTable
 70
     5
  0
BLOCK_RECORD
  5
1F
330
1
100
AcDbSymbolTableRecord
100
AcDbBlockTableRecord
  2
*Model_Space
340
22
 70
     0
280
     1
281
     0
  0
BLOCK_RECORD
  5
1B
330
1
100
AcDbSymbolTableRecord
100
AcDbBlockTableRecord
  2
*Paper_Space
340
1E
 70
     0
280
     1
281
     0
  0
BLOCK_RECORD
  5
23
330
1
100
AcDbSymbolTableRecord
100
AcDbBlockTableRecord
  2
*Paper_Space0
340
26
 70
     0
280
     1
281
     0
  0
BLOCK_RECORD
  5
6E
330
1
100
AcDbSymbolTableRecord
100
AcDbBlockTableRecord
  2
1_129148_4
340
0
102
{BLKREFS
331
6F
102
}
 70
     0
280
     1
281
     0
  0
BLOCK_RECORD
  5
88
330
1
100
AcDbSymbolTableRecord
100
AcDbBlockTableRecord
  2
2_129518I_0_in_129148_4
340
0
102
{BLKREFS
331
89
102
}
 70
     0
280
     1
281
     0
  0
BLOCK_RECORD
  5
CD
330
1
100
AcDbSymbolTableRecord
100
AcDbBlockTableRecord
  2
3_129905_0_in_129148_4
340
0
102
{BLKREFS
331
CE
102
}
 70
     0
280
     1
281
     0
  0
BLOCK_RECORD
  5
125
330
1
100
AcDbSymbolTableRecord
100
AcDbBlockTableRecord
  2
4_129458I_0_in_129148_4
340
0
102
{BLKREFS
331
126
102
}
 70
     0
280
     1
281
     0
  0
ENDTAB
  0
ENDSEC
  0
SECTION
  2
BLOCKS
  0
BLOCK
  5
20
330
1F
100
AcDbEntity
  8
0
100
AcDbBlockBegin
  2
*Model_Space
 70
     0
 10
0.0
 20
0.0
 30
0.0
  3
*Model_Space
  1

  0
ENDBLK
  5
21
330
1F
100
AcDbEntity
  8
0
100
AcDbBlockEnd
  0
BLOCK
  5
1C
330
1B
100
AcDbEntity
 67
     1
  8
0
100
AcDbBlockBegin
  2
*Paper_Space
 70
     0
 10
0.0
 20
0.0
 30
0.0
  3
*Paper_Space
  1

  0
ENDBLK
  5
1D
330
1B
100
AcDbEntity
 67
     1
  8
0
100
AcDbBlockEnd
  0
BLOCK
  5
24
330
23
100
AcDbEntity
  8
0
100
AcDbBlockBegin
  2
*Paper_Space0
 70
     0
 10
0.0
 20
0.0
 30
0.0
  3
*Paper_Space0
  1

  0
ENDBLK
  5
25
330
23
100
AcDbEntity
  8
0
100
AcDbBlockEnd
  0
BLOCK
  5
70
330
6E
100
AcDbEntity
  8
0
100
AcDbBlockBegin
  2
1_129148_4
 70
     2
 10
0.0
 20
0.0
 30
0.0
  3
1_129148_4
  1

  0
ATTDEF
  5
73
330
6E
100
AcDbEntity
  8
AM_6
100
AcDbText
 10
6.5
 20
0.8249999999999998
 30
0.0
 40
0.5
  1
Grip Tight Tapped Base Inch Bore
100
AcDbAttributeDefinition
  3

  2
NN
 70
     8
280
     0
  0
ATTDEF
  5
74
330
6E
100
AcDbEntity
  8
AM_6
100
AcDbText
 10
6.5
 20
0.3249999999999998
 30
0.0
 40
0.5
  1
GT Normal Duty Tapped Base Pillow Blocks
100
AcDbAttributeDefinition
  3

  2
NT
 70
     8
280
     0
  0
ATTDEF
  5
75
330
6E
100
AcDbEntity
  8
AM_6
100
AcDbText
 10
6.5
 20
-0.1750000000000002
 30
0.0
 40
0.5
  1
129148
100
AcDbAttributeDefinition
  3

  2
NB
 70
     8
280
     0
  0
ATTDEF
  5
76
330
6E
100
AcDbEntity
  8
AM_6
100
AcDbText
 10
6.5
 20
-0.6750000000000002
 30
0.0
 40
0.5
  1
$PN.$LUBE.
100
AcDbAttributeDefinition
  3

  2
NBSYN
 70
     8
280
     0
  0
ATTDEF
  5
77
330
6E
100
AcDbEntity
  8
AM_6
100
AcDbText
 10
6.5
 20
-1.175
 30
0.0
 40
0.5
  1
129148
100
AcDbAttributeDefinition
  3

  2
LINA
 70
     8
280
     0
  0
ATTDEF
  5
78
330
6E
100
AcDbEntity
  8
AM_6
100
AcDbText
 10
6.5
 20
-1.675
 30
0.0
 40
0.5
  1
205
100
AcDbAttributeDefinition
  3

  2
SERIES
 70
     8
280
     0
  0
ATTDEF
  5
79
330
6E
100
AcDbEntity
  8
AM_6
100
AcDbText
 10
6.5
 20
-2.175
 30
0.0
 40
0.5
  1
7/8
100
AcDbAttributeDefinition
  3

  2
SS
 70
     8
280
     0
  0
ATTDEF
  5
7A
330
6E
100
AcDbEntity
  8
AM_6
100
AcDbText
 10
6.5
 20
-2.675
 30
0.0
 40
0.5
  1
129148
100
AcDbAttributeDefinition
  3

  2
PN
 70
     8
280
     0
  0
ATTDEF
  5
7B
330
6E
100
AcDbEntity
  8
AM_6
100
AcDbText
 10
6.5
 20
-3.175
 30
0.0
 40
0.5
  1
TB-GT-014
100
AcDbAttributeDefinition
  3

  2
DESCRIPTION
 70
     8
280
     0
  0
ATTDEF
  5
7C
330
6E
100
AcDbEntity
  8
AM_6
100
AcDbText
 10
6.5
 20
-3.675
 30
0.0
 40
0.5
  1
1-29/64
100
AcDbAttributeDefinition
  3

  2
A
 70
     8
280
     0
  0
ATTDEF
  5
7D
330
6E
100
AcDbEntity
  8
AM_6
100
AcDbText
 10
6.5
 20
-4.175000000000001
 30
0.0
 40
0.5
  1
3
100
AcDbAttributeDefinition
  3

  2
B
 70
     8
280
     0
  0
ATTDEF
  5
7E
330
6E
100
AcDbEntity
  8
AM_6
100
AcDbText
 10
6.5
 20
-4.675000000000001
 30
0.0
 40
0.5
  1
1-1/2
100
AcDbAttributeDefinition
  3

  2
C
 70
     8
280
     0
  0
ATTDEF
  5
7F
330
6E
100
AcDbEntity
  8
AM_6
100
AcDbText
 10
6.5
 20
-5.175000000000001
 30
0.0
 40
0.5
  1
2
100
AcDbAttributeDefinition
  3

  2
D
 70
     8
280
     0
  0
ATTDEF
  5
80
330
6E
100
AcDbEntity
  8
AM_6
100
AcDbText
 10
6.5
 20
-5.675000000000001
 30
0.0
 40
0.5
  1
2-13/16
100
AcDbAttributeDefinition
  3

  2
J
 70
     8
280
     0
  0
ATTDEF
  5
81
330
6E
100
AcDbEntity
  8
AM_6
100
AcDbText
 10
6.5
 20
-6.175000000000001
 30
0.0
 40
0.5
  1
1-51/64
100
AcDbAttributeDefinition
  3

  2
L
 70
     8
280
     0
  0
ATTDEF
  5
82
330
6E
100
AcDbEntity
  8
AM_6
100
AcDbText
 10
6.5
 20
-6.675000000000001
 30
0.0
 40
0.5
  1
1-7/16
100
AcDbAttributeDefinition
  3

  2
M
 70
     8
280
     0
  0
ATTDEF
  5
83
330
6E
100
AcDbEntity
  8
AM_6
100
AcDbText
 10
6.5
 20
-7.175000000000001
 30
0.0
 40
0.5
  1
1/2
100
AcDbAttributeDefinition
  3

  2
N
 70
     8
280
     0
  0
ATTDEF
  5
84
330
6E
100
AcDbEntity
  8
AM_6
100
AcDbText
 10
6.5
 20
-7.675000000000001
 30
0.0
 40
0.5
  1
3/8-16
100
AcDbAttributeDefinition
  3

  2
R
 70
     8
280
     0
  0
ATTDEF
  5
85
330
6E
100
AcDbEntity
  8
AM_6
100
AcDbText
 10
6.5
 20
-8.175
 30
0.0
 40
0.5
  1
61/64
100
AcDbAttributeDefinition
  3

  2
S
 70
     8
280
     0
  0
ATTDEF
  5
86
330
6E
100
AcDbEntity
  8
AM_6
100
AcDbText
 10
6.5
 20
-8.675
 30
0.0
 40
0.5
  1
61/64
100
AcDbAttributeDefinition
  3

  2
Z
 70
     8
280
     0
  0
ATTDEF
  5
87
330
6E
100
AcDbEntity
  8
AM_6
100
AcDbText
 10
6.5
 20
-9.175
 30
0.0
 40
0.5
  1
baldor
100
AcDbAttributeDefinition
  3

  2
COMPANY
 70
     8
280
     0
  0
INSERT
  5
89
330
6E
100
AcDbEntity
  8
0
100
AcDbBlockReference
  2
2_129518I_0_in_129148_4
 10
0.0
 20
0.0
 30
0.0
  0
INSERT
  5
CE
330
6E
100
AcDbEntity
  8
0
100
AcDbBlockReference
  2
3_129905_0_in_129148_4
 10
0.0
 20
0.0
 30
0.0
  0
INSERT
  5
126
330
6E
100
AcDbEntity
  8
0
100
AcDbBlockReference
  2
4_129458I_0_in_129148_4
 10
0.0
 20
0.0
 30
0.0
  0
ENDBLK
  5
71
330
6E
100
AcDbEntity
  8
0
100
AcDbBlockEnd
  0
BLOCK
  5
8A
330
88
100
AcDbEntity
  8
0
100
AcDbBlockBegin
  2
2_129518I_0_in_129148_4
 70
     2
 10
0.0
 20
0.0
 30
0.0
  3
2_129518I_0_in_129148_4
  1

  0
ATTDEF
  5
8C
330
88
100
AcDbEntity
  8
AM_6
100
AcDbText
 10
6.023573513856515
 20
0.432
 30
0.0
 40
0.5
  1
INS-GT B
100
AcDbAttributeDefinition
  3

  2
NN
 70
     8
280
     0
  0
ATTDEF
  5
8D
330
88
100
AcDbEntity
  8
AM_6
100
AcDbText
 10
6.023573513856515
 20
-0.068
 30
0.0
 40
0.5
  1
GT Normal Duty Bearing Inserts
100
AcDbAttributeDefinition
  3

  2
NT
 70
     8
280
     0
  0
ATTDEF
  5
8E
330
88
100
AcDbEntity
  8
AM_6
100
AcDbText
 10
6.023573513856515
 20
-0.5680000000000001
 30
0.0
 40
0.5
  1
129518I
100
AcDbAttributeDefinition
  3

  2
NB
 70
     8
280
     0
  0
ATTDEF
  5
8F
330
88
100
AcDbEntity
  8
AM_6
100
AcDbText
 10
6.023573513856515
 20
-1.068
 30
0.0
 40
0.5
  1
$PN.I
100
AcDbAttributeDefinition
  3

  2
NBSYN
 70
     8
280
     0
  0
ATTDEF
  5
90
330
88
100
AcDbEntity
  8
AM_6
100
AcDbText
 10
6.023573513856515
 20
-1.568
 30
0.0
 40
0.5
  1
129518
100
AcDbAttributeDefinition
  3

  2
LINA
 70
     8
280
     0
  0
ATTDEF
  5
91
330
88
100
AcDbEntity
  8
AM_6
100
AcDbText
 10
6.023573513856515
 20
-2.068
 30
0.0
 40
0.5
  1
205
100
AcDbAttributeDefinition
  3

  2
SERIES
 70
     8
280
     0
  0
ATTDEF
  5
92
330
88
100
AcDbEntity
  8
AM_6
100
AcDbText
 10
6.023573513856515
 20
-2.568
 30
0.0
 40
0.5
  1
129518
100
AcDbAttributeDefinition
  3

  2
PN
 70
     8
280
     0
  0
ATTDEF
  5
93
330
88
100
AcDbEntity
  8
AM_6
100
AcDbText
 10
6.023573513856515
 20
-3.068
 30
0.0
 40
0.5
  1
INS-GT-05
100
AcDbAttributeDefinition
  3

  2
DESCRIPTION
 70
     8
280
     0
  0
ATTDEF
  5
94
330
88
100
AcDbEntity
  8
AM_6
100
AcDbText
 10
6.023573513856515
 20
-3.568
 30
0.0
 40
0.5
  1
1.46
100
AcDbAttributeDefinition
  3

  2
A
 70
     8
280
     0
  0
ATTDEF
  5
95
330
88
100
AcDbEntity
  8
AM_6
100
AcDbText
 10
6.023573513856515
 20
-4.068
 30
0.0
 40
0.5
  1
0.59
100
AcDbAttributeDefinition
  3

  2
C
 70
     8
280
     0
  0
ATTDEF
  5
96
330
88
100
AcDbEntity
  8
AM_6
100
AcDbText
 10
6.023573513856515
 20
-4.568
 30
0.0
 40
0.5
  1
2.0472
100
AcDbAttributeDefinition
  3

  2
D
 70
     8
280
     0
  0
ATTDEF
  5
97
330
88
100
AcDbEntity
  8
AM_6
100
AcDbText
 10
6.023573513856515
 20
-5.068
 30
0.0
 40
0.5
  1
0.16
100
AcDbAttributeDefinition
  3

  2
J
 70
     8
280
     0
  0
ATTDEF
  5
98
330
88
100
AcDbEntity
  8
AM_6
100
AcDbText
 10
6.023573513856515
 20
-5.568
 30
0.0
 40
0.5
  1
1.80
100
AcDbAttributeDefinition
  3

  2
L
 70
     8
280
     0
  0
ATTDEF
  5
99
330
88
100
AcDbEntity
  8
AM_6
100
AcDbText
 10
6.023573513856515
 20
-6.068
 30
0.0
 40
0.5
  1
#10 - 32 x 1/4
100
AcDbAttributeDefinition
  3

  2
N
 70
     8
280
     0
  0
ATTDEF
  5
9A
330
88
100
AcDbEntity
  8
AM_6
100
AcDbText
 10
6.023573513856515
 20
-6.568
 30
0.0
 40
0.5
  1
0.48000
100
AcDbAttributeDefinition
  3

  2
W
 70
     8
280
     0
  0
ATTDEF
  5
9B
330
88
100
AcDbEntity
  8
AM_6
100
AcDbText
 10
6.023573513856515
 20
-7.068
 30
0.0
 40
0.5
  1
1.00
100
AcDbAttributeDefinition
  3

  2
X
 70
     8
280
     0
  0
ATTDEF
  5
9C
330
88
100
AcDbEntity
  8
AM_6
100
AcDbText
 10
6.023573513856515
 20
-7.568
 30
0.0
 40
0.5
  1
0.98
100
AcDbAttributeDefinition
  3

  2
Y
 70
     8
280
     0
  0
ATTDEF
  5
9D
330
88
100
AcDbEntity
  8
AM_6
100
AcDbText
 10
6.023573513856515
 20
-8.068
 30
0.0
 40
0.5
  1
baldor
100
AcDbAttributeDefinition
  3

  2
COMPANY
 70
     8
280
     0
  0
LINE
  5
A0
330
88
100
AcDbEntity
  8
AM_9
100
AcDbLine
 10
0.6714285200000001
 20
-0.7499993649987303
 30
0.0
 11
0.6714285200000001
 21
-0.37499936499873
 31
0.0
  0
LINE
  5
A1
330
88
100
AcDbEntity
  8
AM_9
100
AcDbLine
 10
-0.6714285200000001
 20
-0.37499936499873
 30
0.0
 11
-0.6714285200000001
 21
-0.7499993649987303
 31
0.0
  0
LINE
  5
A2
330
88
100
AcDbEntity
  8
AM_9
100
AcDbLine
 10
-0.6714285200000001
 20
-0.37499936499873
 30
0.0
 11
0.6714285200000001
 21
-0.37499936499873
 31
0.0
  0
LINE
  5
A3
330
88
100
AcDbEntity
  8
AM_9
100
AcDbLine
 10
0.6714285200000001
 20
-0.37499936499873
 30
0.0
 11
0.6996095588051076
 21
0.4319999999999999
 31
0.0
  0
LINE
  5
A4
330
88
100
AcDbEntity
  8
AM_9
100
AcDbLine
 10
-0.6996095588051076
 20
0.4319999999999999
 30
0.0
 11
-0.6714285200000001
 21
-0.37499936499873
 31
0.0
  0
LINE
  5
A5
330
88
100
AcDbEntity
  8
AM_9
100
AcDbLine
 10
0.7357142600000001
 20
-0.6249993649987304
 30
0.0
 11
0.7357142600000001
 21
-0.4999993649987302
 31
0.0
  0
LINE
  5
A6
330
88
100
AcDbEntity
  8
AM_9
100
AcDbLine
 10
-0.7357142600000001
 20
-0.4999993649987302
 30
0.0
 11
-0.7357142600000001
 21
-0.6249993649987304
 31
0.0
  0
LINE
  5
A7
330
88
100
AcDbEntity
  8
AM_9
100
AcDbLine
 10
-0.7764000000000001
 20
0.432
 30
0.0
 11
0.7764000000000001
 21
0.432
 31
0.0
  0
LINE
  5
A8
330
88
100
AcDbEntity
  8
AM_9
100
AcDbLine
 10
-0.7764000000000001
 20
0.432
 30
0.0
 11
-0.8
 21
0.4084
 31
0.0
  0
LINE
  5
A9
330
88
100
AcDbEntity
  8
AM_9
100
AcDbLine
 10
0.8
 20
0.4084
 30
0.0
 11
0.7764000000000001
 21
0.432
 31
0.0
  0
LINE
  5
AA
330
88
100
AcDbEntity
  8
AM_9
100
AcDbLine
 10
0.7764000000000001
 20
-0.7499993649987303
 30
0.0
 11
0.8
 21
-0.7263993649987303
 31
0.0
  0
LINE
  5
AB
330
88
100
AcDbEntity
  8
AM_9
100
AcDbLine
 10
-0.8
 20
-0.7263993649987303
 30
0.0
 11
-0.7764000000000001
 21
-0.7499993649987303
 31
0.0
  0
LINE
  5
AC
330
88
100
AcDbEntity
  8
AM_9
100
AcDbLine
 10
-0.7764000000000001
 20
-0.7499993649987303
 30
0.0
 11
0.7764000000000001
 21
-0.7499993649987303
 31
0.0
  0
LINE
  5
AD
330
88
100
AcDbEntity
  8
AM_9
100
AcDbLine
 10
0.8
 20
-0.7263993649987303
 30
0.0
 11
0.8
 21
-0.6249993649987304
 31
0.0
  0
LINE
  5
AE
330
88
100
AcDbEntity
  8
AM_9
100
AcDbLine
 10
-0.8
 20
-0.6249993649987304
 30
0.0
 11
-0.8
 21
-0.7263993649987303
 31
0.0
  0
LINE
  5
AF
330
88
100
AcDbEntity
  8
AM_9
100
AcDbLine
 10
-0.8
 20
-0.7263993649987303
 30
0.0
 11
0.8
 21
-0.7263993649987303
 31
0.0
  0
LINE
  5
B0
330
88
100
AcDbEntity
  8
AM_9
100
AcDbLine
 10
-0.8
 20
-0.6249993649987304
 30
0.0
 11
0.8
 21
-0.6249993649987304
 31
0.0
  0
LINE
  5
B1
330
88
100
AcDbEntity
  8
AM_9
100
AcDbLine
 10
-0.7999999999999999
 20
0.4084
 30
0.0
 11
0.7999999999999999
 21
0.4084
 31
0.0
  0
LINE
  5
B2
330
88
100
AcDbEntity
  8
AM_9
100
AcDbLine
 10
0.7999999999999999
 20
0.295
 30
0.0
 11
0.7999999999999999
 21
0.4084
 31
0.0
  0
LINE
  5
B3
330
88
100
AcDbEntity
  8
AM_9
100
AcDbLine
 10
-0.7999999999999999
 20
0.4084
 30
0.0
 11
-0.7999999999999999
 21
0.295
 31
0.0
  0
LINE
  5
B4
330
88
100
AcDbEntity
  8
AM_9
100
AcDbLine
 10
0.8000000000000002
 20
-0.4999993649987302
 30
0.0
 11
0.8000000000000002
 21
-0.2949999999999999
 31
0.0
  0
LINE
  5
B5
330
88
100
AcDbEntity
  8
AM_9
100
AcDbLine
 10
-0.8000000000000002
 20
-0.2949999999999999
 30
0.0
 11
-0.8000000000000002
 21
-0.4999993649987302
 31
0.0
  0
LINE
  5
B6
330
88
100
AcDbEntity
  8
AM_9
100
AcDbLine
 10
-0.8000000000000002
 20
-0.4999993649987302
 30
0.0
 11
0.8000000000000002
 21
-0.4999993649987302
 31
0.0
  0
LINE
  5
B7
330
88
100
AcDbEntity
  8
AM_9
100
AcDbLine
 10
0.9646000000000001
 20
-0.1919999999999999
 30
0.0
 11
0.9646000000000001
 21
-0.128
 31
0.0
  0
LINE
  5
B8
330
88
100
AcDbEntity
  8
AM_9
100
AcDbLine
 10
-0.9646000000000001
 20
-0.128
 30
0.0
 11
-0.9646000000000001
 21
-0.1919999999999999
 31
0.0
  0
LINE
  5
B9
330
88
100
AcDbEntity
  8
AM_9
100
AcDbLine
 10
-0.9486878556946367
 20
0.295
 30
0.0
 11
0.9486878556946367
 21
0.295
 31
0.0
  0
ARC
  5
BA
330
88
100
AcDbEntity
  8
AM_9
100
AcDbCircle
 10
0.9486878556946369
 20
0.2713999999999999
 30
0.0
 40
0.0236
100
AcDbArc
 50
21.4124755069705
 51
90.0
  0
ARC
  5
BB
330
88
100
AcDbEntity
  8
AM_9
100
AcDbCircle
 10
-0.9486878556946369
 20
0.2713999999999999
 30
0.0
 40
0.0236000000000001
100
AcDbArc
 50
90.0
 51
158.5875244930295
  0
LINE
  5
BC
330
88
100
AcDbEntity
  8
AM_9
100
AcDbLine
 10
-0.9486878556946365
 20
-0.295
 30
0.0
 11
0.9486878556946365
 21
-0.295
 31
0.0
  0
ARC
  5
BD
330
88
100
AcDbEntity
  8
AM_9
100
AcDbCircle
 10
0.9486878556946367
 20
-0.2714000000000005
 30
0.0
 40
0.0235999999999996
100
AcDbArc
 50
270.0
 51
338.5875329531172
  0
ARC
  5
BE
330
88
100
AcDbEntity
  8
AM_9
100
AcDbCircle
 10
-0.9486878556946367
 20
-0.2714000000000005
 30
0.0
 40
0.0235999999999995
100
AcDbArc
 50
201.4124670468828
 51
270.0
  0
ARC
  5
BF
330
88
100
AcDbEntity
  8
AM_9
100
AcDbCircle
 10
0.2566000000000386
 20
-0.0000000000000115
 30
0.0
 40
0.7669999999999598
100
AcDbArc
 50
338.5875329531157
 51
344.9288463923384
  0
ARC
  5
C0
330
88
100
AcDbEntity
  8
AM_9
100
AcDbCircle
 10
-0.2566000000001163
 20
-0.0000000000000374
 30
0.0
 40
0.7669999999998781
100
AcDbArc
 50
195.0711536076612
 51
201.4124670468846
  0
LINE
  5
C1
330
88
100
AcDbEntity
  8
AM_9
100
AcDbLine
 10
-0.9706588987325615
 20
-0.2800158730158728
 30
0.0
 11
0.9706588987325615
 21
-0.2800158730158728
 31
0.0
  0
LINE
  5
C2
330
88
100
AcDbEntity
  8
AM_9
100
AcDbLine
 10
-0.9915209481297971
 20
-0.1919999999999999
 30
0.0
 11
0.9915209481297971
 21
-0.1919999999999999
 31
0.0
  0
ARC
  5
C3
330
88
100
AcDbEntity
  8
AM_9
100
AcDbCircle
 10
0.9915209481297975
 20
-0.1978999999999997
 30
0.0
 40
0.0058999999999998
100
AcDbArc
 50
344.9288463923357
 51
90.0
  0
ARC
  5
C4
330
88
100
AcDbEntity
  8
AM_9
100
AcDbCircle
 10
-0.9915209481297975
 20
-0.1978999999999997
 30
0.0
 40
0.0058999999999998
100
AcDbArc
 50
90.0
 51
195.0711536076642
  0
LINE
  5
C5
330
88
100
AcDbEntity
  8
AM_9
100
AcDbLine
 10
-0.9972180097432065
 20
-0.1994341085271317
 30
0.0
 11
0.9972180097432065
 21
-0.1994341085271317
 31
0.0
  0
LINE
  5
C6
330
88
100
AcDbEntity
  8
AM_9
100
AcDbLine
 10
-1.00784217134026
 20
-0.128
 30
0.0
 11
1.00784217134026
 21
-0.128
 31
0.0
  0
ARC
  5
C7
330
88
100
AcDbEntity
  8
AM_9
100
AcDbCircle
 10
1.00784217134026
 20
-0.1220999999999996
 30
0.0
 40
0.0059000000000004
100
AcDbArc
 50
270.0
 51
350.7682490865388
  0
ARC
  5
C8
330
88
100
AcDbEntity
  8
AM_9
100
AcDbCircle
 10
-1.00784217134026
 20
-0.1220999999999997
 30
0.0
 40
0.0059000000000004
100
AcDbArc
 50
189.231750913461
 51
270.0
  0
LINE
  5
C9
330
88
100
AcDbEntity
  8
AM_9
100
AcDbLine
 10
-0.9706588974603731
 20
0.2800158762600372
 30
0.0
 11
0.9706588974603731
 21
0.2800158762600372
 31
0.0
  0
ARC
  5
CA
330
88
100
AcDbEntity
  8
AM_9
100
AcDbCircle
 10
0.2565999999999907
 20
-0.0000000000000014
 30
0.0
 40
0.7670000000000092
100
AcDbArc
 50
350.7683926808378
 51
21.41246730719426
  0
ARC
  5
CB
330
88
100
AcDbEntity
  8
AM_9
100
AcDbCircle
 10
-0.2565999999999868
 20
-0.0000000000000018
 30
0.0
 40
0.767000000000013
100
AcDbArc
 50
158.5875326928058
 51
189.2316073191622
  0
LINE
  5
CC
330
88
100
AcDbEntity
  8
AM_9
100
AcDbLine
 10
-1.01366575167328
 20
-0.1230465263360674
 30
0.0
 11
1.01366575167328
 21
-0.1230465263360674
 31
0.0
  0
ENDBLK
  5
8B
330
88
100
AcDbEntity
  8
0
100
AcDbBlockEnd
  0
BLOCK
  5
CF
330
CD
100
AcDbEntity
  8
0
100
AcDbBlockBegin
  2
3_129905_0_in_129148_4
 70
     2
 10
0.0
 20
0.0
 30
0.0
  3
3_129905_0_in_129148_4
  1

  0
ATTDEF
  5
D1
330
CD
100
AcDbEntity
  8
AM_6
100
AcDbText
 10
5.895217259332196
 20
0.5000000000000001
 30
0.0
 40
0.5
  1
Grip Tight Normal Duty Adapter and Nut Inch Bore
100
AcDbAttributeDefinition
  3

  2
NN
 70
     8
280
     0
  0
ATTDEF
  5
D2
330
CD
100
AcDbEntity
  8
AM_6
100
AcDbText
 10
5.895217259332196
 20
0.0000000000000001
 30
0.0
 40
0.5
  1
GT and GTM Adapter & Lock Nut Assemblies
100
AcDbAttributeDefinition
  3

  2
NT
 70
     8
280
     0
  0
ATTDEF
  5
D3
330
CD
100
AcDbEntity
  8
AM_6
100
AcDbText
 10
5.895217259332196
 20
-0.4999999999999999
 30
0.0
 40
0.5
  1
129905
100
AcDbAttributeDefinition
  3

  2
NB
 70
     8
280
     0
  0
ATTDEF
  5
D4
330
CD
100
AcDbEntity
  8
AM_6
100
AcDbText
 10
5.895217259332196
 20
-0.9999999999999999
 30
0.0
 40
0.5
  1
$PN.
100
AcDbAttributeDefinition
  3

  2
NBSYN
 70
     8
280
     0
  0
ATTDEF
  5
D5
330
CD
100
AcDbEntity
  8
AM_6
100
AcDbText
 10
5.895217259332196
 20
-1.5
 30
0.0
 40
0.5
  1
129905
100
AcDbAttributeDefinition
  3

  2
LINA
 70
     8
280
     0
  0
ATTDEF
  5
D6
330
CD
100
AcDbEntity
  8
AM_6
100
AcDbText
 10
5.895217259332196
 20
-2.0
 30
0.0
 40
0.5
  1
205
100
AcDbAttributeDefinition
  3

  2
SERIES
 70
     8
280
     0
  0
ATTDEF
  5
D7
330
CD
100
AcDbEntity
  8
AM_6
100
AcDbText
 10
5.895217259332196
 20
-2.5
 30
0.0
 40
0.5
  1
7/8
100
AcDbAttributeDefinition
  3

  2
SS
 70
     8
280
     0
  0
ATTDEF
  5
D8
330
CD
100
AcDbEntity
  8
AM_6
100
AcDbText
 10
5.895217259332196
 20
-3.0
 30
0.0
 40
0.5
  1
129905
100
AcDbAttributeDefinition
  3

  2
PN
 70
     8
280
     0
  0
ATTDEF
  5
D9
330
CD
100
AcDbEntity
  8
AM_6
100
AcDbText
 10
5.895217259332196
 20
-3.5
 30
0.0
 40
0.5
  1
AN-GT-05-014
100
AcDbAttributeDefinition
  3

  2
DESCRIPTION
 70
     8
280
     0
  0
ATTDEF
  5
DA
330
CD
100
AcDbEntity
  8
AM_6
100
AcDbText
 10
5.895217259332196
 20
-4.0
 30
0.0
 40
0.5
  1
1-29/64
100
AcDbAttributeDefinition
  3

  2
A
 70
     8
280
     0
  0
ATTDEF
  5
DB
330
CD
100
AcDbEntity
  8
AM_6
100
AcDbText
 10
5.895217259332196
 20
-4.5
 30
0.0
 40
0.5
  1
0.5906
100
AcDbAttributeDefinition
  3

  2
C
 70
     8
280
     0
  0
ATTDEF
  5
DC
330
CD
100
AcDbEntity
  8
AM_6
100
AcDbText
 10
5.895217259332196
 20
-5.0
 30
0.0
 40
0.5
  1
2.0472
100
AcDbAttributeDefinition
  3

  2
D
 70
     8
280
     0
  0
ATTDEF
  5
DD
330
CD
100
AcDbEntity
  8
AM_6
100
AcDbText
 10
5.895217259332196
 20
-5.5
 30
0.0
 40
0.5
  1
0.152
100
AcDbAttributeDefinition
  3

  2
J
 70
     8
280
     0
  0
ATTDEF
  5
DE
330
CD
100
AcDbEntity
  8
AM_6
100
AcDbText
 10
5.895217259332196
 20
-6.0
 30
0.0
 40
0.5
  1
1-51/64
100
AcDbAttributeDefinition
  3

  2
L
 70
     8
280
     0
  0
ATTDEF
  5
DF
330
CD
100
AcDbEntity
  8
AM_6
100
AcDbText
 10
5.895217259332196
 20
-6.5
 30
0.0
 40
0.5
  1
10 - 32 x 1/4
100
AcDbAttributeDefinition
  3

  2
N
 70
     8
280
     0
  0
ATTDEF
  5
E0
330
CD
100
AcDbEntity
  8
AM_6
100
AcDbText
 10
5.895217259332196
 20
-7.0
 30
0.0
 40
0.5
  1
1/2
100
AcDbAttributeDefinition
  3

  2
W
 70
     8
280
     0
  0
ATTDEF
  5
E1
330
CD
100
AcDbEntity
  8
AM_6
100
AcDbText
 10
5.895217259332196
 20
-7.5
 30
0.0
 40
0.5
  1
61/64
100
AcDbAttributeDefinition
  3

  2
X
 70
     8
280
     0
  0
ATTDEF
  5
E2
330
CD
100
AcDbEntity
  8
AM_6
100
AcDbText
 10
5.895217259332196
 20
-8.0
 30
0.0
 40
0.5
  1
61/64
100
AcDbAttributeDefinition
  3

  2
Y
 70
     8
280
     0
  0
ATTDEF
  5
E3
330
CD
100
AcDbEntity
  8
AM_6
100
AcDbText
 10
5.895217259332196
 20
-8.5
 30
0.0
 40
0.5
  1
baldor
100
AcDbAttributeDefinition
  3

  2
COMPANY
 70
     8
280
     0
  0
LINE
  5
E4
330
CD
100
AcDbEntity
  8
AM_9
100
AcDbLine
 10
-0.8758874999999999
 20
-0.91033554167725
 30
0.0
 11
-0.6963781249999998
 21
-0.91033554167725
 31
0.0
  0
LINE
  5
E5
330
CD
100
AcDbEntity
  8
AM_9
100
AcDbLine
 10
-0.6963781249999998
 20
-0.7654355416772498
 30
0.0
 11
-0.8758874999999999
 21
-0.7654355416772498
 31
0.0
  0
LINE
  5
E6
330
CD
100
AcDbEntity
  8
AM_9
100
AcDbLine
 10
0.8385415145309456
 20
-0.4765625
 30
0.0
 11
0.8385415145309456
 21
-0.9531249999999998
 31
0.0
  0
LINE
  5
E7
330
CD
100
AcDbEntity
  8
AM_9
100
AcDbLine
 10
-0.6963781249999998
 20
-0.91033554167725
 30
0.0
 11
-0.6738281249999999
 21
-0.9328855416772499
 31
0.0
  0
LINE
  5
E8
330
CD
100
AcDbEntity
  8
AM_9
100
AcDbLine
 10
-0.6738281249999999
 20
-0.74288554167725
 30
0.0
 11
-0.6963781249999998
 21
-0.7654355416772498
 31
0.0
  0
LINE
  5
E9
330
CD
100
AcDbEntity
  8
AM_9
100
AcDbLine
 10
-0.6738281249999999
 20
-0.74288554167725
 30
0.0
 11
-0.6738281249999999
 21
-0.9328855416772499
 31
0.0
  0
LINE
  5
EA
330
CD
100
AcDbEntity
  8
AM_9
100
AcDbLine
 10
-0.6963781249999998
 20
-0.7654355416772498
 30
0.0
 11
-0.6963781249999998
 21
-0.91033554167725
 31
0.0
  0
LINE
  5
EB
330
CD
100
AcDbEntity
  8
AM_9
100
AcDbLine
 10
-0.8758874999999999
 20
-0.7654355416772498
 30
0.0
 11
-0.8983314010147384
 21
-0.7429916406625114
 31
0.0
  0
LINE
  5
EC
330
CD
100
AcDbEntity
  8
AM_9
100
AcDbLine
 10
-0.8967426010291873
 20
-0.9311906427064375
 30
0.0
 11
-0.8758874999999999
 21
-0.91033554167725
 31
0.0
  0
LINE
  5
ED
330
CD
100
AcDbEntity
  8
AM_9
100
AcDbLine
 10
-0.8758874999999999
 20
-0.7654355416772498
 30
0.0
 11
-0.8758874999999999
 21
-0.91033554167725
 31
0.0
  0
LINE
  5
EE
330
CD
100
AcDbEntity
  8
AM_9
100
AcDbLine
 10
0.4374999999999999
 20
-0.9531249999999998
 30
0.0
 11
0.4374999999999999
 21
0.4999999999999998
 31
0.0
  0
LINE
  5
EF
330
CD
100
AcDbEntity
  8
AM_9
100
AcDbLine
 10
-0.4374999999999999
 20
0.4999999999999998
 30
0.0
 11
-0.4374999999999999
 21
-0.9531249999999998
 31
0.0
  0
LINE
  5
F0
330
CD
100
AcDbEntity
  8
AM_9
100
AcDbLine
 10
0.6702628968253969
 20
-0.71484375
 30
0.0
 11
0.6702628968253969
 21
-0.3574218750000003
 31
0.0
  0
LINE
  5
F1
330
CD
100
AcDbEntity
  8
AM_9
100
AcDbLine
 10
-0.6702628968253969
 20
-0.3574218750000003
 30
0.0
 11
-0.6702628968253969
 21
-0.71484375
 31
0.0
  0
LINE
  5
F2
330
CD
100
AcDbEntity
  8
AM_9
100
AcDbLine
 10
0.05
 20
0.4842503405222591
 30
0.0
 11
0.05
 21
-0.953125
 31
0.0
  0
LINE
  5
F3
330
CD
100
AcDbEntity
  8
AM_9
100
AcDbLine
 10
-0.05
 20
0.4842367672192424
 30
0.0
 11
-0.05
 21
-0.953125
 31
0.0
  0
LINE
  5
F4
330
CD
100
AcDbEntity
  8
AM_9
100
AcDbLine
 10
0.6429447869791032
 20
0.5
 30
0.0
 11
0.7002047284794539
 21
0.5
 31
0.0
  0
LINE
  5
F5
330
CD
100
AcDbEntity
  8
AM_9
100
AcDbLine
 10
0.6702628968253969
 20
-0.3574218750000003
 30
0.0
 11
0.7002047284794539
 21
0.5
 31
0.0
  0
LINE
  5
F6
330
CD
100
AcDbEntity
  8
AM_9
100
AcDbLine
 10
-0.7002047284794539
 20
0.5
 30
0.0
 11
-0.6702628968253969
 21
-0.3574218750000003
 31
0.0
  0
LINE
  5
F7
330
CD
100
AcDbEntity
  8
AM_9
100
AcDbLine
 10
-0.6702628968253969
 20
-0.3574218750000003
 30
0.0
 11
0.6702628968253969
 21
-0.3574218750000003
 31
0.0
  0
LINE
  5
F8
330
CD
100
AcDbEntity
  8
AM_9
100
AcDbLine
 10
-0.7002047284794539
 20
0.5
 30
0.0
 11
-0.6429447869791032
 21
0.5
 31
0.0
  0
LINE
  5
F9
330
CD
100
AcDbEntity
  8
AM_9
100
AcDbLine
 10
0.7344370039682537
 20
-0.595703125
 30
0.0
 11
0.7344370039682537
 21
-0.4765625
 31
0.0
  0
LINE
  5
FA
330
CD
100
AcDbEntity
  8
AM_9
100
AcDbLine
 10
-0.7344370039682537
 20
-0.4765625
 30
0.0
 11
-0.7344370039682537
 21
-0.595703125
 31
0.0
  0
LINE
  5
FB
330
CD
100
AcDbEntity
  8
AM_9
100
AcDbLine
 10
-0.8984374999999998
 20
-0.5001865
 30
0.0
 11
-0.8984374999999998
 21
-0.5213977991683603
 31
0.0
  0
LINE
  5
FC
330
CD
100
AcDbEntity
  8
AM_9
100
AcDbLine
 10
-0.8748134999999996
 20
-0.4765625
 30
0.0
 11
-0.8984374999999996
 21
-0.5001865
 31
0.0
  0
LINE
  5
FD
330
CD
100
AcDbEntity
  8
AM_9
100
AcDbLine
 10
-0.8984374999999996
 20
-0.5001865
 30
0.0
 11
-0.6462348053454987
 21
-0.5001864999999999
 31
0.0
  0
LINE
  5
FE
330
CD
100
AcDbEntity
  8
AM_9
100
AcDbLine
 10
-0.5015709168455583
 20
-0.4765625
 30
0.0
 11
-0.5101470451816038
 21
-0.4936511515547767
 31
0.0
  0
LINE
  5
FF
330
CD
100
AcDbEntity
  8
AM_9
100
AcDbLine
 10
-0.3534528265778557
 20
-0.4765624999999999
 30
0.0
 11
-0.3534528265778557
 21
-0.9531249999999998
 31
0.0
  0
LINE
  5
100
330
CD
100
AcDbEntity
  8
AM_9
100
AcDbLine
 10
-0.4850886879530904
 20
-0.4765624999999999
 30
0.0
 11
-0.4850886879530904
 21
-0.4926661654527142
 31
0.0
  0
LINE
  5
101
330
CD
100
AcDbEntity
  8
AM_9
100
AcDbLine
 10
-0.7986111111111118
 20
-0.595703125
 30
0.0
 11
0.7986111111111118
 21
-0.595703125
 31
0.0
  0
LINE
  5
102
330
CD
100
AcDbEntity
  8
AM_9
100
AcDbLine
 10
-0.7986111111111118
 20
-0.71484375
 30
0.0
 11
0.7986111111111118
 21
-0.71484375
 31
0.0
  0
LINE
  5
103
330
CD
100
AcDbEntity
  8
AM_9
100
AcDbLine
 10
0.7986111111111118
 20
-0.71484375
 30
0.0
 11
0.7986111111111118
 21
-0.595703125
 31
0.0
  0
LINE
  5
104
330
CD
100
AcDbEntity
  8
AM_9
100
AcDbLine
 10
-0.7986111111111118
 20
-0.595703125
 30
0.0
 11
-0.7986111111111118
 21
-0.71484375
 31
0.0
  0
LINE
  5
105
330
CD
100
AcDbEntity
  8
AM_9
100
AcDbLine
 10
0.8715059723158811
 20
-0.4765625
 30
0.0
 11
0.8952172593321964
 21
-0.5001865
 31
0.0
  0
LINE
  5
106
330
CD
100
AcDbEntity
  8
AM_9
100
AcDbLine
 10
-0.8748134999999996
 20
-0.4765625
 30
0.0
 11
0.8715059723158811
 21
-0.4765625
 31
0.0
  0
LINE
  5
107
330
CD
100
AcDbEntity
  8
AM_9
100
AcDbLine
 10
-0.3762459194648505
 20
-0.4891371847570959
 30
0.0
 11
-0.3699350554703236
 21
-0.4765625000000001
 31
0.0
  0
LINE
  5
108
330
CD
100
AcDbEntity
  8
AM_9
100
AcDbLine
 10
0.8952172593321964
 20
-0.5001865
 30
0.0
 11
0.8952172593321966
 21
-0.5209885015746387
 31
0.0
  0
LINE
  5
109
330
CD
100
AcDbEntity
  8
AM_9
100
AcDbLine
 10
0.6462348053454987
 20
-0.5001864999999999
 30
0.0
 11
0.8952172593321964
 21
-0.5001865
 31
0.0
  0
LINE
  5
10B
330
CD
100
AcDbEntity
  8
AM_5
100
AcDbLine
 10
-0.8950529583227499
 20
-0.9328855416772499
 30
0.0
 11
-0.6738281249999999
 21
-0.9328855416772499
 31
0.0
  0
LINE
  5
10E
330
CD
100
AcDbEntity
  8
AM_7
100
AcDbLine
 10
-0.6625976562499999
 20
-0.8378855416772499
 30
0.0
 11
-0.9096679687499998
 21
-0.8378855416772499
 31
0.0
  0
LINE
  5
110
330
CD
100
AcDbEntity
  8
AM_4
100
AcDbLine
 10
0.05
 20
0.4842503405222591
 30
0.0
 11
0.05
 21
0.5000000000000001
 31
0.0
  0
LINE
  5
111
330
CD
100
AcDbEntity
  8
AM_4
100
AcDbLine
 10
-0.05
 20
0.4842367672192424
 30
0.0
 11
-0.05
 21
0.5000000000000001
 31
0.0
  0
LINE
  5
112
330
CD
100
AcDbEntity
  8
AM_4
100
AcDbLine
 10
-0.6429447869791032
 20
0.5
 30
0.0
 11
0.6429447869791032
 21
0.5
 31
0.0
  0
LINE
  5
113
330
CD
100
AcDbEntity
  8
AM_4
100
AcDbLine
 10
-0.8984374999999998
 20
-0.5213977991683603
 30
0.0
 11
-0.8984374999999998
 21
-0.7430795494227668
 31
0.0
  0
LWPOLYLINE
  5
114
330
CD
100
AcDbEntity
  8
AM_4
100
AcDbPolyline
 90
       20
 70
     0
 43
0.0
 10
-0.8984374999999941
 20
-0.7428855416773108
 10
-0.8984336310576233
 20
-0.7429260085852366
 10
-0.8982799326821893
 20
-0.7445475371434844
 10
-0.8979046421664038
 20
-0.7486283516765828
 10
-0.8973671284667767
 20
-0.7548157099068333
 10
-0.8966974238730637
 20
-0.7632280438947162
 10
-0.8959713740675841
 20
-0.7735638533267372
 10
-0.8952512500965482
 20
-0.7857834870155199
 10
-0.8946183458430648
 20
-0.7995972933314606
 10
-0.8941451638969472
 20
-0.8147876412598858
 10
-0.8939000259953275
 20
-0.8307592749370292
 10
-0.8939199554741157
 20
-0.8473734359230964
 10
-0.8942084633625285
 20
-0.863540995925542
 10
-0.8947503395650491
 20
-0.8794338679365971
 10
-0.8953058628013991
 20
-0.8910122077134075
 10
-0.8959447357714856
 20
-0.9017965430753165
 10
-0.8966101217537545
 20
-0.911376401445667
 10
-0.8972542232134983
 20
-0.9195970905716797
 10
-0.8977378517085546
 20
-0.9252689801332765
 10
-0.8981195081615944
 20
-0.9295009999999966
  0
LINE
  5
115
330
CD
100
AcDbEntity
  8
AM_4
100
AcDbLine
 10
-0.6462348053454987
 20
-0.5001864999999999
 30
0.0
 11
-0.5134265603537158
 21
-0.5001864999999999
 31
0.0
  0
LINE
  5
116
330
CD
100
AcDbEntity
  8
AM_4
100
AcDbLine
 10
-0.8981195081615946
 20
-0.9295009999999998
 30
0.0
 11
-0.513426560353716
 21
-0.9295009999999998
 31
0.0
  0
LINE
  5
117
330
CD
100
AcDbEntity
  8
AM_4
100
AcDbLine
 10
-0.8981195081615964
 20
-0.929500999999998
 30
0.0
 11
-0.8967452291613778
 21
-0.9311932708386214
 31
0.0
  0
LINE
  5
118
330
CD
100
AcDbEntity
  8
AM_4
100
AcDbLine
 10
-0.8967707715890936
 20
-0.9311677284109063
 30
0.0
 11
-0.8748135
 21
-0.9531249999999998
 31
0.0
  0
LINE
  5
119
330
CD
100
AcDbEntity
  8
AM_4
100
AcDbLine
 10
-0.5101470451816038
 20
-0.4936511515547767
 30
0.0
 11
-0.5134265603537158
 21
-0.5001864999999999
 31
0.0
  0
LINE
  5
11A
330
CD
100
AcDbEntity
  8
AM_4
100
AcDbLine
 10
-0.5134265603537158
 20
-0.5001864999999999
 30
0.0
 11
-0.513426560353716
 21
-0.9295009999999998
 31
0.0
  0
LINE
  5
11B
330
CD
100
AcDbEntity
  8
AM_4
100
AcDbLine
 10
-0.513426560353716
 20
-0.9295009999999998
 30
0.0
 11
-0.5015709168455583
 21
-0.9531249999999997
 31
0.0
  0
LINE
  5
11C
330
CD
100
AcDbEntity
  8
AM_4
100
AcDbLine
 10
-0.4850886879530904
 20
-0.4926661654527142
 30
0.0
 11
-0.4850886879530904
 21
-0.9531249999999998
 31
0.0
  0
LINE
  5
11D
330
CD
100
AcDbEntity
  8
AM_4
100
AcDbLine
 10
-0.3817906989784813
 20
-0.5001864999999999
 30
0.0
 11
-0.3762459194648505
 21
-0.4891371847570959
 31
0.0
  0
LINE
  5
11E
330
CD
100
AcDbEntity
  8
AM_4
100
AcDbLine
 10
0.8952172593321966
 20
-0.5209885015746387
 30
0.0
 11
0.8952172593321966
 21
-0.9295009999999998
 31
0.0
  0
LINE
  5
11F
330
CD
100
AcDbEntity
  8
AM_4
100
AcDbLine
 10
-0.3817906989784813
 20
-0.5001864999999999
 30
0.0
 11
0.6462348053454987
 21
-0.5001864999999999
 31
0.0
  0
LINE
  5
120
330
CD
100
AcDbEntity
  8
AM_4
100
AcDbLine
 10
-0.3817906989784813
 20
-0.9295009999999998
 30
0.0
 11
-0.3817906989784813
 21
-0.5001864999999999
 31
0.0
  0
LINE
  5
121
330
CD
100
AcDbEntity
  8
AM_4
100
AcDbLine
 10
0.8952172593321966
 20
-0.9295009999999998
 30
0.0
 11
0.8715059723158816
 21
-0.9531249999999998
 31
0.0
  0
LINE
  5
122
330
CD
100
AcDbEntity
  8
AM_4
100
AcDbLine
 10
-0.3817906989784813
 20
-0.9295009999999998
 30
0.0
 11
0.8952172593321966
 21
-0.9295009999999998
 31
0.0
  0
LINE
  5
123
330
CD
100
AcDbEntity
  8
AM_4
100
AcDbLine
 10
-0.3699350554703238
 20
-0.9531249999999998
 30
0.0
 11
-0.3817906989784813
 21
-0.9295009999999998
 31
0.0
  0
LINE
  5
124
330
CD
100
AcDbEntity
  8
AM_4
100
AcDbLine
 10
-0.8748135
 20
-0.9531249999999998
 30
0.0
 11
0.8715059723158816
 21
-0.9531249999999998
 31
0.0
  0
ENDBLK
  5
D0
330
CD
100
AcDbEntity
  8
0
100
AcDbBlockEnd
  0
BLOCK
  5
127
330
125
100
AcDbEntity
  8
0
100
AcDbBlockBegin
  2
4_129458I_0_in_129148_4
 70
     2
 10
0.0
 20
0.0
 30
0.0
  3
4_129458I_0_in_129148_4
  1

  0
ATTDEF
  5
129
330
125
100
AcDbEntity
  8
AM_6
100
AcDbText
 10
6.5
 20
0.8249999999999998
 30
0.0
 40
0.5
  1
TB-GT-I
100
AcDbAttributeDefinition
  3

  2
NN
 70
     8
280
     0
  0
ATTDEF
  5
12A
330
125
100
AcDbEntity
  8
AM_6
100
AcDbText
 10
6.5
 20
0.3249999999999998
 30
0.0
 40
0.5
  1
GT Normal Duty Tapped Base Pillow Blocks
100
AcDbAttributeDefinition
  3

  2
NT
 70
     8
280
     0
  0
ATTDEF
  5
12B
330
125
100
AcDbEntity
  8
AM_6
100
AcDbText
 10
6.5
 20
-0.1750000000000002
 30
0.0
 40
0.5
  1
129458I
100
AcDbAttributeDefinition
  3

  2
NB
 70
     8
280
     0
  0
ATTDEF
  5
12C
330
125
100
AcDbEntity
  8
AM_6
100
AcDbText
 10
6.5
 20
-0.6750000000000002
 30
0.0
 40
0.5
  1
$PN.$LUBE.I
100
AcDbAttributeDefinition
  3

  2
NBSYN
 70
     8
280
     0
  0
ATTDEF
  5
12D
330
125
100
AcDbEntity
  8
AM_6
100
AcDbText
 10
6.5
 20
-1.175
 30
0.0
 40
0.5
  1
129458
100
AcDbAttributeDefinition
  3

  2
LINA
 70
     8
280
     0
  0
ATTDEF
  5
12E
330
125
100
AcDbEntity
  8
AM_6
100
AcDbText
 10
6.5
 20
-1.675
 30
0.0
 40
0.5
  1
205
100
AcDbAttributeDefinition
  3

  2
SERIES
 70
     8
280
     0
  0
ATTDEF
  5
12F
330
125
100
AcDbEntity
  8
AM_6
100
AcDbText
 10
6.5
 20
-2.175
 30
0.0
 40
0.5
  1
129458
100
AcDbAttributeDefinition
  3

  2
PN
 70
     8
280
     0
  0
ATTDEF
  5
130
330
125
100
AcDbEntity
  8
AM_6
100
AcDbText
 10
6.5
 20
-2.675
 30
0.0
 40
0.5
  1
TB-GT-05
100
AcDbAttributeDefinition
  3

  2
DESCRIPTION
 70
     8
280
     0
  0
ATTDEF
  5
131
330
125
100
AcDbEntity
  8
AM_6
100
AcDbText
 10
6.5
 20
-3.175
 30
0.0
 40
0.5
  1
1-29/64
100
AcDbAttributeDefinition
  3

  2
A
 70
     8
280
     0
  0
ATTDEF
  5
132
330
125
100
AcDbEntity
  8
AM_6
100
AcDbText
 10
6.5
 20
-3.675
 30
0.0
 40
0.5
  1
3
100
AcDbAttributeDefinition
  3

  2
B
 70
     8
280
     0
  0
ATTDEF
  5
133
330
125
100
AcDbEntity
  8
AM_6
100
AcDbText
 10
6.5
 20
-4.175000000000001
 30
0.0
 40
0.5
  1
1-1/2
100
AcDbAttributeDefinition
  3

  2
C
 70
     8
280
     0
  0
ATTDEF
  5
134
330
125
100
AcDbEntity
  8
AM_6
100
AcDbText
 10
6.5
 20
-4.675000000000001
 30
0.0
 40
0.5
  1
2
100
AcDbAttributeDefinition
  3

  2
D
 70
     8
280
     0
  0
ATTDEF
  5
135
330
125
100
AcDbEntity
  8
AM_6
100
AcDbText
 10
6.5
 20
-5.175000000000001
 30
0.0
 40
0.5
  1
2-13/16
100
AcDbAttributeDefinition
  3

  2
J
 70
     8
280
     0
  0
ATTDEF
  5
136
330
125
100
AcDbEntity
  8
AM_6
100
AcDbText
 10
6.5
 20
-5.675000000000001
 30
0.0
 40
0.5
  1
1-51/64
100
AcDbAttributeDefinition
  3

  2
L
 70
     8
280
     0
  0
ATTDEF
  5
137
330
125
100
AcDbEntity
  8
AM_6
100
AcDbText
 10
6.5
 20
-6.175000000000001
 30
0.0
 40
0.5
  1
1-7/16
100
AcDbAttributeDefinition
  3

  2
M
 70
     8
280
     0
  0
ATTDEF
  5
138
330
125
100
AcDbEntity
  8
AM_6
100
AcDbText
 10
6.5
 20
-6.675000000000001
 30
0.0
 40
0.5
  1
1/2
100
AcDbAttributeDefinition
  3

  2
N
 70
     8
280
     0
  0
ATTDEF
  5
139
330
125
100
AcDbEntity
  8
AM_6
100
AcDbText
 10
6.5
 20
-7.175000000000001
 30
0.0
 40
0.5
  1
3/8-16
100
AcDbAttributeDefinition
  3

  2
R
 70
     8
280
     0
  0
ATTDEF
  5
13A
330
125
100
AcDbEntity
  8
AM_6
100
AcDbText
 10
6.5
 20
-7.675000000000001
 30
0.0
 40
0.5
  1
61/64
100
AcDbAttributeDefinition
  3

  2
S
 70
     8
280
     0
  0
ATTDEF
  5
13B
330
125
100
AcDbEntity
  8
AM_6
100
AcDbText
 10
6.5
 20
-8.175
 30
0.0
 40
0.5
  1
61/64
100
AcDbAttributeDefinition
  3

  2
Z
 70
     8
280
     0
  0
ATTDEF
  5
13C
330
125
100
AcDbEntity
  8
AM_6
100
AcDbText
 10
6.5
 20
-8.675
 30
0.0
 40
0.5
  1
baldor
100
AcDbAttributeDefinition
  3

  2
COMPANY
 70
     8
280
     0
  0
LINE
  5
13D
330
125
100
AcDbEntity
  8
AM_9
100
AcDbLine
 10
-0.7499999999999999
 20
-0.7500000000000001
 30
0.0
 11
-0.7499999999999999
 21
0.617445120947114
 31
0.0
  0
LINE
  5
13E
330
125
100
AcDbEntity
  8
AM_9
100
AcDbLine
 10
0.7499999999999999
 20
-0.7500000000000001
 30
0.0
 11
0.7499999999999999
 21
0.617445120947114
 31
0.0
  0
LINE
  5
13F
330
125
100
AcDbEntity
  8
AM_9
100
AcDbLine
 10
-0.7
 20
-0.6527536594028247
 30
0.0
 11
-0.7
 21
0.6527536594028241
 31
0.0
  0
LINE
  5
140
330
125
100
AcDbEntity
  8
AM_9
100
AcDbLine
 10
0.7
 20
-0.6527536594028247
 30
0.0
 11
0.7000000000000001
 21
0.6527536594028244
 31
0.0
  0
LINE
  5
141
330
125
100
AcDbEntity
  8
AM_9
100
AcDbLine
 10
0.8952172593321968
 20
-0.7500000000000001
 30
0.0
 11
0.7499999999999999
 21
-0.7500000000000001
 31
0.0
  0
LINE
  5
142
330
125
100
AcDbEntity
  8
AM_9
100
AcDbLine
 10
-0.8977854831105561
 20
-0.7499999999999999
 30
0.0
 11
-0.7499999999999999
 21
-0.7500000000000001
 31
0.0
  0
LINE
  5
143
330
125
100
AcDbEntity
  8
AM_9
100
AcDbLine
 10
0.8952172593321968
 20
-0.6909448999999999
 30
0.0
 11
0.7499999999999999
 21
-0.6909448999999999
 31
0.0
  0
LINE
  5
144
330
125
100
AcDbEntity
  8
AM_9
100
AcDbLine
 10
-0.7499999999999999
 20
-0.6909448999999999
 30
0.0
 11
-0.8984374999999998
 21
-0.6909448999999999
 31
0.0
  0
LINE
  5
145
330
125
100
AcDbEntity
  8
AM_9
100
AcDbLine
 10
0.8952172593321968
 20
-0.6763563656916131
 30
0.0
 11
0.7499999999999999
 21
-0.6763563656916131
 31
0.0
  0
LINE
  5
146
330
125
100
AcDbEntity
  8
AM_9
100
AcDbLine
 10
-0.7499999999999999
 20
-0.6763563656916131
 30
0.0
 11
-0.8984374999999998
 21
-0.6763563656916131
 31
0.0
  0
ARC
  5
147
330
125
100
AcDbEntity
  8
AM_9
100
AcDbCircle
 10
1.0
 20
0.0
 30
0.0
 40
0.15365
100
AcDbArc
 50
61.17633945277116
 51
299.6757151322323
  0
ARC
  5
148
330
125
100
AcDbEntity
  8
AM_9
100
AcDbCircle
 10
0.9999999999999998
 20
0.0
 30
0.0
 40
0.1536500000000001
100
AcDbArc
 50
313.6954521814725
 51
47.36893941535745
  0
CIRCLE
  5
149
330
125
100
AcDbEntity
  8
AM_9
100
AcDbCircle
 10
-1.0
 20
-0.0000000000000001
 30
0.0
 40
0.15365
  0
LWPOLYLINE
  5
14A
330
125
100
AcDbEntity
  8
AM_9
100
AcDbPolyline
 90
        9
 70
     0
 43
0.0
 10
1.137303754939919
 20
-0.0909214090671168
 10
1.13297976276956
 20
-0.0672781935618201
 10
1.129743460389012
 20
-0.0432967219144129
 10
1.127806545528305
 20
-0.0184870563376659
 10
1.127411993357044
 20
0.0064626251340285
 10
1.128347027319857
 20
0.0276849305747583
 10
1.130368926241933
 20
0.0487586048861115
 10
1.133419183836281
 20
0.0699750824662276
 10
1.137303754939919
 20
0.0909214090671169
  0
LINE
  5
14B
330
125
100
AcDbEntity
  8
AM_9
100
AcDbLine
 10
1.214847800409223
 20
-0.0909214090671168
 30
0.0
 11
1.137303754939919
 21
-0.0909214090671168
 31
0.0
  0
LINE
  5
14C
330
125
100
AcDbEntity
  8
AM_9
100
AcDbLine
 10
1.214847800409223
 20
0.0909214090671169
 30
0.0
 11
1.137303754939919
 21
0.0909214090671169
 31
0.0
  0
LINE
  5
14D
330
125
100
AcDbEntity
  8
AM_9
100
AcDbLine
 10
1.0236
 20
-0.555695244425232
 30
0.0
 11
1.0236
 21
0.5556952444252319
 31
0.0
  0
LINE
  5
14E
330
125
100
AcDbEntity
  8
AM_9
100
AcDbLine
 10
-1.0236
 20
0.5556952444252319
 30
0.0
 11
-1.0236
 21
-0.555695244425232
 31
0.0
  0
LWPOLYLINE
  5
14F
330
125
100
AcDbEntity
  8
AM_9
100
AcDbPolyline
 90
        5
 70
     0
 43
0.0
 10
-0.7357142599999993
 20
-0.6054604172568615
 10
-0.7949412194872731
 20
-0.6007872180993656
 10
-0.8481181962956165
 20
-0.5957708417949316
 10
-0.8948404815223818
 20
-0.5904494659962068
 10
-0.8984374999999998
 20
-0.5899926896821036
  0
LINE
  5
150
330
125
100
AcDbEntity
  8
AM_9
100
AcDbLine
 10
-0.670262896825396
 20
-0.609792779638836
 30
0.0
 11
-0.7357142599999993
 21
-0.6054604172568615
 31
0.0
  0
LWPOLYLINE
  5
151
330
125
100
AcDbEntity
  8
AM_9
100
AcDbPolyline
 90
        5
 70
     0
 43
0.0
 10
-0.3817906989784793
 20
-0.6221070471860374
 10
-0.463112557464867
 20
-0.619527497941227
 10
-0.5409098497539393
 20
-0.6164621467041911
 10
-0.6145904914760871
 20
-0.6129343226487538
 10
-0.670262896825396
 20
-0.609792779638836
  0
LINE
  5
152
330
125
100
AcDbEntity
  8
AM_9
100
AcDbLine
 10
-0.04999999999999
 20
-0.6271868848970333
 30
0.0
 11
-0.3817906989784793
 21
-0.6221070471860374
 31
0.0
  0
LINE
  5
153
330
125
100
AcDbEntity
  8
AM_9
100
AcDbLine
 10
0.2559051888041322
 20
-0.6249993649987305
 30
0.0
 11
-0.04999999999999
 21
-0.6271868848970333
 31
0.0
  0
LWPOLYLINE
  5
154
330
125
100
AcDbEntity
  8
AM_9
100
AcDbPolyline
 90
        7
 70
     0
 43
0.0
 10
0.6702628968253965
 20
-0.609792779638836
 10
0.6002859774723294
 20
-0.6136718549817174
 10
0.5257405193681144
 20
-0.6171096933110294
 10
0.447193858460703
 20
-0.6200801306012623
 10
0.3652437822673714
 20
-0.6225605600310384
 10
0.2805139803507596
 20
-0.624532104034673
 10
0.2559051888041322
 20
-0.6249993649987305
  0
LWPOLYLINE
  5
155
330
125
100
AcDbEntity
  8
AM_9
100
AcDbPolyline
 90
        6
 70
     0
 43
0.0
 10
0.8952172593321964
 20
-0.5904019872758253
 10
0.8485527171260072
 20
-0.5957258400265308
 10
0.7954301763723498
 20
-0.6007450357735762
 10
0.7362539316826267
 20
-0.6054213754066528
 10
0.6714743500105199
 20
-0.609719269157502
 10
0.6702628968253965
 20
-0.609792779638836
  0
LINE
  5
156
330
125
100
AcDbEntity
  8
AM_9
100
AcDbLine
 10
1.016002146631089
 20
0.0787402
 30
0.0
 11
0.996308063205668
 21
0.0787402
 31
0.0
  0
LINE
  5
157
330
125
100
AcDbEntity
  8
AM_9
100
AcDbLine
 10
0.996315597083876
 20
-0.0787401999999998
 30
0.0
 11
1.016002146631089
 21
-0.0787401999999998
 31
0.0
  0
LWPOLYLINE
  5
158
330
125
100
AcDbEntity
  8
AM_9
100
AcDbPolyline
 90
       20
 70
     0
 43
0.0
 10
0.9963221254224793
 20
0.0787401997193027
 10
0.9895482106098986
 20
0.0782226115422235
 10
0.9797227784827351
 20
0.0755945201573393
 10
0.9702950531822586
 20
0.0708404358859653
 10
0.9615256775350718
 20
0.0640438636765321
 10
0.9536982344201357
 20
0.0554335675450318
 10
0.9470662571244556
 20
0.0452200631437066
 10
0.9418283466407796
 20
0.033716531753845
 10
0.9381873032750846
 20
0.0212806245754903
 10
0.936218008522345
 20
0.0082377318478171
 10
0.9360083994368434
 20
-0.0049719536312374
 10
0.9375244070971368
 20
-0.0180410312524819
 10
0.9407326812052061
 20
-0.0305691350789243
 10
0.9455057275340107
 20
-0.0422400918582587
 10
0.9517352201743824
 20
-0.0527483127092276
 10
0.9591919465852632
 20
-0.061778249748615
 10
0.9677096110164408
 20
-0.0690921626214572
 10
0.9769801412596788
 20
-0.0744574504302422
 10
0.9867598247017021
 20
-0.07769941431009
 10
0.9963197078629665
 20
-0.078740199925718
  0
LWPOLYLINE
  5
159
330
125
100
AcDbEntity
  8
AM_9
100
AcDbPolyline
 90
       11
 70
     0
 43
0.0
 10
0.9963197078629665
 20
-0.078740199925718
 10
0.9967357184289546
 20
-0.0787382153334847
 10
1.006604128210245
 20
-0.0775136504493476
 10
1.016107524653453
 20
-0.0740923084363647
 10
1.024951080263327
 20
-0.0685578991890754
 10
1.032937234690486
 20
-0.0610880499199971
 10
1.039833966086638
 20
-0.0518828573026003
 10
1.045493826686498
 20
-0.0412165503561895
 10
1.049757934545885
 20
-0.0293716630232323
 10
1.05254046431255
 20
-0.0166995650058441
 10
1.053815960166764
 20
0.0000000000000001
  0
LINE
  5
15A
330
125
100
AcDbEntity
  8
AM_9
100
AcDbLine
 10
-0.258644234156
 20
-0.1988189999999998
 30
0.0
 11
-0.258644234156
 21
-0.4792897273701729
 31
0.0
  0
LINE
  5
15B
330
125
100
AcDbEntity
  8
AM_9
100
AcDbLine
 10
-0.166817806617
 20
-0.1988189999999998
 30
0.0
 11
-0.166817806617
 21
-0.4792897390172333
 31
0.0
  0
LINE
  5
15C
330
125
100
AcDbEntity
  8
AM_9
100
AcDbLine
 10
0.0352001
 20
-0.1988189999999998
 30
0.0
 11
0.0352001
 21
-0.4792897302352313
 31
0.0
  0
LINE
  5
15D
330
125
100
AcDbEntity
  8
AM_9
100
AcDbLine
 10
0.127026
 20
-0.1988189999999998
 30
0.0
 11
0.1270259999999998
 21
-0.479289718401038
 31
0.0
  0
LINE
  5
15E
330
125
100
AcDbEntity
  8
AM_9
100
AcDbLine
 10
-0.111722107574
 20
-0.1988189999999998
 30
0.0
 11
-0.1117221075739999
 21
-0.4792897273701729
 31
0.0
  0
LINE
  5
15F
330
125
100
AcDbEntity
  8
AM_9
100
AcDbLine
 10
-0.127026446547
 20
-0.4724987849986236
 30
0.0
 11
-0.127026446547
 21
-0.4796292821917275
 31
0.0
  0
LINE
  5
160
330
125
100
AcDbEntity
  8
AM_9
100
AcDbLine
 10
-0.1515134676439998
 20
-0.4724987849986236
 30
0.0
 11
-0.1515134676439998
 21
-0.4796292821917276
 31
0.0
  0
LINE
  5
161
330
125
100
AcDbEntity
  8
AM_9
100
AcDbLine
 10
0.347409
 20
-0.4724987849986236
 30
0.0
 11
0.347409
 21
-0.4796292821917275
 31
0.0
  0
LINE
  5
162
330
125
100
AcDbEntity
  8
AM_9
100
AcDbLine
 10
0.0198956999999999
 20
-0.4724987849986236
 30
0.0
 11
0.0198956999999999
 21
-0.4796292821917275
 31
0.0
  0
LINE
  5
163
330
125
100
AcDbEntity
  8
AM_9
100
AcDbLine
 10
0.169879
 20
-0.4724987849986236
 30
0.0
 11
0.169879
 21
-0.4796292821917275
 31
0.0
  0
LINE
  5
164
330
125
100
AcDbEntity
  8
AM_9
100
AcDbLine
 10
0.142331
 20
-0.4724987849986236
 30
0.0
 11
0.142331
 21
-0.4796292821917275
 31
0.0
  0
LINE
  5
165
330
125
100
AcDbEntity
  8
AM_9
100
AcDbLine
 10
-0.273948573129
 20
-0.4724987849986236
 30
0.0
 11
-0.273948573129
 21
-0.4796292821917275
 31
0.0
  0
LINE
  5
166
330
125
100
AcDbEntity
  8
AM_9
100
AcDbLine
 10
-0.163757175043
 20
-0.4727025097725398
 30
0.0
 11
-0.163757175043
 21
-0.4794255582988891
 31
0.0
  0
LINE
  5
167
330
125
100
AcDbEntity
  8
AM_9
100
AcDbLine
 10
0.0321391999999999
 20
-0.4727025097725399
 30
0.0
 11
0.0321391999999999
 21
-0.4794255582988891
 31
0.0
  0
LINE
  5
168
330
125
100
AcDbEntity
  8
AM_9
100
AcDbLine
 10
0.1300870000000001
 20
-0.4727025097725398
 30
0.0
 11
0.1300870000000001
 21
-0.4794255582988892
 31
0.0
  0
LINE
  5
169
330
125
100
AcDbEntity
  8
AM_9
100
AcDbLine
 10
-0.2617052594309998
 20
-0.47270250977254
 30
0.0
 11
-0.2617052594309998
 21
-0.4794255582988891
 31
0.0
  0
LINE
  5
16A
330
125
100
AcDbEntity
  8
AM_9
100
AcDbLine
 10
0.1821220000000001
 20
-0.4727025097725399
 30
0.0
 11
0.1821220000000001
 21
-0.4794255582988891
 31
0.0
  0
LINE
  5
16B
330
125
100
AcDbEntity
  8
AM_9
100
AcDbLine
 10
-0.1147831328489999
 20
-0.4727025097725398
 30
0.0
 11
-0.1147831328489999
 21
-0.4794255582988891
 31
0.0
  0
LINE
  5
16C
330
125
100
AcDbEntity
  8
AM_9
100
AcDbLine
 10
0.197427
 20
-0.1988189999999998
 30
0.0
 11
0.1974269999999999
 21
-0.4755547111502803
 31
0.0
  0
LINE
  5
16D
330
125
100
AcDbEntity
  8
AM_9
100
AcDbLine
 10
0.0413217
 20
-0.4731099802984159
 30
0.0
 11
0.0413217
 21
-0.4790180829829566
 31
0.0
  0
LINE
  5
16E
330
125
100
AcDbEntity
  8
AM_9
100
AcDbLine
 10
-0.1056004507250002
 20
-0.4731099802984159
 30
0.0
 11
-0.1056004507250002
 21
-0.4790180829829566
 31
0.0
  0
LINE
  5
16F
330
125
100
AcDbEntity
  8
AM_9
100
AcDbLine
 10
-0.1729394634660002
 20
-0.4731099802984159
 30
0.0
 11
-0.1729394634660002
 21
-0.4790180829829566
 31
0.0
  0
LINE
  5
170
330
125
100
AcDbEntity
  8
AM_9
100
AcDbLine
 10
0.1913049999999999
 20
-0.4731099802984158
 30
0.0
 11
0.1913049999999999
 21
-0.4790180829829566
 31
0.0
  0
LINE
  5
171
330
125
100
AcDbEntity
  8
AM_9
100
AcDbLine
 10
-0.252522577307
 20
-0.4731099802984159
 30
0.0
 11
-0.252522577307
 21
-0.4790180829829566
 31
0.0
  0
LINE
  5
172
330
125
100
AcDbEntity
  8
AM_9
100
AcDbLine
 10
0.1209050000000001
 20
-0.4731099802984157
 30
0.0
 11
0.1209050000000001
 21
-0.4790180829829567
 31
0.0
  0
LINE
  5
173
330
125
100
AcDbEntity
  8
AM_9
100
AcDbLine
 10
0.20967
 20
-0.1988189999999998
 30
0.0
 11
0.2096699999999999
 21
-0.4755547111502803
 31
0.0
  0
LWPOLYLINE
  5
174
330
125
100
AcDbEntity
  8
AM_9
100
AcDbPolyline
 90
        9
 70
     0
 43
0.0
 10
1.137303754939919
 20
0.0909214090671169
 10
1.118502421119101
 20
0.1027422972436638
 10
1.100581515981473
 20
0.1147322946503927
 10
1.083452732914661
 20
0.127136319708421
 10
1.067780347328983
 20
0.1396103603997986
 10
1.055718280999857
 20
0.1502222661810514
 10
1.044834268764615
 20
0.1607598570626932
 10
1.034891295482053
 20
0.1713688846790299
 10
1.025948225485271
 20
0.1818428181342338
  0
LWPOLYLINE
  5
175
330
125
100
AcDbEntity
  8
AM_9
100
AcDbPolyline
 90
        9
 70
     0
 43
0.0
 10
1.025948225485271
 20
-0.1818428181342336
 10
1.036102036003492
 20
-0.1700219299576867
 10
1.047550506529643
 20
-0.1580319325509578
 10
1.060805255611697
 20
-0.1456279074929294
 10
1.075687904750608
 20
-0.1331538668015518
 10
1.089619592784043
 20
-0.1225419610202989
 10
1.104547301327028
 20
-0.1120043701386573
 10
1.120591032371586
 20
-0.1013953425223206
 10
1.137303754939919
 20
-0.0909214090671168
  0
LINE
  5
176
330
125
100
AcDbEntity
  8
AM_9
100
AcDbLine
 10
-0.099478400175
 20
-0.4737211546201646
 30
0.0
 11
-0.099478400175
 21
-0.4784069085514158
 31
0.0
  0
LINE
  5
177
330
125
100
AcDbEntity
  8
AM_9
100
AcDbLine
 10
0.114783
 20
-0.4737211546201646
 30
0.0
 11
0.114783
 21
-0.4784069085514158
 31
0.0
  0
LINE
  5
178
330
125
100
AcDbEntity
  8
AM_9
100
AcDbLine
 10
-0.179061514016
 20
-0.4737211546201645
 30
0.0
 11
-0.179061514016
 21
-0.4784069085514158
 31
0.0
  0
LINE
  5
179
330
125
100
AcDbEntity
  8
AM_9
100
AcDbLine
 10
0.0474437000000001
 20
-0.4737211546201646
 30
0.0
 11
0.0474437000000001
 21
-0.4784069085514158
 31
0.0
  0
LINE
  5
17A
330
125
100
AcDbEntity
  8
AM_9
100
AcDbLine
 10
-0.2464009204580002
 20
-0.4737211546201645
 30
0.0
 11
-0.2464009204580002
 21
-0.4784069085514158
 31
0.0
  0
ELLIPSE
  5
17B
330
125
100
AcDbEntity
  8
AM_9
100
AcDbEllipse
 10
1.016002146631089
 20
0.0000000000000001
 30
0.0
 11
-2.892860668945897E-17
 21
-0.1574800000000011
 31
0.0
210
0.0
220
0.0
230
1.0
 40
0.7071067811865479
 41
0.0
 42
6.283185307179586
  0
LINE
  5
17C
330
125
100
AcDbEntity
  8
AM_9
100
AcDbLine
 10
0.194366
 20
-0.4737211546201646
 30
0.0
 11
0.194366
 21
-0.4755547111502803
 31
0.0
  0
LINE
  5
17D
330
125
100
AcDbEntity
  8
AM_9
100
AcDbLine
 10
0.212731
 20
-0.1988189999999998
 30
0.0
 11
0.212731
 21
-0.4755547111502803
 31
0.0
  0
LINE
  5
17E
330
125
100
AcDbEntity
  8
AM_9
100
AcDbLine
 10
0.166818
 20
-0.1988189999999998
 30
0.0
 11
0.166818
 21
-0.4755547111502803
 31
0.0
  0
LINE
  5
17F
330
125
100
AcDbEntity
  8
AM_9
100
AcDbLine
 10
0.335166
 20
-0.1988189999999998
 30
0.0
 11
0.335166
 21
-0.4751472560083029
 31
0.0
  0
LINE
  5
180
330
125
100
AcDbEntity
  8
AM_9
100
AcDbLine
 10
-0.224974530935
 20
-0.1988189999999998
 30
0.0
 11
-0.2249745309349999
 21
-0.4745360677011917
 31
0.0
  0
LINE
  5
181
330
125
100
AcDbEntity
  8
AM_9
100
AcDbLine
 10
0.0933567
 20
-0.1988189999999998
 30
0.0
 11
0.0933567
 21
-0.4745360677011917
 31
0.0
  0
LINE
  5
182
330
125
100
AcDbEntity
  8
AM_9
100
AcDbLine
 10
-0.200487509838
 20
-0.1988189999999998
 30
0.0
 11
-0.200487509838
 21
-0.4745360677011917
 31
0.0
  0
LINE
  5
183
330
125
100
AcDbEntity
  8
AM_9
100
AcDbLine
 10
0.0688697
 20
-0.1988189999999998
 30
0.0
 11
0.0688697
 21
-0.4745360677011918
 31
0.0
  0
LINE
  5
184
330
125
100
AcDbEntity
  8
AM_9
100
AcDbLine
 10
-0.078052404353
 20
-0.1988189999999998
 30
0.0
 11
-0.0780524043530001
 21
-0.4745360677011919
 31
0.0
  0
LINE
  5
185
330
125
100
AcDbEntity
  8
AM_9
100
AcDbLine
 10
-0.18212214559
 20
-0.1988189999999998
 30
0.0
 11
-0.18212214559
 21
-0.472091322348677
 31
0.0
  0
LINE
  5
186
330
125
100
AcDbEntity
  8
AM_9
100
AcDbLine
 10
-0.096417768601
 20
-0.1988189999999998
 30
0.0
 11
-0.096417768601
 21
-0.4720913223486768
 31
0.0
  0
LINE
  5
187
330
125
100
AcDbEntity
  8
AM_9
100
AcDbLine
 10
0.111722
 20
-0.1988189999999998
 30
0.0
 11
0.1117220000000001
 21
-0.4720913354507911
 31
0.0
  0
LINE
  5
188
330
125
100
AcDbEntity
  8
AM_9
100
AcDbLine
 10
0.0505043
 20
-0.1988189999999998
 30
0.0
 11
0.0505043
 21
-0.472091320475066
 31
0.0
  0
LINE
  5
189
330
125
100
AcDbEntity
  8
AM_9
100
AcDbLine
 10
-0.243339895183
 20
-0.1988189999999998
 30
0.0
 11
-0.2433398951829999
 21
-0.4720913420016377
 31
0.0
  0
LINE
  5
18A
330
125
100
AcDbEntity
  8
AM_9
100
AcDbLine
 10
-0.197426878264
 20
-0.1988189999999998
 30
0.0
 11
-0.1974268782639999
 21
-0.4735174298462483
 31
0.0
  0
LINE
  5
18B
330
125
100
AcDbEntity
  8
AM_9
100
AcDbLine
 10
-0.081113429628
 20
-0.1988189999999998
 30
0.0
 11
-0.081113429628
 21
-0.4735174298462482
 31
0.0
  0
LINE
  5
18C
330
125
100
AcDbEntity
  8
AM_9
100
AcDbLine
 10
0.0964177
 20
-0.1988189999999998
 30
0.0
 11
0.0964177000000001
 21
-0.4735174298462483
 31
0.0
  0
LINE
  5
18D
330
125
100
AcDbEntity
  8
AM_9
100
AcDbLine
 10
-0.22803555621
 20
-0.1988189999999998
 30
0.0
 11
-0.22803555621
 21
-0.4735174298462483
 31
0.0
  0
LINE
  5
18E
330
125
100
AcDbEntity
  8
AM_9
100
AcDbLine
 10
0.0658091
 20
-0.1988189999999998
 30
0.0
 11
0.0658091000000001
 21
-0.4735174298462483
 31
0.0
  0
LINE
  5
18F
330
125
100
AcDbEntity
  8
AM_9
100
AcDbLine
 10
0.194366
 20
-0.1988189999999998
 30
0.0
 11
0.194366
 21
-0.4717857412972357
 31
0.0
  0
LINE
  5
190
330
125
100
AcDbEntity
  8
AM_9
100
AcDbLine
 10
-0.191304827714
 20
-0.1988189999999998
 30
0.0
 11
-0.1913048277139999
 21
-0.4727025097725399
 31
0.0
  0
LINE
  5
191
330
125
100
AcDbEntity
  8
AM_9
100
AcDbLine
 10
-0.172939463466
 20
-0.1988189999999998
 30
0.0
 11
-0.1729394634659999
 21
-0.4716838653663001
 31
0.0
  0
LINE
  5
192
330
125
100
AcDbEntity
  8
AM_9
100
AcDbLine
 10
-0.252522577307
 20
-0.1988189999999998
 30
0.0
 11
-0.2525225773069998
 21
-0.4716838719175963
 31
0.0
  0
LINE
  5
193
330
125
100
AcDbEntity
  8
AM_9
100
AcDbLine
 10
0.0413217
 20
-0.1988189999999998
 30
0.0
 11
0.0413217
 21
-0.4716838652614246
 31
0.0
  0
LINE
  5
194
330
125
100
AcDbEntity
  8
AM_9
100
AcDbLine
 10
-0.234157213059
 20
-0.1988189999999998
 30
0.0
 11
-0.2341572130589999
 21
-0.4727025097725398
 31
0.0
  0
LINE
  5
195
330
125
100
AcDbEntity
  8
AM_9
100
AcDbLine
 10
0.102539
 20
-0.1988189999999998
 30
0.0
 11
0.1025390000000001
 21
-0.4727025097725398
 31
0.0
  0
LINE
  5
196
330
125
100
AcDbEntity
  8
AM_9
100
AcDbLine
 10
0.120905
 20
-0.1988189999999998
 30
0.0
 11
0.1209049999999999
 21
-0.4716838552763516
 31
0.0
  0
LINE
  5
197
330
125
100
AcDbEntity
  8
AM_9
100
AcDbLine
 10
-0.105600450725
 20
-0.1988189999999998
 30
0.0
 11
-0.1056004507249999
 21
-0.4716838653663001
 31
0.0
  0
LINE
  5
198
330
125
100
AcDbEntity
  8
AM_9
100
AcDbLine
 10
0.059687
 20
-0.1988189999999998
 30
0.0
 11
0.059687
 21
-0.4727025097725398
 31
0.0
  0
LINE
  5
199
330
125
100
AcDbEntity
  8
AM_9
100
AcDbLine
 10
-0.087235086477
 20
-0.1988189999999998
 30
0.0
 11
-0.0872350864770001
 21
-0.4727025097725398
 31
0.0
  0
LINE
  5
19A
330
125
100
AcDbEntity
  8
AM_9
100
AcDbLine
 10
0.191305
 20
-0.1988189999999998
 30
0.0
 11
0.191305
 21
-0.4716838719175964
 31
0.0
  0
LINE
  5
19B
330
125
100
AcDbEntity
  8
AM_9
100
AcDbLine
 10
0.0321392
 20
-0.1988189999999998
 30
0.0
 11
0.0321392
 21
-0.4714393893358495
 31
0.0
  0
LINE
  5
19C
330
125
100
AcDbEntity
  8
AM_9
100
AcDbLine
 10
0.130087
 20
-0.1988189999999998
 30
0.0
 11
0.1300869999999998
 21
-0.4714393896020707
 31
0.0
  0
LINE
  5
19D
330
125
100
AcDbEntity
  8
AM_9
100
AcDbLine
 10
-0.114783132849
 20
-0.1988189999999998
 30
0.0
 11
-0.1147831328490001
 21
-0.4714393875058314
 31
0.0
  0
LINE
  5
19E
330
125
100
AcDbEntity
  8
AM_9
100
AcDbLine
 10
-0.0352000977482
 20
-0.1988189999999998
 30
0.0
 11
-0.0352000977482
 21
-0.4712764153770827
 31
0.0
  0
LINE
  5
19F
330
125
100
AcDbEntity
  8
AM_9
100
AcDbLine
 10
0.255583
 20
-0.1988189999999998
 30
0.0
 11
0.255583
 21
-0.4712764153770827
 31
0.0
  0
LINE
  5
1A0
330
125
100
AcDbEntity
  8
AM_9
100
AcDbLine
 10
-0.3290446658729999
 20
-0.1988189999999998
 30
0.0
 11
-0.3290446658729999
 21
-0.4712764153770826
 31
0.0
  0
LINE
  5
1A1
330
125
100
AcDbEntity
  8
AM_9
100
AcDbLine
 10
-0.163757175043
 20
-0.1988189999999998
 30
0.0
 11
-0.1637571750430001
 21
-0.4714393927464298
 31
0.0
  0
LINE
  5
1A2
330
125
100
AcDbEntity
  8
AM_9
100
AcDbLine
 10
0.182122
 20
-0.1988189999999998
 30
0.0
 11
0.182122
 21
-0.4714393869397893
 31
0.0
  0
LINE
  5
1A3
330
125
100
AcDbEntity
  8
AM_9
100
AcDbLine
 10
-0.261705259431
 20
-0.1988189999999998
 30
0.0
 11
-0.261705259431
 21
-0.4714393875058314
 31
0.0
  0
LINE
  5
1A4
330
125
100
AcDbEntity
  8
AM_9
100
AcDbLine
 10
-0.246400920458
 20
-0.1988189999999998
 30
0.0
 11
-0.246400920458
 21
-0.471887610676875
 31
0.0
  0
LINE
  5
1A5
330
125
100
AcDbEntity
  8
AM_9
100
AcDbLine
 10
0.0474437
 20
-0.1988189999999998
 30
0.0
 11
0.0474436999999999
 21
-0.471887610676875
 31
0.0
  0
LINE
  5
1A6
330
125
100
AcDbEntity
  8
AM_9
100
AcDbLine
 10
-0.099478400175
 20
-0.1988189999999998
 30
0.0
 11
-0.0994784001750002
 21
-0.4718876106768748
 31
0.0
  0
LINE
  5
1A7
330
125
100
AcDbEntity
  8
AM_9
100
AcDbLine
 10
0.114783
 20
-0.1988189999999998
 30
0.0
 11
0.1147829999999999
 21
-0.471887610676875
 31
0.0
  0
LINE
  5
1A8
330
125
100
AcDbEntity
  8
AM_9
100
AcDbLine
 10
-0.179061514016
 20
-0.1988189999999998
 30
0.0
 11
-0.1790615140160002
 21
-0.471887610676875
 31
0.0
  0
LINE
  5
1A9
330
125
100
AcDbEntity
  8
AM_9
100
AcDbLine
 10
0.185183
 20
-0.1988189999999998
 30
0.0
 11
0.1851829999999999
 21
-0.4792897331935783
 31
0.0
  0
ELLIPSE
  5
1AA
330
125
100
AcDbEntity
  8
AM_9
100
AcDbEllipse
 10
1.113438349808758
 20
0.0
 30
0.0
 11
6.750008227540383E-18
 21
0.110236
 31
0.0
210
0.0
220
0.0
230
1.0
 40
0.7071067811865482
 41
3.141592653589793
 42
6.283185307179586
  0
ELLIPSE
  5
1AB
330
125
100
AcDbEntity
  8
AM_9
100
AcDbEllipse
 10
1.127357746796415
 20
-0.0000000000000006
 30
0.0
 11
6.750008227540448E-18
 21
0.1102360000000011
 31
0.0
210
0.0
220
0.0
230
1.0
 40
0.7071067811865476
 41
3.716457360428883
 42
5.707890814277212
  0
LINE
  5
1AC
330
125
100
AcDbEntity
  8
AM_9
100
AcDbLine
 10
-0.078052404353
 20
-0.1988189999999998
 30
0.0
 11
-0.200487509838
 21
-0.1988189999999998
 31
0.0
  0
LINE
  5
1AD
330
125
100
AcDbEntity
  8
AM_9
100
AcDbLine
 10
0.237218
 20
-0.1988189999999998
 30
0.0
 11
0.237218
 21
-0.4712764153770827
 31
0.0
  0
LINE
  5
1AE
330
125
100
AcDbEntity
  8
AM_9
100
AcDbLine
 10
0.347409
 20
-0.1988189999999998
 30
0.0
 11
0.237218
 21
-0.1988189999999998
 31
0.0
  0
LINE
  5
1AF
330
125
100
AcDbEntity
  8
AM_9
100
AcDbLine
 10
0.347409
 20
-0.1988189999999998
 30
0.0
 11
0.3474089999999999
 21
-0.4712764153770827
 31
0.0
  0
LINE
  5
1B0
330
125
100
AcDbEntity
  8
AM_9
100
AcDbLine
 10
-0.053565383256
 20
-0.1988189999999998
 30
0.0
 11
-0.053565383256
 21
-0.4712764153770827
 31
0.0
  0
LINE
  5
1B1
330
125
100
AcDbEntity
  8
AM_9
100
AcDbLine
 10
-0.127026446547
 20
-0.1988189999999998
 30
0.0
 11
-0.127026446547
 21
-0.4712764153770827
 31
0.0
  0
LINE
  5
1B2
330
125
100
AcDbEntity
  8
AM_9
100
AcDbLine
 10
-0.151513467644
 20
-0.1988189999999998
 30
0.0
 11
-0.151513467644
 21
-0.4712764153770826
 31
0.0
  0
LINE
  5
1B3
330
125
100
AcDbEntity
  8
AM_9
100
AcDbLine
 10
0.169879
 20
-0.1988189999999998
 30
0.0
 11
0.169879
 21
-0.4712764153770827
 31
0.0
  0
LINE
  5
1B4
330
125
100
AcDbEntity
  8
AM_9
100
AcDbLine
 10
0.212731
 20
-0.1988189999999998
 30
0.0
 11
0.0933567
 21
-0.1988189999999998
 31
0.0
  0
LINE
  5
1B5
330
125
100
AcDbEntity
  8
AM_9
100
AcDbLine
 10
0.0198957
 20
-0.1988189999999998
 30
0.0
 11
0.0198956999999999
 21
-0.4712764153770827
 31
0.0
  0
LINE
  5
1B6
330
125
100
AcDbEntity
  8
AM_9
100
AcDbLine
 10
-0.273948573129
 20
-0.1988189999999998
 30
0.0
 11
-0.2739485731290001
 21
-0.4712764153770826
 31
0.0
  0
LINE
  5
1B7
330
125
100
AcDbEntity
  8
AM_9
100
AcDbLine
 10
0.142331
 20
-0.1988189999999998
 30
0.0
 11
0.1423310000000002
 21
-0.4712764153770828
 31
0.0
  0
LINE
  5
1B8
330
125
100
AcDbEntity
  8
AM_9
100
AcDbLine
 10
-0.224974530935
 20
-0.1988189999999998
 30
0.0
 11
-0.3474096364199999
 21
-0.1988189999999998
 31
0.0
  0
LINE
  5
1B9
330
125
100
AcDbEntity
  8
AM_9
100
AcDbLine
 10
-0.3474096364199999
 20
-0.1988189999999998
 30
0.0
 11
-0.3474096364199999
 21
-0.4712764153770826
 31
0.0
  0
LINE
  5
1BA
330
125
100
AcDbEntity
  8
AM_9
100
AcDbLine
 10
0.0688697
 20
-0.1988189999999998
 30
0.0
 11
-0.053565383256
 21
-0.1988189999999998
 31
0.0
  0
LINE
  5
1BB
330
125
100
AcDbEntity
  8
AM_9
100
AcDbLine
 10
1.214847800409223
 20
-0.0909214090671168
 30
0.0
 11
1.206831775303665
 21
-0.1003529074770575
 31
0.0
  0
LWPOLYLINE
  5
1BC
330
125
100
AcDbEntity
  8
AM_9
100
AcDbPolyline
 90
        9
 70
     0
 43
0.0
 10
1.214847800409223
 20
0.0909214090671169
 10
1.219171792579582
 20
0.0672781935618203
 10
1.22240809496013
 20
0.043296721914413
 10
1.224345009820837
 20
0.0184870563376661
 10
1.224739561992098
 20
-0.0064626251340283
 10
1.223804528029285
 20
-0.0276849305747581
 10
1.22178262910721
 20
-0.0487586048861114
 10
1.218732371512862
 20
-0.0699750824662274
 10
1.214847800409223
 20
-0.0909214090671168
  0
LINE
  5
1BD
330
125
100
AcDbEntity
  8
AM_9
100
AcDbLine
 10
1.206906380634425
 20
0.100268577871726
 30
0.0
 11
1.214847800409223
 21
0.0909214090671169
 31
0.0
  0
ELLIPSE
  5
1BE
330
125
100
AcDbEntity
  8
AM_9
100
AcDbEllipse
 10
1.113438349808754
 20
-0.0000000000000008
 30
0.0
 11
9.642868896486426E-18
 21
0.1574800000000027
 31
0.0
210
0.0
220
0.0
230
1.0
 40
0.7071067811865588
 41
4.01694382100038
 42
5.405249897512435
  0
LWPOLYLINE
  5
1BF
330
125
100
AcDbEntity
  8
AM_9
100
AcDbPolyline
 90
        3
 70
     0
 43
0.0
 10
1.131732038473776
 20
-0.0441068844630909
 10
1.130394788878893
 20
-0.040400705460914
 10
1.128404669302271
 20
-0.0339034825602269
  0
LINE
  5
1C0
330
125
100
AcDbEntity
  8
AM_9
100
AcDbLine
 10
1.1331471421317
 20
-0.0476123217309582
 30
0.0
 11
1.131732038473776
 21
-0.0441068844630909
 31
0.0
  0
LWPOLYLINE
  5
1C1
330
125
100
AcDbEntity
  8
AM_9
100
AcDbPolyline
 90
       24
 70
     0
 43
0.0
 10
1.202284396093807
 20
0.0000000000000001
 10
1.202199755574151
 20
-0.004772824683898
 10
1.201503304589059
 20
-0.0144534624314601
 10
1.200124028250369
 20
-0.0238860511902461
 10
1.198107869187641
 20
-0.0328996536615305
 10
1.195523418305962
 20
-0.0413397336149569
 10
1.192461037448644
 20
-0.0490681686971515
 10
1.189030918808086
 20
-0.0559689196578716
 10
1.185359864678719
 20
-0.0619539702499197
 10
1.181586412328909
 20
-0.0669690719177281
 10
1.177862366847305
 20
-0.0709905485584304
 10
1.174328397471421
 20
-0.0740487921651739
 10
1.171103064218208
 20
-0.0762208714371986
 10
1.168259684834877
 20
-0.0776265294625036
 10
1.165784801833201
 20
-0.0784145010351247
 10
1.163473094459666
 20
-0.0787181435074377
 10
1.160510638522638
 20
-0.078426434792617
 10
1.157981556663323
 20
-0.0776260681719714
 10
1.155118022178983
 20
-0.0762084939040008
 10
1.151946035091101
 20
-0.0740732835547023
 10
1.148166403309574
 20
-0.070782638504391
 10
1.144304817501547
 20
-0.0665446032164539
 10
1.140476390627619
 20
-0.0613503650725409
 10
1.138528041803878
 20
-0.0582589609375362
  0
LWPOLYLINE
  5
1C2
330
125
100
AcDbEntity
  8
AM_9
100
AcDbPolyline
 90
       25
 70
     0
 43
0.0
 10
1.137634055183346
 20
0.0567230317428892
 10
1.13766918618087
 20
0.0567848911335566
 10
1.141361193310639
 20
0.0626484594838126
 10
1.145136520055019
 20
0.0675368170048309
 10
1.14884387102803
 20
0.0714328280928692
 10
1.152344412352095
 20
0.0743728584681048
 10
1.155523844782413
 20
0.0764397761309204
 10
1.158316974831984
 20
0.0777580826561097
 10
1.160753464581945
 20
0.0784782080097854
 10
1.163079791180698
 20
0.0787235976502927
 10
1.165841710685305
 20
0.0784014560339114
 10
1.168390220667648
 20
0.0775731452423896
 10
1.171269247253756
 20
0.0761235725582762
 10
1.174454664206132
 20
0.0739517436725289
 10
1.178239373464847
 20
0.0706217902789243
 10
1.182101846307839
 20
0.0663431972582268
 10
1.18592624799061
 20
0.0611084692916631
 10
1.189592147024287
 20
0.054937960806603
 10
1.192977267582709
 20
0.0478881249571315
 10
1.195965119083457
 20
0.040053198066945
 10
1.19845826020782
 20
0.0315416127913159
 10
1.200374632193171
 20
0.0224839146602988
 10
1.201650601602745
 20
0.0130282161533889
 10
1.202243074601893
 20
0.0033354838817924
 10
1.202284396093807
 20
0.0000000000000001
  0
LWPOLYLINE
  5
1C3
330
125
100
AcDbEntity
  8
AM_9
100
AcDbPolyline
 90
        4
 70
     0
 43
0.0
 10
1.131071440757819
 20
0.0423300042434409
 10
1.131085162670727
 20
0.0423679372239809
 10
1.134200973970856
 20
0.0499967128374548
 10
1.137634055183346
 20
0.0567230317428892
  0
LINE
  5
1C4
330
125
100
AcDbEntity
  8
AM_9
100
AcDbLine
 10
1.128478125393367
 20
0.0341704090738661
 30
0.0
 11
1.130335951220089
 21
0.0402272152857561
 31
0.0
  0
ELLIPSE
  5
1C5
330
125
100
AcDbEntity
  8
AM_9
100
AcDbEllipse
 10
1.19114399659943
 20
0.0
 30
0.0
 11
5.818081500558842E-18
 21
0.09501648156202452
 31
0.0
210
0.0
220
0.0
230
1.0
 40
0.7071067811865469
 41
2.08904721529108
 42
7.358427962459452
  0
ELLIPSE
  5
1C6
330
125
100
AcDbEntity
  8
AM_9
100
AcDbEllipse
 10
1.206777391635943
 20
-0.000000000000615
 30
0.0
 11
6.055286803253933E-18
 21
0.09889033813618522
 31
0.0
210
0.0
220
0.0
230
1.0
 40
0.7071067811918627
 41
3.622406308364518
 42
4.71238898038469
  0
ELLIPSE
  5
1C7
330
125
100
AcDbEntity
  8
AM_9
100
AcDbEllipse
 10
1.24455626289791
 20
0.0000000000000006
 30
0.0
 11
4.542222954855917E-18
 21
0.0741801302713303
 31
0.0
210
0.0
220
0.0
230
1.0
 40
0.7071067811865386
 41
3.623251468188702
 42
4.71238898038469
  0
LINE
  5
1C8
330
125
100
AcDbEntity
  8
AM_9
100
AcDbLine
 10
0.8952172593321968
 20
-0.617445120947114
 30
0.0
 11
0.7499999999999999
 21
-0.617445120947114
 31
0.0
  0
LINE
  5
1C9
330
125
100
AcDbEntity
  8
AM_9
100
AcDbLine
 10
-0.7499999999999999
 20
-0.617445120947114
 30
0.0
 11
-0.8984374999999998
 21
-0.617445120947114
 31
0.0
  0
LINE
  5
1CA
330
125
100
AcDbEntity
  8
AM_9
100
AcDbLine
 10
-0.7
 20
-0.6527536594028247
 30
0.0
 11
-0.7499999999999999
 21
-0.6562500000000001
 31
0.0
  0
LINE
  5
1CB
330
125
100
AcDbEntity
  8
AM_9
100
AcDbLine
 10
0.7
 20
-0.6527536594028247
 30
0.0
 11
-0.7
 21
-0.6527536594028247
 31
0.0
  0
LINE
  5
1CC
330
125
100
AcDbEntity
  8
AM_9
100
AcDbLine
 10
0.7499999999999999
 20
-0.6562500000000001
 30
0.0
 11
0.7
 21
-0.6527536594028247
 31
0.0
  0
LWPOLYLINE
  5
1CD
330
125
100
AcDbEntity
  8
AM_9
100
AcDbPolyline
 90
       11
 70
     0
 43
0.0
 10
1.053815960166764
 20
0.0000000000000001
 10
1.053015135911713
 20
0.0132170381350522
 10
1.050652985441269
 20
0.0260615348112102
 10
1.046765880793914
 20
0.0381611398417145
 10
1.041468693445731
 20
0.04918492698163
 10
1.034875566177389
 20
0.0588010275163376
 10
1.027169844487502
 20
0.0667597788963035
 10
1.018540827236292
 20
0.0728084621006117
 10
1.009226542093029
 20
0.0768085246503239
 10
0.9994696708530758
 20
0.078619356237719
 10
0.9963221254224793
 20
0.0787401997193027
  0
ELLIPSE
  5
1CE
330
125
100
AcDbEntity
  8
AM_9
100
AcDbEllipse
 10
1.016002146631089
 20
0.0
 30
0.0
 11
4.821446694711114E-18
 21
0.07874019999999989
 31
0.0
210
0.0
220
0.0
230
1.0
 40
0.7071067811865459
 41
0.0
 42
6.283185307179586
  0
LINE
  5
1CF
330
125
100
AcDbEntity
  8
AM_7
100
AcDbLine
 10
-1.196875
 20
-0.0000000000000001
 30
0.0
 11
-0.8031250000000001
 21
-0.0000000000000001
 31
0.0
  0
LINE
  5
1D0
330
125
100
AcDbEntity
  8
AM_7
100
AcDbLine
 10
-1.0
 20
-0.196875
 30
0.0
 11
-1.0
 21
0.1968749999999999
 31
0.0
  0
LINE
  5
1D1
330
125
100
AcDbEntity
  8
AM_7
100
AcDbLine
 10
0.8031250000000001
 20
-0.0000000000000001
 30
0.0
 11
1.196875
 21
-0.0000000000000001
 31
0.0
  0
LINE
  5
1D2
330
125
100
AcDbEntity
  8
AM_7
100
AcDbLine
 10
1.0
 20
-0.196875
 30
0.0
 11
1.0
 21
0.1968749999999999
 31
0.0
  0
LINE
  5
1D3
330
125
100
AcDbEntity
  8
AM_7
100
AcDbLine
 10
0.0
 20
0.8249999999999998
 30
0.0
 11
0.0
 21
-1.02578125
 31
0.0
  0
LINE
  5
1D4
330
125
100
AcDbEntity
  8
AM_4
100
AcDbLine
 10
1.499999999999998
 20
-0.7499999999999999
 30
0.0
 11
0.8952172593321968
 21
-0.7500000000000001
 31
0.0
  0
LINE
  5
1D5
330
125
100
AcDbEntity
  8
AM_4
100
AcDbLine
 10
1.5
 20
0.7499999999999999
 30
0.0
 11
0.7499999999999999
 21
0.7499999999999999
 31
0.0
  0
LINE
  5
1D6
330
125
100
AcDbEntity
  8
AM_4
100
AcDbLine
 10
-1.500000000000001
 20
0.7499999999999999
 30
0.0
 11
-0.7499999999999999
 21
0.7499999999999999
 31
0.0
  0
LINE
  5
1D7
330
125
100
AcDbEntity
  8
AM_4
100
AcDbLine
 10
1.499999999999998
 20
0.6909449
 30
0.0
 11
0.7499999999999999
 21
0.6909449
 31
0.0
  0
LINE
  5
1D8
330
125
100
AcDbEntity
  8
AM_4
100
AcDbLine
 10
-0.7499999999999999
 20
0.6909449
 30
0.0
 11
-1.500000000000001
 21
0.6909449
 31
0.0
  0
LINE
  5
1D9
330
125
100
AcDbEntity
  8
AM_4
100
AcDbLine
 10
-1.500000000000001
 20
-0.7499999999999999
 30
0.0
 11
-0.8977871932959005
 21
-0.7499999999999999
 31
0.0
  0
LINE
  5
1DA
330
125
100
AcDbEntity
  8
AM_4
100
AcDbLine
 10
1.499999999999998
 20
-0.6909448999999999
 30
0.0
 11
0.8952172593321968
 21
-0.6909448999999999
 31
0.0
  0
LINE
  5
1DB
330
125
100
AcDbEntity
  8
AM_4
100
AcDbLine
 10
-0.8984374999999998
 20
-0.6909448999999999
 30
0.0
 11
-1.500000000000001
 21
-0.6909448999999999
 31
0.0
  0
LINE
  5
1DC
330
125
100
AcDbEntity
  8
AM_4
100
AcDbLine
 10
-0.7499999999999999
 20
0.617445120947114
 30
0.0
 11
-0.7499999999999999
 21
0.7499999999999999
 31
0.0
  0
LINE
  5
1DD
330
125
100
AcDbEntity
  8
AM_4
100
AcDbLine
 10
-0.7499999999999999
 20
0.676356365691613
 30
0.0
 11
-1.500000000000001
 21
0.676356365691613
 31
0.0
  0
LINE
  5
1DE
330
125
100
AcDbEntity
  8
AM_4
100
AcDbLine
 10
0.7499999999999999
 20
0.617445120947114
 30
0.0
 11
0.7499999999999999
 21
0.7499999999999999
 31
0.0
  0
LINE
  5
1DF
330
125
100
AcDbEntity
  8
AM_4
100
AcDbLine
 10
1.499999999999998
 20
0.676356365691613
 30
0.0
 11
0.7499999999999999
 21
0.676356365691613
 31
0.0
  0
LINE
  5
1E0
330
125
100
AcDbEntity
  8
AM_4
100
AcDbLine
 10
1.499999999999998
 20
-0.6763563656916131
 30
0.0
 11
0.8952172593321968
 21
-0.6763563656916131
 31
0.0
  0
LINE
  5
1E1
330
125
100
AcDbEntity
  8
AM_4
100
AcDbLine
 10
-0.8984374999999998
 20
-0.6763563656916131
 30
0.0
 11
-1.500000000000001
 21
-0.6763563656916131
 31
0.0
  0
LWPOLYLINE
  5
1E2
330
125
100
AcDbEntity
  8
AM_4
100
AcDbPolyline
 90
        7
 70
     0
 43
0.0
 10
-0.8984374999999998
 20
-0.5899926896821036
 10
-0.937766501868885
 20
-0.5843866293311496
 10
-0.9699585344196526
 20
-0.5785622102167297
 10
-0.9947685968465106
 20
-0.572563759685185
 10
-1.012007869593665
 20
-0.5664369295670242
 10
-1.021545151386153
 20
-0.5602283487389274
 10
-1.0236
 20
-0.555695244425232
  0
LWPOLYLINE
  5
1E3
330
125
100
AcDbEntity
  8
AM_4
100
AcDbPolyline
 90
        7
 70
     0
 43
0.0
 10
1.0236
 20
-0.555695244425232
 10
1.019704892966711
 20
-0.5619335984064412
 10
1.008049215983297
 20
-0.5681244747470323
 10
0.9887216757894908
 20
-0.5742207571399
 10
0.9618693666364563
 20
-0.5801760491949987
 10
0.9276966508107155
 20
-0.5859450275438853
 10
0.8952172593321964
 20
-0.5904019872758253
  0
LWPOLYLINE
  5
1E4
330
125
100
AcDbEntity
  8
AM_4
100
AcDbPolyline
 90
       19
 70
     0
 43
0.0
 10
-1.0236
 20
-0.555695244425232
 10
-1.019704892966711
 20
-0.5494568904440228
 10
-1.008049215983297
 20
-0.5432660141034317
 10
-0.9887216757894908
 20
-0.537169731710564
 10
-0.9618693666364563
 20
-0.5312144396554653
 10
-0.9276966508107156
 20
-0.5254454613065787
 10
-0.8864636033137521
 20
-0.5199067020725433
 10
-0.8384840325342129
 20
-0.5146403152555247
 10
-0.7841230919765868
 20
-0.5096863812391316
 10
-0.7237945012225512
 20
-0.5050826024524958
 10
-0.6579573972751428
 20
-0.5008640164320214
 10
-0.5871128402489321
 20
-0.4970627291645758
 10
-0.5118000000000015
 20
-0.4937076707415446
 10
-0.4325920527177815
 20
-0.4908243751833666
 10
-0.3500918187081562
 20
-0.4884347861102211
 10
-0.264927174566942
 20
-0.4865570897378277
 10
-0.1777462746598718
 20
-0.4852055764693649
 10
-0.0892126182765049
 20
-0.4843905321368713
 10
-0.0000000000000021
 20
-0.4841181597198547
  0
LWPOLYLINE
  5
1E5
330
125
100
AcDbEntity
  8
AM_4
100
AcDbPolyline
 90
       37
 70
     0
 43
0.0
 10
1.0236
 20
0.5556952444252319
 10
1.019704892966711
 20
0.5494568904440227
 10
1.008049215983296
 20
0.5432660141034316
 10
0.9887216757894903
 20
0.5371697317105638
 10
0.961869366636456
 20
0.5312144396554651
 10
0.9276966508107151
 20
0.5254454613065784
 10
0.8864636033137517
 20
0.5199067020725432
 10
0.8384840325342124
 20
0.5146403152555246
 10
0.7841230919765865
 20
0.5096863812391313
 10
0.7237945012225507
 20
0.5050826024524956
 10
0.6579573972751425
 20
0.500864016432021
 10
0.5871128402489317
 20
0.4970627291645756
 10
0.5118000000000011
 20
0.4937076707415444
 10
0.4325920527177813
 20
0.4908243751833664
 10
0.350091818708156
 20
0.4884347861102208
 10
0.2649271745669418
 20
0.4865570897378275
 10
0.1777462746598716
 20
0.4852055764693646
 10
0.0892126182765047
 20
0.4843905321368711
 10
0.0000000000000019
 20
0.4841181597198544
 10
-0.0892126182765009
 20
0.4843905321368711
 10
-0.1777462746598678
 20
0.4852055764693645
 10
-0.2649271745669381
 20
0.4865570897378274
 10
-0.3500918187081523
 20
0.4884347861102207
 10
-0.4325920527177777
 20
0.4908243751833663
 10
-0.5117999999999978
 20
0.4937076707415443
 10
-0.5871128402489286
 20
0.4970627291645755
 10
-0.6579573972751395
 20
0.5008640164320209
 10
-0.723794501222548
 20
0.5050826024524954
 10
-0.7841230919765839
 20
0.5096863812391311
 10
-0.8384840325342101
 20
0.5146403152555242
 10
-0.8864636033137497
 20
0.519906702072543
 10
-0.9276966508107135
 20
0.5254454613065782
 10
-0.9618693666364545
 20
0.5312144396554649
 10
-0.9887216757894894
 20
0.5371697317105635
 10
-1.008049215983296
 20
0.5432660141034312
 10
-1.019704892966711
 20
0.5494568904440224
 10
-1.0236
 20
0.5556952444252315
  0
LWPOLYLINE
  5
1E6
330
125
100
AcDbEntity
  8
AM_4
100
AcDbPolyline
 90
       19
 70
     0
 43
0.0
 10
-1.0236
 20
0.5556952444252319
 10
-1.019704892966711
 20
0.5619335984064411
 10
-1.008049215983296
 20
0.5681244747470321
 10
-0.9887216757894903
 20
0.5742207571398998
 10
-0.961869366636456
 20
0.5801760491949985
 10
-0.9276966508107153
 20
0.5859450275438852
 10
-0.8864636033137517
 20
0.5914837867779206
 10
-0.8384840325342126
 20
0.5967501735949391
 10
-0.7841230919765866
 20
0.6017041076113323
 10
-0.7237945012225508
 20
0.6063078863979681
 10
-0.6579573972751425
 20
0.6105264724184425
 10
-0.5871128402489318
 20
0.614327759685888
 10
-0.5118000000000013
 20
0.6176828181089193
 10
-0.4325920527177813
 20
0.6205661136670972
 10
-0.3500918187081561
 20
0.6229557027402429
 10
-0.2649271745669419
 20
0.6248333991126362
 10
-0.1777462746598717
 20
0.6261849123810992
 10
-0.0892126182765049
 20
0.6269999567135927
 10
-0.0000000000000021
 20
0.6272723291306093
  0
LINE
  5
1E7
330
125
100
AcDbEntity
  8
AM_4
100
AcDbLine
 10
-0.151513467644
 20
-0.4796292821917276
 30
0.0
 11
-0.151513467644
 21
-0.4808516530790136
 31
0.0
  0
LINE
  5
1E8
330
125
100
AcDbEntity
  8
AM_4
100
AcDbLine
 10
0.142331
 20
-0.4796292821917275
 30
0.0
 11
0.142331
 21
-0.4808516530790136
 31
0.0
  0
LINE
  5
1E9
330
125
100
AcDbEntity
  8
AM_4
100
AcDbLine
 10
0.0198956999999999
 20
-0.4796292821917275
 30
0.0
 11
0.0198956999999999
 21
-0.4808516530790136
 31
0.0
  0
LINE
  5
1EA
330
125
100
AcDbEntity
  8
AM_4
100
AcDbLine
 10
0.1698790000000001
 20
-0.4796292821917274
 30
0.0
 11
0.1698790000000001
 21
-0.4808516530790137
 31
0.0
  0
LINE
  5
1EB
330
125
100
AcDbEntity
  8
AM_4
100
AcDbLine
 10
-0.2739485731290001
 20
-0.4796292821917275
 30
0.0
 11
-0.2739485731290001
 21
-0.4808516530790136
 31
0.0
  0
LINE
  5
1EC
330
125
100
AcDbEntity
  8
AM_4
100
AcDbLine
 10
-0.1270264465470002
 20
-0.4796292821917275
 30
0.0
 11
-0.1270264465470002
 21
-0.4808516530790136
 31
0.0
  0
LINE
  5
1ED
330
125
100
AcDbEntity
  8
AM_4
100
AcDbLine
 10
-0.258644234156
 20
-0.4792897273701729
 30
0.0
 11
-0.258644234156
 21
-0.4806479291861752
 31
0.0
  0
LINE
  5
1EE
330
125
100
AcDbEntity
  8
AM_4
100
AcDbLine
 10
-0.166817806617
 20
-0.4792897390172333
 30
0.0
 11
-0.166817806617
 21
-0.4806479291861752
 31
0.0
  0
LINE
  5
1EF
330
125
100
AcDbEntity
  8
AM_4
100
AcDbLine
 10
0.1851829999999999
 20
-0.4792897331935783
 30
0.0
 11
0.1851829999999999
 21
-0.4806479291861753
 31
0.0
  0
LINE
  5
1F0
330
125
100
AcDbEntity
  8
AM_4
100
AcDbLine
 10
0.0352001
 20
-0.4792897302352313
 30
0.0
 11
0.0352001
 21
-0.4806479291861753
 31
0.0
  0
LINE
  5
1F1
330
125
100
AcDbEntity
  8
AM_4
100
AcDbLine
 10
0.1270259999999998
 20
-0.479289718401038
 30
0.0
 11
0.1270259999999998
 21
-0.4806479291861752
 31
0.0
  0
LINE
  5
1F2
330
125
100
AcDbEntity
  8
AM_4
100
AcDbLine
 10
-0.1117221075739999
 20
-0.4792897273701729
 30
0.0
 11
-0.1117221075739999
 21
-0.4806479291861753
 31
0.0
  0
LINE
  5
1F3
330
125
100
AcDbEntity
  8
AM_4
100
AcDbLine
 10
0.0474437000000001
 20
-0.4784069085514158
 30
0.0
 11
0.0474437000000001
 21
-0.4802404538702428
 31
0.0
  0
LINE
  5
1F4
330
125
100
AcDbEntity
  8
AM_4
100
AcDbLine
 10
-0.099478400175
 20
-0.4784069085514158
 30
0.0
 11
-0.099478400175
 21
-0.4802404538702426
 31
0.0
  0
LINE
  5
1F5
330
125
100
AcDbEntity
  8
AM_4
100
AcDbLine
 10
-0.1790615140159999
 20
-0.4784069085514158
 30
0.0
 11
-0.1790615140159999
 21
-0.4802404538702428
 31
0.0
  0
LINE
  5
1F6
330
125
100
AcDbEntity
  8
AM_4
100
AcDbLine
 10
-0.2464009204579999
 20
-0.4784069085514157
 30
0.0
 11
-0.2464009204579999
 21
-0.4802404538702427
 31
0.0
  0
LINE
  5
1F7
330
125
100
AcDbEntity
  8
AM_4
100
AcDbLine
 10
0.1974269999999999
 20
-0.4755547111502803
 30
0.0
 11
0.1974269999999999
 21
-0.4802404538702426
 31
0.0
  0
LINE
  5
1F8
330
125
100
AcDbEntity
  8
AM_4
100
AcDbLine
 10
0.1147829999999999
 20
-0.4784069085514158
 30
0.0
 11
0.1147829999999999
 21
-0.4802404538702428
 31
0.0
  0
LINE
  5
1F9
330
125
100
AcDbEntity
  8
AM_4
100
AcDbLine
 10
0.059687
 20
-0.4727025097725398
 30
0.0
 11
0.059687
 21
-0.4794255582988891
 31
0.0
  0
LINE
  5
1FA
330
125
100
AcDbEntity
  8
AM_4
100
AcDbLine
 10
0.2096699999999999
 20
-0.4755547111502803
 30
0.0
 11
0.2096699999999999
 21
-0.4794255582988891
 31
0.0
  0
LINE
  5
1FB
330
125
100
AcDbEntity
  8
AM_4
100
AcDbLine
 10
-0.087235086477
 20
-0.4727025097725398
 30
0.0
 11
-0.087235086477
 21
-0.4794255582988891
 31
0.0
  0
LINE
  5
1FC
330
125
100
AcDbEntity
  8
AM_4
100
AcDbLine
 10
-0.191304827714
 20
-0.4727025097725399
 30
0.0
 11
-0.191304827714
 21
-0.4794255582988891
 31
0.0
  0
LINE
  5
1FD
330
125
100
AcDbEntity
  8
AM_4
100
AcDbLine
 10
-0.234157213059
 20
-0.4727025097725398
 30
0.0
 11
-0.234157213059
 21
-0.4794255582988891
 31
0.0
  0
LINE
  5
1FE
330
125
100
AcDbEntity
  8
AM_4
100
AcDbLine
 10
0.1025389999999999
 20
-0.4727025097725398
 30
0.0
 11
0.1025389999999999
 21
-0.4794255582988891
 31
0.0
  0
LINE
  5
1FF
330
125
100
AcDbEntity
  8
AM_4
100
AcDbLine
 10
0.0658091
 20
-0.4735174298462483
 30
0.0
 11
0.0658091
 21
-0.4786106351972798
 31
0.0
  0
LINE
  5
200
330
125
100
AcDbEntity
  8
AM_4
100
AcDbLine
 10
-0.197426878264
 20
-0.4735174298462483
 30
0.0
 11
-0.197426878264
 21
-0.4786106351972798
 31
0.0
  0
LINE
  5
201
330
125
100
AcDbEntity
  8
AM_4
100
AcDbLine
 10
-0.0811134296280001
 20
-0.4735174298462482
 30
0.0
 11
-0.0811134296280001
 21
-0.4786106351972798
 31
0.0
  0
LINE
  5
202
330
125
100
AcDbEntity
  8
AM_4
100
AcDbLine
 10
-0.2280355562099999
 20
-0.4735174298462483
 30
0.0
 11
-0.2280355562099999
 21
-0.4786106351972798
 31
0.0
  0
LINE
  5
203
330
125
100
AcDbEntity
  8
AM_4
100
AcDbLine
 10
0.0964177
 20
-0.4735174298462483
 30
0.0
 11
0.0964177
 21
-0.4786106351972798
 31
0.0
  0
LINE
  5
204
330
125
100
AcDbEntity
  8
AM_4
100
AcDbLine
 10
0.194366
 20
-0.4755547111502803
 30
0.0
 11
0.1943660000000001
 21
-0.4784069085514158
 31
0.0
  0
LINE
  5
205
330
125
100
AcDbEntity
  8
AM_4
100
AcDbLine
 10
-0.18212214559
 20
-0.472091322348677
 30
0.0
 11
-0.18212214559
 21
-0.4775919937088832
 31
0.0
  0
LINE
  5
206
330
125
100
AcDbEntity
  8
AM_4
100
AcDbLine
 10
-0.096417768601
 20
-0.4720913223486768
 30
0.0
 11
-0.096417768601
 21
-0.4775919937088832
 31
0.0
  0
LINE
  5
207
330
125
100
AcDbEntity
  8
AM_4
100
AcDbLine
 10
0.1117220000000001
 20
-0.4720913354507911
 30
0.0
 11
0.1117220000000001
 21
-0.4775919937088831
 31
0.0
  0
LINE
  5
208
330
125
100
AcDbEntity
  8
AM_4
100
AcDbLine
 10
0.0505043
 20
-0.472091320475066
 30
0.0
 11
0.0505042999999999
 21
-0.4775919937088832
 31
0.0
  0
LINE
  5
209
330
125
100
AcDbEntity
  8
AM_4
100
AcDbLine
 10
-0.2433398951829999
 20
-0.4720913420016377
 30
0.0
 11
-0.243339895183
 21
-0.4775919937088832
 31
0.0
  0
LINE
  5
20A
330
125
100
AcDbEntity
  8
AM_4
100
AcDbLine
 10
0.0474437
 20
-0.4718876106768748
 30
0.0
 11
0.0474437
 21
-0.4737211546201646
 31
0.0
  0
LINE
  5
20B
330
125
100
AcDbEntity
  8
AM_4
100
AcDbLine
 10
0.1147829999999999
 20
-0.4718876106768748
 30
0.0
 11
0.1147829999999999
 21
-0.4737211546201646
 31
0.0
  0
LINE
  5
20C
330
125
100
AcDbEntity
  8
AM_4
100
AcDbLine
 10
-0.099478400175
 20
-0.4718876106768749
 30
0.0
 11
-0.099478400175
 21
-0.4737211546201645
 31
0.0
  0
LINE
  5
20D
330
125
100
AcDbEntity
  8
AM_4
100
AcDbLine
 10
-0.2464009204579997
 20
-0.471887610676875
 30
0.0
 11
-0.2464009204579997
 21
-0.4737211546201645
 31
0.0
  0
LINE
  5
20E
330
125
100
AcDbEntity
  8
AM_4
100
AcDbLine
 10
0.194366
 20
-0.4717857412972357
 30
0.0
 11
0.194366
 21
-0.4737211546201646
 31
0.0
  0
LINE
  5
20F
330
125
100
AcDbEntity
  8
AM_4
100
AcDbLine
 10
-0.179061514016
 20
-0.471887610676875
 30
0.0
 11
-0.179061514016
 21
-0.4737211546201645
 31
0.0
  0
LINE
  5
210
330
125
100
AcDbEntity
  8
AM_4
100
AcDbLine
 10
-0.1729394634659999
 20
-0.4716838653663001
 30
0.0
 11
-0.1729394634659999
 21
-0.4731099802984159
 31
0.0
  0
LINE
  5
211
330
125
100
AcDbEntity
  8
AM_4
100
AcDbLine
 10
-0.2525225773069998
 20
-0.4716838719175963
 30
0.0
 11
-0.2525225773069998
 21
-0.4731099802984159
 31
0.0
  0
LINE
  5
212
330
125
100
AcDbEntity
  8
AM_4
100
AcDbLine
 10
0.0413217
 20
-0.4716838652614246
 30
0.0
 11
0.0413217
 21
-0.4731099802984159
 31
0.0
  0
LINE
  5
213
330
125
100
AcDbEntity
  8
AM_4
100
AcDbLine
 10
0.1209049999999999
 20
-0.4716838552763516
 30
0.0
 11
0.1209049999999999
 21
-0.4731099802984158
 31
0.0
  0
LINE
  5
214
330
125
100
AcDbEntity
  8
AM_4
100
AcDbLine
 10
-0.1056004507249999
 20
-0.4716838653663001
 30
0.0
 11
-0.1056004507249999
 21
-0.4731099802984159
 31
0.0
  0
LINE
  5
215
330
125
100
AcDbEntity
  8
AM_4
100
AcDbLine
 10
0.191305
 20
-0.4716838719175964
 30
0.0
 11
0.191305
 21
-0.4731099802984158
 31
0.0
  0
LINE
  5
216
330
125
100
AcDbEntity
  8
AM_4
100
AcDbLine
 10
0.0321392
 20
-0.4714393893358495
 30
0.0
 11
0.0321392
 21
-0.4727025097725399
 31
0.0
  0
LINE
  5
217
330
125
100
AcDbEntity
  8
AM_4
100
AcDbLine
 10
0.1300869999999998
 20
-0.4714393896020707
 30
0.0
 11
0.1300869999999998
 21
-0.4727025097725398
 31
0.0
  0
LINE
  5
218
330
125
100
AcDbEntity
  8
AM_4
100
AcDbLine
 10
-0.1147831328490001
 20
-0.4714393875058314
 30
0.0
 11
-0.1147831328490001
 21
-0.4727025097725398
 31
0.0
  0
LINE
  5
219
330
125
100
AcDbEntity
  8
AM_4
100
AcDbLine
 10
-0.3290446658729999
 20
-0.4796292821917275
 30
0.0
 11
-0.3290446658729999
 21
-0.4712764153770826
 31
0.0
  0
LINE
  5
21A
330
125
100
AcDbEntity
  8
AM_4
100
AcDbLine
 10
-0.273948573129
 20
-0.4796292821917275
 30
0.0
 11
-0.3290446658729999
 21
-0.4796292821917275
 31
0.0
  0
LINE
  5
21B
330
125
100
AcDbEntity
  8
AM_4
100
AcDbLine
 10
-0.2617052594309998
 20
-0.4794255582988891
 30
0.0
 11
-0.273948573129
 21
-0.4796292821917275
 31
0.0
  0
LINE
  5
21C
330
125
100
AcDbEntity
  8
AM_4
100
AcDbLine
 10
-0.252522577307
 20
-0.4790180829829566
 30
0.0
 11
-0.2617052594309998
 21
-0.4794255582988891
 31
0.0
  0
LINE
  5
21D
330
125
100
AcDbEntity
  8
AM_4
100
AcDbLine
 10
-0.2464009204580002
 20
-0.4784069085514158
 30
0.0
 11
-0.252522577307
 21
-0.4790180829829566
 31
0.0
  0
LINE
  5
21E
330
125
100
AcDbEntity
  8
AM_4
100
AcDbLine
 10
-0.243339895183
 20
-0.4775919937088832
 30
0.0
 11
-0.2464009204580002
 21
-0.4784069085514158
 31
0.0
  0
LINE
  5
21F
330
125
100
AcDbEntity
  8
AM_4
100
AcDbLine
 10
-0.2464009204579997
 20
-0.4737211546201645
 30
0.0
 11
-0.2433398951829999
 21
-0.4745360677011917
 31
0.0
  0
LINE
  5
220
330
125
100
AcDbEntity
  8
AM_4
100
AcDbLine
 10
-0.2525225773069998
 20
-0.4731099802984159
 30
0.0
 11
-0.2464009204579997
 21
-0.4737211546201645
 31
0.0
  0
LINE
  5
221
330
125
100
AcDbEntity
  8
AM_4
100
AcDbLine
 10
-0.261705259431
 20
-0.47270250977254
 30
0.0
 11
-0.2525225773069998
 21
-0.4731099802984159
 31
0.0
  0
LINE
  5
222
330
125
100
AcDbEntity
  8
AM_4
100
AcDbLine
 10
-0.1270264465469999
 20
-0.4712764153770827
 30
0.0
 11
-0.1270264465469999
 21
-0.4724987849986236
 31
0.0
  0
LINE
  5
223
330
125
100
AcDbEntity
  8
AM_4
100
AcDbLine
 10
0.0198956999999999
 20
-0.4712764153770827
 30
0.0
 11
0.0198956999999999
 21
-0.4724987849986236
 31
0.0
  0
LINE
  5
224
330
125
100
AcDbEntity
  8
AM_4
100
AcDbLine
 10
-0.0352000977482
 20
-0.4712764153770827
 30
0.0
 11
-0.0352000977482
 21
-0.4796292821917275
 31
0.0
  0
LINE
  5
225
330
125
100
AcDbEntity
  8
AM_4
100
AcDbLine
 10
0.255583
 20
-0.4712764153770827
 30
0.0
 11
0.2555829999999999
 21
-0.4796292821917275
 31
0.0
  0
LINE
  5
226
330
125
100
AcDbEntity
  8
AM_4
100
AcDbLine
 10
-0.3290446658729999
 20
-0.4724987849986236
 30
0.0
 11
-0.2739485731290001
 21
-0.4724987849986236
 31
0.0
  0
LINE
  5
227
330
125
100
AcDbEntity
  8
AM_4
100
AcDbLine
 10
0.142331
 20
-0.4712764153770828
 30
0.0
 11
0.142331
 21
-0.4724987849986236
 31
0.0
  0
LINE
  5
228
330
125
100
AcDbEntity
  8
AM_4
100
AcDbLine
 10
-0.18212214559
 20
-0.4745360677011917
 30
0.0
 11
-0.179061514016
 21
-0.4737211546201645
 31
0.0
  0
LINE
  5
229
330
125
100
AcDbEntity
  8
AM_4
100
AcDbLine
 10
-0.179061514016
 20
-0.4784069085514158
 30
0.0
 11
-0.18212214559
 21
-0.4775919937088832
 31
0.0
  0
LINE
  5
22A
330
125
100
AcDbEntity
  8
AM_4
100
AcDbLine
 10
-0.1729394634660002
 20
-0.4790180829829566
 30
0.0
 11
-0.179061514016
 21
-0.4784069085514158
 31
0.0
  0
LINE
  5
22B
330
125
100
AcDbEntity
  8
AM_4
100
AcDbLine
 10
-0.163757175043
 20
-0.4794255582988891
 30
0.0
 11
-0.1729394634660002
 21
-0.4790180829829566
 31
0.0
  0
LINE
  5
22C
330
125
100
AcDbEntity
  8
AM_4
100
AcDbLine
 10
-0.1515134676439998
 20
-0.4796292821917276
 30
0.0
 11
-0.163757175043
 21
-0.4794255582988891
 31
0.0
  0
LINE
  5
22D
330
125
100
AcDbEntity
  8
AM_4
100
AcDbLine
 10
-0.127026446547
 20
-0.4796292821917275
 30
0.0
 11
-0.1515134676439998
 21
-0.4796292821917276
 31
0.0
  0
LINE
  5
22E
330
125
100
AcDbEntity
  8
AM_4
100
AcDbLine
 10
-0.1147831328489999
 20
-0.4794255582988891
 30
0.0
 11
-0.127026446547
 21
-0.4796292821917275
 31
0.0
  0
LINE
  5
22F
330
125
100
AcDbEntity
  8
AM_4
100
AcDbLine
 10
-0.1056004507250002
 20
-0.4790180829829566
 30
0.0
 11
-0.1147831328489999
 21
-0.4794255582988891
 31
0.0
  0
LINE
  5
230
330
125
100
AcDbEntity
  8
AM_4
100
AcDbLine
 10
-0.099478400175
 20
-0.4784069085514158
 30
0.0
 11
-0.1056004507250002
 21
-0.4790180829829566
 31
0.0
  0
LINE
  5
231
330
125
100
AcDbEntity
  8
AM_4
100
AcDbLine
 10
-0.096417768601
 20
-0.4775919937088832
 30
0.0
 11
-0.099478400175
 21
-0.4784069085514158
 31
0.0
  0
LINE
  5
232
330
125
100
AcDbEntity
  8
AM_4
100
AcDbLine
 10
-0.099478400175
 20
-0.4737211546201645
 30
0.0
 11
-0.096417768601
 21
-0.4745360677011917
 31
0.0
  0
LINE
  5
233
330
125
100
AcDbEntity
  8
AM_4
100
AcDbLine
 10
-0.1056004507249999
 20
-0.4731099802984159
 30
0.0
 11
-0.099478400175
 21
-0.4737211546201645
 31
0.0
  0
LINE
  5
234
330
125
100
AcDbEntity
  8
AM_4
100
AcDbLine
 10
-0.1147831328490001
 20
-0.4727025097725398
 30
0.0
 11
-0.1056004507249999
 21
-0.4731099802984159
 31
0.0
  0
LINE
  5
235
330
125
100
AcDbEntity
  8
AM_4
100
AcDbLine
 10
-0.1270264465469999
 20
-0.4724987849986236
 30
0.0
 11
-0.1147831328490001
 21
-0.4727025097725398
 31
0.0
  0
LINE
  5
236
330
125
100
AcDbEntity
  8
AM_4
100
AcDbLine
 10
-0.151513467644
 20
-0.4724987849986236
 30
0.0
 11
-0.1270264465469999
 21
-0.4724987849986236
 31
0.0
  0
LINE
  5
237
330
125
100
AcDbEntity
  8
AM_4
100
AcDbLine
 10
-0.1729394634659999
 20
-0.4731099802984159
 30
0.0
 11
-0.1637571750430001
 21
-0.4727025097725398
 31
0.0
  0
LINE
  5
238
330
125
100
AcDbEntity
  8
AM_4
100
AcDbLine
 10
-0.179061514016
 20
-0.4737211546201645
 30
0.0
 11
-0.1729394634659999
 21
-0.4731099802984159
 31
0.0
  0
LINE
  5
239
330
125
100
AcDbEntity
  8
AM_4
100
AcDbLine
 10
-0.1637571750430001
 20
-0.4727025097725398
 30
0.0
 11
-0.151513467644
 21
-0.4724987849986236
 31
0.0
  0
LINE
  5
23A
330
125
100
AcDbEntity
  8
AM_4
100
AcDbLine
 10
-0.151513467644
 20
-0.4712764153770826
 30
0.0
 11
-0.151513467644
 21
-0.4724987849986236
 31
0.0
  0
LINE
  5
23B
330
125
100
AcDbEntity
  8
AM_4
100
AcDbLine
 10
-0.1637571750430001
 20
-0.4714393927464298
 30
0.0
 11
-0.1637571750430001
 21
-0.4727025097725398
 31
0.0
  0
LINE
  5
23C
330
125
100
AcDbEntity
  8
AM_4
100
AcDbLine
 10
0.182122
 20
-0.4714393869397893
 30
0.0
 11
0.182122
 21
-0.4727025097725399
 31
0.0
  0
LINE
  5
23D
330
125
100
AcDbEntity
  8
AM_4
100
AcDbLine
 10
0.169879
 20
-0.4712764153770827
 30
0.0
 11
0.169879
 21
-0.4724987849986236
 31
0.0
  0
LINE
  5
23E
330
125
100
AcDbEntity
  8
AM_4
100
AcDbLine
 10
0.0198956999999999
 20
-0.4796292821917275
 30
0.0
 11
-0.0352000977482
 21
-0.4796292821917275
 31
0.0
  0
LINE
  5
23F
330
125
100
AcDbEntity
  8
AM_4
100
AcDbLine
 10
0.0321391999999999
 20
-0.4794255582988891
 30
0.0
 11
0.0198956999999999
 21
-0.4796292821917275
 31
0.0
  0
LINE
  5
240
330
125
100
AcDbEntity
  8
AM_4
100
AcDbLine
 10
0.0413217
 20
-0.4790180829829566
 30
0.0
 11
0.0321391999999999
 21
-0.4794255582988891
 31
0.0
  0
LINE
  5
241
330
125
100
AcDbEntity
  8
AM_4
100
AcDbLine
 10
0.0474437000000001
 20
-0.4784069085514158
 30
0.0
 11
0.0413217
 21
-0.4790180829829566
 31
0.0
  0
LINE
  5
242
330
125
100
AcDbEntity
  8
AM_4
100
AcDbLine
 10
0.0505042999999999
 20
-0.4775919937088832
 30
0.0
 11
0.0474437000000001
 21
-0.4784069085514158
 31
0.0
  0
LINE
  5
243
330
125
100
AcDbEntity
  8
AM_4
100
AcDbLine
 10
0.0474437
 20
-0.4737211546201646
 30
0.0
 11
0.0505043
 21
-0.4745360677011917
 31
0.0
  0
LINE
  5
244
330
125
100
AcDbEntity
  8
AM_4
100
AcDbLine
 10
0.0413217
 20
-0.4731099802984159
 30
0.0
 11
0.0474437
 21
-0.4737211546201646
 31
0.0
  0
LINE
  5
245
330
125
100
AcDbEntity
  8
AM_4
100
AcDbLine
 10
0.0321392
 20
-0.4727025097725399
 30
0.0
 11
0.0413217
 21
-0.4731099802984159
 31
0.0
  0
LINE
  5
246
330
125
100
AcDbEntity
  8
AM_4
100
AcDbLine
 10
0.0198956999999999
 20
-0.4724987849986236
 30
0.0
 11
0.0321392
 21
-0.4727025097725399
 31
0.0
  0
LINE
  5
247
330
125
100
AcDbEntity
  8
AM_4
100
AcDbLine
 10
-0.0352000977482
 20
-0.4724987849986236
 30
0.0
 11
0.0198956999999999
 21
-0.4724987849986236
 31
0.0
  0
LINE
  5
248
330
125
100
AcDbEntity
  8
AM_4
100
AcDbLine
 10
-0.2739485731290001
 20
-0.4724987849986236
 30
0.0
 11
-0.261705259431
 21
-0.47270250977254
 31
0.0
  0
LINE
  5
249
330
125
100
AcDbEntity
  8
AM_4
100
AcDbLine
 10
-0.261705259431
 20
-0.4714393875058314
 30
0.0
 11
-0.261705259431
 21
-0.47270250977254
 31
0.0
  0
LINE
  5
24A
330
125
100
AcDbEntity
  8
AM_4
100
AcDbLine
 10
-0.2739485731290001
 20
-0.4712764153770826
 30
0.0
 11
-0.2739485731290001
 21
-0.4724987849986236
 31
0.0
  0
LINE
  5
24B
330
125
100
AcDbEntity
  8
AM_4
100
AcDbLine
 10
1.127357746796416
 20
0.1102360000000002
 30
0.0
 11
1.113438349808758
 21
0.1102360000000002
 31
0.0
  0
LINE
  5
24C
330
125
100
AcDbEntity
  8
AM_4
100
AcDbLine
 10
1.113438349808758
 20
-0.110236
 30
0.0
 11
1.127357746796416
 21
-0.110236
 31
0.0
  0
ELLIPSE
  5
24D
330
125
100
AcDbEntity
  8
AM_4
100
AcDbEllipse
 10
1.113438349808758
 20
0.0000000000000001
 30
0.0
 11
6.750008227540391E-18
 21
0.1102360000000002
 31
0.0
210
0.0
220
0.0
230
1.0
 40
0.7071067811865475
 41
0.0
 42
3.141592653589793
  0
ELLIPSE
  5
24E
330
125
100
AcDbEntity
  8
AM_4
100
AcDbEllipse
 10
1.127357746796416
 20
0.0000000000000001
 30
0.0
 11
6.750008227540391E-18
 21
0.1102360000000002
 31
0.0
210
0.0
220
0.0
230
1.0
 40
0.7071067811865475
 41
5.707890814277215
 42
9.999642667608459
  0
LWPOLYLINE
  5
24F
330
125
100
AcDbEntity
  8
AM_4
100
AcDbPolyline
 90
        9
 70
     0
 43
0.0
 10
0.9145926960306232
 20
-0.0909214090671168
 10
0.9247465065488435
 20
-0.1027422972436637
 10
0.936194977074995
 20
-0.1147322946503926
 10
0.9494497261570484
 20
-0.1271363197084209
 10
0.9643323752959603
 20
-0.1396103603997986
 10
0.9782640633293948
 20
-0.1502222661810514
 10
0.9931917718723795
 20
-0.1607598570626931
 10
1.009235502916938
 20
-0.1713688846790298
 10
1.025948225485271
 20
-0.1818428181342336
  0
LINE
  5
250
330
125
100
AcDbEntity
  8
AM_4
100
AcDbLine
 10
1.103492270954575
 20
-0.1818428181342336
 30
0.0
 11
1.025948225485271
 21
-0.1818428181342336
 31
0.0
  0
LINE
  5
251
330
125
100
AcDbEntity
  8
AM_4
100
AcDbLine
 10
1.103492270954575
 20
0.1818428181342338
 30
0.0
 11
1.025948225485271
 21
0.1818428181342338
 31
0.0
  0
LWPOLYLINE
  5
252
330
125
100
AcDbEntity
  8
AM_4
100
AcDbPolyline
 90
        9
 70
     0
 43
0.0
 10
1.025948225485271
 20
0.1818428181342338
 10
1.007146891664453
 20
0.1700219299576869
 10
0.9892259865268251
 20
0.158031932550958
 10
0.9720972034600126
 20
0.1456279074929296
 10
0.9564248178743349
 20
0.133153866801552
 10
0.9443627515452091
 20
0.1225419610202992
 10
0.933478739309967
 20
0.1120043701386575
 10
0.9235357660274052
 20
0.1013953425223208
 10
0.9145926960306232
 20
0.0909214090671169
  0
LINE
  5
253
330
125
100
AcDbEntity
  8
AM_4
100
AcDbLine
 10
0.9921367414999271
 20
0.0909214090671169
 30
0.0
 11
0.9145926960306232
 21
0.0909214090671169
 31
0.0
  0
LWPOLYLINE
  5
254
330
125
100
AcDbEntity
  8
AM_4
100
AcDbPolyline
 90
        9
 70
     0
 43
0.0
 10
0.9145926960306232
 20
0.0909214090671169
 10
0.9102687038602642
 20
0.0672781935618203
 10
0.9070324014797161
 20
0.043296721914413
 10
0.9050954866190086
 20
0.0184870563376661
 10
0.9047009344477479
 20
-0.0064626251340283
 10
0.905635968410561
 20
-0.0276849305747581
 10
0.9076578673326366
 20
-0.0487586048861114
 10
0.9107081249269849
 20
-0.0699750824662274
 10
0.9145926960306232
 20
-0.0909214090671168
  0
LINE
  5
255
330
125
100
AcDbEntity
  8
AM_4
100
AcDbLine
 10
0.9921367414999271
 20
-0.0909214090671168
 30
0.0
 11
0.9145926960306232
 21
-0.0909214090671168
 31
0.0
  0
LWPOLYLINE
  5
256
330
125
100
AcDbEntity
  8
AM_4
100
AcDbPolyline
 90
        9
 70
     0
 43
0.0
 10
1.206831775303665
 20
-0.1003529074770575
 10
1.204693989891003
 20
-0.1027422972436637
 10
1.193245519364851
 20
-0.1147322946503927
 10
1.179990770282798
 20
-0.1271363197084209
 10
1.165108121143886
 20
-0.1396103603997986
 10
1.151176433110452
 20
-0.1502222661810514
 10
1.136248724567467
 20
-0.1607598570626931
 10
1.120204993522909
 20
-0.1713688846790298
 10
1.103492270954575
 20
-0.1818428181342336
  0
LWPOLYLINE
  5
257
330
125
100
AcDbEntity
  8
AM_4
100
AcDbPolyline
 90
        9
 70
     0
 43
0.0
 10
1.103492270954575
 20
0.1818428181342338
 10
1.122293604775393
 20
0.1700219299576869
 10
1.140214509913021
 20
0.158031932550958
 10
1.157343292979834
 20
0.1456279074929297
 10
1.173015678565511
 20
0.1331538668015521
 10
1.185077744894637
 20
0.1225419610202993
 10
1.195961757129879
 20
0.1120043701386575
 10
1.205904730412441
 20
0.1013953425223208
 10
1.206906380634425
 20
0.100268577871726
  0
LWPOLYLINE
  5
258
330
125
100
AcDbEntity
  8
AM_4
100
AcDbPolyline
 90
        9
 70
     0
 43
0.0
 10
0.9921367414999271
 20
0.0909214090671169
 10
1.010938075320745
 20
0.1027422972436638
 10
1.028858980458373
 20
0.1147322946503927
 10
1.045987763525186
 20
0.127136319708421
 10
1.061660149110863
 20
0.1396103603997986
 10
1.073722215439989
 20
0.1502222661810514
 10
1.084606227675231
 20
0.1607598570626931
 10
1.094549200957793
 20
0.1713688846790299
 10
1.103492270954575
 20
0.1818428181342338
  0
LWPOLYLINE
  5
259
330
125
100
AcDbEntity
  8
AM_4
100
AcDbPolyline
 90
        9
 70
     0
 43
0.0
 10
0.9921367414999271
 20
-0.0909214090671168
 10
0.9964607336702863
 20
-0.0672781935618202
 10
0.9996970360508345
 20
-0.043296721914413
 10
1.001633950911542
 20
-0.0184870563376662
 10
1.002028503082802
 20
0.0064626251340281
 10
1.001093469119989
 20
0.027684930574758
 10
0.9990715701979137
 20
0.0487586048861113
 10
0.9960213126035655
 20
0.0699750824662275
 10
0.9921367414999271
 20
0.0909214090671169
  0
LWPOLYLINE
  5
25A
330
125
100
AcDbEntity
  8
AM_4
100
AcDbPolyline
 90
        9
 70
     0
 43
0.0
 10
1.103492270954575
 20
-0.1818428181342336
 10
1.093338460436355
 20
-0.1700219299576868
 10
1.081889989910203
 20
-0.1580319325509579
 10
1.06863524082815
 20
-0.1456279074929296
 10
1.053752591689238
 20
-0.133153866801552
 10
1.039820903655804
 20
-0.1225419610202991
 10
1.024893195112819
 20
-0.1120043701386574
 10
1.008849464068261
 20
-0.1013953425223207
 10
0.9921367414999271
 20
-0.0909214090671168
  0
ELLIPSE
  5
25B
330
125
100
AcDbEntity
  8
AM_4
100
AcDbEllipse
 10
1.113438349808758
 20
-0.0000000000000002
 30
0.0
 11
9.642868896486266E-18
 21
0.1574800000000001
 31
0.0
210
0.0
220
0.0
230
1.0
 40
0.7071067811865479
 41
5.405249897512445
 42
10.30012912817995
  0
ELLIPSE
  5
25C
330
125
100
AcDbEntity
  8
AM_4
100
AcDbEllipse
 10
1.191143996599431
 20
0.0
 30
0.0
 11
5.818081500558887E-18
 21
0.09501648156202526
 31
0.0
210
0.0
220
0.0
230
1.0
 40
0.7071067811865555
 41
1.075242655279868
 42
2.089047215291076
  0
LWPOLYLINE
  5
25D
330
125
100
AcDbEntity
  8
AM_4
100
AcDbPolyline
 90
       16
 70
     0
 43
0.0
 10
1.237520165354965
 20
0.0888242485978249
 10
1.229541858032276
 20
0.0936381349353194
 10
1.221166109254113
 20
0.0972429318579682
 10
1.212584233971623
 20
0.0995743211274478
 10
1.203925055229973
 20
0.1006343813508326
 10
1.195300974986147
 20
0.1004447295867223
 10
1.186810681952599
 20
0.0990364514882306
 10
1.178550764534428
 20
0.0964476657991963
 10
1.170592946607835
 20
0.092713528214008
 10
1.163007423100689
 20
0.0878667698302104
 10
1.155869303707316
 20
0.0819443278115372
 10
1.149261047283859
 20
0.0749968671293071
 10
1.14326949609481
 20
0.0670968792783366
 10
1.137978735705393
 20
0.0583411291166491
 10
1.133462482657589
 20
0.0488464735978355
 10
1.132163149633794
 20
0.0456005844645913
  0
LWPOLYLINE
  5
25E
330
125
100
AcDbEntity
  8
AM_4
100
AcDbPolyline
 90
        3
 70
     0
 43
0.0
 10
1.239253227277905
 20
0.0875782166398899
 10
1.237571893170142
 20
0.0887881582930103
 10
1.237520165354965
 20
0.0888242485978249
  0
LWPOLYLINE
  5
25F
330
125
100
AcDbEntity
  8
AM_4
100
AcDbPolyline
 90
        3
 70
     0
 43
0.0
 10
1.234532122717916
 20
-0.0907983701288489
 10
1.238163571658728
 20
-0.0883705724944688
 10
1.239876443750517
 20
-0.0871111775836645
  0
LWPOLYLINE
  5
260
330
125
100
AcDbEntity
  8
AM_4
100
AcDbPolyline
 90
       16
 70
     0
 43
0.0
 10
1.132941422317078
 20
-0.0475791969856819
 10
1.133152354144042
 20
-0.0480974713275298
 10
1.137674488570691
 20
-0.0577707084502784
 10
1.143039587642634
 20
-0.0667559687593912
 10
1.149195195859228
 20
-0.0749192081013135
 10
1.156068600295611
 20
-0.0821301852516035
 10
1.163561603106204
 20
-0.08826796797301
 10
1.171551701018783
 20
-0.0932327474807977
 10
1.179900866942269
 20
-0.0969568526963061
 10
1.18846901880218
 20
-0.0994087755420258
 10
1.197125975260086
 20
-0.1005881566568246
 10
1.205757709518178
 20
-0.1005152580548859
 10
1.214265747386681
 20
-0.0992203091509644
 10
1.222550549341374
 20
-0.0967413147158416
 10
1.230539830745627
 20
-0.093113819847837
 10
1.233275859411345
 20
-0.0915655136761469
  0
LINE
  5
261
330
125
100
AcDbEntity
  8
AM_4
100
AcDbLine
 10
1.268815940031065
 20
0.0657695055315272
 30
0.0
 11
1.239118230969584
 21
0.0876780428575539
 31
0.0
  0
LINE
  5
262
330
125
100
AcDbEntity
  8
AM_4
100
AcDbLine
 10
1.239118230969584
 20
-0.0876780428575537
 30
0.0
 11
1.268815940031065
 21
-0.065769505531527
 31
0.0
  0
ELLIPSE
  5
263
330
125
100
AcDbEntity
  8
AM_4
100
AcDbEllipse
 10
1.206777391636809
 20
0.0000000000000001
 30
0.0
 11
6.055286803296893E-18
 21
0.0988903381368868
 31
0.0
210
0.0
220
0.0
230
1.0
 40
0.7071067811865452
 41
5.802371652415641
 42
9.905591615533325
  0
ELLIPSE
  5
264
330
125
100
AcDbEntity
  8
AM_4
100
AcDbEllipse
 10
1.252632602528042
 20
0.0000000000000001
 30
0.0
 11
-1.034462156729173E-17
 21
-0.05631349694455611
 31
0.0
210
0.0
220
0.0
230
1.0
 40
0.7071067811865474
 41
0.0
 42
6.283185307179586
  0
LWPOLYLINE
  5
265
330
125
100
AcDbEntity
  8
AM_4
100
AcDbPolyline
 90
       10
 70
     0
 43
0.0
 10
1.298217861102209
 20
0.0000000000000001
 10
1.298068581147416
 20
0.0054418848031267
 10
1.29705399451457
 20
0.0151248906964397
 10
1.295083015717482
 20
0.0245982845548869
 10
1.292165719300792
 20
0.0337136894189738
 10
1.288319266214491
 20
0.0423248055796629
 10
1.28357452330894
 20
0.0502764587630889
 10
1.277989526840112
 20
0.0574009294903833
 10
1.27165753743715
 20
0.0635332387894632
 10
1.268869873082445
 20
0.0657296694421323
  0
LWPOLYLINE
  5
266
330
125
100
AcDbEntity
  8
AM_4
100
AcDbPolyline
 90
       11
 70
     0
 43
0.0
 10
1.268865830213431
 20
-0.0657326589695146
 10
1.269221799621845
 20
-0.0654673260085891
 10
1.275395460019571
 20
-0.0601250541917174
 10
1.281008474442135
 20
-0.0537909434572092
 10
1.285965856298659
 20
-0.0465446536653396
 10
1.290173479387293
 20
-0.0385000980001375
 10
1.293550784327539
 20
-0.0297997795321011
 10
1.296038272830748
 20
-0.0206016792760348
 10
1.297597579556232
 20
-0.0110691107039954
 10
1.29820064245048
 20
-0.0018493045305078
 10
1.298217861102209
 20
0.0000000000000001
  0
ELLIPSE
  5
267
330
125
100
AcDbEntity
  8
AM_4
100
AcDbEllipse
 10
1.24455626289791
 20
0.0000000000000002
 30
0.0
 11
4.542222954855868E-18
 21
0.07418013027132951
 31
0.0
210
0.0
220
0.0
230
1.0
 40
0.7071067811865491
 41
5.801617225804962
 42
9.906436775368292
  0
LWPOLYLINE
  5
268
330
125
100
AcDbEntity
  8
AM_4
100
AcDbPolyline
 90
       19
 70
     0
 43
0.0
 10
0.0
 20
0.6272723291306093
 10
0.0892126182765029
 20
0.6269999567135927
 10
0.1777462746598699
 20
0.6261849123810992
 10
0.2649271745669402
 20
0.6248333991126362
 10
0.3500918187081544
 20
0.6229557027402429
 10
0.43259205271778
 20
0.6205661136670972
 10
0.5117999999999999
 20
0.6176828181089193
 10
0.5871128402489307
 20
0.6143277596858882
 10
0.6579573972751416
 20
0.6105264724184426
 10
0.72379450122255
 20
0.6063078863979682
 10
0.7841230919765859
 20
0.6017041076113324
 10
0.8384840325342119
 20
0.5967501735949392
 10
0.8864636033137514
 20
0.5914837867779206
 10
0.9276966508107147
 20
0.5859450275438853
 10
0.9618693666364557
 20
0.5801760491949987
 10
0.9887216757894902
 20
0.5742207571398998
 10
1.008049215983296
 20
0.5681244747470322
 10
1.019704892966711
 20
0.5619335984064411
 10
1.0236
 20
0.5556952444252319
  0
LINE
  5
269
330
125
100
AcDbEntity
  8
AM_4
100
AcDbLine
 10
1.499999999999998
 20
0.617445120947114
 30
0.0
 11
0.7499999999999999
 21
0.617445120947114
 31
0.0
  0
LINE
  5
26A
330
125
100
AcDbEntity
  8
AM_4
100
AcDbLine
 10
0.7000000000000001
 20
0.6527536594028244
 30
0.0
 11
0.7499999999999999
 21
0.6562499999999999
 31
0.0
  0
LINE
  5
26B
330
125
100
AcDbEntity
  8
AM_4
100
AcDbLine
 10
-0.7
 20
0.6527536594028241
 30
0.0
 11
0.7000000000000001
 21
0.6527536594028244
 31
0.0
  0
LINE
  5
26C
330
125
100
AcDbEntity
  8
AM_4
100
AcDbLine
 10
-0.7499999999999999
 20
0.6562499999999999
 30
0.0
 11
-0.7
 21
0.6527536594028241
 31
0.0
  0
LINE
  5
26D
330
125
100
AcDbEntity
  8
AM_4
100
AcDbLine
 10
-0.7499999999999999
 20
0.617445120947114
 30
0.0
 11
-1.500000000000001
 21
0.617445120947114
 31
0.0
  0
LINE
  5
26E
330
125
100
AcDbEntity
  8
AM_4
100
AcDbLine
 10
0.3474089999999999
 20
-0.4808516530790136
 30
0.0
 11
0.237218
 21
-0.4808516530790136
 31
0.0
  0
LINE
  5
26F
330
125
100
AcDbEntity
  8
AM_4
100
AcDbLine
 10
0.237218
 20
-0.4808516530790136
 30
0.0
 11
0.237218
 21
-0.4712764153770827
 31
0.0
  0
LINE
  5
270
330
125
100
AcDbEntity
  8
AM_4
100
AcDbLine
 10
0.237218
 20
-0.4712764153770827
 30
0.0
 11
0.3474089999999999
 21
-0.4712764153770827
 31
0.0
  0
LINE
  5
271
330
125
100
AcDbEntity
  8
AM_4
100
AcDbLine
 10
0.3474089999999999
 20
-0.4712764153770827
 30
0.0
 11
0.3474089999999999
 21
-0.4724987849986236
 31
0.0
  0
LINE
  5
272
330
125
100
AcDbEntity
  8
AM_4
100
AcDbLine
 10
0.3474089999999999
 20
-0.4724987849986236
 30
0.0
 11
0.255583
 21
-0.4724987849986236
 31
0.0
  0
LINE
  5
273
330
125
100
AcDbEntity
  8
AM_4
100
AcDbLine
 10
0.2555829999999999
 20
-0.4751472560083028
 30
0.0
 11
0.335166
 21
-0.4751472560083029
 31
0.0
  0
LINE
  5
274
330
125
100
AcDbEntity
  8
AM_4
100
AcDbLine
 10
0.335166
 20
-0.4751472560083029
 30
0.0
 11
0.3351660000000001
 21
-0.4763696228215969
 31
0.0
  0
LINE
  5
275
330
125
100
AcDbEntity
  8
AM_4
100
AcDbLine
 10
0.3351660000000001
 20
-0.4763696228215969
 30
0.0
 11
0.255583
 21
-0.476369622821597
 31
0.0
  0
LINE
  5
276
330
125
100
AcDbEntity
  8
AM_4
100
AcDbLine
 10
0.2555829999999999
 20
-0.4796292821917275
 30
0.0
 11
0.347409
 21
-0.4796292821917275
 31
0.0
  0
LINE
  5
277
330
125
100
AcDbEntity
  8
AM_4
100
AcDbLine
 10
0.347409
 20
-0.4796292821917275
 30
0.0
 11
0.3474089999999999
 21
-0.4808516530790136
 31
0.0
  0
LINE
  5
278
330
125
100
AcDbEntity
  8
AM_4
100
AcDbLine
 10
0.0933566999999999
 20
-0.4775919937088831
 30
0.0
 11
0.0933567
 21
-0.4745360677011917
 31
0.0
  0
LINE
  5
279
330
125
100
AcDbEntity
  8
AM_4
100
AcDbLine
 10
0.0933567
 20
-0.4745360677011917
 30
0.0
 11
0.0964177000000001
 21
-0.4735174298462483
 31
0.0
  0
LINE
  5
27A
330
125
100
AcDbEntity
  8
AM_4
100
AcDbLine
 10
0.0964177000000001
 20
-0.4735174298462483
 30
0.0
 11
0.1025390000000001
 21
-0.4727025097725398
 31
0.0
  0
LINE
  5
27B
330
125
100
AcDbEntity
  8
AM_4
100
AcDbLine
 10
0.1025390000000001
 20
-0.4727025097725398
 30
0.0
 11
0.1147829999999999
 21
-0.471887610676875
 31
0.0
  0
LINE
  5
27C
330
125
100
AcDbEntity
  8
AM_4
100
AcDbLine
 10
0.1147829999999999
 20
-0.471887610676875
 30
0.0
 11
0.1270260000000001
 21
-0.4714801331583177
 31
0.0
  0
LINE
  5
27D
330
125
100
AcDbEntity
  8
AM_4
100
AcDbLine
 10
0.1270260000000001
 20
-0.4714801331583177
 30
0.0
 11
0.169879
 21
-0.4712764153770827
 31
0.0
  0
LINE
  5
27E
330
125
100
AcDbEntity
  8
AM_4
100
AcDbLine
 10
0.169879
 20
-0.4712764153770827
 30
0.0
 11
0.1851830000000002
 21
-0.4714801331583178
 31
0.0
  0
LINE
  5
27F
330
125
100
AcDbEntity
  8
AM_4
100
AcDbLine
 10
0.1851830000000002
 20
-0.4714801331583178
 30
0.0
 11
0.1974269999999999
 21
-0.471887610676875
 31
0.0
  0
LINE
  5
280
330
125
100
AcDbEntity
  8
AM_4
100
AcDbLine
 10
0.1974269999999999
 20
-0.471887610676875
 30
0.0
 11
0.2096700000000001
 21
-0.47270250977254
 31
0.0
  0
LINE
  5
281
330
125
100
AcDbEntity
  8
AM_4
100
AcDbLine
 10
0.2096700000000001
 20
-0.47270250977254
 30
0.0
 11
0.2127309999999998
 21
-0.4737211546201645
 31
0.0
  0
LINE
  5
282
330
125
100
AcDbEntity
  8
AM_4
100
AcDbLine
 10
0.2127309999999998
 20
-0.4737211546201645
 30
0.0
 11
0.194366
 21
-0.4737211546201646
 31
0.0
  0
LINE
  5
283
330
125
100
AcDbEntity
  8
AM_4
100
AcDbLine
 10
0.194366
 20
-0.4737211546201646
 30
0.0
 11
0.191305
 21
-0.4731099802984158
 31
0.0
  0
LINE
  5
284
330
125
100
AcDbEntity
  8
AM_4
100
AcDbLine
 10
0.191305
 20
-0.4731099802984158
 30
0.0
 11
0.182122
 21
-0.4727025097725399
 31
0.0
  0
LINE
  5
285
330
125
100
AcDbEntity
  8
AM_4
100
AcDbLine
 10
0.182122
 20
-0.4727025097725399
 30
0.0
 11
0.169879
 21
-0.4724987849986236
 31
0.0
  0
LINE
  5
286
330
125
100
AcDbEntity
  8
AM_4
100
AcDbLine
 10
0.169879
 20
-0.4724987849986236
 30
0.0
 11
0.142331
 21
-0.4724987849986236
 31
0.0
  0
LINE
  5
287
330
125
100
AcDbEntity
  8
AM_4
100
AcDbLine
 10
0.142331
 20
-0.4724987849986236
 30
0.0
 11
0.1300869999999998
 21
-0.4727025097725398
 31
0.0
  0
LINE
  5
288
330
125
100
AcDbEntity
  8
AM_4
100
AcDbLine
 10
0.1300869999999998
 20
-0.4727025097725398
 30
0.0
 11
0.1209049999999999
 21
-0.4731099802984158
 31
0.0
  0
LINE
  5
289
330
125
100
AcDbEntity
  8
AM_4
100
AcDbLine
 10
0.1209049999999999
 20
-0.4731099802984158
 30
0.0
 11
0.1147829999999999
 21
-0.4737211546201646
 31
0.0
  0
LINE
  5
28A
330
125
100
AcDbEntity
  8
AM_4
100
AcDbLine
 10
0.1147829999999999
 20
-0.4737211546201646
 30
0.0
 11
0.1117220000000001
 21
-0.4745360677011918
 31
0.0
  0
LINE
  5
28B
330
125
100
AcDbEntity
  8
AM_4
100
AcDbLine
 10
0.1117220000000001
 20
-0.4775919937088831
 30
0.0
 11
0.114783
 21
-0.4784069085514158
 31
0.0
  0
LINE
  5
28C
330
125
100
AcDbEntity
  8
AM_4
100
AcDbLine
 10
0.114783
 20
-0.4784069085514158
 30
0.0
 11
0.1209050000000001
 21
-0.4790180829829567
 31
0.0
  0
LINE
  5
28D
330
125
100
AcDbEntity
  8
AM_4
100
AcDbLine
 10
0.1209050000000001
 20
-0.4790180829829567
 30
0.0
 11
0.1300870000000001
 21
-0.4794255582988892
 31
0.0
  0
LINE
  5
28E
330
125
100
AcDbEntity
  8
AM_4
100
AcDbLine
 10
0.1300870000000001
 20
-0.4794255582988892
 30
0.0
 11
0.142331
 21
-0.4796292821917275
 31
0.0
  0
LINE
  5
28F
330
125
100
AcDbEntity
  8
AM_4
100
AcDbLine
 10
0.142331
 20
-0.4796292821917275
 30
0.0
 11
0.169879
 21
-0.4796292821917275
 31
0.0
  0
LINE
  5
290
330
125
100
AcDbEntity
  8
AM_4
100
AcDbLine
 10
0.169879
 20
-0.4796292821917275
 30
0.0
 11
0.1821220000000001
 21
-0.4794255582988891
 31
0.0
  0
LINE
  5
291
330
125
100
AcDbEntity
  8
AM_4
100
AcDbLine
 10
0.1821220000000001
 20
-0.4794255582988891
 30
0.0
 11
0.1913049999999999
 21
-0.4790180829829566
 31
0.0
  0
LINE
  5
292
330
125
100
AcDbEntity
  8
AM_4
100
AcDbLine
 10
0.1913049999999999
 20
-0.4790180829829566
 30
0.0
 11
0.1943660000000001
 21
-0.4784069085514158
 31
0.0
  0
LINE
  5
293
330
125
100
AcDbEntity
  8
AM_4
100
AcDbLine
 10
0.194366
 20
-0.476777081619376
 30
0.0
 11
0.166818
 21
-0.4767770816193762
 31
0.0
  0
LINE
  5
294
330
125
100
AcDbEntity
  8
AM_4
100
AcDbLine
 10
0.166818
 20
-0.4767770816193762
 30
0.0
 11
0.166818
 21
-0.4755547111502803
 31
0.0
  0
LINE
  5
295
330
125
100
AcDbEntity
  8
AM_4
100
AcDbLine
 10
0.166818
 20
-0.4755547111502803
 30
0.0
 11
0.212731
 21
-0.4755547111502803
 31
0.0
  0
LINE
  5
296
330
125
100
AcDbEntity
  8
AM_4
100
AcDbLine
 10
0.212731
 20
-0.4755547111502803
 30
0.0
 11
0.212731
 21
-0.4786106351972797
 31
0.0
  0
LINE
  5
297
330
125
100
AcDbEntity
  8
AM_4
100
AcDbLine
 10
0.212731
 20
-0.4786106351972797
 30
0.0
 11
0.2096699999999999
 21
-0.4794255582988891
 31
0.0
  0
LINE
  5
298
330
125
100
AcDbEntity
  8
AM_4
100
AcDbLine
 10
0.2096699999999999
 20
-0.4794255582988891
 30
0.0
 11
0.1974269999999999
 21
-0.4802404538702426
 31
0.0
  0
LINE
  5
299
330
125
100
AcDbEntity
  8
AM_4
100
AcDbLine
 10
0.1974269999999999
 20
-0.4802404538702426
 30
0.0
 11
0.1851829999999999
 21
-0.4806479291861753
 31
0.0
  0
LINE
  5
29A
330
125
100
AcDbEntity
  8
AM_4
100
AcDbLine
 10
0.1851829999999999
 20
-0.4806479291861753
 30
0.0
 11
0.1698790000000001
 21
-0.4808516530790137
 31
0.0
  0
LINE
  5
29B
330
125
100
AcDbEntity
  8
AM_4
100
AcDbLine
 10
0.1698790000000001
 20
-0.4808516530790137
 30
0.0
 11
0.1270259999999998
 21
-0.4806479291861752
 31
0.0
  0
LINE
  5
29C
330
125
100
AcDbEntity
  8
AM_4
100
AcDbLine
 10
0.1270259999999998
 20
-0.4806479291861752
 30
0.0
 11
0.1147829999999999
 21
-0.4802404538702428
 31
0.0
  0
LINE
  5
29D
330
125
100
AcDbEntity
  8
AM_4
100
AcDbLine
 10
0.1147829999999999
 20
-0.4802404538702428
 30
0.0
 11
0.1025389999999999
 21
-0.4794255582988891
 31
0.0
  0
LINE
  5
29E
330
125
100
AcDbEntity
  8
AM_4
100
AcDbLine
 10
0.1025389999999999
 20
-0.4794255582988891
 30
0.0
 11
0.0964177
 21
-0.4786106351972798
 31
0.0
  0
LINE
  5
29F
330
125
100
AcDbEntity
  8
AM_4
100
AcDbLine
 10
0.0964177
 20
-0.4786106351972798
 30
0.0
 11
0.0933566999999999
 21
-0.4775919937088831
 31
0.0
  0
LINE
  5
2A0
330
125
100
AcDbEntity
  8
AM_4
100
AcDbLine
 10
0.0352001
 20
-0.4806479291861753
 30
0.0
 11
-0.053565383256
 21
-0.4808516530790136
 31
0.0
  0
LINE
  5
2A1
330
125
100
AcDbEntity
  8
AM_4
100
AcDbLine
 10
-0.053565383256
 20
-0.4808516530790136
 30
0.0
 11
-0.053565383256
 21
-0.4712764153770827
 31
0.0
  0
LINE
  5
2A2
330
125
100
AcDbEntity
  8
AM_4
100
AcDbLine
 10
-0.053565383256
 20
-0.4712764153770827
 30
0.0
 11
0.0352001
 21
-0.4714801331583177
 31
0.0
  0
LINE
  5
2A3
330
125
100
AcDbEntity
  8
AM_4
100
AcDbLine
 10
0.0352001
 20
-0.4714801331583177
 30
0.0
 11
0.0474436999999999
 21
-0.471887610676875
 31
0.0
  0
LINE
  5
2A4
330
125
100
AcDbEntity
  8
AM_4
100
AcDbLine
 10
0.0474436999999999
 20
-0.471887610676875
 30
0.0
 11
0.059687
 21
-0.4727025097725398
 31
0.0
  0
LINE
  5
2A5
330
125
100
AcDbEntity
  8
AM_4
100
AcDbLine
 10
0.059687
 20
-0.4727025097725398
 30
0.0
 11
0.0658091000000001
 21
-0.4735174298462483
 31
0.0
  0
LINE
  5
2A6
330
125
100
AcDbEntity
  8
AM_4
100
AcDbLine
 10
0.0658091000000001
 20
-0.4735174298462483
 30
0.0
 11
0.0688697
 21
-0.4745360677011918
 31
0.0
  0
LINE
  5
2A7
330
125
100
AcDbEntity
  8
AM_4
100
AcDbLine
 10
0.0688697
 20
-0.4745360677011918
 30
0.0
 11
0.0688697
 21
-0.4775919937088831
 31
0.0
  0
LINE
  5
2A8
330
125
100
AcDbEntity
  8
AM_4
100
AcDbLine
 10
0.0688697
 20
-0.4775919937088831
 30
0.0
 11
0.0658091
 21
-0.4786106351972798
 31
0.0
  0
LINE
  5
2A9
330
125
100
AcDbEntity
  8
AM_4
100
AcDbLine
 10
0.0658091
 20
-0.4786106351972798
 30
0.0
 11
0.059687
 21
-0.4794255582988891
 31
0.0
  0
LINE
  5
2AA
330
125
100
AcDbEntity
  8
AM_4
100
AcDbLine
 10
0.059687
 20
-0.4794255582988891
 30
0.0
 11
0.0474437000000001
 21
-0.4802404538702428
 31
0.0
  0
LINE
  5
2AB
330
125
100
AcDbEntity
  8
AM_4
100
AcDbLine
 10
0.0474437000000001
 20
-0.4802404538702428
 30
0.0
 11
0.0352001
 21
-0.4806479291861753
 31
0.0
  0
LINE
  5
2AC
330
125
100
AcDbEntity
  8
AM_4
100
AcDbLine
 10
-0.200487509838
 20
-0.4775919937088832
 30
0.0
 11
-0.200487509838
 21
-0.4745360677011917
 31
0.0
  0
LINE
  5
2AD
330
125
100
AcDbEntity
  8
AM_4
100
AcDbLine
 10
-0.200487509838
 20
-0.4745360677011917
 30
0.0
 11
-0.1974268782639999
 21
-0.4735174298462483
 31
0.0
  0
LINE
  5
2AE
330
125
100
AcDbEntity
  8
AM_4
100
AcDbLine
 10
-0.1974268782639999
 20
-0.4735174298462483
 30
0.0
 11
-0.1913048277139999
 21
-0.4727025097725399
 31
0.0
  0
LINE
  5
2AF
330
125
100
AcDbEntity
  8
AM_4
100
AcDbLine
 10
-0.1913048277139999
 20
-0.4727025097725399
 30
0.0
 11
-0.1790615140160002
 21
-0.471887610676875
 31
0.0
  0
LINE
  5
2B0
330
125
100
AcDbEntity
  8
AM_4
100
AcDbLine
 10
-0.1790615140160002
 20
-0.471887610676875
 30
0.0
 11
-0.166817806617
 21
-0.4714801331583178
 31
0.0
  0
LINE
  5
2B1
330
125
100
AcDbEntity
  8
AM_4
100
AcDbLine
 10
-0.166817806617
 20
-0.4714801331583178
 30
0.0
 11
-0.151513467644
 21
-0.4712764153770826
 31
0.0
  0
LINE
  5
2B2
330
125
100
AcDbEntity
  8
AM_4
100
AcDbLine
 10
-0.151513467644
 20
-0.4712764153770826
 30
0.0
 11
-0.1117221075740001
 21
-0.4714801331583177
 31
0.0
  0
LINE
  5
2B3
330
125
100
AcDbEntity
  8
AM_4
100
AcDbLine
 10
-0.1117221075740001
 20
-0.4714801331583177
 30
0.0
 11
-0.0994784001750002
 21
-0.4718876106768748
 31
0.0
  0
LINE
  5
2B4
330
125
100
AcDbEntity
  8
AM_4
100
AcDbLine
 10
-0.0994784001750002
 20
-0.4718876106768748
 30
0.0
 11
-0.0872350864770001
 21
-0.4727025097725398
 31
0.0
  0
LINE
  5
2B5
330
125
100
AcDbEntity
  8
AM_4
100
AcDbLine
 10
-0.0872350864770001
 20
-0.4727025097725398
 30
0.0
 11
-0.081113429628
 21
-0.4735174298462482
 31
0.0
  0
LINE
  5
2B6
330
125
100
AcDbEntity
  8
AM_4
100
AcDbLine
 10
-0.081113429628
 20
-0.4735174298462482
 30
0.0
 11
-0.0780524043530001
 21
-0.4745360677011919
 31
0.0
  0
LINE
  5
2B7
330
125
100
AcDbEntity
  8
AM_4
100
AcDbLine
 10
-0.0780524043530001
 20
-0.4745360677011919
 30
0.0
 11
-0.078052404353
 21
-0.4775919937088831
 31
0.0
  0
LINE
  5
2B8
330
125
100
AcDbEntity
  8
AM_4
100
AcDbLine
 10
-0.078052404353
 20
-0.4775919937088831
 30
0.0
 11
-0.0811134296280001
 21
-0.4786106351972798
 31
0.0
  0
LINE
  5
2B9
330
125
100
AcDbEntity
  8
AM_4
100
AcDbLine
 10
-0.0811134296280001
 20
-0.4786106351972798
 30
0.0
 11
-0.087235086477
 21
-0.4794255582988891
 31
0.0
  0
LINE
  5
2BA
330
125
100
AcDbEntity
  8
AM_4
100
AcDbLine
 10
-0.087235086477
 20
-0.4794255582988891
 30
0.0
 11
-0.099478400175
 21
-0.4802404538702426
 31
0.0
  0
LINE
  5
2BB
330
125
100
AcDbEntity
  8
AM_4
100
AcDbLine
 10
-0.099478400175
 20
-0.4802404538702426
 30
0.0
 11
-0.1117221075739999
 21
-0.4806479291861753
 31
0.0
  0
LINE
  5
2BC
330
125
100
AcDbEntity
  8
AM_4
100
AcDbLine
 10
-0.1117221075739999
 20
-0.4806479291861753
 30
0.0
 11
-0.1270264465470002
 21
-0.4808516530790136
 31
0.0
  0
LINE
  5
2BD
330
125
100
AcDbEntity
  8
AM_4
100
AcDbLine
 10
-0.1270264465470002
 20
-0.4808516530790136
 30
0.0
 11
-0.166817806617
 21
-0.4806479291861752
 31
0.0
  0
LINE
  5
2BE
330
125
100
AcDbEntity
  8
AM_4
100
AcDbLine
 10
-0.166817806617
 20
-0.4806479291861752
 30
0.0
 11
-0.1790615140159999
 21
-0.4802404538702428
 31
0.0
  0
LINE
  5
2BF
330
125
100
AcDbEntity
  8
AM_4
100
AcDbLine
 10
-0.1790615140159999
 20
-0.4802404538702428
 30
0.0
 11
-0.191304827714
 21
-0.4794255582988891
 31
0.0
  0
LINE
  5
2C0
330
125
100
AcDbEntity
  8
AM_4
100
AcDbLine
 10
-0.191304827714
 20
-0.4794255582988891
 30
0.0
 11
-0.197426878264
 21
-0.4786106351972798
 31
0.0
  0
LINE
  5
2C1
330
125
100
AcDbEntity
  8
AM_4
100
AcDbLine
 10
-0.197426878264
 20
-0.4786106351972798
 30
0.0
 11
-0.200487509838
 21
-0.4775919937088832
 31
0.0
  0
LINE
  5
2C2
330
125
100
AcDbEntity
  8
AM_4
100
AcDbLine
 10
-0.3474096364199999
 20
-0.4808516530790136
 30
0.0
 11
-0.3474096364199999
 21
-0.4712764153770826
 31
0.0
  0
LINE
  5
2C3
330
125
100
AcDbEntity
  8
AM_4
100
AcDbLine
 10
-0.3474096364199999
 20
-0.4712764153770826
 30
0.0
 11
-0.2586442341560002
 21
-0.4714801331583178
 31
0.0
  0
LINE
  5
2C4
330
125
100
AcDbEntity
  8
AM_4
100
AcDbLine
 10
-0.2586442341560002
 20
-0.4714801331583178
 30
0.0
 11
-0.246400920458
 21
-0.471887610676875
 31
0.0
  0
LINE
  5
2C5
330
125
100
AcDbEntity
  8
AM_4
100
AcDbLine
 10
-0.246400920458
 20
-0.471887610676875
 30
0.0
 11
-0.2341572130589999
 21
-0.4727025097725398
 31
0.0
  0
LINE
  5
2C6
330
125
100
AcDbEntity
  8
AM_4
100
AcDbLine
 10
-0.2341572130589999
 20
-0.4727025097725398
 30
0.0
 11
-0.22803555621
 21
-0.4735174298462483
 31
0.0
  0
LINE
  5
2C7
330
125
100
AcDbEntity
  8
AM_4
100
AcDbLine
 10
-0.22803555621
 20
-0.4735174298462483
 30
0.0
 11
-0.2249745309349999
 21
-0.4745360677011917
 31
0.0
  0
LINE
  5
2C8
330
125
100
AcDbEntity
  8
AM_4
100
AcDbLine
 10
-0.2249745309349999
 20
-0.4745360677011917
 30
0.0
 11
-0.2249745309349999
 21
-0.4775919937088831
 31
0.0
  0
LINE
  5
2C9
330
125
100
AcDbEntity
  8
AM_4
100
AcDbLine
 10
-0.2249745309349999
 20
-0.4775919937088831
 30
0.0
 11
-0.2280355562099999
 21
-0.4786106351972798
 31
0.0
  0
LINE
  5
2CA
330
125
100
AcDbEntity
  8
AM_4
100
AcDbLine
 10
-0.2280355562099999
 20
-0.4786106351972798
 30
0.0
 11
-0.234157213059
 21
-0.4794255582988891
 31
0.0
  0
LINE
  5
2CB
330
125
100
AcDbEntity
  8
AM_4
100
AcDbLine
 10
-0.234157213059
 20
-0.4794255582988891
 30
0.0
 11
-0.2464009204579999
 21
-0.4802404538702427
 31
0.0
  0
LINE
  5
2CC
330
125
100
AcDbEntity
  8
AM_4
100
AcDbLine
 10
-0.2464009204579999
 20
-0.4802404538702427
 30
0.0
 11
-0.258644234156
 21
-0.4806479291861752
 31
0.0
  0
LINE
  5
2CD
330
125
100
AcDbEntity
  8
AM_4
100
AcDbLine
 10
-0.258644234156
 20
-0.4806479291861752
 30
0.0
 11
-0.3474096364199999
 21
-0.4808516530790136
 31
0.0
  0
LWPOLYLINE
  5
2CE
330
125
100
AcDbEntity
  8
AM_4
100
AcDbPolyline
 90
       19
 70
     0
 43
0.0
 10
0.0
 20
-0.4841181597198547
 10
0.0892126182765029
 20
-0.4843905321368713
 10
0.1777462746598699
 20
-0.4852055764693649
 10
0.2649271745669403
 20
-0.4865570897378277
 10
0.3500918187081546
 20
-0.488434786110221
 10
0.4325920527177801
 20
-0.4908243751833666
 10
0.5118000000000001
 20
-0.4937076707415446
 10
0.587112840248931
 20
-0.4970627291645758
 10
0.6579573972751418
 20
-0.5008640164320213
 10
0.7237945012225502
 20
-0.5050826024524957
 10
0.7841230919765861
 20
-0.5096863812391315
 10
0.8384840325342122
 20
-0.5146403152555247
 10
0.8864636033137516
 20
-0.5199067020725433
 10
0.9276966508107151
 20
-0.5254454613065785
 10
0.9618693666364562
 20
-0.5312144396554652
 10
0.9887216757894907
 20
-0.5371697317105639
 10
1.008049215983297
 20
-0.5432660141034317
 10
1.019704892966711
 20
-0.5494568904440227
 10
1.0236
 20
-0.5556952444252319
  0
LINE
  5
2CF
330
125
100
AcDbEntity
  8
AM_4
100
AcDbLine
 10
1.499999999999998
 20
-0.617445120947114
 30
0.0
 11
0.8952172593321968
 21
-0.617445120947114
 31
0.0
  0
LINE
  5
2D0
330
125
100
AcDbEntity
  8
AM_4
100
AcDbLine
 10
1.5
 20
0.7499999999999999
 30
0.0
 11
1.499999999999998
 21
-0.7499999999999999
 31
0.0
  0
LINE
  5
2D1
330
125
100
AcDbEntity
  8
AM_4
100
AcDbLine
 10
-1.500000000000001
 20
0.7499999999999999
 30
0.0
 11
-1.500000000000001
 21
-0.7499999999999999
 31
0.0
  0
LINE
  5
2D2
330
125
100
AcDbEntity
  8
AM_4
100
AcDbLine
 10
-0.8984374999999998
 20
-0.617445120947114
 30
0.0
 11
-1.500000000000001
 21
-0.617445120947114
 31
0.0
  0
LWPOLYLINE
  5
2D3
330
125
100
AcDbEntity
  8
AM_4
100
AcDbPolyline
 90
       37
 70
     0
 43
0.0
 10
-1.5
 20
-0.5644360959181707
 10
-1.494292047137618
 20
-0.555294311068802
 10
-1.477211629518312
 20
-0.5462221007220976
 10
-1.448888739433603
 20
-0.5372885098767464
 10
-1.409538931178863
 20
-0.5285615285533309
 10
-1.359461680554975
 20
-0.5201075743492181
 10
-1.299038105676659
 20
-0.5119909869605379
 10
-1.228728066433489
 20
-0.5042735385182481
 10
-1.149066664678468
 20
-0.4970139634649169
 10
-1.060660171779823
 20
-0.4902675115501517
 10
-0.9641814145298104
 20
-0.4840855273466428
 10
-0.8603646545265706
 20
-0.478515059486963
 10
-0.7500000000000017
 20
-0.4735985025950651
 10
-0.6339273926110511
 20
-0.4693732746375944
 10
-0.5130302149885053
 20
-0.4658715321505697
 10
-0.3882285676537836
 20
-0.4631199255087273
 10
-0.2604722665003981
 20
-0.4611393961000771
 10
-0.13073361412149
 20
-0.4599450169492952
 10
-0.0000000000000029
 20
-0.459545878002905
 10
0.1307336141214842
 20
-0.4599450169492951
 10
0.2604722665003925
 20
-0.461139396100077
 10
0.3882285676537779
 20
-0.4631199255087272
 10
0.5130302149884999
 20
-0.4658715321505696
 10
0.633927392611046
 20
-0.4693732746375941
 10
0.7499999999999968
 20
-0.4735985025950648
 10
0.8603646545265659
 20
-0.4785150594869628
 10
0.964181414529806
 20
-0.4840855273466426
 10
1.060660171779819
 20
-0.4902675115501514
 10
1.149066664678465
 20
-0.4970139634649166
 10
1.228728066433485
 20
-0.5042735385182477
 10
1.299038105676656
 20
-0.5119909869605376
 10
1.359461680554973
 20
-0.5201075743492176
 10
1.409538931178861
 20
-0.5285615285533306
 10
1.448888739433601
 20
-0.537288509876746
 10
1.477211629518312
 20
-0.5462221007220973
 10
1.494292047137618
 20
-0.5552943110688017
 10
1.5
 20
-0.5644360959181703
  0
LWPOLYLINE
  5
2D4
330
125
100
AcDbEntity
  8
AM_4
100
AcDbPolyline
 90
       37
 70
     0
 43
0.0
 10
1.5
 20
0.5644360959181706
 10
1.494292047137618
 20
0.5552943110688019
 10
1.477211629518312
 20
0.5462221007220975
 10
1.448888739433602
 20
0.5372885098767463
 10
1.409538931178863
 20
0.5285615285533308
 10
1.359461680554975
 20
0.5201075743492178
 10
1.299038105676658
 20
0.5119909869605377
 10
1.228728066433488
 20
0.5042735385182477
 10
1.149066664678468
 20
0.4970139634649167
 10
1.060660171779822
 20
0.4902675115501515
 10
0.9641814145298101
 20
0.4840855273466426
 10
0.8603646545265705
 20
0.4785150594869627
 10
0.7500000000000016
 20
0.4735985025950648
 10
0.633927392611051
 20
0.469373274637594
 10
0.5130302149885053
 20
0.4658715321505694
 10
0.3882285676537834
 20
0.4631199255087269
 10
0.2604722665003981
 20
0.4611393961000767
 10
0.1307336141214901
 20
0.459945016949295
 10
0.000000000000003
 20
0.4595458780029047
 10
-0.1307336141214841
 20
0.4599450169492948
 10
-0.2604722665003922
 20
0.4611393961000766
 10
-0.3882285676537777
 20
0.4631199255087269
 10
-0.5130302149884995
 20
0.4658715321505692
 10
-0.6339273926110456
 20
0.4693732746375938
 10
-0.7499999999999963
 20
0.4735985025950645
 10
-0.8603646545265655
 20
0.4785150594869625
 10
-0.9641814145298055
 20
0.4840855273466423
 10
-1.060660171779818
 20
0.4902675115501512
 10
-1.149066664678464
 20
0.4970139634649164
 10
-1.228728066433485
 20
0.5042735385182474
 10
-1.299038105676655
 20
0.5119909869605374
 10
-1.359461680554972
 20
0.5201075743492174
 10
-1.40953893117886
 20
0.5285615285533304
 10
-1.448888739433601
 20
0.5372885098767458
 10
-1.47721162951831
 20
0.5462221007220971
 10
-1.494292047137617
 20
0.5552943110688014
 10
-1.499999999999999
 20
0.5644360959181701
  0
ARC
  5
2D5
330
125
100
AcDbEntity
  8
AM_5
100
AcDbCircle
 10
1.0
 20
0.0
 30
0.0
 40
0.1875
100
AcDbArc
 50
75.0
 51
15.00000000000004
  0
ARC
  5
2D6
330
125
100
AcDbEntity
  8
AM_5
100
AcDbCircle
 10
-1.0
 20
0.0000000000000001
 30
0.0
 40
0.1875
100
AcDbArc
 50
75.0
 51
15.0
  0
ENDBLK
  5
128
330
125
100
AcDbEntity
  8
0
100
AcDbBlockEnd
  0
ENDSEC
  0
SECTION
  2
ENTITIES
  0
INSERT
  5
6F
330
1F
100
AcDbEntity
  8
0
100
AcDbBlockReference
  2
1_129148_4
 10
0.0
 20
0.0
 30
0.0
  0
POINT
  5
2D8
330
1F
100
AcDbEntity
  8
ConnectionPoints
100
AcDbPoint
 10
0.0
 20
0.0
 30
0.0
  0
POINT
  5
2D9
330
1F
100
AcDbEntity
  8
ConnectionPoints
100
AcDbPoint
 10
0.0
 20
0.5
 30
0.0
  0
POINT
  5
2DA
330
1F
100
AcDbEntity
  8
ConnectionPoints
100
AcDbPoint
 10
0.0
 20
0.0
 30
0.0
  0
POINT
  5
2DB
330
1F
100
AcDbEntity
  8
ConnectionPoints
100
AcDbPoint
 10
0.0
 20
0.0
 30
0.0
  0
ENDSEC
  0
SECTION
  2
OBJECTS
  0
DICTIONARY
  5
C
330
0
100
AcDbDictionary
281
     1
  3
ACAD_DETAILVIEWSTYLE
350
2E3
  3
ACAD_GROUP
350
D
  3
ACAD_LAYOUT
350
1A
  3
ACAD_MATERIAL
350
43
  3
ACAD_MLEADERSTYLE
350
6B
  3
ACAD_MLINESTYLE
350
17
  3
ACAD_PLOTSETTINGS
350
19
  3
ACAD_PLOTSTYLENAME
350
E
  3
ACAD_SCALELIST
350
47
  3
ACAD_SECTIONVIEWSTYLE
350
2E4
  3
ACAD_TABLESTYLE
350
69
  3
ACAD_VISUALSTYLE
350
2A
  3
ACDB_RECOMPOSE_DATA
350
2E0
  3
AcDbVariableDictionary
350
2DC
  0
SUN
  5
6D
330
29
100
AcDbSun
 90
        1
290
     0
 63
     7
421
 16777215
 40
1.0
291
     1
 91
  2455826
 92
 54000000
292
     0
 70
     2
 71
   256
280
     1
  0
DICTIONARY
  5
2E3
102
{ACAD_REACTORS
330
C
102
}
330
C
100
AcDbDictionary
281
     1
  0
DICTIONARY
  5
D
102
{ACAD_REACTORS
330
C
102
}
330
C
100
AcDbDictionary
281
     1
  0
DICTIONARY
  5
1A
102
{ACAD_REACTORS
330
C
102
}
330
C
100
AcDbDictionary
281
     1
  3
Layout1
350
1E
  3
Layout2
350
26
  3
Model
350
22
  0
DICTIONARY
  5
43
102
{ACAD_REACTORS
330
C
102
}
330
C
100
AcDbDictionary
281
     1
  3
ByBlock
350
45
  3
ByLayer
350
44
  3
Global
350
46
  0
DICTIONARY
  5
6B
102
{ACAD_REACTORS
330
C
102
}
330
C
100
AcDbDictionary
281
     1
  3
Standard
350
6C
  0
DICTIONARY
  5
17
102
{ACAD_REACTORS
330
C
102
}
330
C
100
AcDbDictionary
281
     1
  3
Standard
350
18
  0
DICTIONARY
  5
19
102
{ACAD_REACTORS
330
C
102
}
330
C
100
AcDbDictionary
281
     1
  0
ACDBDICTIONARYWDFLT
  5
E
102
{ACAD_REACTORS
330
C
102
}
330
C
100
AcDbDictionary
281
     1
  3
Normal
350
F
100
AcDbDictionaryWithDefault
340
F
  0
DICTIONARY
  5
47
102
{ACAD_REACTORS
330
C
102
}
330
C
100
AcDbDictionary
281
     1
  3
A0
350
48
  3
A1
350
49
  3
A2
350
4A
  3
A3
350
4B
  3
A4
350
4C
  3
A5
350
4D
  3
A6
350
4E
  3
A7
350
4F
  3
A8
350
50
  3
A9
350
51
  3
B0
350
52
  3
B1
350
53
  3
B2
350
54
  3
B3
350
55
  3
B4
350
56
  3
B5
350
57
  3
B6
350
58
  3
B7
350
59
  3
B8
350
5A
  3
B9
350
5B
  3
C0
350
5C
  3
C1
350
5D
  3
C2
350
5E
  3
C3
350
5F
  3
C4
350
60
  3
C5
350
61
  3
C6
350
62
  3
C7
350
63
  3
C8
350
64
  3
C9
350
65
  3
D0
350
66
  3
D1
350
67
  3
D2
350
68
  0
DICTIONARY
  5
2E4
102
{ACAD_REACTORS
330
C
102
}
330
C
100
AcDbDictionary
281
     1
  0
DICTIONARY
  5
69
102
{ACAD_REACTORS
330
C
102
}
330
C
100
AcDbDictionary
281
     1
  3
Standard
350
6A
  0
DICTIONARY
  5
2A
102
{ACAD_REACTORS
330
C
102
}
330
C
100
AcDbDictionary
281
     1
  3
2dWireframe
350
2F
  3
Basic
350
32
  3
Brighten
350
36
  3
ColorChange
350
3A
  3
Conceptual
350
34
  3
Dim
350
35
  3
EdgeColorOff
350
3D
  3
Facepattern
350
39
  3
Flat
350
2B
  3
FlatWithEdges
350
2C
  3
Gouraud
350
2D
  3
GouraudWithEdges
350
2E
  3
Hidden
350
31
  3
JitterOff
350
3B
  3
Linepattern
350
38
  3
OverhangOff
350
3C
  3
Realistic
350
33
  3
Shaded
350
42
  3
Shaded with edges
350
41
  3
Shades of Gray
350
3E
  3
Sketchy
350
3F
  3
Thicken
350
37
  3
Wireframe
350
30
  3
X-Ray
350
40
  0
XRECORD
  5
2E0
102
{ACAD_REACTORS
330
C
102
}
330
C
100
AcDbXrecord
280
     1
 90
        1
330
6A
  0
DICTIONARY
  5
2DC
102
{ACAD_REACTORS
330
C
102
}
330
C
100
AcDbDictionary
281
     1
  3
CANNOSCALE
350
2DD
  3
CMLEADERSTYLE
350
2E2
  3
CTABLESTYLE
350
2E1
  0
LAYOUT
  5
1E
102
{ACAD_REACTORS
330
1A
102
}
330
1A
100
AcDbPlotSettings
  1

  2
none_device
  4

  6

 40
0.0
 41
0.0
 42
0.0
 43
0.0
 44
0.0
 45
0.0
 46
0.0
 47
0.0
 48
0.0
 49
0.0
140
0.0
141
0.0
142
1.0
143
1.0
 70
   688
 72
     0
 73
     0
 74
     5
  7

 75
    16
 76
     0
 77
     2
 78
   300
147
1.0
148
0.0
149
0.0
100
AcDbLayout
  1
Layout1
 70
     1
 71
     1
 10
0.0
 20
0.0
 11
12.0
 21
9.0
 12
0.0
 22
0.0
 32
0.0
 14
1.000000000000000E+20
 24
1.000000000000000E+20
 34
1.000000000000000E+20
 15
-1.000000000000000E+20
 25
-1.000000000000000E+20
 35
-1.000000000000000E+20
146
0.0
 13
0.0
 23
0.0
 33
0.0
 16
1.0
 26
0.0
 36
0.0
 17
0.0
 27
1.0
 37
0.0
 76
     0
330
1B
  0
LAYOUT
  5
26
102
{ACAD_REACTORS
330
1A
102
}
330
1A
100
AcDbPlotSettings
  1

  2
none_device
  4

  6

 40
0.0
 41
0.0
 42
0.0
 43
0.0
 44
0.0
 45
0.0
 46
0.0
 47
0.0
 48
0.0
 49
0.0
140
0.0
141
0.0
142
1.0
143
1.0
 70
   688
 72
     0
 73
     0
 74
     5
  7

 75
    16
 76
     0
 77
     2
 78
   300
147
1.0
148
0.0
149
0.0
100
AcDbLayout
  1
Layout2
 70
     1
 71
     2
 10
0.0
 20
0.0
 11
0.0
 21
0.0
 12
0.0
 22
0.0
 32
0.0
 14
0.0
 24
0.0
 34
0.0
 15
0.0
 25
0.0
 35
0.0
146
0.0
 13
0.0
 23
0.0
 33
0.0
 16
1.0
 26
0.0
 36
0.0
 17
0.0
 27
1.0
 37
0.0
 76
     0
330
23
  0
LAYOUT
  5
22
102
{ACAD_REACTORS
330
1A
102
}
330
1A
100
AcDbPlotSettings
  1

  2
none_device
  4
Letter_(8.50_x_11.00_Inches)
  6

 40
6.35
 41
6.35
 42
6.35000508
 43
6.35000508
 44
215.9
 45
279.4
 46
0.0
 47
0.0
 48
0.0
 49
0.0
140
0.0
141
0.0
142
1.0
143
1.0
 70
  1712
 72
     0
 73
     0
 74
     0
  7

 75
     0
 76
     0
 77
     2
 78
   300
147
1.0
148
0.0
149
0.0
100
AcDbLayout
  1
Model
 70
     1
 71
     0
 10
0.0
 20
0.0
 11
12.0
 21
9.0
 12
0.0
 22
0.0
 32
0.0
 14
1.000000000000000E+20
 24
1.000000000000000E+20
 34
1.000000000000000E+20
 15
-1.000000000000000E+20
 25
-1.000000000000000E+20
 35
-1.000000000000000E+20
146
0.0
 13
0.0
 23
0.0
 33
0.0
 16
1.0
 26
0.0
 36
0.0
 17
0.0
 27
1.0
 37
0.0
 76
     0
330
1F
331
29
  0
MATERIAL
  5
45
102
{ACAD_REACTORS
330
43
102
}
330
43
100
AcDbMaterial
  1
ByBlock
 72
     1
 94
      127
  0
MATERIAL
  5
44
102
{ACAD_REACTORS
330
43
102
}
330
43
100
AcDbMaterial
  1
ByLayer
 72
     1
 94
      127
  0
MATERIAL
  5
46
102
{ACAD_REACTORS
330
43
102
}
330
43
100
AcDbMaterial
  1
Global
 72
     1
 94
      127
  0
MLEADERSTYLE
  5
6C
102
{ACAD_REACTORS
330
6B
102
}
330
6B
100
AcDbMLeaderStyle
179
     2
170
     2
171
     1
172
     0
 90
        2
 40
0.0
 41
0.0
173
     1
 91
-1056964608
340
14
 92
       -2
290
     1
 42
0.09
291
     1
 43
0.36
  3
Standard
341
0
 44
0.18
300

342
11
174
     1
178
     6
175
     1
176
     0
 93
-1056964608
 45
0.18
292
     0
297
     0
 46
0.18
343
0
 94
-1056964608
 47
1.0
 49
1.0
140
1.0
293
     1
141
0.0
294
     1
177
     0
142
1.0
295
     0
296
     0
143
0.125
271
     0
272
     9
273
     9
298
     0
  0
MLINESTYLE
  5
18
102
{ACAD_REACTORS
330
17
102
}
330
17
100
AcDbMlineStyle
  2
Standard
 70
     0
  3

 62
   256
 51
90.0
 52
90.0
 71
     2
 49
0.5
 62
   256
  6
BYLAYER
 49
-0.5
 62
   256
  6
BYLAYER
  0
ACDBPLACEHOLDER
  5
F
102
{ACAD_REACTORS
330
E
102
}
330
E
  0
SCALE
  5
48
102
{ACAD_REACTORS
330
47
102
}
330
47
100
AcDbScale
 70
     0
300
1:1
140
1.0
141
1.0
290
     1
  0
SCALE
  5
49
102
{ACAD_REACTORS
330
47
102
}
330
47
100
AcDbScale
 70
     0
300
1:2
140
1.0
141
2.0
290
     0
  0
SCALE
  5
4A
102
{ACAD_REACTORS
330
47
102
}
330
47
100
AcDbScale
 70
     0
300
1:4
140
1.0
141
4.0
290
     0
  0
SCALE
  5
4B
102
{ACAD_REACTORS
330
47
102
}
330
47
100
AcDbScale
 70
     0
300
1:5
140
1.0
141
5.0
290
     0
  0
SCALE
  5
4C
102
{ACAD_REACTORS
330
47
102
}
330
47
100
AcDbScale
 70
     0
300
1:8
140
1.0
141
8.0
290
     0
  0
SCALE
  5
4D
102
{ACAD_REACTORS
330
47
102
}
330
47
100
AcDbScale
 70
     0
300
1:10
140
1.0
141
10.0
290
     0
  0
SCALE
  5
4E
102
{ACAD_REACTORS
330
47
102
}
330
47
100
AcDbScale
 70
     0
300
1:16
140
1.0
141
16.0
290
     0
  0
SCALE
  5
4F
102
{ACAD_REACTORS
330
47
102
}
330
47
100
AcDbScale
 70
     0
300
1:20
140
1.0
141
20.0
290
     0
  0
SCALE
  5
50
102
{ACAD_REACTORS
330
47
102
}
330
47
100
AcDbScale
 70
     0
300
1:30
140
1.0
141
30.0
290
     0
  0
SCALE
  5
51
102
{ACAD_REACTORS
330
47
102
}
330
47
100
AcDbScale
 70
     0
300
1:40
140
1.0
141
40.0
290
     0
  0
SCALE
  5
52
102
{ACAD_REACTORS
330
47
102
}
330
47
100
AcDbScale
 70
     0
300
1:50
140
1.0
141
50.0
290
     0
  0
SCALE
  5
53
102
{ACAD_REACTORS
330
47
102
}
330
47
100
AcDbScale
 70
     0
300
1:100
140
1.0
141
100.0
290
     0
  0
SCALE
  5
54
102
{ACAD_REACTORS
330
47
102
}
330
47
100
AcDbScale
 70
     0
300
2:1
140
2.0
141
1.0
290
     0
  0
SCALE
  5
55
102
{ACAD_REACTORS
330
47
102
}
330
47
100
AcDbScale
 70
     0
300
4:1
140
4.0
141
1.0
290
     0
  0
SCALE
  5
56
102
{ACAD_REACTORS
330
47
102
}
330
47
100
AcDbScale
 70
     0
300
8:1
140
8.0
141
1.0
290
     0
  0
SCALE
  5
57
102
{ACAD_REACTORS
330
47
102
}
330
47
100
AcDbScale
 70
     0
300
10:1
140
10.0
141
1.0
290
     0
  0
SCALE
  5
58
102
{ACAD_REACTORS
330
47
102
}
330
47
100
AcDbScale
 70
     0
300
100:1
140
100.0
141
1.0
290
     0
  0
SCALE
  5
59
102
{ACAD_REACTORS
330
47
102
}
330
47
100
AcDbScale
 70
     0
300
1/128" = 1'-0"
140
0.0078125
141
12.0
290
     0
  0
SCALE
  5
5A
102
{ACAD_REACTORS
330
47
102
}
330
47
100
AcDbScale
 70
     0
300
1/64" = 1'-0"
140
0.015625
141
12.0
290
     0
  0
SCALE
  5
5B
102
{ACAD_REACTORS
330
47
102
}
330
47
100
AcDbScale
 70
     0
300
1/32" = 1'-0"
140
0.03125
141
12.0
290
     0
  0
SCALE
  5
5C
102
{ACAD_REACTORS
330
47
102
}
330
47
100
AcDbScale
 70
     0
300
1/16" = 1'-0"
140
0.0625
141
12.0
290
     0
  0
SCALE
  5
5D
102
{ACAD_REACTORS
330
47
102
}
330
47
100
AcDbScale
 70
     0
300
3/32" = 1'-0"
140
0.09375
141
12.0
290
     0
  0
SCALE
  5
5E
102
{ACAD_REACTORS
330
47
102
}
330
47
100
AcDbScale
 70
     0
300
1/8" = 1'-0"
140
0.125
141
12.0
290
     0
  0
SCALE
  5
5F
102
{ACAD_REACTORS
330
47
102
}
330
47
100
AcDbScale
 70
     0
300
3/16" = 1'-0"
140
0.1875
141
12.0
290
     0
  0
SCALE
  5
60
102
{ACAD_REACTORS
330
47
102
}
330
47
100
AcDbScale
 70
     0
300
1/4" = 1'-0"
140
0.25
141
12.0
290
     0
  0
SCALE
  5
61
102
{ACAD_REACTORS
330
47
102
}
330
47
100
AcDbScale
 70
     0
300
3/8" = 1'-0"
140
0.375
141
12.0
290
     0
  0
SCALE
  5
62
102
{ACAD_REACTORS
330
47
102
}
330
47
100
AcDbScale
 70
     0
300
1/2" = 1'-0"
140
0.5
141
12.0
290
     0
  0
SCALE
  5
63
102
{ACAD_REACTORS
330
47
102
}
330
47
100
AcDbScale
 70
     0
300
3/4" = 1'-0"
140
0.75
141
12.0
290
     0
  0
SCALE
  5
64
102
{ACAD_REACTORS
330
47
102
}
330
47
100
AcDbScale
 70
     0
300
1" = 1'-0"
140
1.0
141
12.0
290
     0
  0
SCALE
  5
65
102
{ACAD_REACTORS
330
47
102
}
330
47
100
AcDbScale
 70
     0
300
1-1/2" = 1'-0"
140
1.5
141
12.0
290
     0
  0
SCALE
  5
66
102
{ACAD_REACTORS
330
47
102
}
330
47
100
AcDbScale
 70
     0
300
3" = 1'-0"
140
3.0
141
12.0
290
     0
  0
SCALE
  5
67
102
{ACAD_REACTORS
330
47
102
}
330
47
100
AcDbScale
 70
     0
300
6" = 1'-0"
140
6.0
141
12.0
290
     0
  0
SCALE
  5
68
102
{ACAD_REACTORS
330
47
102
}
330
47
100
AcDbScale
 70
     0
300
1'-0" = 1'-0"
140
12.0
141
12.0
290
     0
  0
TABLESTYLE
  5
6A
102
{ACAD_REACTORS
330
69
102
}
102
{ACAD_XDICTIONARY
360
2DE
102
}
330
69
100
AcDbTableStyle
  3
Standard
 70
     0
 71
     0
 40
0.06
 41
0.06
280
     0
281
     0
  7
Standard
140
0.18
170
     2
 62
     0
 63
   257
283
     0
 90
        4
 91
        0
  1

274
    -2
284
     1
 64
     0
275
    -2
285
     1
 65
     0
276
    -2
286
     1
 66
     0
277
    -2
287
     1
 67
     0
278
    -2
288
     1
 68
     0
279
    -2
289
     1
 69
     0
  7
Standard
140
0.25
170
     5
 62
     0
 63
   257
283
     0
 90
        4
 91
        0
  1

274
    -2
284
     1
 64
     0
275
    -2
285
     1
 65
     0
276
    -2
286
     1
 66
     0
277
    -2
287
     1
 67
     0
278
    -2
288
     1
 68
     0
279
    -2
289
     1
 69
     0
  7
Standard
140
0.18
170
     5
 62
     0
 63
   257
283
     0
 90
        4
 91
        0
  1

274
    -2
284
     1
 64
     0
275
    -2
285
     1
 65
     0
276
    -2
286
     1
 66
     0
277
    -2
287
     1
 67
     0
278
    -2
288
     1
 68
     0
279
    -2
289
     1
 69
     0
  0
VISUALSTYLE
  5
2F
102
{ACAD_REACTORS
330
2A
102
}
330
2A
100
AcDbVisualStyle
  2
2dWireframe
 70
     4
177
     3
291
     0
 70
    58
 90
        0
176
     1
 90
        2
176
     1
 90
        0
176
     1
 90
        0
176
     1
 40
0.6
176
     1
 40
30.0
176
     1
 62
     7
420
 16777215
176
     1
 90
        1
176
     1
 90
        4
176
     1
 62
     7
176
     1
 62
   257
176
     1
 90
        1
176
     1
 90
        1
176
     1
 40
1.0
176
     1
 90
        0
176
     1
 62
   257
176
     1
 40
1.0
176
     1
 90
        1
176
     1
 90
        6
176
     1
 90
        2
176
     1
 62
     7
176
     1
 90
        5
176
     1
 90
        0
176
     1
 90
        0
176
     1
290
     0
176
     1
 90
        1
176
     1
 40
0.0
176
     1
 90
        0
176
     1
290
     1
176
     1
290
     1
176
     1
290
     0
176
     1
290
     0
176
     1
290
     0
176
     1
290
     0
176
     1
290
     0
176
     1
290
     0
176
     1
290
     0
176
     1
 90
       50
176
     1
 40
0.0
176
     1
 40
1.0
176
     1
 90
        0
176
     1
 62
    18
420
        0
176
     1
 90
       50
176
     1
 90
        3
176
     1
 62
     5
420
      255
176
     1
290
     0
176
     1
 90
       50
176
     1
 90
       50
176
     1
 90
       50
176
     1
290
     0
176
     1
 90
       50
176
     1
 62
   256
176
     0
 40
1.0
176
     0
 90
        2
176
     1
  1
strokes_ogs.tif
176
     1
290
     0
176
     1
 40
1.0
176
     1
 40
1.0
176
     1
  0
VISUALSTYLE
  5
32
102
{ACAD_REACTORS
330
2A
102
}
330
2A
100
AcDbVisualStyle
  2
Basic
 70
     7
177
     3
291
     1
 70
    58
 90
        1
176
     1
 90
        0
176
     1
 90
        1
176
     1
 90
        0
176
     1
 40
0.6
176
     1
 40
30.0
176
     1
 62
     7
420
 16777215
176
     1
 90
        0
176
     1
 90
        4
176
     1
 62
     7
176
     1
 62
   257
176
     1
 90
        1
176
     1
 90
        1
176
     1
 40
1.0
176
     1
 90
        8
176
     1
 62
     7
176
     1
 40
1.0
176
     1
 90
        1
176
     1
 90
        6
176
     1
 90
        2
176
     1
 62
     7
176
     1
 90
        5
176
     1
 90
        0
176
     1
 90
        0
176
     1
290
     0
176
     1
 90
        1
176
     1
 40
0.0
176
     1
 90
        0
176
     1
290
     0
176
     1
290
     1
176
     1
290
     1
176
     1
290
     0
176
     1
290
     0
176
     1
290
     0
176
     1
290
     0
176
     1
290
     0
176
     1
290
     0
176
     1
 90
       50
176
     1
 40
0.0
176
     1
 40
1.0
176
     1
 90
        0
176
     1
 62
    18
420
        0
176
     1
 90
       50
176
     1
 90
        3
176
     1
 62
     5
420
      255
176
     1
290
     0
176
     1
 90
       50
176
     1
 90
       50
176
     1
 90
       50
176
     1
290
     0
176
     1
 90
       50
176
     1
 62
   256
176
     0
 40
1.0
176
     0
 90
        2
176
     1
  1
strokes_ogs.tif
176
     1
290
     0
176
     1
 40
1.0
176
     1
 40
1.0
176
     1
  0
VISUALSTYLE
  5
36
102
{ACAD_REACTORS
330
2A
102
}
330
2A
100
AcDbVisualStyle
  2
Brighten
 70
    12
177
     3
291
     1
 70
    58
 90
        2
176
     1
 90
        2
176
     1
 90
        0
176
     1
 90
        0
176
     1
 40
0.6
176
     1
 40
30.0
176
     1
 62
     7
420
 16777215
176
     1
 90
        1
176
     1
 90
        4
176
     1
 62
     7
176
     1
 62
   257
176
     1
 90
        1
176
     1
 90
        1
176
     1
 40
1.0
176
     1
 90
        8
176
     1
 62
     7
176
     1
 40
1.0
176
     1
 90
        1
176
     1
 90
        6
176
     1
 90
        2
176
     1
 62
     7
176
     1
 90
        5
176
     1
 90
        0
176
     1
 90
        0
176
     1
290
     0
176
     1
 90
        1
176
     1
 40
50.0
176
     1
 90
        0
176
     1
290
     0
176
     1
290
     1
176
     1
290
     1
176
     1
290
     0
176
     1
290
     0
176
     1
290
     0
176
     1
290
     0
176
     1
290
     0
176
     1
290
     0
176
     1
 90
       50
176
     1
 40
0.0
176
     1
 40
1.0
176
     1
 90
        0
176
     1
 62
    18
420
        0
176
     1
 90
       50
176
     1
 90
        3
176
     1
 62
     5
420
      255
176
     1
290
     0
176
     1
 90
       50
176
     1
 90
       50
176
     1
 90
       50
176
     1
290
     0
176
     1
 90
       50
176
     1
 62
   256
176
     0
 40
1.0
176
     0
 90
        2
176
     1
  1
strokes_ogs.tif
176
     1
290
     0
176
     1
 40
1.0
176
     1
 40
1.0
176
     1
  0
VISUALSTYLE
  5
3A
102
{ACAD_REACTORS
330
2A
102
}
330
2A
100
AcDbVisualStyle
  2
ColorChange
 70
    16
177
     3
291
     1
 70
    58
 90
        2
176
     1
 90
        2
176
     1
 90
        3
176
     1
 90
        0
176
     1
 40
0.6
176
     1
 40
30.0
176
     1
 62
     8
420
  8421504
176
     1
 90
        1
176
     1
 90
        4
176
     1
 62
     7
176
     1
 62
   257
176
     1
 90
        1
176
     1
 90
        1
176
     1
 40
1.0
176
     1
 90
        8
176
     1
 62
     8
420
  8421504
176
     1
 40
1.0
176
     1
 90
        1
176
     1
 90
        6
176
     1
 90
        2
176
     1
 62
     7
176
     1
 90
        5
176
     1
 90
        0
176
     1
 90
        0
176
     1
290
     0
176
     1
 90
        1
176
     1
 40
0.0
176
     1
 90
        0
176
     1
290
     0
176
     1
290
     1
176
     1
290
     1
176
     1
290
     0
176
     1
290
     0
176
     1
290
     0
176
     1
290
     0
176
     1
290
     0
176
     1
290
     0
176
     1
 90
       50
176
     1
 40
0.0
176
     1
 40
1.0
176
     1
 90
        0
176
     1
 62
    18
420
        0
176
     1
 90
       50
176
     1
 90
        3
176
     1
 62
     5
420
      255
176
     1
290
     0
176
     1
 90
       50
176
     1
 90
       50
176
     1
 90
       50
176
     1
290
     0
176
     1
 90
       50
176
     1
 62
   256
176
     0
 40
1.0
176
     0
 90
        2
176
     1
  1
strokes_ogs.tif
176
     1
290
     0
176
     1
 40
1.0
176
     1
 40
1.0
176
     1
  0
VISUALSTYLE
  5
34
102
{ACAD_REACTORS
330
2A
102
}
330
2A
100
AcDbVisualStyle
  2
Conceptual
 70
     9
177
     3
291
     0
 70
    58
 90
        3
176
     1
 90
        2
176
     1
 90
        0
176
     1
 90
        0
176
     1
 40
0.6
176
     1
 40
30.0
176
     1
 62
     7
420
 16777215
176
     1
 90
        2
176
     1
 90
        2
176
     1
 62
     7
176
     1
 62
   257
176
     1
 90
        1
176
     1
 90
        1
176
     1
 40
179.0
176
     1
 90
        8
176
     1
 62
     7
176
     1
 40
1.0
176
     1
 90
        1
176
     1
 90
        6
176
     1
 90
        2
176
     1
 62
     7
176
     1
 90
        3
176
     1
 90
        0
176
     1
 90
        0
176
     1
290
     0
176
     1
 90
        1
176
     1
 40
0.0
176
     1
 90
        0
176
     1
290
     0
176
     1
290
     1
176
     1
290
     1
176
     1
290
     0
176
     1
290
     0
176
     1
290
     0
176
     1
290
     0
176
     1
290
     0
176
     1
290
     0
176
     1
 90
       50
176
     1
 40
0.0
176
     1
 40
1.0
176
     1
 90
        0
176
     1
 62
    18
420
        0
176
     1
 90
       50
176
     1
 90
        3
176
     1
 62
     5
420
      255
176
     1
290
     0
176
     1
 90
       50
176
     1
 90
       50
176
     1
 90
       50
176
     1
290
     0
176
     1
 90
       50
176
     1
 62
   256
176
     0
 40
1.0
176
     0
 90
        2
176
     1
  1
strokes_ogs.tif
176
     1
290
     0
176
     1
 40
1.0
176
     1
 40
1.0
176
     1
  0
VISUALSTYLE
  5
35
102
{ACAD_REACTORS
330
2A
102
}
330
2A
100
AcDbVisualStyle
  2
Dim
 70
    11
177
     3
291
     1
 70
    58
 90
        2
176
     1
 90
        2
176
     1
 90
        0
176
     1
 90
        0
176
     1
 40
0.6
176
     1
 40
30.0
176
     1
 62
     7
420
 16777215
176
     1
 90
        1
176
     1
 90
        4
176
     1
 62
     7
176
     1
 62
   257
176
     1
 90
        1
176
     1
 90
        1
176
     1
 40
1.0
176
     1
 90
        8
176
     1
 62
     7
176
     1
 40
1.0
176
     1
 90
        1
176
     1
 90
        6
176
     1
 90
        2
176
     1
 62
     7
176
     1
 90
        5
176
     1
 90
        0
176
     1
 90
        0
176
     1
290
     0
176
     1
 90
        1
176
     1
 40
-50.0
176
     1
 90
        0
176
     1
290
     0
176
     1
290
     1
176
     1
290
     1
176
     1
290
     0
176
     1
290
     0
176
     1
290
     0
176
     1
290
     0
176
     1
290
     0
176
     1
290
     0
176
     1
 90
       50
176
     1
 40
0.0
176
     1
 40
1.0
176
     1
 90
        0
176
     1
 62
    18
420
        0
176
     1
 90
       50
176
     1
 90
        3
176
     1
 62
     5
420
      255
176
     1
290
     0
176
     1
 90
       50
176
     1
 90
       50
176
     1
 90
       50
176
     1
290
     0
176
     1
 90
       50
176
     1
 62
   256
176
     0
 40
1.0
176
     0
 90
        2
176
     1
  1
strokes_ogs.tif
176
     1
290
     0
176
     1
 40
1.0
176
     1
 40
1.0
176
     1
  0
VISUALSTYLE
  5
3D
102
{ACAD_REACTORS
330
2A
102
}
330
2A
100
AcDbVisualStyle
  2
EdgeColorOff
 70
    22
177
     3
291
     1
 70
    58
 90
        2
176
     0
 90
        2
176
     0
 90
        0
176
     0
 90
        0
176
     0
 40
0.6
176
     0
 40
30.0
176
     0
 62
     7
420
 16777215
176
     0
 90
        1
176
     0
 90
        4
176
     0
 62
     7
176
     0
 62
   257
176
     0
 90
        1
176
     0
 90
        1
176
     0
 40
1.0
176
     0
 90
        8
176
     2
 62
     7
176
     0
 40
1.0
176
     0
 90
        1
176
     0
 90
        6
176
     0
 90
        2
176
     0
 62
     7
176
     0
 90
        5
176
     0
 90
        0
176
     0
 90
        0
176
     0
290
     0
176
     0
 90
        1
176
     0
 40
0.0
176
     0
 90
        0
176
     0
290
     0
176
     0
290
     1
176
     0
290
     1
176
     0
290
     0
176
     0
290
     0
176
     0
290
     0
176
     0
290
     0
176
     0
290
     0
176
     0
290
     0
176
     0
 90
       50
176
     0
 40
0.0
176
     0
 40
1.0
176
     0
 90
        0
176
     0
 62
    18
420
        0
176
     0
 90
       50
176
     0
 90
        3
176
     0
 62
     5
420
      255
176
     0
290
     0
176
     0
 90
       50
176
     0
 90
       50
176
     0
 90
       50
176
     0
290
     0
176
     0
 90
       50
176
     0
 62
   256
176
     0
 40
1.0
176
     0
 90
        2
176
     0
  1
strokes_ogs.tif
176
     0
290
     0
176
     0
 40
1.0
176
     0
 40
1.0
176
     0
  0
VISUALSTYLE
  5
39
102
{ACAD_REACTORS
330
2A
102
}
330
2A
100
AcDbVisualStyle
  2
Facepattern
 70
    15
177
     3
291
     1
 70
    58
 90
        2
176
     1
 90
        2
176
     1
 90
        0
176
     1
 90
        0
176
     1
 40
0.6
176
     1
 40
30.0
176
     1
 62
     7
420
 16777215
176
     1
 90
        1
176
     1
 90
        4
176
     1
 62
     7
176
     1
 62
   257
176
     1
 90
        1
176
     1
 90
        1
176
     1
 40
1.0
176
     1
 90
        8
176
     1
 62
     7
176
     1
 40
1.0
176
     1
 90
        1
176
     1
 90
        6
176
     1
 90
        2
176
     1
 62
     7
176
     1
 90
        5
176
     1
 90
        0
176
     1
 90
        0
176
     1
290
     0
176
     1
 90
        1
176
     1
 40
0.0
176
     1
 90
        0
176
     1
290
     0
176
     1
290
     1
176
     1
290
     1
176
     1
290
     0
176
     1
290
     0
176
     1
290
     0
176
     1
290
     0
176
     1
290
     0
176
     1
290
     0
176
     1
 90
       50
176
     1
 40
0.0
176
     1
 40
1.0
176
     1
 90
        0
176
     1
 62
    18
420
        0
176
     1
 90
       50
176
     1
 90
        3
176
     1
 62
     5
420
      255
176
     1
290
     0
176
     1
 90
       50
176
     1
 90
       50
176
     1
 90
       50
176
     1
290
     0
176
     1
 90
       50
176
     1
 62
   256
176
     0
 40
1.0
176
     0
 90
        2
176
     1
  1
strokes_ogs.tif
176
     1
290
     0
176
     1
 40
1.0
176
     1
 40
1.0
176
     1
  0
VISUALSTYLE
  5
2B
102
{ACAD_REACTORS
330
2A
102
}
330
2A
100
AcDbVisualStyle
  2
Flat
 70
     0
177
     3
291
     1
 70
    58
 90
        2
176
     1
 90
        1
176
     1
 90
        1
176
     1
 90
        2
176
     1
 40
0.6
176
     1
 40
30.0
176
     1
 62
     7
420
 16777215
176
     1
 90
        0
176
     1
 90
        0
176
     1
 62
     7
176
     1
 62
   257
176
     1
 90
        1
176
     1
 90
        1
176
     1
 40
1.0
176
     1
 90
        8
176
     1
 62
     7
176
     1
 40
1.0
176
     1
 90
        1
176
     1
 90
        6
176
     1
 90
        2
176
     1
 62
     7
176
     1
 90
        5
176
     1
 90
        0
176
     1
 90
        0
176
     1
290
     0
176
     1
 90
       13
176
     1
 40
0.0
176
     1
 90
        0
176
     1
290
     0
176
     1
290
     1
176
     1
290
     1
176
     1
290
     0
176
     1
290
     0
176
     1
290
     0
176
     1
290
     0
176
     1
290
     0
176
     1
290
     0
176
     1
 90
       50
176
     1
 40
0.0
176
     1
 40
1.0
176
     1
 90
        0
176
     1
 62
    18
420
        0
176
     1
 90
       50
176
     1
 90
        3
176
     1
 62
     5
420
      255
176
     1
290
     0
176
     1
 90
       50
176
     1
 90
       50
176
     1
 90
       50
176
     1
290
     0
176
     1
 90
       50
176
     1
 62
   256
176
     0
 40
1.0
176
     0
 90
        2
176
     1
  1
strokes_ogs.tif
176
     1
290
     0
176
     1
 40
1.0
176
     1
 40
1.0
176
     1
  0
VISUALSTYLE
  5
2C
102
{ACAD_REACTORS
330
2A
102
}
330
2A
100
AcDbVisualStyle
  2
FlatWithEdges
 70
     1
177
     3
291
     1
 70
    58
 90
        2
176
     1
 90
        1
176
     1
 90
        1
176
     1
 90
        2
176
     1
 40
0.6
176
     1
 40
30.0
176
     1
 62
     7
420
 16777215
176
     1
 90
        1
176
     1
 90
        0
176
     1
 62
     7
176
     1
 62
   257
176
     1
 90
        1
176
     1
 90
        1
176
     1
 40
1.0
176
     1
 90
        0
176
     1
 62
   257
176
     1
 40
1.0
176
     1
 90
        1
176
     1
 90
        6
176
     1
 90
        2
176
     1
 62
     7
176
     1
 90
        5
176
     1
 90
        0
176
     1
 90
        0
176
     1
290
     0
176
     1
 90
       13
176
     1
 40
0.0
176
     1
 90
        0
176
     1
290
     0
176
     1
290
     1
176
     1
290
     1
176
     1
290
     0
176
     1
290
     0
176
     1
290
     0
176
     1
290
     0
176
     1
290
     0
176
     1
290
     0
176
     1
 90
       50
176
     1
 40
0.0
176
     1
 40
1.0
176
     1
 90
        0
176
     1
 62
    18
420
        0
176
     1
 90
       50
176
     1
 90
        3
176
     1
 62
     5
420
      255
176
     1
290
     0
176
     1
 90
       50
176
     1
 90
       50
176
     1
 90
       50
176
     1
290
     0
176
     1
 90
       50
176
     1
 62
   256
176
     0
 40
1.0
176
     0
 90
        2
176
     1
  1
strokes_ogs.tif
176
     1
290
     0
176
     1
 40
1.0
176
     1
 40
1.0
176
     1
  0
VISUALSTYLE
  5
2D
102
{ACAD_REACTORS
330
2A
102
}
330
2A
100
AcDbVisualStyle
  2
Gouraud
 70
     2
177
     3
291
     1
 70
    58
 90
        2
176
     1
 90
        2
176
     1
 90
        1
176
     1
 90
        2
176
     1
 40
0.6
176
     1
 40
30.0
176
     1
 62
     7
420
 16777215
176
     1
 90
        0
176
     1
 90
        0
176
     1
 62
     7
176
     1
 62
   257
176
     1
 90
        1
176
     1
 90
        1
176
     1
 40
1.0
176
     1
 90
        0
176
     1
 62
     7
176
     1
 40
1.0
176
     1
 90
        1
176
     1
 90
        6
176
     1
 90
        2
176
     1
 62
     7
176
     1
 90
        5
176
     1
 90
        0
176
     1
 90
        0
176
     1
290
     0
176
     1
 90
       13
176
     1
 40
0.0
176
     1
 90
        0
176
     1
290
     0
176
     1
290
     1
176
     1
290
     1
176
     1
290
     0
176
     1
290
     0
176
     1
290
     0
176
     1
290
     0
176
     1
290
     0
176
     1
290
     0
176
     1
 90
       50
176
     1
 40
0.0
176
     1
 40
1.0
176
     1
 90
        0
176
     1
 62
    18
420
        0
176
     1
 90
       50
176
     1
 90
        3
176
     1
 62
     5
420
      255
176
     1
290
     0
176
     1
 90
       50
176
     1
 90
       50
176
     1
 90
       50
176
     1
290
     0
176
     1
 90
       50
176
     1
 62
   256
176
     0
 40
1.0
176
     0
 90
        2
176
     1
  1
strokes_ogs.tif
176
     1
290
     0
176
     1
 40
1.0
176
     1
 40
1.0
176
     1
  0
VISUALSTYLE
  5
2E
102
{ACAD_REACTORS
330
2A
102
}
330
2A
100
AcDbVisualStyle
  2
GouraudWithEdges
 70
     3
177
     3
291
     1
 70
    58
 90
        2
176
     1
 90
        2
176
     1
 90
        1
176
     1
 90
        2
176
     1
 40
0.6
176
     1
 40
30.0
176
     1
 62
     7
420
 16777215
176
     1
 90
        1
176
     1
 90
        0
176
     1
 62
     7
176
     1
 62
   257
176
     1
 90
        1
176
     1
 90
        1
176
     1
 40
1.0
176
     1
 90
        0
176
     1
 62
   257
176
     1
 40
1.0
176
     1
 90
        1
176
     1
 90
        6
176
     1
 90
        2
176
     1
 62
     7
176
     1
 90
        5
176
     1
 90
        0
176
     1
 90
        0
176
     1
290
     0
176
     1
 90
       13
176
     1
 40
0.0
176
     1
 90
        0
176
     1
290
     0
176
     1
290
     1
176
     1
290
     1
176
     1
290
     0
176
     1
290
     0
176
     1
290
     0
176
     1
290
     0
176
     1
290
     0
176
     1
290
     0
176
     1
 90
       50
176
     1
 40
0.0
176
     1
 40
1.0
176
     1
 90
        0
176
     1
 62
    18
420
        0
176
     1
 90
       50
176
     1
 90
        3
176
     1
 62
     5
420
      255
176
     1
290
     0
176
     1
 90
       50
176
     1
 90
       50
176
     1
 90
       50
176
     1
290
     0
176
     1
 90
       50
176
     1
 62
   256
176
     0
 40
1.0
176
     0
 90
        2
176
     1
  1
strokes_ogs.tif
176
     1
290
     0
176
     1
 40
1.0
176
     1
 40
1.0
176
     1
  0
VISUALSTYLE
  5
31
102
{ACAD_REACTORS
330
2A
102
}
330
2A
100
AcDbVisualStyle
  2
Hidden
 70
     6
177
     3
291
     0
 70
    58
 90
        1
176
     1
 90
        2
176
     1
 90
        2
176
     1
 90
        0
176
     1
 40
0.6
176
     1
 40
30.0
176
     1
 62
     7
420
 16777215
176
     1
 90
        2
176
     1
 90
        2
176
     1
 62
     7
176
     1
 62
   257
176
     1
 90
        2
176
     1
 90
        1
176
     1
 40
40.0
176
     1
 90
        0
176
     1
 62
   257
176
     1
 40
1.0
176
     1
 90
        1
176
     1
 90
        6
176
     1
 90
        2
176
     1
 62
     7
176
     1
 90
        3
176
     1
 90
        0
176
     1
 90
        0
176
     1
290
     0
176
     1
 90
        1
176
     1
 40
0.0
176
     1
 90
        0
176
     1
290
     0
176
     1
290
     1
176
     1
290
     1
176
     1
290
     0
176
     1
290
     0
176
     1
290
     0
176
     1
290
     0
176
     1
290
     0
176
     1
290
     0
176
     1
 90
       50
176
     1
 40
0.0
176
     1
 40
1.0
176
     1
 90
        0
176
     1
 62
    18
420
        0
176
     1
 90
       50
176
     1
 90
        3
176
     1
 62
     5
420
      255
176
     1
290
     0
176
     1
 90
       50
176
     1
 90
       50
176
     1
 90
       50
176
     1
290
     0
176
     1
 90
       50
176
     1
 62
   256
176
     0
 40
1.0
176
     0
 90
        2
176
     1
  1
strokes_ogs.tif
176
     1
290
     0
176
     1
 40
1.0
176
     1
 40
1.0
176
     1
  0
VISUALSTYLE
  5
3B
102
{ACAD_REACTORS
330
2A
102
}
330
2A
100
AcDbVisualStyle
  2
JitterOff
 70
    20
177
     3
291
     1
 70
    58
 90
        2
176
     0
 90
        2
176
     0
 90
        0
176
     0
 90
        0
176
     0
 40
0.6
176
     0
 40
30.0
176
     0
 62
     7
420
 16777215
176
     0
 90
        1
176
     0
 90
        4
176
     0
 62
     7
176
     0
 62
   257
176
     0
 90
        1
176
     0
 90
        1
176
     0
 40
1.0
176
     0
 90
       10
176
     2
 62
     7
176
     0
 40
1.0
176
     0
 90
        1
176
     0
 90
        6
176
     0
 90
        2
176
     0
 62
     7
176
     0
 90
        5
176
     0
 90
        0
176
     0
 90
        0
176
     0
290
     0
176
     0
 90
        1
176
     0
 40
0.0
176
     0
 90
        0
176
     0
290
     0
176
     0
290
     1
176
     0
290
     1
176
     0
290
     0
176
     0
290
     0
176
     0
290
     0
176
     0
290
     0
176
     0
290
     0
176
     0
290
     0
176
     0
 90
       50
176
     0
 40
0.0
176
     0
 40
1.0
176
     0
 90
        0
176
     0
 62
    18
420
        0
176
     0
 90
       50
176
     0
 90
        3
176
     0
 62
     5
420
      255
176
     0
290
     0
176
     0
 90
       50
176
     0
 90
       50
176
     0
 90
       50
176
     0
290
     0
176
     0
 90
       50
176
     0
 62
   256
176
     0
 40
1.0
176
     0
 90
        2
176
     0
  1
strokes_ogs.tif
176
     0
290
     0
176
     0
 40
1.0
176
     0
 40
1.0
176
     0
  0
VISUALSTYLE
  5
38
102
{ACAD_REACTORS
330
2A
102
}
330
2A
100
AcDbVisualStyle
  2
Linepattern
 70
    14
177
     3
291
     1
 70
    58
 90
        2
176
     1
 90
        2
176
     1
 90
        0
176
     1
 90
        0
176
     1
 40
0.6
176
     1
 40
30.0
176
     1
 62
     7
420
 16777215
176
     1
 90
        1
176
     1
 90
        4
176
     1
 62
     7
176
     1
 62
   257
176
     1
 90
        7
176
     1
 90
        7
176
     1
 40
1.0
176
     1
 90
        8
176
     1
 62
     7
176
     1
 40
1.0
176
     1
 90
        1
176
     1
 90
        6
176
     1
 90
        2
176
     1
 62
     7
176
     1
 90
        5
176
     1
 90
        0
176
     1
 90
        0
176
     1
290
     0
176
     1
 90
        1
176
     1
 40
0.0
176
     1
 90
        0
176
     1
290
     0
176
     1
290
     1
176
     1
290
     1
176
     1
290
     0
176
     1
290
     0
176
     1
290
     0
176
     1
290
     0
176
     1
290
     0
176
     1
290
     0
176
     1
 90
       50
176
     1
 40
0.0
176
     1
 40
1.0
176
     1
 90
        0
176
     1
 62
    18
420
        0
176
     1
 90
       50
176
     1
 90
        3
176
     1
 62
     5
420
      255
176
     1
290
     0
176
     1
 90
       50
176
     1
 90
       50
176
     1
 90
       50
176
     1
290
     0
176
     1
 90
       50
176
     1
 62
   256
176
     0
 40
1.0
176
     0
 90
        2
176
     1
  1
strokes_ogs.tif
176
     1
290
     0
176
     1
 40
1.0
176
     1
 40
1.0
176
     1
  0
VISUALSTYLE
  5
3C
102
{ACAD_REACTORS
330
2A
102
}
330
2A
100
AcDbVisualStyle
  2
OverhangOff
 70
    21
177
     3
291
     1
 70
    58
 90
        2
176
     0
 90
        2
176
     0
 90
        0
176
     0
 90
        0
176
     0
 40
0.6
176
     0
 40
30.0
176
     0
 62
     7
420
 16777215
176
     0
 90
        1
176
     0
 90
        4
176
     0
 62
     7
176
     0
 62
   257
176
     0
 90
        1
176
     0
 90
        1
176
     0
 40
1.0
176
     0
 90
        9
176
     2
 62
     7
176
     0
 40
1.0
176
     0
 90
        1
176
     0
 90
        6
176
     0
 90
        2
176
     0
 62
     7
176
     0
 90
        5
176
     0
 90
        0
176
     0
 90
        0
176
     0
290
     0
176
     0
 90
        1
176
     0
 40
0.0
176
     0
 90
        0
176
     0
290
     0
176
     0
290
     1
176
     0
290
     1
176
     0
290
     0
176
     0
290
     0
176
     0
290
     0
176
     0
290
     0
176
     0
290
     0
176
     0
290
     0
176
     0
 90
       50
176
     0
 40
0.0
176
     0
 40
1.0
176
     0
 90
        0
176
     0
 62
    18
420
        0
176
     0
 90
       50
176
     0
 90
        3
176
     0
 62
     5
420
      255
176
     0
290
     0
176
     0
 90
       50
176
     0
 90
       50
176
     0
 90
       50
176
     0
290
     0
176
     0
 90
       50
176
     0
 62
   256
176
     0
 40
1.0
176
     0
 90
        2
176
     0
  1
strokes_ogs.tif
176
     0
290
     0
176
     0
 40
1.0
176
     0
 40
1.0
176
     0
  0
VISUALSTYLE
  5
33
102
{ACAD_REACTORS
330
2A
102
}
330
2A
100
AcDbVisualStyle
  2
Realistic
 70
     8
177
     3
291
     0
 70
    58
 90
        2
176
     1
 90
        3
176
     1
 90
        0
176
     1
 90
        2
176
     1
 40
0.6
176
     1
 40
30.0
176
     1
 62
     7
420
 16777215
176
     1
 90
        0
176
     1
 90
        0
176
     1
 62
     7
176
     1
 62
   257
176
     1
 90
        1
176
     1
 90
        1
176
     1
 40
1.0
176
     1
 90
        8
176
     1
 62
   257
176
     1
 40
1.0
176
     1
 90
        1
176
     1
 90
        6
176
     1
 90
        2
176
     1
 62
     7
176
     1
 90
        3
176
     1
 90
        0
176
     1
 90
        0
176
     1
290
     0
176
     1
 90
       13
176
     1
 40
0.0
176
     1
 90
        0
176
     1
290
     0
176
     1
290
     1
176
     1
290
     1
176
     1
290
     0
176
     1
290
     0
176
     1
290
     0
176
     1
290
     0
176
     1
290
     0
176
     1
290
     0
176
     1
 90
       50
176
     1
 40
0.0
176
     1
 40
1.0
176
     1
 90
        0
176
     1
 62
    18
420
        0
176
     1
 90
       50
176
     1
 90
        3
176
     1
 62
     5
420
      255
176
     1
290
     0
176
     1
 90
       50
176
     1
 90
       50
176
     1
 90
       50
176
     1
290
     0
176
     1
 90
       50
176
     1
 62
   256
176
     0
 40
1.0
176
     0
 90
        2
176
     1
  1
strokes_ogs.tif
176
     1
290
     0
176
     1
 40
1.0
176
     1
 40
1.0
176
     1
  0
VISUALSTYLE
  5
42
102
{ACAD_REACTORS
330
2A
102
}
330
2A
100
AcDbVisualStyle
  2
Shaded
 70
    27
177
     3
291
     0
 70
    58
 90
        2
176
     1
 90
        2
176
     1
 90
        1
176
     1
 90
        2
176
     1
 40
0.6
176
     1
 40
30.0
176
     1
 62
     7
420
 16777215
176
     1
 90
        0
176
     1
 90
        4
176
     1
 62
     7
176
     1
 62
   257
176
     1
 90
        1
176
     1
 90
        1
176
     1
 40
1.0
176
     1
 90
        8
176
     1
 62
   257
176
     1
 40
1.0
176
     1
 90
        1
176
     1
 90
        6
176
     1
 90
        2
176
     1
 62
     8
420
  7895160
176
     1
 90
        3
176
     1
 90
        0
176
     1
 90
        0
176
     1
290
     0
176
     1
 90
        5
176
     1
 40
0.0
176
     1
 90
        0
176
     1
290
     0
176
     1
290
     1
176
     1
290
     1
176
     1
290
     0
176
     1
290
     0
176
     1
290
     0
176
     1
290
     0
176
     1
290
     0
176
     1
290
     0
176
     1
 90
       50
176
     1
 40
0.0
176
     1
 40
1.0
176
     1
 90
        0
176
     1
 62
    18
420
        0
176
     1
 90
       50
176
     1
 90
        3
176
     1
 62
     5
420
      255
176
     1
290
     0
176
     1
 90
       50
176
     1
 90
       50
176
     1
 90
       50
176
     1
290
     0
176
     1
 90
       50
176
     1
 62
   256
176
     0
 40
1.0
176
     0
 90
        2
176
     1
  1
strokes_ogs.tif
176
     1
290
     0
176
     1
 40
1.0
176
     1
 40
1.0
176
     1
  0
VISUALSTYLE
  5
41
102
{ACAD_REACTORS
330
2A
102
}
330
2A
100
AcDbVisualStyle
  2
Shaded with edges
 70
    26
177
     3
291
     0
 70
    58
 90
        2
176
     1
 90
        2
176
     1
 90
        1
176
     1
 90
        2
176
     1
 40
0.6
176
     1
 40
30.0
176
     1
 62
     7
420
 16777215
176
     1
 90
        1
176
     1
 90
       10
176
     1
 62
     7
176
     1
 62
   257
176
     1
 90
        2
176
     1
 90
        1
176
     1
 40
1.0
176
     1
 90
        8
176
     1
 62
   257
176
     1
 40
1.0
176
     1
 90
        1
176
     1
 90
        6
176
     1
 90
        2
176
     1
 62
     7
176
     1
 90
        3
176
     1
 90
        0
176
     1
 90
        0
176
     1
290
     0
176
     1
 90
        5
176
     1
 40
0.0
176
     1
 90
        0
176
     1
290
     0
176
     1
290
     1
176
     1
290
     1
176
     1
290
     0
176
     1
290
     0
176
     1
290
     0
176
     1
290
     0
176
     1
290
     0
176
     1
290
     0
176
     1
 90
       50
176
     1
 40
0.0
176
     1
 40
1.0
176
     1
 90
        0
176
     1
 62
    18
420
        0
176
     1
 90
       50
176
     1
 90
        3
176
     1
 62
     5
420
      255
176
     1
290
     0
176
     1
 90
       50
176
     1
 90
       50
176
     1
 90
       50
176
     1
290
     0
176
     1
 90
       50
176
     1
 62
   256
176
     0
 40
1.0
176
     0
 90
        2
176
     1
  1
strokes_ogs.tif
176
     1
290
     0
176
     1
 40
1.0
176
     1
 40
1.0
176
     1
  0
VISUALSTYLE
  5
3E
102
{ACAD_REACTORS
330
2A
102
}
330
2A
100
AcDbVisualStyle
  2
Shades of Gray
 70
    23
177
     3
291
     0
 70
    58
 90
        2
176
     1
 90
        2
176
     1
 90
        3
176
     1
 90
        0
176
     1
 40
0.6
176
     1
 40
30.0
176
     1
 62
     7
420
 16777215
176
     1
 90
        2
176
     1
 90
        2
176
     1
 62
     7
176
     1
 62
     7
176
     1
 90
        1
176
     1
 90
        1
176
     1
 40
40.0
176
     1
 90
        8
176
     1
 62
     7
176
     1
 40
1.0
176
     1
 90
        1
176
     1
 90
        6
176
     1
 90
        2
176
     1
 62
     7
176
     1
 90
        3
176
     1
 90
        0
176
     1
 90
        0
176
     1
290
     0
176
     1
 90
        1
176
     1
 40
0.0
176
     1
 90
        0
176
     1
290
     0
176
     1
290
     1
176
     1
290
     1
176
     1
290
     0
176
     1
290
     0
176
     1
290
     0
176
     1
290
     0
176
     1
290
     0
176
     1
290
     0
176
     1
 90
       50
176
     1
 40
0.0
176
     1
 40
1.0
176
     1
 90
        0
176
     1
 62
    18
420
        0
176
     1
 90
       50
176
     1
 90
        3
176
     1
 62
     5
420
      255
176
     1
290
     0
176
     1
 90
       50
176
     1
 90
       50
176
     1
 90
       50
176
     1
290
     0
176
     1
 90
       50
176
     1
 62
   256
176
     0
 40
1.0
176
     0
 90
        2
176
     1
  1
strokes_ogs.tif
176
     1
290
     0
176
     1
 40
1.0
176
     1
 40
1.0
176
     1
  0
VISUALSTYLE
  5
3F
102
{ACAD_REACTORS
330
2A
102
}
330
2A
100
AcDbVisualStyle
  2
Sketchy
 70
    24
177
     3
291
     0
 70
    58
 90
        1
176
     1
 90
        2
176
     1
 90
        2
176
     1
 90
        0
176
     1
 40
0.6
176
     1
 40
30.0
176
     1
 62
     7
420
 16777215
176
     1
 90
        2
176
     1
 90
        2
176
     1
 62
     7
176
     1
 62
     7
176
     1
 90
        1
176
     1
 90
        1
176
     1
 40
40.0
176
     1
 90
       11
176
     1
 62
     7
176
     1
 40
1.0
176
     1
 90
        1
176
     1
 90
        6
176
     1
 90
        2
176
     1
 62
     7
176
     1
 90
        6
176
     1
 90
        0
176
     1
 90
        0
176
     1
290
     0
176
     1
 90
        1
176
     1
 40
0.0
176
     1
 90
        0
176
     1
290
     0
176
     1
290
     1
176
     1
290
     1
176
     1
290
     0
176
     1
290
     0
176
     1
290
     0
176
     1
290
     0
176
     1
290
     0
176
     1
290
     0
176
     1
 90
       50
176
     1
 40
0.0
176
     1
 40
1.0
176
     1
 90
        0
176
     1
 62
    18
420
        0
176
     1
 90
       50
176
     1
 90
        3
176
     1
 62
     5
420
      255
176
     1
290
     0
176
     1
 90
       50
176
     1
 90
       50
176
     1
 90
       50
176
     1
290
     0
176
     1
 90
       50
176
     1
 62
   256
176
     0
 40
1.0
176
     0
 90
        2
176
     1
  1
strokes_ogs.tif
176
     1
290
     0
176
     1
 40
1.0
176
     1
 40
1.0
176
     1
  0
VISUALSTYLE
  5
37
102
{ACAD_REACTORS
330
2A
102
}
330
2A
100
AcDbVisualStyle
  2
Thicken
 70
    13
177
     3
291
     1
 70
    58
 90
        2
176
     1
 90
        2
176
     1
 90
        0
176
     1
 90
        0
176
     1
 40
0.6
176
     1
 40
30.0
176
     1
 62
     7
420
 16777215
176
     1
 90
        1
176
     1
 90
        4
176
     1
 62
     7
176
     1
 62
   257
176
     1
 90
        1
176
     1
 90
        1
176
     1
 40
1.0
176
     1
 90
       12
176
     1
 62
     7
176
     1
 40
1.0
176
     1
 90
        1
176
     1
 90
        6
176
     1
 90
        2
176
     1
 62
     7
176
     1
 90
        5
176
     1
 90
        0
176
     1
 90
        0
176
     1
290
     0
176
     1
 90
        1
176
     1
 40
0.0
176
     1
 90
        0
176
     1
290
     0
176
     1
290
     1
176
     1
290
     1
176
     1
290
     0
176
     1
290
     0
176
     1
290
     0
176
     1
290
     0
176
     1
290
     0
176
     1
290
     0
176
     1
 90
       50
176
     1
 40
0.0
176
     1
 40
1.0
176
     1
 90
        0
176
     1
 62
    18
420
        0
176
     1
 90
       50
176
     1
 90
        3
176
     1
 62
     5
420
      255
176
     1
290
     0
176
     1
 90
       50
176
     1
 90
       50
176
     1
 90
       50
176
     1
290
     0
176
     1
 90
       50
176
     1
 62
   256
176
     0
 40
1.0
176
     0
 90
        2
176
     1
  1
strokes_ogs.tif
176
     1
290
     0
176
     1
 40
1.0
176
     1
 40
1.0
176
     1
  0
VISUALSTYLE
  5
30
102
{ACAD_REACTORS
330
2A
102
}
330
2A
100
AcDbVisualStyle
  2
Wireframe
 70
     5
177
     3
291
     0
 70
    58
 90
        0
176
     1
 90
        2
176
     1
 90
        0
176
     1
 90
        0
176
     1
 40
0.6
176
     1
 40
30.0
176
     1
 62
     7
420
 16777215
176
     1
 90
        1
176
     1
 90
        4
176
     1
 62
     7
176
     1
 62
   257
176
     1
 90
        1
176
     1
 90
        1
176
     1
 40
1.0
176
     1
 90
        0
176
     1
 62
   257
176
     1
 40
1.0
176
     1
 90
        1
176
     1
 90
        6
176
     1
 90
        2
176
     1
 62
     7
176
     1
 90
        3
176
     1
 90
        0
176
     1
 90
        0
176
     1
290
     0
176
     1
 90
        1
176
     1
 40
0.0
176
     1
 90
        0
176
     1
290
     0
176
     1
290
     1
176
     1
290
     1
176
     1
290
     0
176
     1
290
     0
176
     1
290
     0
176
     1
290
     0
176
     1
290
     0
176
     1
290
     0
176
     1
 90
       50
176
     1
 40
0.0
176
     1
 40
1.0
176
     1
 90
        0
176
     1
 62
    18
420
        0
176
     1
 90
       50
176
     1
 90
        3
176
     1
 62
     5
420
      255
176
     1
290
     0
176
     1
 90
       50
176
     1
 90
       50
176
     1
 90
       50
176
     1
290
     0
176
     1
 90
       50
176
     1
 62
   256
176
     0
 40
1.0
176
     0
 90
        2
176
     1
  1
strokes_ogs.tif
176
     1
290
     0
176
     1
 40
1.0
176
     1
 40
1.0
176
     1
  0
VISUALSTYLE
  5
40
102
{ACAD_REACTORS
330
2A
102
}
330
2A
100
AcDbVisualStyle
  2
X-Ray
 70
    25
177
     3
291
     0
 70
    58
 90
        2
176
     1
 90
        2
176
     1
 90
        1
176
     1
 90
        1
176
     1
 40
0.5
176
     1
 40
30.0
176
     1
 62
     7
420
 16777215
176
     1
 90
        1
176
     1
 90
        0
176
     1
 62
     7
176
     1
 62
   257
176
     1
 90
        1
176
     1
 90
        1
176
     1
 40
1.0
176
     1
 90
        8
176
     1
 62
     7
176
     1
 40
1.0
176
     1
 90
        1
176
     1
 90
        6
176
     1
 90
        2
176
     1
 62
     7
176
     1
 90
        3
176
     1
 90
        0
176
     1
 90
        0
176
     1
290
     0
176
     1
 90
       13
176
     1
 40
0.0
176
     1
 90
        0
176
     1
290
     0
176
     1
290
     1
176
     1
290
     1
176
     1
290
     0
176
     1
290
     0
176
     1
290
     0
176
     1
290
     0
176
     1
290
     0
176
     1
290
     0
176
     1
 90
       50
176
     1
 40
0.0
176
     1
 40
1.0
176
     1
 90
        0
176
     1
 62
    18
420
        0
176
     1
 90
       50
176
     1
 90
        3
176
     1
 62
     5
420
      255
176
     1
290
     0
176
     1
 90
       50
176
     1
 90
       50
176
     1
 90
       50
176
     1
290
     0
176
     1
 90
       50
176
     1
 62
   256
176
     0
 40
1.0
176
     0
 90
        2
176
     1
  1
strokes_ogs.tif
176
     1
290
     0
176
     1
 40
1.0
176
     1
 40
1.0
176
     1
  0
DICTIONARYVAR
  5
2DD
102
{ACAD_REACTORS
330
2DC
102
}
330
2DC
100
DictionaryVariables
280
     0
  1
1:1
  0
DICTIONARYVAR
  5
2E2
102
{ACAD_REACTORS
330
2DC
102
}
330
2DC
100
DictionaryVariables
280
     0
  1
Standard
  0
DICTIONARYVAR
  5
2E1
102
{ACAD_REACTORS
330
2DC
102
}
330
2DC
100
DictionaryVariables
280
     0
  1
Standard
  0
DICTIONARY
  5
2DE
330
6A
100
AcDbDictionary
280
     1
281
     1
  3
ACAD_ROUNDTRIP_2008_TABLESTYLE_CELLSTYLEMAP
360
2DF
  0
CELLSTYLEMAP
  5
2DF
102
{ACAD_REACTORS
330
2DE
102
}
330
2DE
100
AcDbCellStyleMap
 90
        3
300
CELLSTYLE
  1
TABLEFORMAT_BEGIN
 90
        5
170
     1
 91
        0
 92
    32768
 62
   257
 93
        1
300
CONTENTFORMAT
  1
CONTENTFORMAT_BEGIN
 90
        0
 91
        0
 92
        4
 93
        0
300

 40
0.0
140
1.0
 94
        5
 62
     0
340
11
144
0.25
309
CONTENTFORMAT_END
171
     1
301
MARGIN
  1
CELLMARGIN_BEGIN
 40
0.06
 40
0.06
 40
0.06
 40
0.06
 40
0.06
 40
0.06
309
CELLMARGIN_END
 94
        6
 95
        1
302
GRIDFORMAT
  1
GRIDFORMAT_BEGIN
 90
        0
 91
        1
 62
     0
 92
       -2
340
14
 93
        0
 40
0.045
309
GRIDFORMAT_END
 95
        2
302
GRIDFORMAT
  1
GRIDFORMAT_BEGIN
 90
        0
 91
        1
 62
     0
 92
       -2
340
14
 93
        0
 40
0.045
309
GRIDFORMAT_END
 95
        4
302
GRIDFORMAT
  1
GRIDFORMAT_BEGIN
 90
        0
 91
        1
 62
     0
 92
       -2
340
14
 93
        0
 40
0.045
309
GRIDFORMAT_END
 95
        8
302
GRIDFORMAT
  1
GRIDFORMAT_BEGIN
 90
        0
 91
        1
 62
     0
 92
       -2
340
14
 93
        0
 40
0.045
309
GRIDFORMAT_END
 95
       16
302
GRIDFORMAT
  1
GRIDFORMAT_BEGIN
 90
        0
 91
        1
 62
     0
 92
       -2
340
14
 93
        0
 40
0.045
309
GRIDFORMAT_END
 95
       32
302
GRIDFORMAT
  1
GRIDFORMAT_BEGIN
 90
        0
 91
        1
 62
     0
 92
       -2
340
14
 93
        0
 40
0.045
309
GRIDFORMAT_END
309
TABLEFORMAT_END
  1
CELLSTYLE_BEGIN
 90
        1
 91
        1
300
_TITLE
309
CELLSTYLE_END
300
CELLSTYLE
  1
TABLEFORMAT_BEGIN
 90
        5
170
     1
 91
        0
 92
        0
 62
   257
 93
        1
300
CONTENTFORMAT
  1
CONTENTFORMAT_BEGIN
 90
        0
 91
        0
 92
        4
 93
        0
300

 40
0.0
140
1.0
 94
        5
 62
     0
340
11
144
0.18
309
CONTENTFORMAT_END
171
     1
301
MARGIN
  1
CELLMARGIN_BEGIN
 40
0.06
 40
0.06
 40
0.06
 40
0.06
 40
0.06
 40
0.06
309
CELLMARGIN_END
 94
        6
 95
        1
302
GRIDFORMAT
  1
GRIDFORMAT_BEGIN
 90
        0
 91
        1
 62
     0
 92
       -2
340
14
 93
        0
 40
0.045
309
GRIDFORMAT_END
 95
        2
302
GRIDFORMAT
  1
GRIDFORMAT_BEGIN
 90
        0
 91
        1
 62
     0
 92
       -2
340
14
 93
        0
 40
0.045
309
GRIDFORMAT_END
 95
        4
302
GRIDFORMAT
  1
GRIDFORMAT_BEGIN
 90
        0
 91
        1
 62
     0
 92
       -2
340
14
 93
        0
 40
0.045
309
GRIDFORMAT_END
 95
        8
302
GRIDFORMAT
  1
GRIDFORMAT_BEGIN
 90
        0
 91
        1
 62
     0
 92
       -2
340
14
 93
        0
 40
0.045
309
GRIDFORMAT_END
 95
       16
302
GRIDFORMAT
  1
GRIDFORMAT_BEGIN
 90
        0
 91
        1
 62
     0
 92
       -2
340
14
 93
        0
 40
0.045
309
GRIDFORMAT_END
 95
       32
302
GRIDFORMAT
  1
GRIDFORMAT_BEGIN
 90
        0
 91
        1
 62
     0
 92
       -2
340
14
 93
        0
 40
0.045
309
GRIDFORMAT_END
309
TABLEFORMAT_END
  1
CELLSTYLE_BEGIN
 90
        2
 91
        1
300
_HEADER
309
CELLSTYLE_END
300
CELLSTYLE
  1
TABLEFORMAT_BEGIN
 90
        5
170
     1
 91
        0
 92
        0
 62
   257
 93
        1
300
CONTENTFORMAT
  1
CONTENTFORMAT_BEGIN
 90
        0
 91
        0
 92
        4
 93
        0
300

 40
0.0
140
1.0
 94
        2
 62
     0
340
11
144
0.18
309
CONTENTFORMAT_END
171
     1
301
MARGIN
  1
CELLMARGIN_BEGIN
 40
0.06
 40
0.06
 40
0.06
 40
0.06
 40
0.06
 40
0.06
309
CELLMARGIN_END
 94
        6
 95
        1
302
GRIDFORMAT
  1
GRIDFORMAT_BEGIN
 90
        0
 91
        1
 62
     0
 92
       -2
340
14
 93
        0
 40
0.045
309
GRIDFORMAT_END
 95
        2
302
GRIDFORMAT
  1
GRIDFORMAT_BEGIN
 90
        0
 91
        1
 62
     0
 92
       -2
340
14
 93
        0
 40
0.045
309
GRIDFORMAT_END
 95
        4
302
GRIDFORMAT
  1
GRIDFORMAT_BEGIN
 90
        0
 91
        1
 62
     0
 92
       -2
340
14
 93
        0
 40
0.045
309
GRIDFORMAT_END
 95
        8
302
GRIDFORMAT
  1
GRIDFORMAT_BEGIN
 90
        0
 91
        1
 62
     0
 92
       -2
340
14
 93
        0
 40
0.045
309
GRIDFORMAT_END
 95
       16
302
GRIDFORMAT
  1
GRIDFORMAT_BEGIN
 90
        0
 91
        1
 62
     0
 92
       -2
340
14
 93
        0
 40
0.045
309
GRIDFORMAT_END
 95
       32
302
GRIDFORMAT
  1
GRIDFORMAT_BEGIN
 90
        0
 91
        1
 62
     0
 92
       -2
340
14
 93
        0
 40
0.045
309
GRIDFORMAT_END
309
TABLEFORMAT_END
  1
CELLSTYLE_BEGIN
 90
        3
 91
        2
300
_DATA
309
CELLSTYLE_END
  0
ENDSEC
  0
EOF