0
SECTION
  2
HEADER
  9
$ACADVER
  1
AC1027
  9
$ACADMAINTVER
 70
     8
  9
$DWGCODEPAGE
  3
ANSI_1252
  9
$REQUIREDVERSIONS
160
                 0
  9
$COMMENTS
  1
File was created by Cadenas
  9
$CUSTOMPROPERTYTAG
  1
NN
  9
$CUSTOMPROPERTY
  1
Grip Tight Low Backing Height Two-Bolt Pillow Block Metric Bore
  9
$CUSTOMPROPERTYTAG
  1
NT
  9
$CUSTOMPROPERTY
  1
GTB Normal Duty Pillow Blocks
  9
$CUSTOMPROPERTYTAG
  1
NB
  9
$CUSTOMPROPERTY
  1
129047
  9
$CUSTOMPROPERTYTAG
  1
NBSYN
  9
$CUSTOMPROPERTY
  1
$PN.$LUBE.
  9
$CUSTOMPROPERTYTAG
  1
LINA
  9
$CUSTOMPROPERTY
  1
129047
  9
$CUSTOMPROPERTYTAG
  1
SERIES
  9
$CUSTOMPROPERTY
  1
212
  9
$CUSTOMPROPERTYTAG
  1
SS
  9
$CUSTOMPROPERTY
  1
60
  9
$CUSTOMPROPERTYTAG
  1
PN
  9
$CUSTOMPROPERTY
  1
129047
  9
$CUSTOMPROPERTYTAG
  1
DESCRIPTION
  9
$CUSTOMPROPERTY
  1
P2B-GTB-60M
  9
$CUSTOMPROPERTYTAG
  1
A
  9
$CUSTOMPROPERTY
  1
53.6
  9
$CUSTOMPROPERTYTAG
  1
B
  9
$CUSTOMPROPERTY
  1
241.3
  9
$CUSTOMPROPERTYTAG
  1
C
  9
$CUSTOMPROPERTY
  1
60.3
  9
$CUSTOMPROPERTYTAG
  1
DMIN
  9
$CUSTOMPROPERTY
  1
174.6
  9
$CUSTOMPROPERTYTAG
  1
DMAX
  9
$CUSTOMPROPERTY
  1
201.6
  9
$CUSTOMPROPERTYTAG
  1
F
  9
$CUSTOMPROPERTY
  1
M16
  9
$CUSTOMPROPERTYTAG
  1
G
  9
$CUSTOMPROPERTY
  1
31.0
  9
$CUSTOMPROPERTYTAG
  1
H
  9
$CUSTOMPROPERTY
  1
20.2
  9
$CUSTOMPROPERTYTAG
  1
J
  9
$CUSTOMPROPERTY
  1
134.9
  9
$CUSTOMPROPERTYTAG
  1
L
  9
$CUSTOMPROPERTY
  1
88.9
  9
$CUSTOMPROPERTYTAG
  1
M
  9
$CUSTOMPROPERTY
  1
68.3
  9
$CUSTOMPROPERTYTAG
  1
R
  9
$CUSTOMPROPERTY
  1
19.4
  9
$CUSTOMPROPERTYTAG
  1
S
  9
$CUSTOMPROPERTY
  1
34.1
  9
$CUSTOMPROPERTYTAG
  1
U
  9
$CUSTOMPROPERTY
  1
108.0
  9
$CUSTOMPROPERTYTAG
  1
V
  9
$CUSTOMPROPERTY
  1
215.9
  9
$CUSTOMPROPERTYTAG
  1
W
  9
$CUSTOMPROPERTY
  1
22.2
  9
$CUSTOMPROPERTYTAG
  1
X
  9
$CUSTOMPROPERTY
  1
4.8
  9
$CUSTOMPROPERTYTAG
  1
Z
  9
$CUSTOMPROPERTY
  1
33.3
  9
$CUSTOMPROPERTYTAG
  1
COMPANY
  9
$CUSTOMPROPERTY
  1
baldor
  9
$INSBASE
 10
0.0
 20
0.0
 30
0.0
  9
$EXTMIN
 10
1.000000000000000E+20
 20
1.000000000000000E+20
 30
1.000000000000000E+20
  9
$EXTMAX
 10
-1.000000000000000E+20
 20
-1.000000000000000E+20
 30
-1.000000000000000E+20
  9
$LIMMIN
 10
0.0
 20
0.0
  9
$LIMMAX
 10
420.0
 20
297.0
  9
$ORTHOMODE
 70
     0
  9
$REGENMODE
 70
     1
  9
$FILLMODE
 70
     1
  9
$QTEXTMODE
 70
     0
  9
$MIRRTEXT
 70
     1
  9
$LTSCALE
 40
1.0
  9
$ATTMODE
 70
     1
  9
$TEXTSIZE
 40
2.5
  9
$TRACEWID
 40
1.0
  9
$TEXTSTYLE
  7
Standard
  9
$CLAYER
  8
0
  9
$CELTYPE
  6
ByLayer
  9
$CECOLOR
 62
   256
  9
$CELTSCALE
 40
1.0
  9
$DISPSILH
 70
     0
  9
$DIMSCALE
 40
1.0
  9
$DIMASZ
 40
2.5
  9
$DIMEXO
 40
0.625
  9
$DIMDLI
 40
3.75
  9
$DIMRND
 40
0.0
  9
$DIMDLE
 40
0.0
  9
$DIMEXE
 40
1.25
  9
$DIMTP
 40
0.0
  9
$DIMTM
 40
0.0
  9
$DIMTXT
 40
2.5
  9
$DIMCEN
 40
2.5
  9
$DIMTSZ
 40
0.0
  9
$DIMTOL
 70
     0
  9
$DIMLIM
 70
     0
  9
$DIMTIH
 70
     0
  9
$DIMTOH
 70
     0
  9
$DIMSE1
 70
     0
  9
$DIMSE2
 70
     0
  9
$DIMTAD
 70
     1
  9
$DIMZIN
 70
     8
  9
$DIMBLK
  1

  9
$DIMASO
 70
     1
  9
$DIMSHO
 70
     1
  9
$DIMPOST
  1

  9
$DIMAPOST
  1

  9
$DIMALT
 70
     0
  9
$DIMALTD
 70
     3
  9
$DIMALTF
 40
0.03937007874016
  9
$DIMLFAC
 40
1.0
  9
$DIMTOFL
 70
     1
  9
$DIMTVP
 40
0.0
  9
$DIMTIX
 70
     0
  9
$DIMSOXD
 70
     0
  9
$DIMSAH
 70
     0
  9
$DIMBLK1
  1

  9
$DIMBLK2
  1

  9
$DIMSTYLE
  2
ISO-25
  9
$DIMCLRD
 70
     0
  9
$DIMCLRE
 70
     0
  9
$DIMCLRT
 70
     0
  9
$DIMTFAC
 40
1.0
  9
$DIMGAP
 40
0.625
  9
$DIMJUST
 70
     0
  9
$DIMSD1
 70
     0
  9
$DIMSD2
 70
     0
  9
$DIMTOLJ
 70
     0
  9
$DIMTZIN
 70
     8
  9
$DIMALTZ
 70
     0
  9
$DIMALTTZ
 70
     0
  9
$DIMUPT
 70
     0
  9
$DIMDEC
 70
     2
  9
$DIMTDEC
 70
     2
  9
$DIMALTU
 70
     2
  9
$DIMALTTD
 70
     3
  9
$DIMTXSTY
  7
Standard
  9
$DIMAUNIT
 70
     0
  9
$DIMADEC
 70
     0
  9
$DIMALTRND
 40
0.0
  9
$DIMAZIN
 70
     0
  9
$DIMDSEP
 70
    44
  9
$DIMATFIT
 70
     3
  9
$DIMFRAC
 70
     0
  9
$DIMLDRBLK
  1

  9
$DIMLUNIT
 70
     2
  9
$DIMLWD
 70
    -2
  9
$DIMLWE
 70
    -2
  9
$DIMTMOVE
 70
     0
  9
$DIMFXL
 40
1.0
  9
$DIMFXLON
 70
     0
  9
$DIMJOGANG
 40
0.7853981633974483
  9
$DIMTFILL
 70
     0
  9
$DIMTFILLCLR
 70
     0
  9
$DIMARCSYM
 70
     0
  9
$DIMLTYPE
  6

  9
$DIMLTEX1
  6

  9
$DIMLTEX2
  6

  9
$DIMTXTDIRECTION
 70
     0
  9
$LUNITS
 70
     2
  9
$LUPREC
 70
     4
  9
$SKETCHINC
 40
1.0
  9
$FILLETRAD
 40
10.0
  9
$AUNITS
 70
     0
  9
$AUPREC
 70
     0
  9
$MENU
  1
.
  9
$ELEVATION
 40
0.0
  9
$PELEVATION
 40
0.0
  9
$THICKNESS
 40
0.0
  9
$LIMCHECK
 70
     0
  9
$CHAMFERA
 40
0.0
  9
$CHAMFERB
 40
0.0
  9
$CHAMFERC
 40
0.0
  9
$CHAMFERD
 40
0.0
  9
$SKPOLY
 70
     0
  9
$TDCREATE
 40
2458168.995370995
  9
$TDUCREATE
 40
2458168.953704329
  9
$TDUPDATE
 40
2458168.995371181
  9
$TDUUPDATE
 40
2458168.953704514
  9
$TDINDWG
 40
0.0000000116
  9
$TDUSRTIMER
 40
0.0000000116
  9
$USRTIMER
 70
     1
  9
$ANGBASE
 50
0.0
  9
$ANGDIR
 70
     0
  9
$PDMODE
 70
     0
  9
$PDSIZE
 40
0.0
  9
$PLINEWID
 40
0.0
  9
$SPLFRAME
 70
     0
  9
$SPLINETYPE
 70
     6
  9
$SPLINESEGS
 70
     8
  9
$HANDSEED
  5
1C7
  9
$SURFTAB1
 70
     6
  9
$SURFTAB2
 70
     6
  9
$SURFTYPE
 70
     6
  9
$SURFU
 70
     6
  9
$SURFV
 70
     6
  9
$UCSBASE
  2

  9
$UCSNAME
  2

  9
$UCSORG
 10
0.0
 20
0.0
 30
0.0
  9
$UCSXDIR
 10
1.0
 20
0.0
 30
0.0
  9
$UCSYDIR
 10
0.0
 20
1.0
 30
0.0
  9
$UCSORTHOREF
  2

  9
$UCSORTHOVIEW
 70
     0
  9
$UCSORGTOP
 10
0.0
 20
0.0
 30
0.0
  9
$UCSORGBOTTOM
 10
0.0
 20
0.0
 30
0.0
  9
$UCSORGLEFT
 10
0.0
 20
0.0
 30
0.0
  9
$UCSORGRIGHT
 10
0.0
 20
0.0
 30
0.0
  9
$UCSORGFRONT
 10
0.0
 20
0.0
 30
0.0
  9
$UCSORGBACK
 10
0.0
 20
0.0
 30
0.0
  9
$PUCSBASE
  2

  9
$PUCSNAME
  2

  9
$PUCSORG
 10
0.0
 20
0.0
 30
0.0
  9
$PUCSXDIR
 10
1.0
 20
0.0
 30
0.0
  9
$PUCSYDIR
 10
0.0
 20
1.0
 30
0.0
  9
$PUCSORTHOREF
  2

  9
$PUCSORTHOVIEW
 70
     0
  9
$PUCSORGTOP
 10
0.0
 20
0.0
 30
0.0
  9
$PUCSORGBOTTOM
 10
0.0
 20
0.0
 30
0.0
  9
$PUCSORGLEFT
 10
0.0
 20
0.0
 30
0.0
  9
$PUCSORGRIGHT
 10
0.0
 20
0.0
 30
0.0
  9
$PUCSORGFRONT
 10
0.0
 20
0.0
 30
0.0
  9
$PUCSORGBACK
 10
0.0
 20
0.0
 30
0.0
  9
$USERI1
 70
     0
  9
$USERI2
 70
     0
  9
$USERI3
 70
     0
  9
$USERI4
 70
     0
  9
$USERI5
 70
     0
  9
$USERR1
 40
0.0
  9
$USERR2
 40
0.0
  9
$USERR3
 40
0.0
  9
$USERR4
 40
0.0
  9
$USERR5
 40
0.0
  9
$WORLDVIEW
 70
     1
  9
$SHADEDGE
 70
     3
  9
$SHADEDIF
 70
    70
  9
$TILEMODE
 70
     1
  9
$MAXACTVP
 70
    64
  9
$PINSBASE
 10
0.0
 20
0.0
 30
0.0
  9
$PLIMCHECK
 70
     0
  9
$PEXTMIN
 10
1.000000000000000E+20
 20
1.000000000000000E+20
 30
1.000000000000000E+20
  9
$PEXTMAX
 10
-1.000000000000000E+20
 20
-1.000000000000000E+20
 30
-1.000000000000000E+20
  9
$PLIMMIN
 10
0.0
 20
0.0
  9
$PLIMMAX
 10
420.0
 20
297.0
  9
$UNITMODE
 70
     0
  9
$VISRETAIN
 70
     1
  9
$PLINEGEN
 70
     0
  9
$PSLTSCALE
 70
     1
  9
$TREEDEPTH
 70
  3020
  9
$CMLSTYLE
  2
Standard
  9
$CMLJUST
 70
     0
  9
$CMLSCALE
 40
20.0
  9
$PROXYGRAPHICS
 70
     1
  9
$MEASUREMENT
 70
     1
  9
$CELWEIGHT
370
    -1
  9
$ENDCAPS
280
     0
  9
$JOINSTYLE
280
     0
  9
$LWDISPLAY
290
     0
  9
$INSUNITS
 70
     4
  9
$HYPERLINKBASE
  1

  9
$STYLESHEET
  1

  9
$XEDIT
290
     1
  9
$CEPSNTYPE
380
     0
  9
$PSTYLEMODE
290
     1
  9
$FINGERPRINTGUID
  2
{B1E8160B-0426-4854-AD52-085ED211BF33}
  9
$VERSIONGUID
  2
{FAEB1C32-E019-11D5-929B-00C0DF256EC4}
  9
$EXTNAMES
290
     1
  9
$PSVPSCALE
 40
0.0
  9
$OLESTARTUP
290
     0
  9
$SORTENTS
280
   127
  9
$INDEXCTL
280
     0
  9
$HIDETEXT
280
     1
  9
$XCLIPFRAME
280
     2
  9
$HALOGAP
280
     0
  9
$OBSCOLOR
 70
   257
  9
$OBSLTYPE
280
     0
  9
$INTERSECTIONDISPLAY
280
     0
  9
$INTERSECTIONCOLOR
 70
   257
  9
$DIMASSOC
280
     2
  9
$PROJECTNAME
  1

  9
$CAMERADISPLAY
290
     0
  9
$LENSLENGTH
 40
50.0
  9
$CAMERAHEIGHT
 40
0.0
  9
$STEPSPERSEC
 40
2.0
  9
$STEPSIZE
 40
6.0
  9
$3DDWFPREC
 40
2.0
  9
$PSOLWIDTH
 40
5.0
  9
$PSOLHEIGHT
 40
80.0
  9
$LOFTANG1
 40
1.570796326794897
  9
$LOFTANG2
 40
1.570796326794897
  9
$LOFTMAG1
 40
0.0
  9
$LOFTMAG2
 40
0.0
  9
$LOFTPARAM
 70
     7
  9
$LOFTNORMALS
280
     1
  9
$LATITUDE
 40
37.795
  9
$LONGITUDE
 40
-122.394
  9
$NORTHDIRECTION
 40
0.0
  9
$TIMEZONE
 70
 -8000
  9
$LIGHTGLYPHDISPLAY
280
     1
  9
$TILEMODELIGHTSYNCH
280
     1
  9
$CMATERIAL
347
44
  9
$SOLIDHIST
280
     0
  9
$SHOWHIST
280
     1
  9
$DWFFRAME
280
     2
  9
$DGNFRAME
280
     2
  9
$REALWORLDSCALE
290
     1
  9
$INTERFERECOLOR
 62
   256
  9
$CSHADOW
280
     0
  9
$SHADOWPLANELOCATION
 40
0.0
  0
ENDSEC
  0
SECTION
  2
CLASSES
  0
CLASS
  1
ACDBDICTIONARYWDFLT
  2
AcDbDictionaryWithDefault
  3
ObjectDBX Classes
 90
        0
 91
        4
280
     0
281
     0
  0
CLASS
  1
VISUALSTYLE
  2
AcDbVisualStyle
  3
ObjectDBX Classes
 90
     4095
 91
        4
280
     0
281
     0
  0
CLASS
  1
MATERIAL
  2
AcDbMaterial
  3
ObjectDBX Classes
 90
     1153
 91
        4
280
     0
281
     0
  0
CLASS
  1
SCALE
  2
AcDbScale
  3
ObjectDBX Classes
 90
     1153
 91
        4
280
     0
281
     0
  0
CLASS
  1
TABLESTYLE
  2
AcDbTableStyle
  3
ObjectDBX Classes
 90
     4095
 91
        4
280
     0
281
     0
  0
CLASS
  1
MLEADERSTYLE
  2
AcDbMLeaderStyle
  3
ACDB_MLEADERSTYLE_CLASS
 90
     4095
 91
        4
280
     0
281
     0
  0
CLASS
  1
SUN
  2
AcDbSun
  3
SCENEOE
 90
     1153
 91
        4
280
     0
281
     0
  0
CLASS
  1
DICTIONARYVAR
  2
AcDbDictionaryVar
  3
ObjectDBX Classes
 90
        0
 91
        4
280
     0
281
     0
  0
CLASS
  1
CELLSTYLEMAP
  2
AcDbCellStyleMap
  3
ObjectDBX Classes
 90
     1152
 91
        4
280
     0
281
     0
  0
ENDSEC
  0
SECTION
  2
TABLES
  0
TABLE
  2
VPORT
  5
8
330
0
100
AcDbSymbolTable
 70
     1
  0
VPORT
  5
29
330
8
100
AcDbSymbolTableRecord
100
AcDbViewportTableRecord
  2
*Active
 70
     0
 10
0.0
 20
0.0
 11
1.0
 21
1.0
 12
0.0
 22
12.6225
 13
0.0
 23
0.0
 14
10.0
 24
10.0
 15
10.0
 25
10.0
 16
0.0
 26
0.0
 36
1.0
 17
0.0
 27
0.0
 37
0.0
 40
165.0819
 41
1.490932682504866
 42
50.0
 43
0.0
 44
0.0
 50
0.0
 51
0.0
 71
     0
 72
   100
 73
     1
 74
     3
 75
     0
 76
     0
 77
     0
 78
     0
281
     0
 65
     1
110
0.0
120
0.0
130
0.0
111
1.0
121
0.0
131
0.0
112
0.0
122
1.0
132
0.0
 79
     0
146
0.0
348
2F
 60
     3
 61
     5
292
     1
282
     1
141
0.0
142
0.0
 63
   250
361
6D
  0
ENDTAB
  0
TABLE
  2
LTYPE
  5
5
330
0
100
AcDbSymbolTable
 70
     3
  0
LTYPE
  5
14
330
5
100
AcDbSymbolTableRecord
100
AcDbLinetypeTableRecord
  2
ByBlock
 70
     0
  3

 72
    65
 73
     0
 40
0.0
  0
LTYPE
  5
15
330
5
100
AcDbSymbolTableRecord
100
AcDbLinetypeTableRecord
  2
ByLayer
 70
     0
  3

 72
    65
 73
     0
 40
0.0
  0
LTYPE
  5
16
330
5
100
AcDbSymbolTableRecord
100
AcDbLinetypeTableRecord
  2
Continuous
 70
     0
  3
Solid line
 72
    65
 73
     0
 40
0.0
  0
LTYPE
  5
A5
330
5
100
AcDbSymbolTableRecord
100
AcDbLinetypeTableRecord
  2
Dashed
 70
     0
  3

 72
    65
 73
     2
 40
2.0
 49
1.0
 74
     0
 49
-1.0
 74
     0
  0
LTYPE
  5
B2
330
5
100
AcDbSymbolTableRecord
100
AcDbLinetypeTableRecord
  2
Center
 70
     0
  3

 72
    65
 73
     4
 40
1.5
 49
0.45
 74
     0
 49
-0.5
 74
     0
 49
0.05
 74
     0
 49
-0.5
 74
     0
  0
ENDTAB
  0
TABLE
  2
LAYER
  5
2
330
0
100
AcDbSymbolTable
 70
     7
  0
LAYER
  5
10
330
2
100
AcDbSymbolTableRecord
100
AcDbLayerTableRecord
  2
0
 70
     0
 62
     7
  6
Continuous
370
    -3
390
F
347
46
348
0
  0
LAYER
  5
72
330
2
100
AcDbSymbolTableRecord
100
AcDbLayerTableRecord
  2
AM_6
 70
     0
 62
    -2
  6
Continuous
370
    35
390
F
347
46
348
0
  0
LAYER
  5
A6
330
2
100
AcDbSymbolTableRecord
100
AcDbLayerTableRecord
  2
AM_9
 70
     0
 62
     6
  6
Dashed
370
    25
390
F
347
46
348
0
  0
LAYER
  5
B3
330
2
100
AcDbSymbolTableRecord
100
AcDbLayerTableRecord
  2
AM_7
 70
     0
 62
     7
  6
Center
370
    25
390
F
347
46
348
0
  0
LAYER
  5
B6
330
2
100
AcDbSymbolTableRecord
100
AcDbLayerTableRecord
  2
AM_4
 70
     0
 62
     3
  6
Continuous
370
    25
390
F
347
46
348
0
  0
LAYER
  5
E7
330
2
100
AcDbSymbolTableRecord
100
AcDbLayerTableRecord
  2
AM_5
 70
     0
 62
     3
  6
Continuous
370
    25
390
F
347
46
348
0
  0
LAYER
  5
1B9
330
2
100
AcDbSymbolTableRecord
100
AcDbLayerTableRecord
  2
ConnectionPoints
 70
     0
 62
     7
  6
Continuous
370
    50
390
F
347
46
348
0
  0
ENDTAB
  0
TABLE
  2
STYLE
  5
3
330
0
100
AcDbSymbolTable
 70
     1
  0
STYLE
  5
11
330
3
100
AcDbSymbolTableRecord
100
AcDbTextStyleTableRecord
  2
Standard
 70
     0
 40
0.0
 41
1.0
 50
0.0
 71
     0
 42
2.5
  3
txt
  4

  0
ENDTAB
  0
TABLE
  2
VIEW
  5
6
330
0
100
AcDbSymbolTable
 70
     0
  0
ENDTAB
  0
TABLE
  2
UCS
  5
7
330
0
100
AcDbSymbolTable
 70
     0
  0
ENDTAB
  0
TABLE
  2
APPID
  5
9
330
0
100
AcDbSymbolTable
 70
     1
  0
APPID
  5
12
330
9
100
AcDbSymbolTableRecord
100
AcDbRegAppTableRecord
  2
ACAD
 70
     0
  0
ENDTAB
  0
TABLE
  2
DIMSTYLE
  5
A
330
0
100
AcDbSymbolTable
 70
     1
100
AcDbDimStyleTable
  0
DIMSTYLE
105
27
330
A
100
AcDbSymbolTableRecord
100
AcDbDimStyleTableRecord
  2
ISO-25
 70
     0
 41
2.5
 42
0.625
 43
3.75
 44
1.25
 73
     0
 74
     0
 77
     1
 78
     8
140
2.5
141
2.5
143
0.03937007874016
147
0.625
171
     3
172
     1
178
     0
271
     2
272
     2
274
     3
278
    44
283
     0
284
     8
340
11
  0
ENDTAB
  0
TABLE
  2
BLOCK_RECORD
  5
1
330
0
100
AcDbSymbolTable
 70
     5
  0
BLOCK_RECORD
  5
1F
330
1
100
AcDbSymbolTableRecord
100
AcDbBlockTableRecord
  2
*Model_Space
340
22
 70
     0
280
     1
281
     0
  0
BLOCK_RECORD
  5
1B
330
1
100
AcDbSymbolTableRecord
100
AcDbBlockTableRecord
  2
*Paper_Space
340
1E
 70
     0
280
     1
281
     0
  0
BLOCK_RECORD
  5
23
330
1
100
AcDbSymbolTableRecord
100
AcDbBlockTableRecord
  2
*Paper_Space0
340
26
 70
     0
280
     1
281
     0
  0
BLOCK_RECORD
  5
6E
330
1
100
AcDbSymbolTableRecord
100
AcDbBlockTableRecord
  2
1_129047_0
340
0
102
{BLKREFS
331
6F
102
}
 70
     0
280
     1
281
     0
  0
BLOCK_RECORD
  5
8F
330
1
100
AcDbSymbolTableRecord
100
AcDbBlockTableRecord
  2
2_129525_0_in_129047_0
340
0
102
{BLKREFS
331
90
102
}
 70
     0
280
     1
281
     0
  0
BLOCK_RECORD
  5
C0
330
1
100
AcDbSymbolTableRecord
100
AcDbBlockTableRecord
  2
3_129951_0_in_129047_0
340
0
102
{BLKREFS
331
C1
102
}
 70
     0
280
     1
281
     0
  0
BLOCK_RECORD
  5
101
330
1
100
AcDbSymbolTableRecord
100
AcDbBlockTableRecord
  2
4_129441_0_in_129047_0
340
0
102
{BLKREFS
331
102
102
}
 70
     0
280
     1
281
     0
  0
ENDTAB
  0
ENDSEC
  0
SECTION
  2
BLOCKS
  0
BLOCK
  5
20
330
1F
100
AcDbEntity
  8
0
100
AcDbBlockBegin
  2
*Model_Space
 70
     0
 10
0.0
 20
0.0
 30
0.0
  3
*Model_Space
  1

  0
ENDBLK
  5
21
330
1F
100
AcDbEntity
  8
0
100
AcDbBlockEnd
  0
BLOCK
  5
1C
330
1B
100
AcDbEntity
 67
     1
  8
0
100
AcDbBlockBegin
  2
*Paper_Space
 70
     0
 10
0.0
 20
0.0
 30
0.0
  3
*Paper_Space
  1

  0
ENDBLK
  5
1D
330
1B
100
AcDbEntity
 67
     1
  8
0
100
AcDbBlockEnd
  0
BLOCK
  5
24
330
23
100
AcDbEntity
  8
0
100
AcDbBlockBegin
  2
*Paper_Space0
 70
     0
 10
0.0
 20
0.0
 30
0.0
  3
*Paper_Space0
  1

  0
ENDBLK
  5
25
330
23
100
AcDbEntity
  8
0
100
AcDbBlockEnd
  0
BLOCK
  5
70
330
6E
100
AcDbEntity
  8
0
100
AcDbBlockBegin
  2
1_129047_0
 70
     2
 10
0.0
 20
0.0
 30
0.0
  3
1_129047_0
  1

  0
ATTDEF
  5
73
330
6E
100
AcDbEntity
  8
AM_6
100
AcDbText
 10
125.65
 20
93.54500000000002
 30
0.0
 40
0.5
  1
Grip Tight Low Backing Height Two-Bolt Pillow Block Metric Bore
100
AcDbAttributeDefinition
  3

  2
NN
 70
     8
280
     0
  0
ATTDEF
  5
74
330
6E
100
AcDbEntity
  8
AM_6
100
AcDbText
 10
125.65
 20
93.04500000000002
 30
0.0
 40
0.5
  1
GTB Normal Duty Pillow Blocks
100
AcDbAttributeDefinition
  3

  2
NT
 70
     8
280
     0
  0
ATTDEF
  5
75
330
6E
100
AcDbEntity
  8
AM_6
100
AcDbText
 10
125.65
 20
92.54500000000002
 30
0.0
 40
0.5
  1
129047
100
AcDbAttributeDefinition
  3

  2
NB
 70
     8
280
     0
  0
ATTDEF
  5
76
330
6E
100
AcDbEntity
  8
AM_6
100
AcDbText
 10
125.65
 20
92.04500000000002
 30
0.0
 40
0.5
  1
$PN.$LUBE.
100
AcDbAttributeDefinition
  3

  2
NBSYN
 70
     8
280
     0
  0
ATTDEF
  5
77
330
6E
100
AcDbEntity
  8
AM_6
100
AcDbText
 10
125.65
 20
91.54500000000002
 30
0.0
 40
0.5
  1
129047
100
AcDbAttributeDefinition
  3

  2
LINA
 70
     8
280
     0
  0
ATTDEF
  5
78
330
6E
100
AcDbEntity
  8
AM_6
100
AcDbText
 10
125.65
 20
91.04500000000002
 30
0.0
 40
0.5
  1
212
100
AcDbAttributeDefinition
  3

  2
SERIES
 70
     8
280
     0
  0
ATTDEF
  5
79
330
6E
100
AcDbEntity
  8
AM_6
100
AcDbText
 10
125.65
 20
90.54500000000002
 30
0.0
 40
0.5
  1
60
100
AcDbAttributeDefinition
  3

  2
SS
 70
     8
280
     0
  0
ATTDEF
  5
7A
330
6E
100
AcDbEntity
  8
AM_6
100
AcDbText
 10
125.65
 20
90.04500000000002
 30
0.0
 40
0.5
  1
129047
100
AcDbAttributeDefinition
  3

  2
PN
 70
     8
280
     0
  0
ATTDEF
  5
7B
330
6E
100
AcDbEntity
  8
AM_6
100
AcDbText
 10
125.65
 20
89.54500000000002
 30
0.0
 40
0.5
  1
P2B-GTB-60M
100
AcDbAttributeDefinition
  3

  2
DESCRIPTION
 70
     8
280
     0
  0
ATTDEF
  5
7C
330
6E
100
AcDbEntity
  8
AM_6
100
AcDbText
 10
125.65
 20
89.04500000000002
 30
0.0
 40
0.5
  1
53.6
100
AcDbAttributeDefinition
  3

  2
A
 70
     8
280
     0
  0
ATTDEF
  5
7D
330
6E
100
AcDbEntity
  8
AM_6
100
AcDbText
 10
125.65
 20
88.54500000000002
 30
0.0
 40
0.5
  1
241.3
100
AcDbAttributeDefinition
  3

  2
B
 70
     8
280
     0
  0
ATTDEF
  5
7E
330
6E
100
AcDbEntity
  8
AM_6
100
AcDbText
 10
125.65
 20
88.04500000000002
 30
0.0
 40
0.5
  1
60.3
100
AcDbAttributeDefinition
  3

  2
C
 70
     8
280
     0
  0
ATTDEF
  5
7F
330
6E
100
AcDbEntity
  8
AM_6
100
AcDbText
 10
125.65
 20
87.54500000000002
 30
0.0
 40
0.5
  1
174.6
100
AcDbAttributeDefinition
  3

  2
DMIN
 70
     8
280
     0
  0
ATTDEF
  5
80
330
6E
100
AcDbEntity
  8
AM_6
100
AcDbText
 10
125.65
 20
87.04500000000002
 30
0.0
 40
0.5
  1
201.6
100
AcDbAttributeDefinition
  3

  2
DMAX
 70
     8
280
     0
  0
ATTDEF
  5
81
330
6E
100
AcDbEntity
  8
AM_6
100
AcDbText
 10
125.65
 20
86.54500000000002
 30
0.0
 40
0.5
  1
M16
100
AcDbAttributeDefinition
  3

  2
F
 70
     8
280
     0
  0
ATTDEF
  5
82
330
6E
100
AcDbEntity
  8
AM_6
100
AcDbText
 10
125.65
 20
86.04500000000002
 30
0.0
 40
0.5
  1
31.0
100
AcDbAttributeDefinition
  3

  2
G
 70
     8
280
     0
  0
ATTDEF
  5
83
330
6E
100
AcDbEntity
  8
AM_6
100
AcDbText
 10
125.65
 20
85.54500000000002
 30
0.0
 40
0.5
  1
20.2
100
AcDbAttributeDefinition
  3

  2
H
 70
     8
280
     0
  0
ATTDEF
  5
84
330
6E
100
AcDbEntity
  8
AM_6
100
AcDbText
 10
125.65
 20
85.04500000000002
 30
0.0
 40
0.5
  1
134.9
100
AcDbAttributeDefinition
  3

  2
J
 70
     8
280
     0
  0
ATTDEF
  5
85
330
6E
100
AcDbEntity
  8
AM_6
100
AcDbText
 10
125.65
 20
84.54500000000002
 30
0.0
 40
0.5
  1
88.9
100
AcDbAttributeDefinition
  3

  2
L
 70
     8
280
     0
  0
ATTDEF
  5
86
330
6E
100
AcDbEntity
  8
AM_6
100
AcDbText
 10
125.65
 20
84.04500000000002
 30
0.0
 40
0.5
  1
68.3
100
AcDbAttributeDefinition
  3

  2
M
 70
     8
280
     0
  0
ATTDEF
  5
87
330
6E
100
AcDbEntity
  8
AM_6
100
AcDbText
 10
125.65
 20
83.54500000000002
 30
0.0
 40
0.5
  1
19.4
100
AcDbAttributeDefinition
  3

  2
R
 70
     8
280
     0
  0
ATTDEF
  5
88
330
6E
100
AcDbEntity
  8
AM_6
100
AcDbText
 10
125.65
 20
83.04500000000002
 30
0.0
 40
0.5
  1
34.1
100
AcDbAttributeDefinition
  3

  2
S
 70
     8
280
     0
  0
ATTDEF
  5
89
330
6E
100
AcDbEntity
  8
AM_6
100
AcDbText
 10
125.65
 20
82.54500000000002
 30
0.0
 40
0.5
  1
108.0
100
AcDbAttributeDefinition
  3

  2
U
 70
     8
280
     0
  0
ATTDEF
  5
8A
330
6E
100
AcDbEntity
  8
AM_6
100
AcDbText
 10
125.65
 20
82.04500000000002
 30
0.0
 40
0.5
  1
215.9
100
AcDbAttributeDefinition
  3

  2
V
 70
     8
280
     0
  0
ATTDEF
  5
8B
330
6E
100
AcDbEntity
  8
AM_6
100
AcDbText
 10
125.65
 20
81.54500000000002
 30
0.0
 40
0.5
  1
22.2
100
AcDbAttributeDefinition
  3

  2
W
 70
     8
280
     0
  0
ATTDEF
  5
8C
330
6E
100
AcDbEntity
  8
AM_6
100
AcDbText
 10
125.65
 20
81.04500000000002
 30
0.0
 40
0.5
  1
4.8
100
AcDbAttributeDefinition
  3

  2
X
 70
     8
280
     0
  0
ATTDEF
  5
8D
330
6E
100
AcDbEntity
  8
AM_6
100
AcDbText
 10
125.65
 20
80.54500000000002
 30
0.0
 40
0.5
  1
33.3
100
AcDbAttributeDefinition
  3

  2
Z
 70
     8
280
     0
  0
ATTDEF
  5
8E
330
6E
100
AcDbEntity
  8
AM_6
100
AcDbText
 10
125.65
 20
80.04500000000002
 30
0.0
 40
0.5
  1
baldor
100
AcDbAttributeDefinition
  3

  2
COMPANY
 70
     8
280
     0
  0
INSERT
  5
90
330
6E
100
AcDbEntity
  8
0
100
AcDbBlockReference
  2
2_129525_0_in_129047_0
 10
0.0
 20
0.0
 30
0.0
  0
INSERT
  5
C1
330
6E
100
AcDbEntity
  8
0
100
AcDbBlockReference
  2
3_129951_0_in_129047_0
 10
0.0
 20
0.0
 30
0.0
  0
INSERT
  5
102
330
6E
100
AcDbEntity
  8
0
100
AcDbBlockReference
  2
4_129441_0_in_129047_0
 10
0.0
 20
0.0
 30
0.0
  0
ENDBLK
  5
71
330
6E
100
AcDbEntity
  8
0
100
AcDbBlockEnd
  0
BLOCK
  5
91
330
8F
100
AcDbEntity
  8
0
100
AcDbBlockBegin
  2
2_129525_0_in_129047_0
 70
     2
 10
0.0
 20
0.0
 30
0.0
  3
2_129525_0_in_129047_0
  1

  0
ATTDEF
  5
93
330
8F
100
AcDbEntity
  8
AM_6
100
AcDbText
 10
62.37382360568979
 20
57.37382360568979
 30
0.0
 40
0.5
  1
INS-GT-M B
100
AcDbAttributeDefinition
  3

  2
NN
 70
     8
280
     0
  0
ATTDEF
  5
94
330
8F
100
AcDbEntity
  8
AM_6
100
AcDbText
 10
62.37382360568979
 20
56.87382360568979
 30
0.0
 40
0.5
  1
GT Normal Duty Bearing Inserts
100
AcDbAttributeDefinition
  3

  2
NT
 70
     8
280
     0
  0
ATTDEF
  5
95
330
8F
100
AcDbEntity
  8
AM_6
100
AcDbText
 10
62.37382360568979
 20
56.37382360568979
 30
0.0
 40
0.5
  1
129525
100
AcDbAttributeDefinition
  3

  2
NB
 70
     8
280
     0
  0
ATTDEF
  5
96
330
8F
100
AcDbEntity
  8
AM_6
100
AcDbText
 10
62.37382360568979
 20
55.87382360568979
 30
0.0
 40
0.5
  1
$PN.
100
AcDbAttributeDefinition
  3

  2
NBSYN
 70
     8
280
     0
  0
ATTDEF
  5
97
330
8F
100
AcDbEntity
  8
AM_6
100
AcDbText
 10
62.37382360568979
 20
55.37382360568979
 30
0.0
 40
0.5
  1
129525
100
AcDbAttributeDefinition
  3

  2
LINA
 70
     8
280
     0
  0
ATTDEF
  5
98
330
8F
100
AcDbEntity
  8
AM_6
100
AcDbText
 10
62.37382360568979
 20
54.87382360568979
 30
0.0
 40
0.5
  1
212
100
AcDbAttributeDefinition
  3

  2
SERIES
 70
     8
280
     0
  0
ATTDEF
  5
99
330
8F
100
AcDbEntity
  8
AM_6
100
AcDbText
 10
62.37382360568979
 20
54.37382360568979
 30
0.0
 40
0.5
  1
129525
100
AcDbAttributeDefinition
  3

  2
PN
 70
     8
280
     0
  0
ATTDEF
  5
9A
330
8F
100
AcDbEntity
  8
AM_6
100
AcDbText
 10
62.37382360568979
 20
53.87382360568979
 30
0.0
 40
0.5
  1
INS-GT-12
100
AcDbAttributeDefinition
  3

  2
DESCRIPTION
 70
     8
280
     0
  0
ATTDEF
  5
9B
330
8F
100
AcDbEntity
  8
AM_6
100
AcDbText
 10
62.37382360568979
 20
53.37382360568979
 30
0.0
 40
0.5
  1
53.8
100
AcDbAttributeDefinition
  3

  2
A
 70
     8
280
     0
  0
ATTDEF
  5
9C
330
8F
100
AcDbEntity
  8
AM_6
100
AcDbText
 10
62.37382360568979
 20
52.87382360568979
 30
0.0
 40
0.5
  1
25.9
100
AcDbAttributeDefinition
  3

  2
C
 70
     8
280
     0
  0
ATTDEF
  5
9D
330
8F
100
AcDbEntity
  8
AM_6
100
AcDbText
 10
62.37382360568979
 20
52.37382360568979
 30
0.0
 40
0.5
  1
110.0
100
AcDbAttributeDefinition
  3

  2
D
 70
     8
280
     0
  0
ATTDEF
  5
9E
330
8F
100
AcDbEntity
  8
AM_6
100
AcDbText
 10
62.37382360568979
 20
51.87382360568979
 30
0.0
 40
0.5
  1
6.4
100
AcDbAttributeDefinition
  3

  2
J
 70
     8
280
     0
  0
ATTDEF
  5
9F
330
8F
100
AcDbEntity
  8
AM_6
100
AcDbText
 10
62.37382360568979
 20
51.37382360568979
 30
0.0
 40
0.5
  1
93.7
100
AcDbAttributeDefinition
  3

  2
L
 70
     8
280
     0
  0
ATTDEF
  5
A0
330
8F
100
AcDbEntity
  8
AM_6
100
AcDbText
 10
62.37382360568979
 20
50.87382360568979
 30
0.0
 40
0.5
  1
#10 - 32 x 1/4
100
AcDbAttributeDefinition
  3

  2
N
 70
     8
280
     0
  0
ATTDEF
  5
A1
330
8F
100
AcDbEntity
  8
AM_6
100
AcDbText
 10
62.37382360568979
 20
50.37382360568979
 30
0.0
 40
0.5
  1
18.5
100
AcDbAttributeDefinition
  3

  2
W
 70
     8
280
     0
  0
ATTDEF
  5
A2
330
8F
100
AcDbEntity
  8
AM_6
100
AcDbText
 10
62.37382360568979
 20
49.87382360568979
 30
0.0
 40
0.5
  1
37.1
100
AcDbAttributeDefinition
  3

  2
X
 70
     8
280
     0
  0
ATTDEF
  5
A3
330
8F
100
AcDbEntity
  8
AM_6
100
AcDbText
 10
62.37382360568979
 20
49.37382360568979
 30
0.0
 40
0.5
  1
35.3
100
AcDbAttributeDefinition
  3

  2
Y
 70
     8
280
     0
  0
ATTDEF
  5
A4
330
8F
100
AcDbEntity
  8
AM_6
100
AcDbText
 10
62.37382360568979
 20
48.87382360568979
 30
0.0
 40
0.5
  1
baldor
100
AcDbAttributeDefinition
  3

  2
COMPANY
 70
     8
280
     0
  0
CIRCLE
  5
A7
330
8F
100
AcDbEntity
  8
AM_9
100
AcDbCircle
 10
0.0
 20
0.0
 30
0.0
 40
36.01885331917885
  0
ARC
  5
A8
330
8F
100
AcDbEntity
  8
AM_9
100
AcDbCircle
 10
-0.0000000000000142
 20
-0.0000000000000071
 30
0.0
 40
54.99999999999999
100
AcDbArc
 50
209.5432891896438
 51
331.3368148340372
  0
ARC
  5
A9
330
8F
100
AcDbEntity
  8
AM_9
100
AcDbCircle
 10
0.0000000000280593
 20
0.0000000000147864
 30
0.0
 40
55.00000000003172
100
AcDbArc
 50
208.6631851659624
 51
209.4801917057138
  0
CIRCLE
  5
AA
330
8F
100
AcDbEntity
  8
AM_9
100
AcDbCircle
 10
0.0
 20
0.0
 30
0.0
 40
52.41
  0
CIRCLE
  5
AB
330
8F
100
AcDbEntity
  8
AM_9
100
AcDbCircle
 10
0.0
 20
0.0
 30
0.0
 40
53.78407832615186
  0
CIRCLE
  5
AC
330
8F
100
AcDbEntity
  8
AM_9
100
AcDbCircle
 10
0.0
 20
0.0
 30
0.0
 40
38.29801587301587
  0
ARC
  5
AD
330
8F
100
AcDbEntity
  8
AM_9
100
AcDbCircle
 10
-0.000000000000199
 20
-0.0000000000003588
 30
0.0
 40
41.64444444444468
100
AcDbArc
 50
4.407008121605061
 51
115.592991878395
  0
ARC
  5
AE
330
8F
100
AcDbEntity
  8
AM_9
100
AcDbCircle
 10
0.0000000000000213
 20
0.0000000000000036
 30
0.0
 40
41.64444444444447
100
AcDbArc
 50
124.4070081216046
 51
235.5929918783954
  0
ARC
  5
AF
330
8F
100
AcDbEntity
  8
AM_9
100
AcDbCircle
 10
-0.0000000000000009
 20
0.0000000000000142
 30
0.0
 40
41.64444444444447
100
AcDbArc
 50
244.4070081216047
 51
355.5929918783954
  0
CIRCLE
  5
B0
330
8F
100
AcDbEntity
  8
AM_9
100
AcDbCircle
 10
0.0
 20
0.0
 30
0.0
 40
34.9515873015873
  0
CIRCLE
  5
B1
330
8F
100
AcDbEntity
  8
AM_9
100
AcDbCircle
 10
0.0
 20
0.0
 30
0.0
 40
40.60844444444444
  0
LINE
  5
B4
330
8F
100
AcDbEntity
  8
AM_7
100
AcDbLine
 10
-57.37382360568979
 20
0.0
 30
0.0
 11
57.37382360568979
 21
0.0
 31
0.0
  0
LINE
  5
B5
330
8F
100
AcDbEntity
  8
AM_7
100
AcDbLine
 10
0.0
 20
-57.37382360568979
 30
0.0
 11
0.0
 21
57.37382360568979
 31
0.0
  0
CIRCLE
  5
B7
330
8F
100
AcDbEntity
  8
AM_4
100
AcDbCircle
 10
0.0
 20
0.0
 30
0.0
 40
54.64173676732361
  0
CIRCLE
  5
B8
330
8F
100
AcDbEntity
  8
AM_4
100
AcDbCircle
 10
0.0
 20
0.0
 30
0.0
 40
54.38549273570218
  0
CIRCLE
  5
B9
330
8F
100
AcDbEntity
  8
AM_4
100
AcDbCircle
 10
0.0
 20
0.0
 30
0.0
 40
54.04307832615186
  0
CIRCLE
  5
BA
330
8F
100
AcDbEntity
  8
AM_4
100
AcDbCircle
 10
0.0
 20
0.0
 30
0.0
 40
54.03566032868017
  0
CIRCLE
  5
BB
330
8F
100
AcDbEntity
  8
AM_4
100
AcDbCircle
 10
0.0
 20
0.0
 30
0.0
 40
52.67597538503956
  0
CIRCLE
  5
BC
330
8F
100
AcDbEntity
  8
AM_4
100
AcDbCircle
 10
0.0
 20
0.0
 30
0.0
 40
51.71148383473066
  0
ARC
  5
BD
330
8F
100
AcDbEntity
  8
AM_4
100
AcDbCircle
 10
0.0000000000007887
 20
-0.0000000000015206
 30
0.0
 40
41.64444444444616
100
AcDbArc
 50
115.5929918783955
 51
124.4070081216043
  0
ARC
  5
BE
330
8F
100
AcDbEntity
  8
AM_4
100
AcDbCircle
 10
0.0000000000004903
 20
0.0000000000009521
 30
0.0
 40
41.64444444444552
100
AcDbArc
 50
235.5929918783956
 51
244.4070081216045
  0
ARC
  5
BF
330
8F
100
AcDbEntity
  8
AM_4
100
AcDbCircle
 10
-0.0000000000019682
 20
0.0000000000000013
 30
0.0
 40
41.64444444444641
100
AcDbArc
 50
355.5929918783956
 51
4.407008121604398
  0
ENDBLK
  5
92
330
8F
100
AcDbEntity
  8
0
100
AcDbBlockEnd
  0
BLOCK
  5
C2
330
C0
100
AcDbEntity
  8
0
100
AcDbBlockBegin
  2
3_129951_0_in_129047_0
 70
     2
 10
0.0
 20
0.0
 30
0.0
  3
3_129951_0_in_129047_0
  1

  0
ATTDEF
  5
C4
330
C0
100
AcDbEntity
  8
AM_6
100
AcDbText
 10
49.33466476697439
 20
44.43310811048003
 30
0.0
 40
0.5
  1
Grip Tight Normal Duty Adapter and Nut Metric Bore
100
AcDbAttributeDefinition
  3

  2
NN
 70
     8
280
     0
  0
ATTDEF
  5
C5
330
C0
100
AcDbEntity
  8
AM_6
100
AcDbText
 10
49.33466476697439
 20
43.93310811048003
 30
0.0
 40
0.5
  1
GT and GTM Adapter & Lock Nut Assemblies
100
AcDbAttributeDefinition
  3

  2
NT
 70
     8
280
     0
  0
ATTDEF
  5
C6
330
C0
100
AcDbEntity
  8
AM_6
100
AcDbText
 10
49.33466476697439
 20
43.43310811048003
 30
0.0
 40
0.5
  1
129951
100
AcDbAttributeDefinition
  3

  2
NB
 70
     8
280
     0
  0
ATTDEF
  5
C7
330
C0
100
AcDbEntity
  8
AM_6
100
AcDbText
 10
49.33466476697439
 20
42.93310811048003
 30
0.0
 40
0.5
  1
$PN.
100
AcDbAttributeDefinition
  3

  2
NBSYN
 70
     8
280
     0
  0
ATTDEF
  5
C8
330
C0
100
AcDbEntity
  8
AM_6
100
AcDbText
 10
49.33466476697439
 20
42.43310811048003
 30
0.0
 40
0.5
  1
129951
100
AcDbAttributeDefinition
  3

  2
LINA
 70
     8
280
     0
  0
ATTDEF
  5
C9
330
C0
100
AcDbEntity
  8
AM_6
100
AcDbText
 10
49.33466476697439
 20
41.93310811048003
 30
0.0
 40
0.5
  1
212
100
AcDbAttributeDefinition
  3

  2
SERIES
 70
     8
280
     0
  0
ATTDEF
  5
CA
330
C0
100
AcDbEntity
  8
AM_6
100
AcDbText
 10
49.33466476697439
 20
41.43310811048003
 30
0.0
 40
0.5
  1
60
100
AcDbAttributeDefinition
  3

  2
SS
 70
     8
280
     0
  0
ATTDEF
  5
CB
330
C0
100
AcDbEntity
  8
AM_6
100
AcDbText
 10
49.33466476697439
 20
40.93310811048003
 30
0.0
 40
0.5
  1
129951
100
AcDbAttributeDefinition
  3

  2
PN
 70
     8
280
     0
  0
ATTDEF
  5
CC
330
C0
100
AcDbEntity
  8
AM_6
100
AcDbText
 10
49.33466476697439
 20
40.43310811048003
 30
0.0
 40
0.5
  1
AN-GT-12-60M
100
AcDbAttributeDefinition
  3

  2
DESCRIPTION
 70
     8
280
     0
  0
ATTDEF
  5
CD
330
C0
100
AcDbEntity
  8
AM_6
100
AcDbText
 10
49.33466476697439
 20
39.93310811048003
 30
0.0
 40
0.5
  1
53.6
100
AcDbAttributeDefinition
  3

  2
A
 70
     8
280
     0
  0
ATTDEF
  5
CE
330
C0
100
AcDbEntity
  8
AM_6
100
AcDbText
 10
49.33466476697439
 20
39.43310811048003
 30
0.0
 40
0.5
  1
26.0
100
AcDbAttributeDefinition
  3

  2
C
 70
     8
280
     0
  0
ATTDEF
  5
CF
330
C0
100
AcDbEntity
  8
AM_6
100
AcDbText
 10
49.33466476697439
 20
38.93310811048003
 30
0.0
 40
0.5
  1
110.0
100
AcDbAttributeDefinition
  3

  2
D
 70
     8
280
     0
  0
ATTDEF
  5
D0
330
C0
100
AcDbEntity
  8
AM_6
100
AcDbText
 10
49.33466476697439
 20
38.43310811048003
 30
0.0
 40
0.5
  1
6.4
100
AcDbAttributeDefinition
  3

  2
J
 70
     8
280
     0
  0
ATTDEF
  5
D1
330
C0
100
AcDbEntity
  8
AM_6
100
AcDbText
 10
49.33466476697439
 20
37.93310811048003
 30
0.0
 40
0.5
  1
88.9
100
AcDbAttributeDefinition
  3

  2
L
 70
     8
280
     0
  0
ATTDEF
  5
D2
330
C0
100
AcDbEntity
  8
AM_6
100
AcDbText
 10
49.33466476697439
 20
37.43310811048003
 30
0.0
 40
0.5
  1
10 - 32 x 1/4
100
AcDbAttributeDefinition
  3

  2
N
 70
     8
280
     0
  0
ATTDEF
  5
D3
330
C0
100
AcDbEntity
  8
AM_6
100
AcDbText
 10
49.33466476697439
 20
36.93310811048003
 30
0.0
 40
0.5
  1
19.4
100
AcDbAttributeDefinition
  3

  2
W
 70
     8
280
     0
  0
ATTDEF
  5
D4
330
C0
100
AcDbEntity
  8
AM_6
100
AcDbText
 10
49.33466476697439
 20
36.43310811048003
 30
0.0
 40
0.5
  1
33.3
100
AcDbAttributeDefinition
  3

  2
X
 70
     8
280
     0
  0
ATTDEF
  5
D5
330
C0
100
AcDbEntity
  8
AM_6
100
AcDbText
 10
49.33466476697439
 20
35.93310811048003
 30
0.0
 40
0.5
  1
34.1
100
AcDbAttributeDefinition
  3

  2
Y
 70
     8
280
     0
  0
ATTDEF
  5
D6
330
C0
100
AcDbEntity
  8
AM_6
100
AcDbText
 10
49.33466476697439
 20
35.43310811048003
 30
0.0
 40
0.5
  1
baldor
100
AcDbAttributeDefinition
  3

  2
COMPANY
 70
     8
280
     0
  0
LINE
  5
D7
330
C0
100
AcDbEntity
  8
AM_9
100
AcDbLine
 10
1.25
 20
33.16124410691503
 30
0.0
 11
1.25
 21
34.25184574791619
 31
0.0
  0
LINE
  5
D8
330
C0
100
AcDbEntity
  8
AM_9
100
AcDbLine
 10
-1.25
 20
33.16124410691503
 30
0.0
 11
-1.25
 21
34.25184574791619
 31
0.0
  0
ARC
  5
D9
330
C0
100
AcDbEntity
  8
AM_9
100
AcDbCircle
 10
0.0
 20
0.0000000000000004
 30
0.0
 40
34.27464714827921
100
AcDbArc
 50
92.09004662005694
 51
87.90995337994308
  0
CIRCLE
  5
DA
330
C0
100
AcDbEntity
  8
AM_9
100
AcDbCircle
 10
0.0
 20
0.0
 30
0.0
 40
36.33611111111111
  0
CIRCLE
  5
DB
330
C0
100
AcDbEntity
  8
AM_9
100
AcDbCircle
 10
0.0
 20
0.0
 30
0.0
 40
39.95561111111112
  0
LINE
  5
DC
330
C0
100
AcDbEntity
  8
AM_9
100
AcDbLine
 10
-44.01820000000001
 20
-1.981200000000006
 30
0.0
 11
-33.7693
 21
-1.981200000000006
 31
0.0
  0
LINE
  5
DD
330
C0
100
AcDbEntity
  8
AM_9
100
AcDbLine
 10
-33.7693
 20
1.981200000000006
 30
0.0
 11
-44.01820000000001
 21
1.981200000000006
 31
0.0
  0
LINE
  5
DE
330
C0
100
AcDbEntity
  8
AM_9
100
AcDbLine
 10
-33.7693
 20
-1.981200000000006
 30
0.0
 11
-33.33750000000001
 21
-2.412999999999995
 31
0.0
  0
LINE
  5
DF
330
C0
100
AcDbEntity
  8
AM_9
100
AcDbLine
 10
-33.33750000000001
 20
2.412999999999995
 30
0.0
 11
-33.7693
 21
1.981200000000006
 31
0.0
  0
LINE
  5
E0
330
C0
100
AcDbEntity
  8
AM_9
100
AcDbLine
 10
-33.33750000000001
 20
2.412999999999995
 30
0.0
 11
-33.33750000000001
 21
-2.412999999999995
 31
0.0
  0
LINE
  5
E1
330
C0
100
AcDbEntity
  8
AM_9
100
AcDbLine
 10
-33.7693
 20
1.981200000000006
 30
0.0
 11
-33.7693
 21
-1.981200000000006
 31
0.0
  0
LINE
  5
E2
330
C0
100
AcDbEntity
  8
AM_9
100
AcDbLine
 10
-44.01820000000001
 20
1.981200000000006
 30
0.0
 11
-44.37555397318258
 21
2.338553973182577
 31
0.0
  0
LINE
  5
E3
330
C0
100
AcDbEntity
  8
AM_9
100
AcDbLine
 10
-44.38377749245228
 20
-2.346777492452275
 30
0.0
 11
-44.01820000000001
 21
-1.981200000000006
 31
0.0
  0
LINE
  5
E4
330
C0
100
AcDbEntity
  8
AM_9
100
AcDbLine
 10
-44.01820000000001
 20
1.981200000000006
 30
0.0
 11
-44.01820000000001
 21
-1.981200000000006
 31
0.0
  0
LINE
  5
E5
330
C0
100
AcDbEntity
  8
AM_9
100
AcDbLine
 10
-44.43332003891492
 20
1.21760844254808
 30
0.0
 11
-44.38779413789442
 21
2.350793817395482
 31
0.0
  0
LINE
  5
E6
330
C0
100
AcDbEntity
  8
AM_9
100
AcDbLine
 10
-44.38779412673227
 20
-2.350794028159969
 30
0.0
 11
-44.43337683358872
 21
-1.215534106597357
 31
0.0
  0
LINE
  5
E8
330
C0
100
AcDbEntity
  8
AM_5
100
AcDbLine
 10
-44.38445596151877
 20
-2.412999999999995
 30
0.0
 11
-33.33750000000001
 21
-2.412999999999995
 31
0.0
  0
LINE
  5
E9
330
C0
100
AcDbEntity
  8
AM_5
100
AcDbLine
 10
-44.38445596151877
 20
2.412999999999995
 30
0.0
 11
-33.33750000000001
 21
2.412999999999995
 31
0.0
  0
LWPOLYLINE
  5
EA
330
C0
100
AcDbEntity
  8
AM_4
100
AcDbPolyline
 90
        6
 70
     0
 43
0.0
 10
-44.43337683358872
 20
-1.215534106597357
 10
-44.43514370267374
 20
-1.149131899624261
 10
-44.44818118305483
 20
-0.4021063520146281
 10
-44.4484260436579
 20
0.3740618150432584
 10
-44.43638340282049
 20
1.100150025014665
 10
-44.43332003891492
 20
1.21760844254808
  0
LINE
  5
EB
330
C0
100
AcDbEntity
  8
AM_4
100
AcDbLine
 10
-17.97204710231779
 20
37.52849869723539
 30
0.0
 11
-19.39605109137701
 21
39.99494595646672
 31
0.0
  0
LINE
  5
EC
330
C0
100
AcDbEntity
  8
AM_4
100
AcDbLine
 10
44.33466476697439
 20
3.2
 30
0.0
 11
41.48665678885597
 21
3.2
 31
0.0
  0
ARC
  5
ED
330
C0
100
AcDbEntity
  8
AM_4
100
AcDbCircle
 10
0.0000000000000071
 20
-0.0000000000000036
 30
0.0
 40
44.45
100
AcDbArc
 50
4.128351782192465
 51
115.8716482178075
  0
LINE
  5
EE
330
C0
100
AcDbEntity
  8
AM_4
100
AcDbLine
 10
-19.39605109137698
 20
-39.99494595646673
 30
0.0
 11
-17.97204710231777
 21
-37.52849869723541
 31
0.0
  0
ARC
  5
EF
330
C0
100
AcDbEntity
  8
AM_4
100
AcDbCircle
 10
0.0000000000000011
 20
0.0
 30
0.0
 40
44.45
100
AcDbArc
 50
244.1283517821925
 51
355.8716482178075
  0
LINE
  5
F0
330
C0
100
AcDbEntity
  8
AM_4
100
AcDbLine
 10
41.48665678885597
 20
-3.2
 30
0.0
 11
44.33466476697439
 21
-3.2
 31
0.0
  0
LINE
  5
F1
330
C0
100
AcDbEntity
  8
AM_4
100
AcDbLine
 10
1.25
 20
29.97394702070449
 30
0.0
 11
1.25
 21
33.16111111111111
 31
0.0
  0
LINE
  5
F2
330
C0
100
AcDbEntity
  8
AM_4
100
AcDbLine
 10
-1.25
 20
29.97394702070449
 30
0.0
 11
-1.250000000000001
 21
33.16111111111111
 31
0.0
  0
LINE
  5
F3
330
C0
100
AcDbEntity
  8
AM_4
100
AcDbLine
 10
-24.93861367559741
 20
36.79494595646671
 30
0.0
 11
-23.5146096865382
 21
34.3284986972354
 31
0.0
  0
LINE
  5
F4
330
C0
100
AcDbEntity
  8
AM_4
100
AcDbLine
 10
41.48665678885597
 20
3.2
 30
0.0
 11
41.48665678885597
 21
-3.2
 31
0.0
  0
LINE
  5
F5
330
C0
100
AcDbEntity
  8
AM_4
100
AcDbLine
 10
-1.250000000000001
 20
33.16111111111111
 30
0.0
 11
1.25
 21
33.16111111111111
 31
0.0
  0
ARC
  5
F6
330
C0
100
AcDbEntity
  8
AM_4
100
AcDbCircle
 10
0.0
 20
-0.0000000000000071
 30
0.0
 40
43.41
100
AcDbArc
 50
4.227434989659335
 51
115.7725650103406
  0
LINE
  5
F7
330
C0
100
AcDbEntity
  8
AM_4
100
AcDbLine
 10
-23.5146096865382
 20
34.3284986972354
 30
0.0
 11
-17.97204710231779
 21
37.52849869723539
 31
0.0
  0
LINE
  5
F8
330
C0
100
AcDbEntity
  8
AM_4
100
AcDbLine
 10
-23.51460968653818
 20
-34.32849869723542
 30
0.0
 11
-24.93861367559739
 21
-36.79494595646673
 31
0.0
  0
LINE
  5
F9
330
C0
100
AcDbEntity
  8
AM_4
100
AcDbLine
 10
-17.97204710231777
 20
-37.52849869723541
 30
0.0
 11
-23.51460968653818
 21
-34.32849869723542
 31
0.0
  0
ARC
  5
FA
330
C0
100
AcDbEntity
  8
AM_4
100
AcDbCircle
 10
-0.0000000000000033
 20
0.0000000000000071
 30
0.0
 40
43.41000000000001
100
AcDbArc
 50
244.2274349896595
 51
355.7725650103407
  0
ARC
  5
FB
330
C0
100
AcDbEntity
  8
AM_4
100
AcDbCircle
 10
-0.0000000000001386
 20
0.0000000000000853
 30
0.0
 40
44.44999999999985
100
AcDbArc
 50
124.1283517821925
 51
178.4394963197606
  0
LWPOLYLINE
  5
FC
330
C0
100
AcDbEntity
  8
AM_4
100
AcDbPolyline
 90
        5
 70
     0
 43
0.0
 10
-44.43351460898303
 20
1.210487295799203
 10
-44.32276261736661
 20
0.6520885550538795
 10
-44.27799648647661
 20
0.0557996675500248
 10
-44.39882295082904
 20
-1.06777274381466
 10
-44.43351460898304
 20
-1.21048729579921
  0
ARC
  5
FD
330
C0
100
AcDbEntity
  8
AM_4
100
AcDbCircle
 10
-0.0000000000000782
 20
-0.0000000000000426
 30
0.0
 40
44.44999999999992
100
AcDbArc
 50
181.5605036802397
 51
235.8716482178076
  0
ARC
  5
FE
330
C0
100
AcDbEntity
  8
AM_4
100
AcDbCircle
 10
0.0000000000000071
 20
-0.0000000000000071
 30
0.0
 40
43.41000000000001
100
AcDbArc
 50
124.2274349896594
 51
235.7725650103406
  0
ARC
  5
FF
330
C0
100
AcDbEntity
  8
AM_4
100
AcDbCircle
 10
0.0000000000000001
 20
-0.000000000000002
 30
0.0
 40
30.0
100
AcDbArc
 50
92.3880154632688
 51
87.61198453673123
  0
ARC
  5
100
330
C0
100
AcDbEntity
  8
AM_4
100
AcDbCircle
 10
0.0
 20
0.0000000000000008
 30
0.0
 40
33.1611111111111
100
AcDbArc
 50
92.16026223264116
 51
87.83973776735884
  0
ENDBLK
  5
C3
330
C0
100
AcDbEntity
  8
0
100
AcDbBlockEnd
  0
BLOCK
  5
103
330
101
100
AcDbEntity
  8
0
100
AcDbBlockBegin
  2
4_129441_0_in_129047_0
 70
     2
 10
0.0
 20
0.0
 30
0.0
  3
4_129441_0_in_129047_0
  1

  0
ATTDEF
  5
105
330
101
100
AcDbEntity
  8
AM_6
100
AcDbText
 10
125.65
 20
93.54500000000002
 30
0.0
 40
0.5
  1
GTB-M
100
AcDbAttributeDefinition
  3

  2
NN
 70
     8
280
     0
  0
ATTDEF
  5
106
330
101
100
AcDbEntity
  8
AM_6
100
AcDbText
 10
125.65
 20
93.04500000000002
 30
0.0
 40
0.5
  1
GTB Normal Duty Pillow Blocks
100
AcDbAttributeDefinition
  3

  2
NT
 70
     8
280
     0
  0
ATTDEF
  5
107
330
101
100
AcDbEntity
  8
AM_6
100
AcDbText
 10
125.65
 20
92.54500000000002
 30
0.0
 40
0.5
  1
129441
100
AcDbAttributeDefinition
  3

  2
NB
 70
     8
280
     0
  0
ATTDEF
  5
108
330
101
100
AcDbEntity
  8
AM_6
100
AcDbText
 10
125.65
 20
92.04500000000002
 30
0.0
 40
0.5
  1
$PN.$LUBE.
100
AcDbAttributeDefinition
  3

  2
NBSYN
 70
     8
280
     0
  0
ATTDEF
  5
109
330
101
100
AcDbEntity
  8
AM_6
100
AcDbText
 10
125.65
 20
91.54500000000002
 30
0.0
 40
0.5
  1
129441
100
AcDbAttributeDefinition
  3

  2
LINA
 70
     8
280
     0
  0
ATTDEF
  5
10A
330
101
100
AcDbEntity
  8
AM_6
100
AcDbText
 10
125.65
 20
91.04500000000002
 30
0.0
 40
0.5
  1
212
100
AcDbAttributeDefinition
  3

  2
SERIES
 70
     8
280
     0
  0
ATTDEF
  5
10B
330
101
100
AcDbEntity
  8
AM_6
100
AcDbText
 10
125.65
 20
90.54500000000002
 30
0.0
 40
0.5
  1
129441
100
AcDbAttributeDefinition
  3

  2
PN
 70
     8
280
     0
  0
ATTDEF
  5
10C
330
101
100
AcDbEntity
  8
AM_6
100
AcDbText
 10
125.65
 20
90.04500000000002
 30
0.0
 40
0.5
  1
P2B-GTB-12
100
AcDbAttributeDefinition
  3

  2
DESCRIPTION
 70
     8
280
     0
  0
ATTDEF
  5
10D
330
101
100
AcDbEntity
  8
AM_6
100
AcDbText
 10
125.65
 20
89.54500000000002
 30
0.0
 40
0.5
  1
53.6
100
AcDbAttributeDefinition
  3

  2
A
 70
     8
280
     0
  0
ATTDEF
  5
10E
330
101
100
AcDbEntity
  8
AM_6
100
AcDbText
 10
125.65
 20
89.04500000000002
 30
0.0
 40
0.5
  1
241.3
100
AcDbAttributeDefinition
  3

  2
B
 70
     8
280
     0
  0
ATTDEF
  5
10F
330
101
100
AcDbEntity
  8
AM_6
100
AcDbText
 10
125.65
 20
88.54500000000002
 30
0.0
 40
0.5
  1
60.3
100
AcDbAttributeDefinition
  3

  2
C
 70
     8
280
     0
  0
ATTDEF
  5
110
330
101
100
AcDbEntity
  8
AM_6
100
AcDbText
 10
125.65
 20
88.04500000000002
 30
0.0
 40
0.5
  1
174.6
100
AcDbAttributeDefinition
  3

  2
DMIN
 70
     8
280
     0
  0
ATTDEF
  5
111
330
101
100
AcDbEntity
  8
AM_6
100
AcDbText
 10
125.65
 20
87.54500000000002
 30
0.0
 40
0.5
  1
201.6
100
AcDbAttributeDefinition
  3

  2
DMAX
 70
     8
280
     0
  0
ATTDEF
  5
112
330
101
100
AcDbEntity
  8
AM_6
100
AcDbText
 10
125.65
 20
87.04500000000002
 30
0.0
 40
0.5
  1
M16
100
AcDbAttributeDefinition
  3

  2
F
 70
     8
280
     0
  0
ATTDEF
  5
113
330
101
100
AcDbEntity
  8
AM_6
100
AcDbText
 10
125.65
 20
86.54500000000002
 30
0.0
 40
0.5
  1
31.0
100
AcDbAttributeDefinition
  3

  2
G
 70
     8
280
     0
  0
ATTDEF
  5
114
330
101
100
AcDbEntity
  8
AM_6
100
AcDbText
 10
125.65
 20
86.04500000000002
 30
0.0
 40
0.5
  1
20.2
100
AcDbAttributeDefinition
  3

  2
H
 70
     8
280
     0
  0
ATTDEF
  5
115
330
101
100
AcDbEntity
  8
AM_6
100
AcDbText
 10
125.65
 20
85.54500000000002
 30
0.0
 40
0.5
  1
134.9
100
AcDbAttributeDefinition
  3

  2
J
 70
     8
280
     0
  0
ATTDEF
  5
116
330
101
100
AcDbEntity
  8
AM_6
100
AcDbText
 10
125.65
 20
85.04500000000002
 30
0.0
 40
0.5
  1
88.9
100
AcDbAttributeDefinition
  3

  2
L
 70
     8
280
     0
  0
ATTDEF
  5
117
330
101
100
AcDbEntity
  8
AM_6
100
AcDbText
 10
125.65
 20
84.54500000000002
 30
0.0
 40
0.5
  1
68.3
100
AcDbAttributeDefinition
  3

  2
M
 70
     8
280
     0
  0
ATTDEF
  5
118
330
101
100
AcDbEntity
  8
AM_6
100
AcDbText
 10
125.65
 20
84.04500000000002
 30
0.0
 40
0.5
  1
19.4
100
AcDbAttributeDefinition
  3

  2
R
 70
     8
280
     0
  0
ATTDEF
  5
119
330
101
100
AcDbEntity
  8
AM_6
100
AcDbText
 10
125.65
 20
83.54500000000002
 30
0.0
 40
0.5
  1
34.1
100
AcDbAttributeDefinition
  3

  2
S
 70
     8
280
     0
  0
ATTDEF
  5
11A
330
101
100
AcDbEntity
  8
AM_6
100
AcDbText
 10
125.65
 20
83.04500000000002
 30
0.0
 40
0.5
  1
108.0
100
AcDbAttributeDefinition
  3

  2
U
 70
     8
280
     0
  0
ATTDEF
  5
11B
330
101
100
AcDbEntity
  8
AM_6
100
AcDbText
 10
125.65
 20
82.54500000000002
 30
0.0
 40
0.5
  1
215.9
100
AcDbAttributeDefinition
  3

  2
V
 70
     8
280
     0
  0
ATTDEF
  5
11C
330
101
100
AcDbEntity
  8
AM_6
100
AcDbText
 10
125.65
 20
82.04500000000002
 30
0.0
 40
0.5
  1
22.2
100
AcDbAttributeDefinition
  3

  2
W
 70
     8
280
     0
  0
ATTDEF
  5
11D
330
101
100
AcDbEntity
  8
AM_6
100
AcDbText
 10
125.65
 20
81.54500000000002
 30
0.0
 40
0.5
  1
4.8
100
AcDbAttributeDefinition
  3

  2
X
 70
     8
280
     0
  0
ATTDEF
  5
11E
330
101
100
AcDbEntity
  8
AM_6
100
AcDbText
 10
125.65
 20
81.04500000000002
 30
0.0
 40
0.5
  1
33.3
100
AcDbAttributeDefinition
  3

  2
Z
 70
     8
280
     0
  0
ATTDEF
  5
11F
330
101
100
AcDbEntity
  8
AM_6
100
AcDbText
 10
125.65
 20
80.54500000000002
 30
0.0
 40
0.5
  1
baldor
100
AcDbAttributeDefinition
  3

  2
COMPANY
 70
     8
280
     0
  0
LINE
  5
120
330
101
100
AcDbEntity
  8
AM_9
100
AcDbLine
 10
-120.65
 20
-54.83333333333333
 30
0.0
 11
-80.31600000000002
 21
-54.83333333333333
 31
0.0
  0
LINE
  5
121
330
101
100
AcDbEntity
  8
AM_9
100
AcDbLine
 10
-80.31600000000002
 20
-48.09999999999999
 30
0.0
 11
-80.31600000000002
 21
-54.83333333333333
 31
0.0
  0
LINE
  5
122
330
101
100
AcDbEntity
  8
AM_9
100
AcDbLine
 10
-82.31600000000003
 20
-48.09999999999999
 30
0.0
 11
-82.31600000000003
 21
-54.83333333333333
 31
0.0
  0
LINE
  5
123
330
101
100
AcDbEntity
  8
AM_9
100
AcDbLine
 10
82.31600000000002
 20
-48.1
 30
0.0
 11
82.31600000000002
 21
-54.83333333333333
 31
0.0
  0
LINE
  5
124
330
101
100
AcDbEntity
  8
AM_9
100
AcDbLine
 10
80.316
 20
-48.1
 30
0.0
 11
80.316
 21
-54.83333333333333
 31
0.0
  0
LINE
  5
125
330
101
100
AcDbEntity
  8
AM_9
100
AcDbLine
 10
120.65
 20
-54.83333333333333
 30
0.0
 11
80.316
 21
-54.83333333333333
 31
0.0
  0
LINE
  5
126
330
101
100
AcDbEntity
  8
AM_9
100
AcDbLine
 10
8.51322
 20
64.60000000000002
 30
0.0
 11
8.51322
 21
66.05365308014086
 31
0.0
  0
LINE
  5
127
330
101
100
AcDbEntity
  8
AM_9
100
AcDbLine
 10
4.23717
 20
64.60000000000002
 30
0.0
 11
4.23717
 21
66.46507647171637
 31
0.0
  0
LINE
  5
128
330
101
100
AcDbEntity
  8
AM_9
100
AcDbLine
 10
2.37126
 20
64.60000000000002
 30
0.0
 11
2.37126
 21
66.55777284444248
 31
0.0
  0
LINE
  5
129
330
101
100
AcDbEntity
  8
AM_9
100
AcDbLine
 10
-5.09238
 20
64.60000000000002
 30
0.0
 11
-5.09238
 21
66.40502741461377
 31
0.0
  0
LINE
  5
12A
330
101
100
AcDbEntity
  8
AM_9
100
AcDbLine
 10
-5.71435
 20
64.60000000000002
 30
0.0
 11
-5.71435
 21
66.3543985284887
 31
0.0
  0
LINE
  5
12B
330
101
100
AcDbEntity
  8
AM_9
100
AcDbLine
 10
-1.98253
 20
64.60000000000002
 30
0.0
 11
-1.98253
 21
66.57048576358073
 31
0.0
  0
LINE
  5
12C
330
101
100
AcDbEntity
  8
AM_9
100
AcDbLine
 10
1.74929
 20
64.60000000000002
 30
0.0
 11
1.74929
 21
66.57702294707916
 31
0.0
  0
LINE
  5
12D
330
101
100
AcDbEntity
  8
AM_9
100
AcDbLine
 10
2.83774
 20
64.60000000000002
 30
0.0
 11
2.83774
 21
66.53951631694058
 31
0.0
  0
LINE
  5
12E
330
101
100
AcDbEntity
  8
AM_9
100
AcDbLine
 10
1.28281
 20
64.60000000000002
 30
0.0
 11
1.28281
 21
66.5876444883276
 31
0.0
  0
LINE
  5
12F
330
101
100
AcDbEntity
  8
AM_9
100
AcDbLine
 10
-4.6259
 20
64.60000000000002
 30
0.0
 11
-4.6259
 21
66.4391529836888
 31
0.0
  0
LINE
  5
130
330
101
100
AcDbEntity
  8
AM_9
100
AcDbLine
 10
-2.44901
 20
64.60000000000002
 30
0.0
 11
-2.44901
 21
66.55495736622407
 31
0.0
  0
LINE
  5
131
330
101
100
AcDbEntity
  8
AM_9
100
AcDbLine
 10
-6.18083
 20
64.60000000000002
 30
0.0
 11
-6.18083
 21
66.31257301983618
 31
0.0
  0
LINE
  5
132
330
101
100
AcDbEntity
  8
AM_9
100
AcDbLine
 10
2.44901
 20
64.60000000000002
 30
0.0
 11
2.44901
 21
66.55495736622404
 31
0.0
  0
LINE
  5
133
330
101
100
AcDbEntity
  8
AM_9
100
AcDbLine
 10
-5.7921
 20
64.60000000000002
 30
0.0
 11
-5.7921
 21
66.34765691107717
 31
0.0
  0
LINE
  5
134
330
101
100
AcDbEntity
  8
AM_9
100
AcDbLine
 10
5.40337
 20
64.60000000000002
 30
0.0
 11
5.40337
 21
66.38044586053263
 31
0.0
  0
LINE
  5
135
330
101
100
AcDbEntity
  8
AM_9
100
AcDbLine
 10
-5.01464
 20
64.60000000000002
 30
0.0
 11
-5.01464
 21
66.41094326743449
 31
0.0
  0
LINE
  5
136
330
101
100
AcDbEntity
  8
AM_9
100
AcDbLine
 10
1.67155
 20
64.60000000000002
 30
0.0
 11
1.67155
 21
66.57902012344061
 31
0.0
  0
LINE
  5
137
330
101
100
AcDbEntity
  8
AM_9
100
AcDbLine
 10
-2.06028
 20
64.60000000000002
 30
0.0
 11
-2.06028
 21
66.56812485207622
 31
0.0
  0
LINE
  5
138
330
101
100
AcDbEntity
  8
AM_9
100
AcDbLine
 10
4.93689
 20
64.60000000000002
 30
0.0
 11
4.93689
 21
66.41676834300134
 31
0.0
  0
LINE
  5
139
330
101
100
AcDbEntity
  8
AM_9
100
AcDbLine
 10
3.07098
 20
64.60000000000002
 30
0.0
 11
3.07098
 21
66.52915963575373
 31
0.0
  0
LINE
  5
13A
330
101
100
AcDbEntity
  8
AM_9
100
AcDbLine
 10
-5.94759
 20
64.60000000000002
 30
0.0
 11
-5.94759
 21
66.3338991254992
 31
0.0
  0
LINE
  5
13B
330
101
100
AcDbEntity
  8
AM_9
100
AcDbLine
 10
-4.39266
 20
64.60000000000002
 30
0.0
 11
-4.39266
 21
66.45498128902302
 31
0.0
  0
LINE
  5
13C
330
101
100
AcDbEntity
  8
AM_9
100
AcDbLine
 10
-2.68225
 20
64.60000000000002
 30
0.0
 11
-2.68225
 21
66.5459655797217
 31
0.0
  0
LINE
  5
13D
330
101
100
AcDbEntity
  8
AM_9
100
AcDbLine
 10
5.32562
 20
64.60000000000002
 30
0.0
 11
5.32562
 21
66.38672888172457
 31
0.0
  0
LINE
  5
13E
330
101
100
AcDbEntity
  8
AM_9
100
AcDbLine
 10
1.51605
 20
64.60000000000002
 30
0.0
 11
1.51605
 21
66.5827424517608
 31
0.0
  0
LINE
  5
13F
330
101
100
AcDbEntity
  8
AM_9
100
AcDbLine
 10
-4.859140000000001
 20
64.60000000000002
 30
0.0
 11
-4.859140000000001
 21
66.42250189853138
 31
0.0
  0
LINE
  5
140
330
101
100
AcDbEntity
  8
AM_9
100
AcDbLine
 10
1.04957
 20
64.60000000000002
 30
0.0
 11
1.04957
 21
66.59172923730921
 31
0.0
  0
LINE
  5
141
330
101
100
AcDbEntity
  8
AM_9
100
AcDbLine
 10
-2.21577
 20
64.60000000000002
 30
0.0
 11
-2.21577
 21
66.56313066035207
 31
0.0
  0
LINE
  5
142
330
101
100
AcDbEntity
  8
AM_9
100
AcDbLine
 10
-6.41407
 20
64.60000000000002
 30
0.0
 11
-6.41407
 21
66.29041941363104
 31
0.0
  0
LINE
  5
143
330
101
100
AcDbEntity
  8
AM_9
100
AcDbLine
 10
2.6045
 20
64.60000000000002
 30
0.0
 11
2.6045
 21
66.54905393579988
 31
0.0
  0
LINE
  5
144
330
101
100
AcDbEntity
  8
AM_9
100
AcDbLine
 10
4.859140000000001
 20
64.60000000000002
 30
0.0
 11
4.859140000000001
 21
66.42250189853138
 31
0.0
  0
LINE
  5
145
330
101
100
AcDbEntity
  8
AM_9
100
AcDbLine
 10
4.6259
 20
64.60000000000002
 30
0.0
 11
4.6259
 21
66.4391529836888
 31
0.0
  0
LINE
  5
146
330
101
100
AcDbEntity
  8
AM_9
100
AcDbLine
 10
-2.91549
 20
64.60000000000002
 30
0.0
 11
-2.91549
 21
66.53615496900842
 31
0.0
  0
LINE
  5
147
330
101
100
AcDbEntity
  8
AM_9
100
AcDbLine
 10
-8.35773
 20
64.60000000000002
 30
0.0
 11
-8.35773
 21
66.07350716623952
 31
0.0
  0
LINE
  5
148
330
101
100
AcDbEntity
  8
AM_9
100
AcDbLine
 10
3.30422
 20
64.60000000000002
 30
0.0
 11
3.30422
 21
66.51798350966156
 31
0.0
  0
LINE
  5
149
330
101
100
AcDbEntity
  8
AM_9
100
AcDbLine
 10
-6.64731
 20
64.60000000000002
 30
0.0
 11
-6.64731
 21
66.26743747696831
 31
0.0
  0
LINE
  5
14A
330
101
100
AcDbEntity
  8
AM_9
100
AcDbLine
 10
6.491810000000001
 20
64.60000000000002
 30
0.0
 11
6.491810000000001
 21
66.28285149964432
 31
0.0
  0
LINE
  5
14B
330
101
100
AcDbEntity
  8
AM_9
100
AcDbLine
 10
0.816336
 20
64.60000000000002
 30
0.0
 11
0.816336
 21
66.59499677554695
 31
0.0
  0
LINE
  5
14C
330
101
100
AcDbEntity
  8
AM_9
100
AcDbLine
 10
-0.894082
 20
64.60000000000002
 30
0.0
 11
-0.894082
 21
66.59399835854038
 31
0.0
  0
LINE
  5
14D
330
101
100
AcDbEntity
  8
AM_9
100
AcDbLine
 10
-4.15943
 20
64.60000000000002
 30
0.0
 11
-4.15943
 21
66.4699867765528
 31
0.0
  0
LINE
  5
14E
330
101
100
AcDbEntity
  8
AM_9
100
AcDbLine
 10
-6.25858
 20
64.60000000000002
 30
0.0
 11
-6.25858
 21
66.30528015462725
 31
0.0
  0
LINE
  5
14F
330
101
100
AcDbEntity
  8
AM_9
100
AcDbLine
 10
5.01464
 20
64.60000000000002
 30
0.0
 11
5.01464
 21
66.41094326743449
 31
0.0
  0
LINE
  5
150
330
101
100
AcDbEntity
  8
AM_9
100
AcDbLine
 10
-4.54816
 20
64.60000000000002
 30
0.0
 11
-4.54816
 21
66.44452001944481
 31
0.0
  0
LINE
  5
151
330
101
100
AcDbEntity
  8
AM_9
100
AcDbLine
 10
2.91549
 20
64.60000000000002
 30
0.0
 11
2.91549
 21
66.53615496900842
 31
0.0
  0
LINE
  5
152
330
101
100
AcDbEntity
  8
AM_9
100
AcDbLine
 10
-2.52675
 20
64.60000000000002
 30
0.0
 11
-2.52675
 21
66.55205131652595
 31
0.0
  0
LINE
  5
153
330
101
100
AcDbEntity
  8
AM_9
100
AcDbLine
 10
1.20507
 20
64.60000000000002
 30
0.0
 11
1.20507
 21
66.58909675235955
 31
0.0
  0
LINE
  5
154
330
101
100
AcDbEntity
  8
AM_9
100
AcDbLine
 10
-2.83774
 20
64.60000000000002
 30
0.0
 11
-2.83774
 21
66.53951631694063
 31
0.0
  0
LINE
  5
155
330
101
100
AcDbEntity
  8
AM_9
100
AcDbLine
 10
3.22647
 20
64.60000000000002
 30
0.0
 11
3.22647
 21
66.52180012100625
 31
0.0
  0
LINE
  5
156
330
101
100
AcDbEntity
  8
AM_9
100
AcDbLine
 10
4.703650000000001
 20
64.60000000000002
 30
0.0
 11
4.703650000000001
 21
66.43369383586543
 31
0.0
  0
LINE
  5
157
330
101
100
AcDbEntity
  8
AM_9
100
AcDbLine
 10
-4.23717
 20
64.60000000000002
 30
0.0
 11
-4.23717
 21
66.46507647171634
 31
0.0
  0
LINE
  5
158
330
101
100
AcDbEntity
  8
AM_9
100
AcDbLine
 10
0.894082
 20
64.60000000000002
 30
0.0
 11
0.894082
 21
66.59399835854038
 31
0.0
  0
LINE
  5
159
330
101
100
AcDbEntity
  8
AM_9
100
AcDbLine
 10
-6.56956
 20
64.60000000000002
 30
0.0
 11
-6.56956
 21
66.27519054221123
 31
0.0
  0
LINE
  5
15A
330
101
100
AcDbEntity
  8
AM_9
100
AcDbLine
 10
8.8242
 20
64.60000000000002
 30
0.0
 11
8.8242
 21
66.0128282560292
 31
0.0
  0
LINE
  5
15B
330
101
100
AcDbEntity
  8
AM_9
100
AcDbLine
 10
4.31492
 20
64.60000000000002
 30
0.0
 11
4.31492
 21
66.46007422049423
 31
0.0
  0
LINE
  5
15C
330
101
100
AcDbEntity
  8
AM_9
100
AcDbLine
 10
3.6152
 20
64.60000000000002
 30
0.0
 11
3.6152
 21
66.50180696011202
 31
0.0
  0
LINE
  5
15D
330
101
100
AcDbEntity
  8
AM_9
100
AcDbLine
 10
-3.22647
 20
64.60000000000002
 30
0.0
 11
-3.22647
 21
66.5218001210062
 31
0.0
  0
LINE
  5
15E
330
101
100
AcDbEntity
  8
AM_9
100
AcDbLine
 10
2.37126
 20
64.60000000000002
 30
0.0
 11
5.40337
 21
64.60000000000002
 31
0.0
  0
LINE
  5
15F
330
101
100
AcDbEntity
  8
AM_9
100
AcDbLine
 10
-3.84844
 20
64.60000000000002
 30
0.0
 11
-3.84844
 21
66.48871715987912
 31
0.0
  0
LINE
  5
160
330
101
100
AcDbEntity
  8
AM_9
100
AcDbLine
 10
-5.09238
 20
64.60000000000002
 30
0.0
 11
-1.98253
 21
64.60000000000002
 31
0.0
  0
LINE
  5
161
330
101
100
AcDbEntity
  8
AM_9
100
AcDbLine
 10
6.02534
 20
64.60000000000002
 30
0.0
 11
8.8242
 21
64.60000000000002
 31
0.0
  0
LINE
  5
162
330
101
100
AcDbEntity
  8
AM_9
100
AcDbLine
 10
6.02534
 20
64.60000000000002
 30
0.0
 11
6.02534
 21
66.32688201539708
 31
0.0
  0
LINE
  5
163
330
101
100
AcDbEntity
  8
AM_9
100
AcDbLine
 10
-8.8242
 20
64.60000000000002
 30
0.0
 11
-8.8242
 21
66.0128282560292
 31
0.0
  0
LINE
  5
164
330
101
100
AcDbEntity
  8
AM_9
100
AcDbLine
 10
-1.36056
 20
64.60000000000002
 30
0.0
 11
1.74929
 21
64.60000000000002
 31
0.0
  0
LINE
  5
165
330
101
100
AcDbEntity
  8
AM_9
100
AcDbLine
 10
0.505351
 20
64.60000000000002
 30
0.0
 11
0.505351
 21
66.59808270788884
 31
0.0
  0
LINE
  5
166
330
101
100
AcDbEntity
  8
AM_9
100
AcDbLine
 10
-1.36056
 20
64.60000000000002
 30
0.0
 11
-1.36056
 21
66.58610122605471
 31
0.0
  0
LINE
  5
167
330
101
100
AcDbEntity
  8
AM_9
100
AcDbLine
 10
-8.8242
 20
64.60000000000002
 30
0.0
 11
-5.71435
 21
64.60000000000002
 31
0.0
  0
LINE
  5
168
330
101
100
AcDbEntity
  8
AM_9
100
AcDbLine
 10
-6.95829
 20
64.60000000000002
 30
0.0
 11
-6.95829
 21
66.2355055863236
 31
0.0
  0
LINE
  5
169
330
101
100
AcDbEntity
  8
AM_9
100
AcDbLine
 10
-100.8
 20
-48.09999999999999
 30
0.0
 11
-100.8
 21
-68.3
 31
0.0
  0
LINE
  5
16A
330
101
100
AcDbEntity
  8
AM_9
100
AcDbLine
 10
-109.55
 20
-48.1
 30
0.0
 11
-109.55
 21
-68.3
 31
0.0
  0
LINE
  5
16B
330
101
100
AcDbEntity
  8
AM_9
100
AcDbLine
 10
100.8
 20
-48.1
 30
0.0
 11
100.8
 21
-68.3
 31
0.0
  0
LINE
  5
16C
330
101
100
AcDbEntity
  8
AM_9
100
AcDbLine
 10
109.55
 20
-68.3
 30
0.0
 11
109.55
 21
-48.1
 31
0.0
  0
LINE
  5
16D
330
101
100
AcDbEntity
  8
AM_9
100
AcDbLine
 10
-87.3
 20
-48.09999999999999
 30
0.0
 11
-87.3
 21
-68.3
 31
0.0
  0
LINE
  5
16E
330
101
100
AcDbEntity
  8
AM_9
100
AcDbLine
 10
-78.54999999999998
 20
-68.3
 30
0.0
 11
-78.54999999999998
 21
-48.09999999999999
 31
0.0
  0
LINE
  5
16F
330
101
100
AcDbEntity
  8
AM_9
100
AcDbLine
 10
87.29999999999998
 20
-48.1
 30
0.0
 11
87.29999999999998
 21
-68.3
 31
0.0
  0
LINE
  5
170
330
101
100
AcDbEntity
  8
AM_9
100
AcDbLine
 10
78.54999999999998
 20
-48.1
 30
0.0
 11
78.54999999999998
 21
-68.3
 31
0.0
  0
LINE
  5
171
330
101
100
AcDbEntity
  8
AM_9
100
AcDbLine
 10
67.45
 20
4.542693376681658
 30
0.0
 11
67.45
 21
-48.1
 31
0.0
  0
LINE
  5
172
330
101
100
AcDbEntity
  8
AM_9
100
AcDbLine
 10
-67.45
 20
-48.1
 30
0.0
 11
-67.45
 21
4.542693376681672
 31
0.0
  0
LINE
  5
173
330
101
100
AcDbEntity
  8
AM_9
100
AcDbLine
 10
105.55
 20
-48.1
 30
0.0
 11
105.55
 21
-50.12
 31
0.0
  0
LINE
  5
174
330
101
100
AcDbEntity
  8
AM_9
100
AcDbLine
 10
110.35
 20
-50.12
 30
0.0
 11
110.35
 21
-48.1
 31
0.0
  0
LINE
  5
175
330
101
100
AcDbEntity
  8
AM_9
100
AcDbLine
 10
105.55
 20
-50.12
 30
0.0
 11
110.35
 21
-50.12
 31
0.0
  0
LINE
  5
176
330
101
100
AcDbEntity
  8
AM_9
100
AcDbLine
 10
-110.35
 20
-48.1
 30
0.0
 11
-110.35
 21
-50.12
 31
0.0
  0
LINE
  5
177
330
101
100
AcDbEntity
  8
AM_9
100
AcDbLine
 10
-105.55
 20
-50.12
 30
0.0
 11
-105.55
 21
-48.1
 31
0.0
  0
LINE
  5
178
330
101
100
AcDbEntity
  8
AM_9
100
AcDbLine
 10
-110.35
 20
-50.12
 30
0.0
 11
-105.55
 21
-50.12
 31
0.0
  0
LINE
  5
179
330
101
100
AcDbEntity
  8
AM_7
100
AcDbLine
 10
87.3
 20
-54.845
 30
0.0
 11
87.3
 21
93.54500000000002
 31
0.0
  0
LINE
  5
17A
330
101
100
AcDbEntity
  8
AM_7
100
AcDbLine
 10
-87.3
 20
-54.845
 30
0.0
 11
-87.3
 21
93.54500000000002
 31
0.0
  0
LINE
  5
17B
330
101
100
AcDbEntity
  8
AM_7
100
AcDbLine
 10
42.34664867122582
 20
42.34664867122583
 30
0.0
 11
54.99077350077332
 21
54.99077350077334
 31
0.0
  0
LINE
  5
17C
330
101
100
AcDbEntity
  8
AM_7
100
AcDbLine
 10
-107.95
 20
-50.322
 30
0.0
 11
-107.95
 21
-45.878
 31
0.0
  0
LINE
  5
17D
330
101
100
AcDbEntity
  8
AM_7
100
AcDbLine
 10
107.95
 20
-50.322
 30
0.0
 11
107.95
 21
-45.878
 31
0.0
  0
LINE
  5
17E
330
101
100
AcDbEntity
  8
AM_4
100
AcDbLine
 10
-3.848439999999974
 20
66.48871715987913
 30
0.0
 11
-4.159429999999997
 21
66.4699867765528
 31
0.0
  0
LINE
  5
17F
330
101
100
AcDbEntity
  8
AM_4
100
AcDbLine
 10
54.96278279894769
 20
52.65886929764486
 30
0.0
 11
52.65886943640192
 21
54.96278266019063
 31
0.0
  0
ARC
  5
180
330
101
100
AcDbEntity
  8
AM_4
100
AcDbCircle
 10
52.51744794140755
 20
54.8213614427104
 30
0.0
 40
0.1999999999999795
100
AcDbArc
 50
45.00000000000001
 51
107.3005271919553
  0
ARC
  5
181
330
101
100
AcDbEntity
  8
AM_4
100
AcDbCircle
 10
54.82136144271044
 20
52.51744794140757
 30
0.0
 40
0.1999999999999253
100
AcDbArc
 50
342.6994728080423
 51
45.00000000000578
  0
LINE
  5
182
330
101
100
AcDbEntity
  8
AM_4
100
AcDbLine
 10
55.0123130553596
 20
52.45797120959877
 30
0.0
 11
52.45797120959874
 21
55.01231305535963
 31
0.0
  0
LINE
  5
183
330
101
100
AcDbEntity
  8
AM_4
100
AcDbLine
 10
52.45797120959874
 20
55.01231305535963
 30
0.0
 11
50.74422421661423
 21
54.47852300836445
 31
0.0
  0
LINE
  5
184
330
101
100
AcDbEntity
  8
AM_4
100
AcDbLine
 10
54.47852300836443
 20
50.74422421661426
 30
0.0
 11
55.01231305535961
 21
52.45797120959876
 31
0.0
  0
LINE
  5
185
330
101
100
AcDbEntity
  8
AM_4
100
AcDbLine
 10
54.47852300836442
 20
50.74422421661426
 30
0.0
 11
50.74422421661425
 21
54.47852300836445
 31
0.0
  0
ARC
  5
186
330
101
100
AcDbEntity
  8
AM_4
100
AcDbCircle
 10
50.89291604613627
 20
54.00114397674125
 30
0.0
 40
0.5000000000001044
100
AcDbArc
 50
107.3005271919498
 51
172.2172705265632
  0
ARC
  5
187
330
101
100
AcDbEntity
  8
AM_4
100
AcDbCircle
 10
54.00114397674129
 20
50.89291604613621
 30
0.0
 40
0.500000000000025
100
AcDbArc
 50
277.7827294734315
 51
342.6994728080551
  0
LINE
  5
188
330
101
100
AcDbEntity
  8
AM_4
100
AcDbLine
 10
48.2953931550412
 20
52.25519112968587
 30
0.0
 11
47.94183976444792
 21
51.90163773909259
 31
0.0
  0
LINE
  5
189
330
101
100
AcDbEntity
  8
AM_4
100
AcDbLine
 10
51.90163773909258
 20
47.94183976444793
 30
0.0
 11
52.25519112968585
 21
48.29539315504121
 31
0.0
  0
LINE
  5
18A
330
101
100
AcDbEntity
  8
AM_4
100
AcDbLine
 10
52.25519112968585
 20
48.29539315504121
 30
0.0
 11
48.2953931550412
 21
52.25519112968585
 31
0.0
  0
LINE
  5
18B
330
101
100
AcDbEntity
  8
AM_4
100
AcDbLine
 10
54.06885244052978
 20
50.39752169419886
 30
0.0
 11
50.39752169419886
 21
54.0688524405298
 31
0.0
  0
ARC
  5
18C
330
101
100
AcDbEntity
  8
AM_4
100
AcDbCircle
 10
48.31896338108077
 20
54.35294124720591
 30
0.0
 40
2.097882530341241
100
AcDbArc
 50
269.356254285824
 51
352.2172705265723
  0
ARC
  5
18D
330
101
100
AcDbEntity
  8
AM_4
100
AcDbCircle
 10
54.35294124720591
 20
48.31896338108078
 30
0.0
 40
2.097882530341244
100
AcDbArc
 50
97.78272947342829
 51
180.6437457141753
  0
LINE
  5
18E
330
101
100
AcDbEntity
  8
AM_4
100
AcDbLine
 10
45.46696603029501
 20
49.42676400493968
 30
0.0
 11
45.07278142376084
 21
49.03257939840552
 31
0.0
  0
LINE
  5
18F
330
101
100
AcDbEntity
  8
AM_4
100
AcDbLine
 10
49.03157270888085
 20
45.07177473423621
 30
0.0
 11
49.42676400493967
 21
45.46696603029503
 31
0.0
  0
LINE
  5
190
330
101
100
AcDbEntity
  8
AM_4
100
AcDbLine
 10
50.27529214236353
 20
44.61843789287116
 30
0.0
 11
44.61843789287115
 21
50.27529214236355
 31
0.0
  0
LINE
  5
191
330
101
100
AcDbEntity
  8
AM_4
100
AcDbLine
 10
44.61843789287115
 20
50.27529214236355
 30
0.0
 11
47.09331162702409
 21
52.75016587651648
 31
0.0
  0
LINE
  5
192
330
101
100
AcDbEntity
  8
AM_4
100
AcDbLine
 10
52.75016587651646
 20
47.0933116270241
 30
0.0
 11
47.09331162702409
 21
52.75016587651648
 31
0.0
  0
LINE
  5
193
330
101
100
AcDbEntity
  8
AM_4
100
AcDbLine
 10
52.75016587651646
 20
47.0933116270241
 30
0.0
 11
50.27529214236353
 21
44.61843789287116
 31
0.0
  0
LINE
  5
194
330
101
100
AcDbEntity
  8
AM_4
100
AcDbLine
 10
48.50752518939716
 20
51.33595231414336
 30
0.0
 11
46.97606799302065
 21
52.63292224251305
 31
0.0
  0
LINE
  5
195
330
101
100
AcDbEntity
  8
AM_4
100
AcDbLine
 10
44.73568152687456
 20
50.39253577636696
 30
0.0
 11
46.03265145524425
 21
48.86107857999045
 31
0.0
  0
LINE
  5
196
330
101
100
AcDbEntity
  8
AM_4
100
AcDbLine
 10
46.03265145524425
 20
48.86107857999045
 30
0.0
 11
47.56410865162076
 21
47.56410865162076
 31
0.0
  0
LINE
  5
197
330
101
100
AcDbEntity
  8
AM_4
100
AcDbLine
 10
49.80449511776684
 20
49.80449511776686
 30
0.0
 11
48.50752518939716
 21
51.33595231414336
 31
0.0
  0
LINE
  5
198
330
101
100
AcDbEntity
  8
AM_4
100
AcDbLine
 10
52.63292224251303
 20
46.97606799302066
 30
0.0
 11
51.33595231414336
 21
48.5075251893972
 31
0.0
  0
LINE
  5
199
330
101
100
AcDbEntity
  8
AM_4
100
AcDbLine
 10
51.33595231414336
 20
48.5075251893972
 30
0.0
 11
49.80449511776684
 21
49.80449511776686
 31
0.0
  0
LINE
  5
19A
330
101
100
AcDbEntity
  8
AM_4
100
AcDbLine
 10
47.56410865162076
 20
47.56410865162076
 30
0.0
 11
49.80449511776684
 21
49.80449511776686
 31
0.0
  0
LINE
  5
19B
330
101
100
AcDbEntity
  8
AM_4
100
AcDbLine
 10
47.56410865162076
 20
47.56410865162076
 30
0.0
 11
48.86107857999043
 21
46.03265145524426
 31
0.0
  0
LINE
  5
19C
330
101
100
AcDbEntity
  8
AM_4
100
AcDbLine
 10
48.86107857999043
 20
46.03265145524426
 30
0.0
 11
50.39253577636695
 21
44.73568152687459
 31
0.0
  0
ARC
  5
19D
330
101
100
AcDbEntity
  8
AM_4
100
AcDbCircle
 10
0.0
 20
0.0000000000000071
 30
0.0
 40
55.00000000000001
100
AcDbArc
 50
211.7685495624322
 51
328.2314504375678
  0
LINE
  5
19E
330
101
100
AcDbEntity
  8
AM_4
100
AcDbLine
 10
46.76000000000003
 20
-61.56666666666666
 30
0.0
 11
-46.75999999999999
 21
-61.56666666666666
 31
0.0
  0
LWPOLYLINE
  5
19F
330
101
100
AcDbEntity
  8
AM_4
100
AcDbPolyline
 90
        8
 70
     0
 43
0.0
 10
46.76000000000003
 20
-28.95690591206176
 10
47.15467332803554
 20
-28.30954568747049
 10
47.53234048006086
 20
-27.67086208428584
 10
47.82063283049504
 20
-27.16959837191156
 10
48.13274037360621
 20
-26.61276581129851
 10
48.21841722579312
 20
-26.45721527748787
 10
48.25917960695311
 20
-26.38278953529821
 10
48.26000000000003
 20
-26.38128882370984
  0
LINE
  5
1A0
330
101
100
AcDbEntity
  8
AM_4
100
AcDbLine
 10
46.76000000000003
 20
-28.95690591206176
 30
0.0
 11
46.76000000000003
 21
-61.56666666666666
 31
0.0
  0
LWPOLYLINE
  5
1A1
330
101
100
AcDbEntity
  8
AM_4
100
AcDbPolyline
 90
       19
 70
     0
 43
0.0
 10
48.26000000000001
 20
-63.06666666666666
 10
48.25429204713762
 20
-62.93593305254517
 10
48.23721162951832
 20
-62.80619440016627
 10
48.20888873943361
 20
-62.67843809901289
 10
48.16953893117887
 20
-62.55363645167817
 10
48.11946168055498
 20
-62.43273927405561
 10
48.05903810567667
 20
-62.31666666666666
 10
47.9887280664335
 20
-62.20630201214009
 10
47.90906666467848
 20
-62.10248525213685
 10
47.82066017177983
 20
-62.00600649488684
 10
47.72418141452982
 20
-61.9176000019882
 10
47.62036465452658
 20
-61.83793860023318
 10
47.51000000000001
 20
-61.76762856099
 10
47.39392739261105
 20
-61.70720498611168
 10
47.27303021498852
 20
-61.6571277354878
 10
47.1482285676538
 20
-61.61777792723306
 10
47.02047226650041
 20
-61.58945503714835
 10
46.8907336141215
 20
-61.57237461952904
 10
46.76000006705523
 20
-61.56666666666666
  0
LWPOLYLINE
  5
1A2
330
101
100
AcDbEntity
  8
AM_4
100
AcDbPolyline
 90
        7
 70
     0
 43
0.0
 10
-48.25999999999999
 20
-26.3812888237099
 10
-48.23787983747977
 20
-26.42171358532338
 10
-48.1605016741206
 20
-26.56249383053157
 10
-47.97506788690589
 20
-26.89596366086874
 10
-47.53959698657874
 20
-27.65839327136835
 10
-47.15852264531127
 20
-28.30312788483521
 10
-46.75999999999998
 20
-28.95690591206183
  0
LWPOLYLINE
  5
1A3
330
101
100
AcDbEntity
  8
AM_4
100
AcDbPolyline
 90
       19
 70
     0
 43
0.0
 10
-46.76
 20
-61.56666666666666
 10
-46.89073361412148
 20
-61.57237461952904
 10
-47.02047226650039
 20
-61.58945503714835
 10
-47.14822856765378
 20
-61.61777792723306
 10
-47.2730302149885
 20
-61.6571277354878
 10
-47.39392739261104
 20
-61.70720498611168
 10
-47.51
 20
-61.76762856099
 10
-47.62036465452656
 20
-61.83793860023317
 10
-47.7241814145298
 20
-61.91760000198819
 10
-47.82066017177981
 20
-62.00600649488684
 10
-47.90906666467846
 20
-62.10248525213685
 10
-47.98872806643348
 20
-62.20630201214009
 10
-48.05903810567666
 20
-62.31666666666666
 10
-48.11946168055497
 20
-62.43273927405561
 10
-48.16953893117886
 20
-62.55363645167815
 10
-48.2088887394336
 20
-62.67843809901287
 10
-48.23721162951831
 20
-62.80619440016626
 10
-48.25429204713761
 20
-62.93593305254517
 10
-48.25999999999999
 20
-63.06666666666666
  0
LINE
  5
1A4
330
101
100
AcDbEntity
  8
AM_4
100
AcDbLine
 10
-46.75999999999999
 20
-28.95690591206183
 30
0.0
 11
-46.75999999999999
 21
-61.56666666666666
 31
0.0
  0
LINE
  5
1A5
330
101
100
AcDbEntity
  8
AM_4
100
AcDbLine
 10
49.76000000000001
 20
-48.09999999999997
 30
0.0
 11
119.15
 21
-48.1
 31
0.0
  0
LINE
  5
1A6
330
101
100
AcDbEntity
  8
AM_4
100
AcDbLine
 10
120.65
 20
-49.59999999999999
 30
0.0
 11
120.65
 21
-68.3
 31
0.0
  0
LWPOLYLINE
  5
1A7
330
101
100
AcDbEntity
  8
AM_4
100
AcDbPolyline
 90
       19
 70
     0
 43
0.0
 10
119.15
 20
-48.09999999999999
 10
119.2807336141215
 20
-48.10570795286237
 10
119.4104722665004
 20
-48.12278837048168
 10
119.5382285676538
 20
-48.15111126056638
 10
119.6630302149885
 20
-48.19046106882113
 10
119.783927392611
 20
-48.24053831944502
 10
119.9
 20
-48.30096189432334
 10
120.0103646545266
 20
-48.3712719335665
 10
120.1141814145298
 20
-48.45093333532152
 10
120.2106601717798
 20
-48.53933982822016
 10
120.2990666646785
 20
-48.63581858547018
 10
120.3787280664335
 20
-48.73963534547342
 10
120.4490381056767
 20
-48.84999999999999
 10
120.509461680555
 20
-48.96607260738894
 10
120.5595389311789
 20
-49.08696978501149
 10
120.5988887394336
 20
-49.21177143234621
 10
120.6272116295183
 20
-49.33952773349959
 10
120.6442920471376
 20
-49.4692663858785
 10
120.65
 20
-49.59999999999999
  0
LINE
  5
1A8
330
101
100
AcDbEntity
  8
AM_4
100
AcDbLine
 10
120.65
 20
-68.3
 30
0.0
 11
48.26000000000002
 21
-68.3
 31
0.0
  0
LINE
  5
1A9
330
101
100
AcDbEntity
  8
AM_4
100
AcDbLine
 10
48.26000000000001
 20
-26.38128882370984
 30
0.0
 11
48.26000000000002
 21
-68.3
 31
0.0
  0
LINE
  5
1AA
330
101
100
AcDbEntity
  8
AM_4
100
AcDbLine
 10
49.76000000000001
 20
-68.3
 30
0.0
 11
49.76000000000001
 21
-48.09999999999997
 31
0.0
  0
LINE
  5
1AB
330
101
100
AcDbEntity
  8
AM_4
100
AcDbLine
 10
113.95
 20
-48.1
 30
0.0
 11
113.95
 21
-68.3
 31
0.0
  0
LINE
  5
1AC
330
101
100
AcDbEntity
  8
AM_4
100
AcDbLine
 10
-64.69580137553689
 20
15.81180838415012
 30
0.0
 11
-80.316
 21
-48.09999999999999
 31
0.0
  0
LINE
  5
1AD
330
101
100
AcDbEntity
  8
AM_4
100
AcDbLine
 10
80.316
 20
-48.09999999999999
 30
0.0
 11
64.6958013755369
 21
15.8118083841501
 31
0.0
  0
LWPOLYLINE
  5
1AE
330
101
100
AcDbEntity
  8
AM_4
100
AcDbPolyline
 90
       32
 70
     0
 43
0.0
 10
64.6958013755369
 20
15.81180838415008
 10
63.07152441520228
 20
21.39025030107279
 10
60.96723507044028
 20
26.80589949741809
 10
58.39894825376919
 20
32.01753961274338
 10
55.38621017863786
 20
36.9855069188967
 10
51.95194960093902
 20
41.67199218493754
 10
48.1223033173322
 20
46.04132842821418
 10
43.92641724843929
 20
50.0602623616379
 10
39.39622462078984
 20
53.69820747127671
 10
34.56620293568537
 20
56.92747679819493
 10
29.47311157459634
 20
59.72349365292858
 10
24.1557120380733
 20
62.06497865893202
 10
18.65447294732282
 20
63.93411170148222
 10
13.01126205356447
 20
65.31666754951205
 10
7.269027599163669
 20
66.20212411820789
 10
1.471471455574364
 20
66.58374254842872
 10
-4.337283474290619
 20
66.45861849349302
 10
-10.11302905799289
 20
65.82770422301083
 10
-15.81180838414992
 20
64.69580137553697
 10
-21.39025030107265
 20
63.07152441520236
 10
-26.80589949741794
 20
60.96723507044037
 10
-32.01753961274324
 20
58.39894825376929
 10
-36.98550691889655
 20
55.38621017863797
 10
-41.67199218493741
 20
51.95194960093914
 10
-46.04132842821404
 20
48.12230331733232
 10
-50.06026236163778
 20
43.92641724843941
 10
-53.69820747127659
 20
39.39622462078997
 10
-56.92747679819482
 20
34.5662029356855
 10
-59.72349365292849
 20
29.47311157459649
 10
-62.06497865893193
 20
24.15571203807345
 10
-63.93411170148215
 20
18.65447294732297
 10
-64.6958013755369
 20
15.81180838415011
  0
LINE
  5
1AF
330
101
100
AcDbEntity
  8
AM_4
100
AcDbLine
 10
-48.25999999999999
 20
-68.3
 30
0.0
 11
-48.25999999999999
 21
-26.3812888237099
 31
0.0
  0
LWPOLYLINE
  5
1B0
330
101
100
AcDbEntity
  8
AM_4
100
AcDbPolyline
 90
       49
 70
     0
 43
0.0
 10
48.26000000000001
 20
-26.38128882370988
 10
50.37563695197857
 20
-22.07476391000483
 10
52.10788488911133
 20
-17.60023671383775
 10
53.44356035863683
 20
-12.99176108896489
 10
54.37249806372905
 20
-8.284410317565175
 10
54.88762822754434
 20
-3.514010181385075
 10
54.98503039849195
 20
1.283133694092726
 10
54.66396328723794
 20
6.070512147381173
 10
53.92687040836458
 20
10.8116903377526
 10
52.77936148374894
 20
15.47058503637661
 10
51.23016974919216
 20
20.01173924147915
 10
49.29108548922179
 20
24.4005920275355
 10
46.97686630590728
 20
28.60374157478202
 10
44.3051248045974
 20
32.58919937723307
 10
41.29619455135875
 20
36.32663369452678
 10
37.97297532226024
 20
39.78760039478399
 10
34.36075882224993
 20
42.94575943162694
 10
30.48703620000886
 20
45.77707530783668
 10
26.38128882370997
 20
48.25999999999996
 10
22.07476391000491
 20
50.37563695197854
 10
17.60023671383785
 20
52.10788488911132
 10
12.99176108896498
 20
53.44356035863682
 10
8.284410317565275
 20
54.37249806372905
 10
3.514010181385175
 20
54.88762822754434
 10
-1.283133694092624
 20
54.98503039849196
 10
-6.070512147381072
 20
54.66396328723796
 10
-10.8116903377525
 20
53.92687040836461
 10
-15.47058503637651
 20
52.77936148374897
 10
-20.01173924147905
 20
51.23016974919221
 10
-24.40059202753541
 20
49.29108548922185
 10
-28.60374157478193
 20
46.97686630590735
 10
-32.58919937723298
 20
44.30512480459748
 10
-36.3266336945267
 20
41.29619455135883
 10
-39.78760039478392
 20
37.97297532226032
 10
-42.94575943162688
 20
34.36075882225002
 10
-45.77707530783661
 20
30.48703620000895
 10
-48.25999999999991
 20
26.38128882371006
 10
-50.37563695197849
 20
22.07476391000501
 10
-52.10788488911128
 20
17.60023671383794
 10
-53.44356035863678
 20
12.99176108896509
 10
-54.37249806372902
 20
8.284410317565376
 10
-54.88762822754433
 20
3.514010181385277
 10
-54.98503039849196
 20
-1.283133694092524
 10
-54.66396328723796
 20
-6.070512147380973
 10
-53.92687040836461
 20
-10.8116903377524
 10
-52.77936148374899
 20
-15.47058503637642
 10
-51.23016974919224
 20
-20.01173924147896
 10
-49.29108548922189
 20
-24.40059202753533
 10
-48.26000000000002
 20
-26.38128882370986
  0
LWPOLYLINE
  5
1B1
330
101
100
AcDbEntity
  8
AM_4
100
AcDbPolyline
 90
       19
 70
     0
 43
0.0
 10
48.26000000000002
 20
-30.98059701492531
 10
48.2657079528624
 20
-32.47265129748597
 10
48.28278837048171
 20
-33.95335014602932
 10
48.31111126056641
 20
-35.41142454824755
 10
48.35046106882115
 20
-36.83577767753039
 10
48.40053831944504
 20
-38.21556934651607
 10
48.46096189432335
 20
-39.5402985074626
 10
48.53127193356652
 20
-40.79988317156185
 10
48.61093333532154
 20
-41.98473713896201
 10
48.69933982822019
 20
-43.08584295553678
 10
48.7958185854702
 20
-44.09482054115615
 10
48.89963534547344
 20
-45.00399096715624
 10
49.01000000000001
 20
-45.80643489762307
 10
49.12607260738896
 20
-46.49604524971691
 10
49.2469697850115
 20
-47.0675736722602
 10
49.37177143234622
 20
-47.51667048885907
 10
49.49952773349961
 20
-47.83991780156715
 10
49.62926638587852
 20
-48.03485550315268
 10
49.76
 20
-48.09999999999997
  0
LWPOLYLINE
  5
1B2
330
101
100
AcDbEntity
  8
AM_4
100
AcDbPolyline
 90
       19
 70
     0
 43
0.0
 10
-49.75999999999998
 20
-48.10000000000004
 10
-49.6292663858785
 20
-48.03485550315276
 10
-49.49952773349959
 20
-47.83991780156725
 10
-49.3717714323462
 20
-47.51667048885917
 10
-49.24696978501148
 20
-47.0675736722603
 10
-49.12607260738893
 20
-46.49604524971703
 10
-49.00999999999999
 20
-45.80643489762321
 10
-48.89963534547342
 20
-45.00399096715638
 10
-48.79581858547018
 20
-44.0948205411563
 10
-48.69933982822017
 20
-43.08584295553693
 10
-48.61093333532152
 20
-41.98473713896216
 10
-48.5312719335665
 20
-40.79988317156201
 10
-48.46096189432333
 20
-39.54029850746276
 10
-48.40053831944501
 20
-38.21556934651624
 10
-48.35046106882113
 20
-36.83577767753057
 10
-48.31111126056638
 20
-35.41142454824773
 10
-48.28278837048168
 20
-33.95335014602949
 10
-48.26570795286237
 20
-32.47265129748614
 10
-48.25999999999999
 20
-30.98059701492551
  0
LINE
  5
1B3
330
101
100
AcDbEntity
  8
AM_4
100
AcDbLine
 10
-49.75999999999998
 20
-68.3
 30
0.0
 11
-49.75999999999998
 21
-48.10000000000004
 31
0.0
  0
LINE
  5
1B4
330
101
100
AcDbEntity
  8
AM_4
100
AcDbLine
 10
-48.25999999999999
 20
-68.3
 30
0.0
 11
-120.65
 21
-68.3
 31
0.0
  0
LINE
  5
1B5
330
101
100
AcDbEntity
  8
AM_4
100
AcDbLine
 10
-113.95
 20
-68.3
 30
0.0
 11
-113.95
 21
-48.1
 31
0.0
  0
LINE
  5
1B6
330
101
100
AcDbEntity
  8
AM_4
100
AcDbLine
 10
-119.15
 20
-48.1
 30
0.0
 11
-49.75999999999998
 21
-48.10000000000004
 31
0.0
  0
LWPOLYLINE
  5
1B7
330
101
100
AcDbEntity
  8
AM_4
100
AcDbPolyline
 90
       19
 70
     0
 43
0.0
 10
-120.65
 20
-49.59999999999999
 10
-120.6442920471376
 20
-49.46926638587851
 10
-120.6272116295183
 20
-49.33952773349959
 10
-120.5988887394336
 20
-49.21177143234622
 10
-120.5595389311789
 20
-49.0869697850115
 10
-120.509461680555
 20
-48.96607260738894
 10
-120.4490381056766
 20
-48.84999999999999
 10
-120.3787280664335
 20
-48.73963534547343
 10
-120.2990666646785
 20
-48.63581858547019
 10
-120.2106601717798
 20
-48.53933982822018
 10
-120.1141814145298
 20
-48.45093333532153
 10
-120.0103646545266
 20
-48.37127193356651
 10
-119.9
 20
-48.30096189432334
 10
-119.783927392611
 20
-48.24053831944502
 10
-119.6630302149885
 20
-48.19046106882114
 10
-119.5382285676538
 20
-48.1511112605664
 10
-119.4104722665004
 20
-48.12278837048169
 10
-119.2807336141215
 20
-48.10570795286238
 10
-119.15
 20
-48.1
  0
LINE
  5
1B8
330
101
100
AcDbEntity
  8
AM_4
100
AcDbLine
 10
-120.65
 20
-49.60000000000001
 30
0.0
 11
-120.65
 21
-68.3
 31
0.0
  0
ENDBLK
  5
104
330
101
100
AcDbEntity
  8
0
100
AcDbBlockEnd
  0
ENDSEC
  0
SECTION
  2
ENTITIES
  0
INSERT
  5
6F
330
1F
100
AcDbEntity
  8
0
100
AcDbBlockReference
  2
1_129047_0
 10
0.0
 20
0.0
 30
0.0
  0
POINT
  5
1BA
330
1F
100
AcDbEntity
  8
ConnectionPoints
100
AcDbPoint
 10
0.0
 20
0.0
 30
0.0
  0
POINT
  5
1BB
330
1F
100
AcDbEntity
  8
ConnectionPoints
100
AcDbPoint
 10
0.0
 20
0.0
 30
-19.4
  0
POINT
  5
1BC
330
1F
100
AcDbEntity
  8
ConnectionPoints
100
AcDbPoint
 10
0.0
 20
0.0
 30
0.0
  0
POINT
  5
1BD
330
1F
100
AcDbEntity
  8
ConnectionPoints
100
AcDbPoint
 10
0.0
 20
0.0
 30
0.0
  0
ENDSEC
  0
SECTION
  2
OBJECTS
  0
DICTIONARY
  5
C
330
0
100
AcDbDictionary
281
     1
  3
ACAD_DETAILVIEWSTYLE
350
1C5
  3
ACAD_GROUP
350
D
  3
ACAD_LAYOUT
350
1A
  3
ACAD_MATERIAL
350
43
  3
ACAD_MLEADERSTYLE
350
6B
  3
ACAD_MLINESTYLE
350
17
  3
ACAD_PLOTSETTINGS
350
19
  3
ACAD_PLOTSTYLENAME
350
E
  3
ACAD_SCALELIST
350
47
  3
ACAD_SECTIONVIEWSTYLE
350
1C6
  3
ACAD_TABLESTYLE
350
69
  3
ACAD_VISUALSTYLE
350
2A
  3
ACDB_RECOMPOSE_DATA
350
1C2
  3
AcDbVariableDictionary
350
1BE
  0
SUN
  5
6D
330
29
100
AcDbSun
 90
        1
290
     0
 63
     7
421
 16777215
 40
1.0
291
     1
 91
  2455826
 92
 54000000
292
     0
 70
     2
 71
   256
280
     1
  0
DICTIONARY
  5
1C5
102
{ACAD_REACTORS
330
C
102
}
330
C
100
AcDbDictionary
281
     1
  0
DICTIONARY
  5
D
102
{ACAD_REACTORS
330
C
102
}
330
C
100
AcDbDictionary
281
     1
  0
DICTIONARY
  5
1A
102
{ACAD_REACTORS
330
C
102
}
330
C
100
AcDbDictionary
281
     1
  3
Layout1
350
1E
  3
Layout2
350
26
  3
Model
350
22
  0
DICTIONARY
  5
43
102
{ACAD_REACTORS
330
C
102
}
330
C
100
AcDbDictionary
281
     1
  3
ByBlock
350
45
  3
ByLayer
350
44
  3
Global
350
46
  0
DICTIONARY
  5
6B
102
{ACAD_REACTORS
330
C
102
}
330
C
100
AcDbDictionary
281
     1
  3
Standard
350
6C
  0
DICTIONARY
  5
17
102
{ACAD_REACTORS
330
C
102
}
330
C
100
AcDbDictionary
281
     1
  3
Standard
350
18
  0
DICTIONARY
  5
19
102
{ACAD_REACTORS
330
C
102
}
330
C
100
AcDbDictionary
281
     1
  0
ACDBDICTIONARYWDFLT
  5
E
102
{ACAD_REACTORS
330
C
102
}
330
C
100
AcDbDictionary
281
     1
  3
Normal
350
F
100
AcDbDictionaryWithDefault
340
F
  0
DICTIONARY
  5
47
102
{ACAD_REACTORS
330
C
102
}
330
C
100
AcDbDictionary
281
     1
  3
A0
350
48
  3
A1
350
49
  3
A2
350
4A
  3
A3
350
4B
  3
A4
350
4C
  3
A5
350
4D
  3
A6
350
4E
  3
A7
350
4F
  3
A8
350
50
  3
A9
350
51
  3
B0
350
52
  3
B1
350
53
  3
B2
350
54
  3
B3
350
55
  3
B4
350
56
  3
B5
350
57
  3
B6
350
58
  3
B7
350
59
  3
B8
350
5A
  3
B9
350
5B
  3
C0
350
5C
  3
C1
350
5D
  3
C2
350
5E
  3
C3
350
5F
  3
C4
350
60
  3
C5
350
61
  3
C6
350
62
  3
C7
350
63
  3
C8
350
64
  3
C9
350
65
  3
D0
350
66
  3
D1
350
67
  3
D2
350
68
  0
DICTIONARY
  5
1C6
102
{ACAD_REACTORS
330
C
102
}
330
C
100
AcDbDictionary
281
     1
  0
DICTIONARY
  5
69
102
{ACAD_REACTORS
330
C
102
}
330
C
100
AcDbDictionary
281
     1
  3
Standard
350
6A
  0
DICTIONARY
  5
2A
102
{ACAD_REACTORS
330
C
102
}
330
C
100
AcDbDictionary
281
     1
  3
2dWireframe
350
2F
  3
Basic
350
32
  3
Brighten
350
36
  3
ColorChange
350
3A
  3
Conceptual
350
34
  3
Dim
350
35
  3
EdgeColorOff
350
3D
  3
Facepattern
350
39
  3
Flat
350
2B
  3
FlatWithEdges
350
2C
  3
Gouraud
350
2D
  3
GouraudWithEdges
350
2E
  3
Hidden
350
31
  3
JitterOff
350
3B
  3
Linepattern
350
38
  3
OverhangOff
350
3C
  3
Realistic
350
33
  3
Shaded
350
42
  3
Shaded with edges
350
41
  3
Shades of Gray
350
3E
  3
Sketchy
350
3F
  3
Thicken
350
37
  3
Wireframe
350
30
  3
X-Ray
350
40
  0
XRECORD
  5
1C2
102
{ACAD_REACTORS
330
C
102
}
330
C
100
AcDbXrecord
280
     1
 90
        1
330
6A
  0
DICTIONARY
  5
1BE
102
{ACAD_REACTORS
330
C
102
}
330
C
100
AcDbDictionary
281
     1
  3
CANNOSCALE
350
1BF
  3
CMLEADERSTYLE
350
1C4
  3
CTABLESTYLE
350
1C3
  0
LAYOUT
  5
1E
102
{ACAD_REACTORS
330
1A
102
}
330
1A
100
AcDbPlotSettings
  1

  2
none_device
  4

  6

 40
0.0
 41
0.0
 42
0.0
 43
0.0
 44
0.0
 45
0.0
 46
0.0
 47
0.0
 48
0.0
 49
0.0
140
0.0
141
0.0
142
1.0
143
1.0
 70
   688
 72
     1
 73
     0
 74
     5
  7

 75
    16
 76
     0
 77
     2
 78
   300
147
1.0
148
0.0
149
0.0
100
AcDbLayout
  1
Layout1
 70
     1
 71
     1
 10
0.0
 20
0.0
 11
420.0
 21
297.0
 12
0.0
 22
0.0
 32
0.0
 14
1.000000000000000E+20
 24
1.000000000000000E+20
 34
1.000000000000000E+20
 15
-1.000000000000000E+20
 25
-1.000000000000000E+20
 35
-1.000000000000000E+20
146
0.0
 13
0.0
 23
0.0
 33
0.0
 16
1.0
 26
0.0
 36
0.0
 17
0.0
 27
1.0
 37
0.0
 76
     0
330
1B
  0
LAYOUT
  5
26
102
{ACAD_REACTORS
330
1A
102
}
330
1A
100
AcDbPlotSettings
  1

  2
none_device
  4

  6

 40
0.0
 41
0.0
 42
0.0
 43
0.0
 44
0.0
 45
0.0
 46
0.0
 47
0.0
 48
0.0
 49
0.0
140
0.0
141
0.0
142
1.0
143
1.0
 70
   688
 72
     1
 73
     0
 74
     5
  7

 75
    16
 76
     0
 77
     2
 78
   300
147
1.0
148
0.0
149
0.0
100
AcDbLayout
  1
Layout2
 70
     1
 71
     2
 10
0.0
 20
0.0
 11
0.0
 21
0.0
 12
0.0
 22
0.0
 32
0.0
 14
0.0
 24
0.0
 34
0.0
 15
0.0
 25
0.0
 35
0.0
146
0.0
 13
0.0
 23
0.0
 33
0.0
 16
1.0
 26
0.0
 36
0.0
 17
0.0
 27
1.0
 37
0.0
 76
     0
330
23
  0
LAYOUT
  5
22
102
{ACAD_REACTORS
330
1A
102
}
330
1A
100
AcDbPlotSettings
  1

  2
none_device
  4
Letter_(8.50_x_11.00_Inches)
  6

 40
6.35
 41
6.35
 42
6.35000508
 43
6.35000508
 44
215.9
 45
279.4
 46
0.0
 47
0.0
 48
0.0
 49
0.0
140
0.0
141
0.0
142
1.0
143
1.0
 70
  1712
 72
     1
 73
     0
 74
     0
  7

 75
     0
 76
     0
 77
     2
 78
   300
147
1.0
148
0.0
149
0.0
100
AcDbLayout
  1
Model
 70
     1
 71
     0
 10
0.0
 20
0.0
 11
420.0
 21
297.0
 12
0.0
 22
0.0
 32
0.0
 14
1.000000000000000E+20
 24
1.000000000000000E+20
 34
1.000000000000000E+20
 15
-1.000000000000000E+20
 25
-1.000000000000000E+20
 35
-1.000000000000000E+20
146
0.0
 13
0.0
 23
0.0
 33
0.0
 16
1.0
 26
0.0
 36
0.0
 17
0.0
 27
1.0
 37
0.0
 76
     0
330
1F
331
29
  0
MATERIAL
  5
45
102
{ACAD_REACTORS
330
43
102
}
330
43
100
AcDbMaterial
  1
ByBlock
 72
     1
 94
      127
  0
MATERIAL
  5
44
102
{ACAD_REACTORS
330
43
102
}
330
43
100
AcDbMaterial
  1
ByLayer
 72
     1
 94
      127
  0
MATERIAL
  5
46
102
{ACAD_REACTORS
330
43
102
}
330
43
100
AcDbMaterial
  1
Global
 72
     1
 94
      127
  0
MLEADERSTYLE
  5
6C
102
{ACAD_REACTORS
330
6B
102
}
330
6B
100
AcDbMLeaderStyle
179
     2
170
     2
171
     1
172
     0
 90
        2
 40
0.0
 41
0.0
173
     1
 91
-1056964608
340
14
 92
       -2
290
     1
 42
2.0
291
     1
 43
8.0
  3
Standard
341
0
 44
4.0
300

342
11
174
     1
178
     6
175
     1
176
     0
 93
-1056964608
 45
4.0
292
     0
297
     0
 46
4.0
343
0
 94
-1056964608
 47
1.0
 49
1.0
140
1.0
293
     1
141
0.0
294
     1
177
     0
142
1.0
295
     0
296
     0
143
3.75
271
     0
272
     9
273
     9
298
     0
  0
MLINESTYLE
  5
18
102
{ACAD_REACTORS
330
17
102
}
330
17
100
AcDbMlineStyle
  2
Standard
 70
     0
  3

 62
   256
 51
90.0
 52
90.0
 71
     2
 49
0.5
 62
   256
  6
BYLAYER
 49
-0.5
 62
   256
  6
BYLAYER
  0
ACDBPLACEHOLDER
  5
F
102
{ACAD_REACTORS
330
E
102
}
330
E
  0
SCALE
  5
48
102
{ACAD_REACTORS
330
47
102
}
330
47
100
AcDbScale
 70
     0
300
1:1
140
1.0
141
1.0
290
     1
  0
SCALE
  5
49
102
{ACAD_REACTORS
330
47
102
}
330
47
100
AcDbScale
 70
     0
300
1:2
140
1.0
141
2.0
290
     0
  0
SCALE
  5
4A
102
{ACAD_REACTORS
330
47
102
}
330
47
100
AcDbScale
 70
     0
300
1:4
140
1.0
141
4.0
290
     0
  0
SCALE
  5
4B
102
{ACAD_REACTORS
330
47
102
}
330
47
100
AcDbScale
 70
     0
300
1:5
140
1.0
141
5.0
290
     0
  0
SCALE
  5
4C
102
{ACAD_REACTORS
330
47
102
}
330
47
100
AcDbScale
 70
     0
300
1:8
140
1.0
141
8.0
290
     0
  0
SCALE
  5
4D
102
{ACAD_REACTORS
330
47
102
}
330
47
100
AcDbScale
 70
     0
300
1:10
140
1.0
141
10.0
290
     0
  0
SCALE
  5
4E
102
{ACAD_REACTORS
330
47
102
}
330
47
100
AcDbScale
 70
     0
300
1:16
140
1.0
141
16.0
290
     0
  0
SCALE
  5
4F
102
{ACAD_REACTORS
330
47
102
}
330
47
100
AcDbScale
 70
     0
300
1:20
140
1.0
141
20.0
290
     0
  0
SCALE
  5
50
102
{ACAD_REACTORS
330
47
102
}
330
47
100
AcDbScale
 70
     0
300
1:30
140
1.0
141
30.0
290
     0
  0
SCALE
  5
51
102
{ACAD_REACTORS
330
47
102
}
330
47
100
AcDbScale
 70
     0
300
1:40
140
1.0
141
40.0
290
     0
  0
SCALE
  5
52
102
{ACAD_REACTORS
330
47
102
}
330
47
100
AcDbScale
 70
     0
300
1:50
140
1.0
141
50.0
290
     0
  0
SCALE
  5
53
102
{ACAD_REACTORS
330
47
102
}
330
47
100
AcDbScale
 70
     0
300
1:100
140
1.0
141
100.0
290
     0
  0
SCALE
  5
54
102
{ACAD_REACTORS
330
47
102
}
330
47
100
AcDbScale
 70
     0
300
2:1
140
2.0
141
1.0
290
     0
  0
SCALE
  5
55
102
{ACAD_REACTORS
330
47
102
}
330
47
100
AcDbScale
 70
     0
300
4:1
140
4.0
141
1.0
290
     0
  0
SCALE
  5
56
102
{ACAD_REACTORS
330
47
102
}
330
47
100
AcDbScale
 70
     0
300
8:1
140
8.0
141
1.0
290
     0
  0
SCALE
  5
57
102
{ACAD_REACTORS
330
47
102
}
330
47
100
AcDbScale
 70
     0
300
10:1
140
10.0
141
1.0
290
     0
  0
SCALE
  5
58
102
{ACAD_REACTORS
330
47
102
}
330
47
100
AcDbScale
 70
     0
300
100:1
140
100.0
141
1.0
290
     0
  0
SCALE
  5
59
102
{ACAD_REACTORS
330
47
102
}
330
47
100
AcDbScale
 70
     0
300
1/128" = 1'-0"
140
0.0078125
141
12.0
290
     0
  0
SCALE
  5
5A
102
{ACAD_REACTORS
330
47
102
}
330
47
100
AcDbScale
 70
     0
300
1/64" = 1'-0"
140
0.015625
141
12.0
290
     0
  0
SCALE
  5
5B
102
{ACAD_REACTORS
330
47
102
}
330
47
100
AcDbScale
 70
     0
300
1/32" = 1'-0"
140
0.03125
141
12.0
290
     0
  0
SCALE
  5
5C
102
{ACAD_REACTORS
330
47
102
}
330
47
100
AcDbScale
 70
     0
300
1/16" = 1'-0"
140
0.0625
141
12.0
290
     0
  0
SCALE
  5
5D
102
{ACAD_REACTORS
330
47
102
}
330
47
100
AcDbScale
 70
     0
300
3/32" = 1'-0"
140
0.09375
141
12.0
290
     0
  0
SCALE
  5
5E
102
{ACAD_REACTORS
330
47
102
}
330
47
100
AcDbScale
 70
     0
300
1/8" = 1'-0"
140
0.125
141
12.0
290
     0
  0
SCALE
  5
5F
102
{ACAD_REACTORS
330
47
102
}
330
47
100
AcDbScale
 70
     0
300
3/16" = 1'-0"
140
0.1875
141
12.0
290
     0
  0
SCALE
  5
60
102
{ACAD_REACTORS
330
47
102
}
330
47
100
AcDbScale
 70
     0
300
1/4" = 1'-0"
140
0.25
141
12.0
290
     0
  0
SCALE
  5
61
102
{ACAD_REACTORS
330
47
102
}
330
47
100
AcDbScale
 70
     0
300
3/8" = 1'-0"
140
0.375
141
12.0
290
     0
  0
SCALE
  5
62
102
{ACAD_REACTORS
330
47
102
}
330
47
100
AcDbScale
 70
     0
300
1/2" = 1'-0"
140
0.5
141
12.0
290
     0
  0
SCALE
  5
63
102
{ACAD_REACTORS
330
47
102
}
330
47
100
AcDbScale
 70
     0
300
3/4" = 1'-0"
140
0.75
141
12.0
290
     0
  0
SCALE
  5
64
102
{ACAD_REACTORS
330
47
102
}
330
47
100
AcDbScale
 70
     0
300
1" = 1'-0"
140
1.0
141
12.0
290
     0
  0
SCALE
  5
65
102
{ACAD_REACTORS
330
47
102
}
330
47
100
AcDbScale
 70
     0
300
1-1/2" = 1'-0"
140
1.5
141
12.0
290
     0
  0
SCALE
  5
66
102
{ACAD_REACTORS
330
47
102
}
330
47
100
AcDbScale
 70
     0
300
3" = 1'-0"
140
3.0
141
12.0
290
     0
  0
SCALE
  5
67
102
{ACAD_REACTORS
330
47
102
}
330
47
100
AcDbScale
 70
     0
300
6" = 1'-0"
140
6.0
141
12.0
290
     0
  0
SCALE
  5
68
102
{ACAD_REACTORS
330
47
102
}
330
47
100
AcDbScale
 70
     0
300
1'-0" = 1'-0"
140
12.0
141
12.0
290
     0
  0
TABLESTYLE
  5
6A
102
{ACAD_REACTORS
330
69
102
}
102
{ACAD_XDICTIONARY
360
1C0
102
}
330
69
100
AcDbTableStyle
  3
Standard
 70
     0
 71
     0
 40
0.06
 41
0.06
280
     0
281
     0
  7
Standard
140
4.5
170
     2
 62
     0
 63
   257
283
     0
 90
        4
 91
        0
  1

274
    -2
284
     1
 64
     0
275
    -2
285
     1
 65
     0
276
    -2
286
     1
 66
     0
277
    -2
287
     1
 67
     0
278
    -2
288
     1
 68
     0
279
    -2
289
     1
 69
     0
  7
Standard
140
6.0
170
     5
 62
     0
 63
   257
283
     0
 90
        4
 91
        0
  1

274
    -2
284
     1
 64
     0
275
    -2
285
     1
 65
     0
276
    -2
286
     1
 66
     0
277
    -2
287
     1
 67
     0
278
    -2
288
     1
 68
     0
279
    -2
289
     1
 69
     0
  7
Standard
140
4.5
170
     5
 62
     0
 63
   257
283
     0
 90
        4
 91
        0
  1

274
    -2
284
     1
 64
     0
275
    -2
285
     1
 65
     0
276
    -2
286
     1
 66
     0
277
    -2
287
     1
 67
     0
278
    -2
288
     1
 68
     0
279
    -2
289
     1
 69
     0
  0
VISUALSTYLE
  5
2F
102
{ACAD_REACTORS
330
2A
102
}
330
2A
100
AcDbVisualStyle
  2
2dWireframe
 70
     4
177
     3
291
     0
 70
    58
 90
        0
176
     1
 90
        2
176
     1
 90
        0
176
     1
 90
        0
176
     1
 40
0.6
176
     1
 40
30.0
176
     1
 62
     7
420
 16777215
176
     1
 90
        1
176
     1
 90
        4
176
     1
 62
     7
176
     1
 62
   257
176
     1
 90
        1
176
     1
 90
        1
176
     1
 40
1.0
176
     1
 90
        0
176
     1
 62
   257
176
     1
 40
1.0
176
     1
 90
        1
176
     1
 90
        6
176
     1
 90
        2
176
     1
 62
     7
176
     1
 90
        5
176
     1
 90
        0
176
     1
 90
        0
176
     1
290
     0
176
     1
 90
        1
176
     1
 40
0.0
176
     1
 90
        0
176
     1
290
     1
176
     1
290
     1
176
     1
290
     0
176
     1
290
     0
176
     1
290
     0
176
     1
290
     0
176
     1
290
     0
176
     1
290
     0
176
     1
290
     0
176
     1
 90
       50
176
     1
 40
0.0
176
     1
 40
1.0
176
     1
 90
        0
176
     1
 62
    18
420
        0
176
     1
 90
       50
176
     1
 90
        3
176
     1
 62
     5
420
      255
176
     1
290
     0
176
     1
 90
       50
176
     1
 90
       50
176
     1
 90
       50
176
     1
290
     0
176
     1
 90
       50
176
     1
 62
   256
176
     0
 40
1.0
176
     0
 90
        2
176
     1
  1
strokes_ogs.tif
176
     1
290
     0
176
     1
 40
1.0
176
     1
 40
1.0
176
     1
  0
VISUALSTYLE
  5
32
102
{ACAD_REACTORS
330
2A
102
}
330
2A
100
AcDbVisualStyle
  2
Basic
 70
     7
177
     3
291
     1
 70
    58
 90
        1
176
     1
 90
        0
176
     1
 90
        1
176
     1
 90
        0
176
     1
 40
0.6
176
     1
 40
30.0
176
     1
 62
     7
420
 16777215
176
     1
 90
        0
176
     1
 90
        4
176
     1
 62
     7
176
     1
 62
   257
176
     1
 90
        1
176
     1
 90
        1
176
     1
 40
1.0
176
     1
 90
        8
176
     1
 62
     7
176
     1
 40
1.0
176
     1
 90
        1
176
     1
 90
        6
176
     1
 90
        2
176
     1
 62
     7
176
     1
 90
        5
176
     1
 90
        0
176
     1
 90
        0
176
     1
290
     0
176
     1
 90
        1
176
     1
 40
0.0
176
     1
 90
        0
176
     1
290
     0
176
     1
290
     1
176
     1
290
     1
176
     1
290
     0
176
     1
290
     0
176
     1
290
     0
176
     1
290
     0
176
     1
290
     0
176
     1
290
     0
176
     1
 90
       50
176
     1
 40
0.0
176
     1
 40
1.0
176
     1
 90
        0
176
     1
 62
    18
420
        0
176
     1
 90
       50
176
     1
 90
        3
176
     1
 62
     5
420
      255
176
     1
290
     0
176
     1
 90
       50
176
     1
 90
       50
176
     1
 90
       50
176
     1
290
     0
176
     1
 90
       50
176
     1
 62
   256
176
     0
 40
1.0
176
     0
 90
        2
176
     1
  1
strokes_ogs.tif
176
     1
290
     0
176
     1
 40
1.0
176
     1
 40
1.0
176
     1
  0
VISUALSTYLE
  5
36
102
{ACAD_REACTORS
330
2A
102
}
330
2A
100
AcDbVisualStyle
  2
Brighten
 70
    12
177
     3
291
     1
 70
    58
 90
        2
176
     1
 90
        2
176
     1
 90
        0
176
     1
 90
        0
176
     1
 40
0.6
176
     1
 40
30.0
176
     1
 62
     7
420
 16777215
176
     1
 90
        1
176
     1
 90
        4
176
     1
 62
     7
176
     1
 62
   257
176
     1
 90
        1
176
     1
 90
        1
176
     1
 40
1.0
176
     1
 90
        8
176
     1
 62
     7
176
     1
 40
1.0
176
     1
 90
        1
176
     1
 90
        6
176
     1
 90
        2
176
     1
 62
     7
176
     1
 90
        5
176
     1
 90
        0
176
     1
 90
        0
176
     1
290
     0
176
     1
 90
        1
176
     1
 40
50.0
176
     1
 90
        0
176
     1
290
     0
176
     1
290
     1
176
     1
290
     1
176
     1
290
     0
176
     1
290
     0
176
     1
290
     0
176
     1
290
     0
176
     1
290
     0
176
     1
290
     0
176
     1
 90
       50
176
     1
 40
0.0
176
     1
 40
1.0
176
     1
 90
        0
176
     1
 62
    18
420
        0
176
     1
 90
       50
176
     1
 90
        3
176
     1
 62
     5
420
      255
176
     1
290
     0
176
     1
 90
       50
176
     1
 90
       50
176
     1
 90
       50
176
     1
290
     0
176
     1
 90
       50
176
     1
 62
   256
176
     0
 40
1.0
176
     0
 90
        2
176
     1
  1
strokes_ogs.tif
176
     1
290
     0
176
     1
 40
1.0
176
     1
 40
1.0
176
     1
  0
VISUALSTYLE
  5
3A
102
{ACAD_REACTORS
330
2A
102
}
330
2A
100
AcDbVisualStyle
  2
ColorChange
 70
    16
177
     3
291
     1
 70
    58
 90
        2
176
     1
 90
        2
176
     1
 90
        3
176
     1
 90
        0
176
     1
 40
0.6
176
     1
 40
30.0
176
     1
 62
     8
420
  8421504
176
     1
 90
        1
176
     1
 90
        4
176
     1
 62
     7
176
     1
 62
   257
176
     1
 90
        1
176
     1
 90
        1
176
     1
 40
1.0
176
     1
 90
        8
176
     1
 62
     8
420
  8421504
176
     1
 40
1.0
176
     1
 90
        1
176
     1
 90
        6
176
     1
 90
        2
176
     1
 62
     7
176
     1
 90
        5
176
     1
 90
        0
176
     1
 90
        0
176
     1
290
     0
176
     1
 90
        1
176
     1
 40
0.0
176
     1
 90
        0
176
     1
290
     0
176
     1
290
     1
176
     1
290
     1
176
     1
290
     0
176
     1
290
     0
176
     1
290
     0
176
     1
290
     0
176
     1
290
     0
176
     1
290
     0
176
     1
 90
       50
176
     1
 40
0.0
176
     1
 40
1.0
176
     1
 90
        0
176
     1
 62
    18
420
        0
176
     1
 90
       50
176
     1
 90
        3
176
     1
 62
     5
420
      255
176
     1
290
     0
176
     1
 90
       50
176
     1
 90
       50
176
     1
 90
       50
176
     1
290
     0
176
     1
 90
       50
176
     1
 62
   256
176
     0
 40
1.0
176
     0
 90
        2
176
     1
  1
strokes_ogs.tif
176
     1
290
     0
176
     1
 40
1.0
176
     1
 40
1.0
176
     1
  0
VISUALSTYLE
  5
34
102
{ACAD_REACTORS
330
2A
102
}
330
2A
100
AcDbVisualStyle
  2
Conceptual
 70
     9
177
     3
291
     0
 70
    58
 90
        3
176
     1
 90
        2
176
     1
 90
        0
176
     1
 90
        0
176
     1
 40
0.6
176
     1
 40
30.0
176
     1
 62
     7
420
 16777215
176
     1
 90
        2
176
     1
 90
        2
176
     1
 62
     7
176
     1
 62
   257
176
     1
 90
        1
176
     1
 90
        1
176
     1
 40
179.0
176
     1
 90
        8
176
     1
 62
     7
176
     1
 40
1.0
176
     1
 90
        1
176
     1
 90
        6
176
     1
 90
        2
176
     1
 62
     7
176
     1
 90
        3
176
     1
 90
        0
176
     1
 90
        0
176
     1
290
     0
176
     1
 90
        1
176
     1
 40
0.0
176
     1
 90
        0
176
     1
290
     0
176
     1
290
     1
176
     1
290
     1
176
     1
290
     0
176
     1
290
     0
176
     1
290
     0
176
     1
290
     0
176
     1
290
     0
176
     1
290
     0
176
     1
 90
       50
176
     1
 40
0.0
176
     1
 40
1.0
176
     1
 90
        0
176
     1
 62
    18
420
        0
176
     1
 90
       50
176
     1
 90
        3
176
     1
 62
     5
420
      255
176
     1
290
     0
176
     1
 90
       50
176
     1
 90
       50
176
     1
 90
       50
176
     1
290
     0
176
     1
 90
       50
176
     1
 62
   256
176
     0
 40
1.0
176
     0
 90
        2
176
     1
  1
strokes_ogs.tif
176
     1
290
     0
176
     1
 40
1.0
176
     1
 40
1.0
176
     1
  0
VISUALSTYLE
  5
35
102
{ACAD_REACTORS
330
2A
102
}
330
2A
100
AcDbVisualStyle
  2
Dim
 70
    11
177
     3
291
     1
 70
    58
 90
        2
176
     1
 90
        2
176
     1
 90
        0
176
     1
 90
        0
176
     1
 40
0.6
176
     1
 40
30.0
176
     1
 62
     7
420
 16777215
176
     1
 90
        1
176
     1
 90
        4
176
     1
 62
     7
176
     1
 62
   257
176
     1
 90
        1
176
     1
 90
        1
176
     1
 40
1.0
176
     1
 90
        8
176
     1
 62
     7
176
     1
 40
1.0
176
     1
 90
        1
176
     1
 90
        6
176
     1
 90
        2
176
     1
 62
     7
176
     1
 90
        5
176
     1
 90
        0
176
     1
 90
        0
176
     1
290
     0
176
     1
 90
        1
176
     1
 40
-50.0
176
     1
 90
        0
176
     1
290
     0
176
     1
290
     1
176
     1
290
     1
176
     1
290
     0
176
     1
290
     0
176
     1
290
     0
176
     1
290
     0
176
     1
290
     0
176
     1
290
     0
176
     1
 90
       50
176
     1
 40
0.0
176
     1
 40
1.0
176
     1
 90
        0
176
     1
 62
    18
420
        0
176
     1
 90
       50
176
     1
 90
        3
176
     1
 62
     5
420
      255
176
     1
290
     0
176
     1
 90
       50
176
     1
 90
       50
176
     1
 90
       50
176
     1
290
     0
176
     1
 90
       50
176
     1
 62
   256
176
     0
 40
1.0
176
     0
 90
        2
176
     1
  1
strokes_ogs.tif
176
     1
290
     0
176
     1
 40
1.0
176
     1
 40
1.0
176
     1
  0
VISUALSTYLE
  5
3D
102
{ACAD_REACTORS
330
2A
102
}
330
2A
100
AcDbVisualStyle
  2
EdgeColorOff
 70
    22
177
     3
291
     1
 70
    58
 90
        2
176
     0
 90
        2
176
     0
 90
        0
176
     0
 90
        0
176
     0
 40
0.6
176
     0
 40
30.0
176
     0
 62
     7
420
 16777215
176
     0
 90
        1
176
     0
 90
        4
176
     0
 62
     7
176
     0
 62
   257
176
     0
 90
        1
176
     0
 90
        1
176
     0
 40
1.0
176
     0
 90
        8
176
     2
 62
     7
176
     0
 40
1.0
176
     0
 90
        1
176
     0
 90
        6
176
     0
 90
        2
176
     0
 62
     7
176
     0
 90
        5
176
     0
 90
        0
176
     0
 90
        0
176
     0
290
     0
176
     0
 90
        1
176
     0
 40
0.0
176
     0
 90
        0
176
     0
290
     0
176
     0
290
     1
176
     0
290
     1
176
     0
290
     0
176
     0
290
     0
176
     0
290
     0
176
     0
290
     0
176
     0
290
     0
176
     0
290
     0
176
     0
 90
       50
176
     0
 40
0.0
176
     0
 40
1.0
176
     0
 90
        0
176
     0
 62
    18
420
        0
176
     0
 90
       50
176
     0
 90
        3
176
     0
 62
     5
420
      255
176
     0
290
     0
176
     0
 90
       50
176
     0
 90
       50
176
     0
 90
       50
176
     0
290
     0
176
     0
 90
       50
176
     0
 62
   256
176
     0
 40
1.0
176
     0
 90
        2
176
     0
  1
strokes_ogs.tif
176
     0
290
     0
176
     0
 40
1.0
176
     0
 40
1.0
176
     0
  0
VISUALSTYLE
  5
39
102
{ACAD_REACTORS
330
2A
102
}
330
2A
100
AcDbVisualStyle
  2
Facepattern
 70
    15
177
     3
291
     1
 70
    58
 90
        2
176
     1
 90
        2
176
     1
 90
        0
176
     1
 90
        0
176
     1
 40
0.6
176
     1
 40
30.0
176
     1
 62
     7
420
 16777215
176
     1
 90
        1
176
     1
 90
        4
176
     1
 62
     7
176
     1
 62
   257
176
     1
 90
        1
176
     1
 90
        1
176
     1
 40
1.0
176
     1
 90
        8
176
     1
 62
     7
176
     1
 40
1.0
176
     1
 90
        1
176
     1
 90
        6
176
     1
 90
        2
176
     1
 62
     7
176
     1
 90
        5
176
     1
 90
        0
176
     1
 90
        0
176
     1
290
     0
176
     1
 90
        1
176
     1
 40
0.0
176
     1
 90
        0
176
     1
290
     0
176
     1
290
     1
176
     1
290
     1
176
     1
290
     0
176
     1
290
     0
176
     1
290
     0
176
     1
290
     0
176
     1
290
     0
176
     1
290
     0
176
     1
 90
       50
176
     1
 40
0.0
176
     1
 40
1.0
176
     1
 90
        0
176
     1
 62
    18
420
        0
176
     1
 90
       50
176
     1
 90
        3
176
     1
 62
     5
420
      255
176
     1
290
     0
176
     1
 90
       50
176
     1
 90
       50
176
     1
 90
       50
176
     1
290
     0
176
     1
 90
       50
176
     1
 62
   256
176
     0
 40
1.0
176
     0
 90
        2
176
     1
  1
strokes_ogs.tif
176
     1
290
     0
176
     1
 40
1.0
176
     1
 40
1.0
176
     1
  0
VISUALSTYLE
  5
2B
102
{ACAD_REACTORS
330
2A
102
}
330
2A
100
AcDbVisualStyle
  2
Flat
 70
     0
177
     3
291
     1
 70
    58
 90
        2
176
     1
 90
        1
176
     1
 90
        1
176
     1
 90
        2
176
     1
 40
0.6
176
     1
 40
30.0
176
     1
 62
     7
420
 16777215
176
     1
 90
        0
176
     1
 90
        0
176
     1
 62
     7
176
     1
 62
   257
176
     1
 90
        1
176
     1
 90
        1
176
     1
 40
1.0
176
     1
 90
        8
176
     1
 62
     7
176
     1
 40
1.0
176
     1
 90
        1
176
     1
 90
        6
176
     1
 90
        2
176
     1
 62
     7
176
     1
 90
        5
176
     1
 90
        0
176
     1
 90
        0
176
     1
290
     0
176
     1
 90
       13
176
     1
 40
0.0
176
     1
 90
        0
176
     1
290
     0
176
     1
290
     1
176
     1
290
     1
176
     1
290
     0
176
     1
290
     0
176
     1
290
     0
176
     1
290
     0
176
     1
290
     0
176
     1
290
     0
176
     1
 90
       50
176
     1
 40
0.0
176
     1
 40
1.0
176
     1
 90
        0
176
     1
 62
    18
420
        0
176
     1
 90
       50
176
     1
 90
        3
176
     1
 62
     5
420
      255
176
     1
290
     0
176
     1
 90
       50
176
     1
 90
       50
176
     1
 90
       50
176
     1
290
     0
176
     1
 90
       50
176
     1
 62
   256
176
     0
 40
1.0
176
     0
 90
        2
176
     1
  1
strokes_ogs.tif
176
     1
290
     0
176
     1
 40
1.0
176
     1
 40
1.0
176
     1
  0
VISUALSTYLE
  5
2C
102
{ACAD_REACTORS
330
2A
102
}
330
2A
100
AcDbVisualStyle
  2
FlatWithEdges
 70
     1
177
     3
291
     1
 70
    58
 90
        2
176
     1
 90
        1
176
     1
 90
        1
176
     1
 90
        2
176
     1
 40
0.6
176
     1
 40
30.0
176
     1
 62
     7
420
 16777215
176
     1
 90
        1
176
     1
 90
        0
176
     1
 62
     7
176
     1
 62
   257
176
     1
 90
        1
176
     1
 90
        1
176
     1
 40
1.0
176
     1
 90
        0
176
     1
 62
   257
176
     1
 40
1.0
176
     1
 90
        1
176
     1
 90
        6
176
     1
 90
        2
176
     1
 62
     7
176
     1
 90
        5
176
     1
 90
        0
176
     1
 90
        0
176
     1
290
     0
176
     1
 90
       13
176
     1
 40
0.0
176
     1
 90
        0
176
     1
290
     0
176
     1
290
     1
176
     1
290
     1
176
     1
290
     0
176
     1
290
     0
176
     1
290
     0
176
     1
290
     0
176
     1
290
     0
176
     1
290
     0
176
     1
 90
       50
176
     1
 40
0.0
176
     1
 40
1.0
176
     1
 90
        0
176
     1
 62
    18
420
        0
176
     1
 90
       50
176
     1
 90
        3
176
     1
 62
     5
420
      255
176
     1
290
     0
176
     1
 90
       50
176
     1
 90
       50
176
     1
 90
       50
176
     1
290
     0
176
     1
 90
       50
176
     1
 62
   256
176
     0
 40
1.0
176
     0
 90
        2
176
     1
  1
strokes_ogs.tif
176
     1
290
     0
176
     1
 40
1.0
176
     1
 40
1.0
176
     1
  0
VISUALSTYLE
  5
2D
102
{ACAD_REACTORS
330
2A
102
}
330
2A
100
AcDbVisualStyle
  2
Gouraud
 70
     2
177
     3
291
     1
 70
    58
 90
        2
176
     1
 90
        2
176
     1
 90
        1
176
     1
 90
        2
176
     1
 40
0.6
176
     1
 40
30.0
176
     1
 62
     7
420
 16777215
176
     1
 90
        0
176
     1
 90
        0
176
     1
 62
     7
176
     1
 62
   257
176
     1
 90
        1
176
     1
 90
        1
176
     1
 40
1.0
176
     1
 90
        0
176
     1
 62
     7
176
     1
 40
1.0
176
     1
 90
        1
176
     1
 90
        6
176
     1
 90
        2
176
     1
 62
     7
176
     1
 90
        5
176
     1
 90
        0
176
     1
 90
        0
176
     1
290
     0
176
     1
 90
       13
176
     1
 40
0.0
176
     1
 90
        0
176
     1
290
     0
176
     1
290
     1
176
     1
290
     1
176
     1
290
     0
176
     1
290
     0
176
     1
290
     0
176
     1
290
     0
176
     1
290
     0
176
     1
290
     0
176
     1
 90
       50
176
     1
 40
0.0
176
     1
 40
1.0
176
     1
 90
        0
176
     1
 62
    18
420
        0
176
     1
 90
       50
176
     1
 90
        3
176
     1
 62
     5
420
      255
176
     1
290
     0
176
     1
 90
       50
176
     1
 90
       50
176
     1
 90
       50
176
     1
290
     0
176
     1
 90
       50
176
     1
 62
   256
176
     0
 40
1.0
176
     0
 90
        2
176
     1
  1
strokes_ogs.tif
176
     1
290
     0
176
     1
 40
1.0
176
     1
 40
1.0
176
     1
  0
VISUALSTYLE
  5
2E
102
{ACAD_REACTORS
330
2A
102
}
330
2A
100
AcDbVisualStyle
  2
GouraudWithEdges
 70
     3
177
     3
291
     1
 70
    58
 90
        2
176
     1
 90
        2
176
     1
 90
        1
176
     1
 90
        2
176
     1
 40
0.6
176
     1
 40
30.0
176
     1
 62
     7
420
 16777215
176
     1
 90
        1
176
     1
 90
        0
176
     1
 62
     7
176
     1
 62
   257
176
     1
 90
        1
176
     1
 90
        1
176
     1
 40
1.0
176
     1
 90
        0
176
     1
 62
   257
176
     1
 40
1.0
176
     1
 90
        1
176
     1
 90
        6
176
     1
 90
        2
176
     1
 62
     7
176
     1
 90
        5
176
     1
 90
        0
176
     1
 90
        0
176
     1
290
     0
176
     1
 90
       13
176
     1
 40
0.0
176
     1
 90
        0
176
     1
290
     0
176
     1
290
     1
176
     1
290
     1
176
     1
290
     0
176
     1
290
     0
176
     1
290
     0
176
     1
290
     0
176
     1
290
     0
176
     1
290
     0
176
     1
 90
       50
176
     1
 40
0.0
176
     1
 40
1.0
176
     1
 90
        0
176
     1
 62
    18
420
        0
176
     1
 90
       50
176
     1
 90
        3
176
     1
 62
     5
420
      255
176
     1
290
     0
176
     1
 90
       50
176
     1
 90
       50
176
     1
 90
       50
176
     1
290
     0
176
     1
 90
       50
176
     1
 62
   256
176
     0
 40
1.0
176
     0
 90
        2
176
     1
  1
strokes_ogs.tif
176
     1
290
     0
176
     1
 40
1.0
176
     1
 40
1.0
176
     1
  0
VISUALSTYLE
  5
31
102
{ACAD_REACTORS
330
2A
102
}
330
2A
100
AcDbVisualStyle
  2
Hidden
 70
     6
177
     3
291
     0
 70
    58
 90
        1
176
     1
 90
        2
176
     1
 90
        2
176
     1
 90
        0
176
     1
 40
0.6
176
     1
 40
30.0
176
     1
 62
     7
420
 16777215
176
     1
 90
        2
176
     1
 90
        2
176
     1
 62
     7
176
     1
 62
   257
176
     1
 90
        2
176
     1
 90
        1
176
     1
 40
40.0
176
     1
 90
        0
176
     1
 62
   257
176
     1
 40
1.0
176
     1
 90
        1
176
     1
 90
        6
176
     1
 90
        2
176
     1
 62
     7
176
     1
 90
        3
176
     1
 90
        0
176
     1
 90
        0
176
     1
290
     0
176
     1
 90
        1
176
     1
 40
0.0
176
     1
 90
        0
176
     1
290
     0
176
     1
290
     1
176
     1
290
     1
176
     1
290
     0
176
     1
290
     0
176
     1
290
     0
176
     1
290
     0
176
     1
290
     0
176
     1
290
     0
176
     1
 90
       50
176
     1
 40
0.0
176
     1
 40
1.0
176
     1
 90
        0
176
     1
 62
    18
420
        0
176
     1
 90
       50
176
     1
 90
        3
176
     1
 62
     5
420
      255
176
     1
290
     0
176
     1
 90
       50
176
     1
 90
       50
176
     1
 90
       50
176
     1
290
     0
176
     1
 90
       50
176
     1
 62
   256
176
     0
 40
1.0
176
     0
 90
        2
176
     1
  1
strokes_ogs.tif
176
     1
290
     0
176
     1
 40
1.0
176
     1
 40
1.0
176
     1
  0
VISUALSTYLE
  5
3B
102
{ACAD_REACTORS
330
2A
102
}
330
2A
100
AcDbVisualStyle
  2
JitterOff
 70
    20
177
     3
291
     1
 70
    58
 90
        2
176
     0
 90
        2
176
     0
 90
        0
176
     0
 90
        0
176
     0
 40
0.6
176
     0
 40
30.0
176
     0
 62
     7
420
 16777215
176
     0
 90
        1
176
     0
 90
        4
176
     0
 62
     7
176
     0
 62
   257
176
     0
 90
        1
176
     0
 90
        1
176
     0
 40
1.0
176
     0
 90
       10
176
     2
 62
     7
176
     0
 40
1.0
176
     0
 90
        1
176
     0
 90
        6
176
     0
 90
        2
176
     0
 62
     7
176
     0
 90
        5
176
     0
 90
        0
176
     0
 90
        0
176
     0
290
     0
176
     0
 90
        1
176
     0
 40
0.0
176
     0
 90
        0
176
     0
290
     0
176
     0
290
     1
176
     0
290
     1
176
     0
290
     0
176
     0
290
     0
176
     0
290
     0
176
     0
290
     0
176
     0
290
     0
176
     0
290
     0
176
     0
 90
       50
176
     0
 40
0.0
176
     0
 40
1.0
176
     0
 90
        0
176
     0
 62
    18
420
        0
176
     0
 90
       50
176
     0
 90
        3
176
     0
 62
     5
420
      255
176
     0
290
     0
176
     0
 90
       50
176
     0
 90
       50
176
     0
 90
       50
176
     0
290
     0
176
     0
 90
       50
176
     0
 62
   256
176
     0
 40
1.0
176
     0
 90
        2
176
     0
  1
strokes_ogs.tif
176
     0
290
     0
176
     0
 40
1.0
176
     0
 40
1.0
176
     0
  0
VISUALSTYLE
  5
38
102
{ACAD_REACTORS
330
2A
102
}
330
2A
100
AcDbVisualStyle
  2
Linepattern
 70
    14
177
     3
291
     1
 70
    58
 90
        2
176
     1
 90
        2
176
     1
 90
        0
176
     1
 90
        0
176
     1
 40
0.6
176
     1
 40
30.0
176
     1
 62
     7
420
 16777215
176
     1
 90
        1
176
     1
 90
        4
176
     1
 62
     7
176
     1
 62
   257
176
     1
 90
        7
176
     1
 90
        7
176
     1
 40
1.0
176
     1
 90
        8
176
     1
 62
     7
176
     1
 40
1.0
176
     1
 90
        1
176
     1
 90
        6
176
     1
 90
        2
176
     1
 62
     7
176
     1
 90
        5
176
     1
 90
        0
176
     1
 90
        0
176
     1
290
     0
176
     1
 90
        1
176
     1
 40
0.0
176
     1
 90
        0
176
     1
290
     0
176
     1
290
     1
176
     1
290
     1
176
     1
290
     0
176
     1
290
     0
176
     1
290
     0
176
     1
290
     0
176
     1
290
     0
176
     1
290
     0
176
     1
 90
       50
176
     1
 40
0.0
176
     1
 40
1.0
176
     1
 90
        0
176
     1
 62
    18
420
        0
176
     1
 90
       50
176
     1
 90
        3
176
     1
 62
     5
420
      255
176
     1
290
     0
176
     1
 90
       50
176
     1
 90
       50
176
     1
 90
       50
176
     1
290
     0
176
     1
 90
       50
176
     1
 62
   256
176
     0
 40
1.0
176
     0
 90
        2
176
     1
  1
strokes_ogs.tif
176
     1
290
     0
176
     1
 40
1.0
176
     1
 40
1.0
176
     1
  0
VISUALSTYLE
  5
3C
102
{ACAD_REACTORS
330
2A
102
}
330
2A
100
AcDbVisualStyle
  2
OverhangOff
 70
    21
177
     3
291
     1
 70
    58
 90
        2
176
     0
 90
        2
176
     0
 90
        0
176
     0
 90
        0
176
     0
 40
0.6
176
     0
 40
30.0
176
     0
 62
     7
420
 16777215
176
     0
 90
        1
176
     0
 90
        4
176
     0
 62
     7
176
     0
 62
   257
176
     0
 90
        1
176
     0
 90
        1
176
     0
 40
1.0
176
     0
 90
        9
176
     2
 62
     7
176
     0
 40
1.0
176
     0
 90
        1
176
     0
 90
        6
176
     0
 90
        2
176
     0
 62
     7
176
     0
 90
        5
176
     0
 90
        0
176
     0
 90
        0
176
     0
290
     0
176
     0
 90
        1
176
     0
 40
0.0
176
     0
 90
        0
176
     0
290
     0
176
     0
290
     1
176
     0
290
     1
176
     0
290
     0
176
     0
290
     0
176
     0
290
     0
176
     0
290
     0
176
     0
290
     0
176
     0
290
     0
176
     0
 90
       50
176
     0
 40
0.0
176
     0
 40
1.0
176
     0
 90
        0
176
     0
 62
    18
420
        0
176
     0
 90
       50
176
     0
 90
        3
176
     0
 62
     5
420
      255
176
     0
290
     0
176
     0
 90
       50
176
     0
 90
       50
176
     0
 90
       50
176
     0
290
     0
176
     0
 90
       50
176
     0
 62
   256
176
     0
 40
1.0
176
     0
 90
        2
176
     0
  1
strokes_ogs.tif
176
     0
290
     0
176
     0
 40
1.0
176
     0
 40
1.0
176
     0
  0
VISUALSTYLE
  5
33
102
{ACAD_REACTORS
330
2A
102
}
330
2A
100
AcDbVisualStyle
  2
Realistic
 70
     8
177
     3
291
     0
 70
    58
 90
        2
176
     1
 90
        3
176
     1
 90
        0
176
     1
 90
        2
176
     1
 40
0.6
176
     1
 40
30.0
176
     1
 62
     7
420
 16777215
176
     1
 90
        0
176
     1
 90
        0
176
     1
 62
     7
176
     1
 62
   257
176
     1
 90
        1
176
     1
 90
        1
176
     1
 40
1.0
176
     1
 90
        8
176
     1
 62
   257
176
     1
 40
1.0
176
     1
 90
        1
176
     1
 90
        6
176
     1
 90
        2
176
     1
 62
     7
176
     1
 90
        3
176
     1
 90
        0
176
     1
 90
        0
176
     1
290
     0
176
     1
 90
       13
176
     1
 40
0.0
176
     1
 90
        0
176
     1
290
     0
176
     1
290
     1
176
     1
290
     1
176
     1
290
     0
176
     1
290
     0
176
     1
290
     0
176
     1
290
     0
176
     1
290
     0
176
     1
290
     0
176
     1
 90
       50
176
     1
 40
0.0
176
     1
 40
1.0
176
     1
 90
        0
176
     1
 62
    18
420
        0
176
     1
 90
       50
176
     1
 90
        3
176
     1
 62
     5
420
      255
176
     1
290
     0
176
     1
 90
       50
176
     1
 90
       50
176
     1
 90
       50
176
     1
290
     0
176
     1
 90
       50
176
     1
 62
   256
176
     0
 40
1.0
176
     0
 90
        2
176
     1
  1
strokes_ogs.tif
176
     1
290
     0
176
     1
 40
1.0
176
     1
 40
1.0
176
     1
  0
VISUALSTYLE
  5
42
102
{ACAD_REACTORS
330
2A
102
}
330
2A
100
AcDbVisualStyle
  2
Shaded
 70
    27
177
     3
291
     0
 70
    58
 90
        2
176
     1
 90
        2
176
     1
 90
        1
176
     1
 90
        2
176
     1
 40
0.6
176
     1
 40
30.0
176
     1
 62
     7
420
 16777215
176
     1
 90
        0
176
     1
 90
        4
176
     1
 62
     7
176
     1
 62
   257
176
     1
 90
        1
176
     1
 90
        1
176
     1
 40
1.0
176
     1
 90
        8
176
     1
 62
   257
176
     1
 40
1.0
176
     1
 90
        1
176
     1
 90
        6
176
     1
 90
        2
176
     1
 62
     8
420
  7895160
176
     1
 90
        3
176
     1
 90
        0
176
     1
 90
        0
176
     1
290
     0
176
     1
 90
        5
176
     1
 40
0.0
176
     1
 90
        0
176
     1
290
     0
176
     1
290
     1
176
     1
290
     1
176
     1
290
     0
176
     1
290
     0
176
     1
290
     0
176
     1
290
     0
176
     1
290
     0
176
     1
290
     0
176
     1
 90
       50
176
     1
 40
0.0
176
     1
 40
1.0
176
     1
 90
        0
176
     1
 62
    18
420
        0
176
     1
 90
       50
176
     1
 90
        3
176
     1
 62
     5
420
      255
176
     1
290
     0
176
     1
 90
       50
176
     1
 90
       50
176
     1
 90
       50
176
     1
290
     0
176
     1
 90
       50
176
     1
 62
   256
176
     0
 40
1.0
176
     0
 90
        2
176
     1
  1
strokes_ogs.tif
176
     1
290
     0
176
     1
 40
1.0
176
     1
 40
1.0
176
     1
  0
VISUALSTYLE
  5
41
102
{ACAD_REACTORS
330
2A
102
}
330
2A
100
AcDbVisualStyle
  2
Shaded with edges
 70
    26
177
     3
291
     0
 70
    58
 90
        2
176
     1
 90
        2
176
     1
 90
        1
176
     1
 90
        2
176
     1
 40
0.6
176
     1
 40
30.0
176
     1
 62
     7
420
 16777215
176
     1
 90
        1
176
     1
 90
       10
176
     1
 62
     7
176
     1
 62
   257
176
     1
 90
        2
176
     1
 90
        1
176
     1
 40
1.0
176
     1
 90
        8
176
     1
 62
   257
176
     1
 40
1.0
176
     1
 90
        1
176
     1
 90
        6
176
     1
 90
        2
176
     1
 62
     7
176
     1
 90
        3
176
     1
 90
        0
176
     1
 90
        0
176
     1
290
     0
176
     1
 90
        5
176
     1
 40
0.0
176
     1
 90
        0
176
     1
290
     0
176
     1
290
     1
176
     1
290
     1
176
     1
290
     0
176
     1
290
     0
176
     1
290
     0
176
     1
290
     0
176
     1
290
     0
176
     1
290
     0
176
     1
 90
       50
176
     1
 40
0.0
176
     1
 40
1.0
176
     1
 90
        0
176
     1
 62
    18
420
        0
176
     1
 90
       50
176
     1
 90
        3
176
     1
 62
     5
420
      255
176
     1
290
     0
176
     1
 90
       50
176
     1
 90
       50
176
     1
 90
       50
176
     1
290
     0
176
     1
 90
       50
176
     1
 62
   256
176
     0
 40
1.0
176
     0
 90
        2
176
     1
  1
strokes_ogs.tif
176
     1
290
     0
176
     1
 40
1.0
176
     1
 40
1.0
176
     1
  0
VISUALSTYLE
  5
3E
102
{ACAD_REACTORS
330
2A
102
}
330
2A
100
AcDbVisualStyle
  2
Shades of Gray
 70
    23
177
     3
291
     0
 70
    58
 90
        2
176
     1
 90
        2
176
     1
 90
        3
176
     1
 90
        0
176
     1
 40
0.6
176
     1
 40
30.0
176
     1
 62
     7
420
 16777215
176
     1
 90
        2
176
     1
 90
        2
176
     1
 62
     7
176
     1
 62
     7
176
     1
 90
        1
176
     1
 90
        1
176
     1
 40
40.0
176
     1
 90
        8
176
     1
 62
     7
176
     1
 40
1.0
176
     1
 90
        1
176
     1
 90
        6
176
     1
 90
        2
176
     1
 62
     7
176
     1
 90
        3
176
     1
 90
        0
176
     1
 90
        0
176
     1
290
     0
176
     1
 90
        1
176
     1
 40
0.0
176
     1
 90
        0
176
     1
290
     0
176
     1
290
     1
176
     1
290
     1
176
     1
290
     0
176
     1
290
     0
176
     1
290
     0
176
     1
290
     0
176
     1
290
     0
176
     1
290
     0
176
     1
 90
       50
176
     1
 40
0.0
176
     1
 40
1.0
176
     1
 90
        0
176
     1
 62
    18
420
        0
176
     1
 90
       50
176
     1
 90
        3
176
     1
 62
     5
420
      255
176
     1
290
     0
176
     1
 90
       50
176
     1
 90
       50
176
     1
 90
       50
176
     1
290
     0
176
     1
 90
       50
176
     1
 62
   256
176
     0
 40
1.0
176
     0
 90
        2
176
     1
  1
strokes_ogs.tif
176
     1
290
     0
176
     1
 40
1.0
176
     1
 40
1.0
176
     1
  0
VISUALSTYLE
  5
3F
102
{ACAD_REACTORS
330
2A
102
}
330
2A
100
AcDbVisualStyle
  2
Sketchy
 70
    24
177
     3
291
     0
 70
    58
 90
        1
176
     1
 90
        2
176
     1
 90
        2
176
     1
 90
        0
176
     1
 40
0.6
176
     1
 40
30.0
176
     1
 62
     7
420
 16777215
176
     1
 90
        2
176
     1
 90
        2
176
     1
 62
     7
176
     1
 62
     7
176
     1
 90
        1
176
     1
 90
        1
176
     1
 40
40.0
176
     1
 90
       11
176
     1
 62
     7
176
     1
 40
1.0
176
     1
 90
        1
176
     1
 90
        6
176
     1
 90
        2
176
     1
 62
     7
176
     1
 90
        6
176
     1
 90
        0
176
     1
 90
        0
176
     1
290
     0
176
     1
 90
        1
176
     1
 40
0.0
176
     1
 90
        0
176
     1
290
     0
176
     1
290
     1
176
     1
290
     1
176
     1
290
     0
176
     1
290
     0
176
     1
290
     0
176
     1
290
     0
176
     1
290
     0
176
     1
290
     0
176
     1
 90
       50
176
     1
 40
0.0
176
     1
 40
1.0
176
     1
 90
        0
176
     1
 62
    18
420
        0
176
     1
 90
       50
176
     1
 90
        3
176
     1
 62
     5
420
      255
176
     1
290
     0
176
     1
 90
       50
176
     1
 90
       50
176
     1
 90
       50
176
     1
290
     0
176
     1
 90
       50
176
     1
 62
   256
176
     0
 40
1.0
176
     0
 90
        2
176
     1
  1
strokes_ogs.tif
176
     1
290
     0
176
     1
 40
1.0
176
     1
 40
1.0
176
     1
  0
VISUALSTYLE
  5
37
102
{ACAD_REACTORS
330
2A
102
}
330
2A
100
AcDbVisualStyle
  2
Thicken
 70
    13
177
     3
291
     1
 70
    58
 90
        2
176
     1
 90
        2
176
     1
 90
        0
176
     1
 90
        0
176
     1
 40
0.6
176
     1
 40
30.0
176
     1
 62
     7
420
 16777215
176
     1
 90
        1
176
     1
 90
        4
176
     1
 62
     7
176
     1
 62
   257
176
     1
 90
        1
176
     1
 90
        1
176
     1
 40
1.0
176
     1
 90
       12
176
     1
 62
     7
176
     1
 40
1.0
176
     1
 90
        1
176
     1
 90
        6
176
     1
 90
        2
176
     1
 62
     7
176
     1
 90
        5
176
     1
 90
        0
176
     1
 90
        0
176
     1
290
     0
176
     1
 90
        1
176
     1
 40
0.0
176
     1
 90
        0
176
     1
290
     0
176
     1
290
     1
176
     1
290
     1
176
     1
290
     0
176
     1
290
     0
176
     1
290
     0
176
     1
290
     0
176
     1
290
     0
176
     1
290
     0
176
     1
 90
       50
176
     1
 40
0.0
176
     1
 40
1.0
176
     1
 90
        0
176
     1
 62
    18
420
        0
176
     1
 90
       50
176
     1
 90
        3
176
     1
 62
     5
420
      255
176
     1
290
     0
176
     1
 90
       50
176
     1
 90
       50
176
     1
 90
       50
176
     1
290
     0
176
     1
 90
       50
176
     1
 62
   256
176
     0
 40
1.0
176
     0
 90
        2
176
     1
  1
strokes_ogs.tif
176
     1
290
     0
176
     1
 40
1.0
176
     1
 40
1.0
176
     1
  0
VISUALSTYLE
  5
30
102
{ACAD_REACTORS
330
2A
102
}
330
2A
100
AcDbVisualStyle
  2
Wireframe
 70
     5
177
     3
291
     0
 70
    58
 90
        0
176
     1
 90
        2
176
     1
 90
        0
176
     1
 90
        0
176
     1
 40
0.6
176
     1
 40
30.0
176
     1
 62
     7
420
 16777215
176
     1
 90
        1
176
     1
 90
        4
176
     1
 62
     7
176
     1
 62
   257
176
     1
 90
        1
176
     1
 90
        1
176
     1
 40
1.0
176
     1
 90
        0
176
     1
 62
   257
176
     1
 40
1.0
176
     1
 90
        1
176
     1
 90
        6
176
     1
 90
        2
176
     1
 62
     7
176
     1
 90
        3
176
     1
 90
        0
176
     1
 90
        0
176
     1
290
     0
176
     1
 90
        1
176
     1
 40
0.0
176
     1
 90
        0
176
     1
290
     0
176
     1
290
     1
176
     1
290
     1
176
     1
290
     0
176
     1
290
     0
176
     1
290
     0
176
     1
290
     0
176
     1
290
     0
176
     1
290
     0
176
     1
 90
       50
176
     1
 40
0.0
176
     1
 40
1.0
176
     1
 90
        0
176
     1
 62
    18
420
        0
176
     1
 90
       50
176
     1
 90
        3
176
     1
 62
     5
420
      255
176
     1
290
     0
176
     1
 90
       50
176
     1
 90
       50
176
     1
 90
       50
176
     1
290
     0
176
     1
 90
       50
176
     1
 62
   256
176
     0
 40
1.0
176
     0
 90
        2
176
     1
  1
strokes_ogs.tif
176
     1
290
     0
176
     1
 40
1.0
176
     1
 40
1.0
176
     1
  0
VISUALSTYLE
  5
40
102
{ACAD_REACTORS
330
2A
102
}
330
2A
100
AcDbVisualStyle
  2
X-Ray
 70
    25
177
     3
291
     0
 70
    58
 90
        2
176
     1
 90
        2
176
     1
 90
        1
176
     1
 90
        1
176
     1
 40
0.5
176
     1
 40
30.0
176
     1
 62
     7
420
 16777215
176
     1
 90
        1
176
     1
 90
        0
176
     1
 62
     7
176
     1
 62
   257
176
     1
 90
        1
176
     1
 90
        1
176
     1
 40
1.0
176
     1
 90
        8
176
     1
 62
     7
176
     1
 40
1.0
176
     1
 90
        1
176
     1
 90
        6
176
     1
 90
        2
176
     1
 62
     7
176
     1
 90
        3
176
     1
 90
        0
176
     1
 90
        0
176
     1
290
     0
176
     1
 90
       13
176
     1
 40
0.0
176
     1
 90
        0
176
     1
290
     0
176
     1
290
     1
176
     1
290
     1
176
     1
290
     0
176
     1
290
     0
176
     1
290
     0
176
     1
290
     0
176
     1
290
     0
176
     1
290
     0
176
     1
 90
       50
176
     1
 40
0.0
176
     1
 40
1.0
176
     1
 90
        0
176
     1
 62
    18
420
        0
176
     1
 90
       50
176
     1
 90
        3
176
     1
 62
     5
420
      255
176
     1
290
     0
176
     1
 90
       50
176
     1
 90
       50
176
     1
 90
       50
176
     1
290
     0
176
     1
 90
       50
176
     1
 62
   256
176
     0
 40
1.0
176
     0
 90
        2
176
     1
  1
strokes_ogs.tif
176
     1
290
     0
176
     1
 40
1.0
176
     1
 40
1.0
176
     1
  0
DICTIONARYVAR
  5
1BF
102
{ACAD_REACTORS
330
1BE
102
}
330
1BE
100
DictionaryVariables
280
     0
  1
1:1
  0
DICTIONARYVAR
  5
1C4
102
{ACAD_REACTORS
330
1BE
102
}
330
1BE
100
DictionaryVariables
280
     0
  1
Standard
  0
DICTIONARYVAR
  5
1C3
102
{ACAD_REACTORS
330
1BE
102
}
330
1BE
100
DictionaryVariables
280
     0
  1
Standard
  0
DICTIONARY
  5
1C0
330
6A
100
AcDbDictionary
280
     1
281
     1
  3
ACAD_ROUNDTRIP_2008_TABLESTYLE_CELLSTYLEMAP
360
1C1
  0
CELLSTYLEMAP
  5
1C1
102
{ACAD_REACTORS
330
1C0
102
}
330
1C0
100
AcDbCellStyleMap
 90
        3
300
CELLSTYLE
  1
TABLEFORMAT_BEGIN
 90
        5
170
     1
 91
        0
 92
    32768
 62
   257
 93
        1
300
CONTENTFORMAT
  1
CONTENTFORMAT_BEGIN
 90
        0
 91
        0
 92
        4
 93
        0
300

 40
0.0
140
1.0
 94
        5
 62
     0
340
11
144
6.0
309
CONTENTFORMAT_END
171
     1
301
MARGIN
  1
CELLMARGIN_BEGIN
 40
1.5
 40
1.5
 40
1.5
 40
1.5
 40
1.5
 40
1.5
309
CELLMARGIN_END
 94
        6
 95
        1
302
GRIDFORMAT
  1
GRIDFORMAT_BEGIN
 90
        0
 91
        1
 62
     0
 92
       -2
340
14
 93
        0
 40
0.045
309
GRIDFORMAT_END
 95
        2
302
GRIDFORMAT
  1
GRIDFORMAT_BEGIN
 90
        0
 91
        1
 62
     0
 92
       -2
340
14
 93
        0
 40
0.045
309
GRIDFORMAT_END
 95
        4
302
GRIDFORMAT
  1
GRIDFORMAT_BEGIN
 90
        0
 91
        1
 62
     0
 92
       -2
340
14
 93
        0
 40
0.045
309
GRIDFORMAT_END
 95
        8
302
GRIDFORMAT
  1
GRIDFORMAT_BEGIN
 90
        0
 91
        1
 62
     0
 92
       -2
340
14
 93
        0
 40
0.045
309
GRIDFORMAT_END
 95
       16
302
GRIDFORMAT
  1
GRIDFORMAT_BEGIN
 90
        0
 91
        1
 62
     0
 92
       -2
340
14
 93
        0
 40
0.045
309
GRIDFORMAT_END
 95
       32
302
GRIDFORMAT
  1
GRIDFORMAT_BEGIN
 90
        0
 91
        1
 62
     0
 92
       -2
340
14
 93
        0
 40
0.045
309
GRIDFORMAT_END
309
TABLEFORMAT_END
  1
CELLSTYLE_BEGIN
 90
        1
 91
        1
300
_TITLE
309
CELLSTYLE_END
300
CELLSTYLE
  1
TABLEFORMAT_BEGIN
 90
        5
170
     1
 91
        0
 92
        0
 62
   257
 93
        1
300
CONTENTFORMAT
  1
CONTENTFORMAT_BEGIN
 90
        0
 91
        0
 92
        4
 93
        0
300

 40
0.0
140
1.0
 94
        5
 62
     0
340
11
144
4.5
309
CONTENTFORMAT_END
171
     1
301
MARGIN
  1
CELLMARGIN_BEGIN
 40
1.5
 40
1.5
 40
1.5
 40
1.5
 40
1.5
 40
1.5
309
CELLMARGIN_END
 94
        6
 95
        1
302
GRIDFORMAT
  1
GRIDFORMAT_BEGIN
 90
        0
 91
        1
 62
     0
 92
       -2
340
14
 93
        0
 40
0.045
309
GRIDFORMAT_END
 95
        2
302
GRIDFORMAT
  1
GRIDFORMAT_BEGIN
 90
        0
 91
        1
 62
     0
 92
       -2
340
14
 93
        0
 40
0.045
309
GRIDFORMAT_END
 95
        4
302
GRIDFORMAT
  1
GRIDFORMAT_BEGIN
 90
        0
 91
        1
 62
     0
 92
       -2
340
14
 93
        0
 40
0.045
309
GRIDFORMAT_END
 95
        8
302
GRIDFORMAT
  1
GRIDFORMAT_BEGIN
 90
        0
 91
        1
 62
     0
 92
       -2
340
14
 93
        0
 40
0.045
309
GRIDFORMAT_END
 95
       16
302
GRIDFORMAT
  1
GRIDFORMAT_BEGIN
 90
        0
 91
        1
 62
     0
 92
       -2
340
14
 93
        0
 40
0.045
309
GRIDFORMAT_END
 95
       32
302
GRIDFORMAT
  1
GRIDFORMAT_BEGIN
 90
        0
 91
        1
 62
     0
 92
       -2
340
14
 93
        0
 40
0.045
309
GRIDFORMAT_END
309
TABLEFORMAT_END
  1
CELLSTYLE_BEGIN
 90
        2
 91
        1
300
_HEADER
309
CELLSTYLE_END
300
CELLSTYLE
  1
TABLEFORMAT_BEGIN
 90
        5
170
     1
 91
        0
 92
        0
 62
   257
 93
        1
300
CONTENTFORMAT
  1
CONTENTFORMAT_BEGIN
 90
        0
 91
        0
 92
        4
 93
        0
300

 40
0.0
140
1.0
 94
        2
 62
     0
340
11
144
4.5
309
CONTENTFORMAT_END
171
     1
301
MARGIN
  1
CELLMARGIN_BEGIN
 40
1.5
 40
1.5
 40
1.5
 40
1.5
 40
1.5
 40
1.5
309
CELLMARGIN_END
 94
        6
 95
        1
302
GRIDFORMAT
  1
GRIDFORMAT_BEGIN
 90
        0
 91
        1
 62
     0
 92
       -2
340
14
 93
        0
 40
0.045
309
GRIDFORMAT_END
 95
        2
302
GRIDFORMAT
  1
GRIDFORMAT_BEGIN
 90
        0
 91
        1
 62
     0
 92
       -2
340
14
 93
        0
 40
0.045
309
GRIDFORMAT_END
 95
        4
302
GRIDFORMAT
  1
GRIDFORMAT_BEGIN
 90
        0
 91
        1
 62
     0
 92
       -2
340
14
 93
        0
 40
0.045
309
GRIDFORMAT_END
 95
        8
302
GRIDFORMAT
  1
GRIDFORMAT_BEGIN
 90
        0
 91
        1
 62
     0
 92
       -2
340
14
 93
        0
 40
0.045
309
GRIDFORMAT_END
 95
       16
302
GRIDFORMAT
  1
GRIDFORMAT_BEGIN
 90
        0
 91
        1
 62
     0
 92
       -2
340
14
 93
        0
 40
0.045
309
GRIDFORMAT_END
 95
       32
302
GRIDFORMAT
  1
GRIDFORMAT_BEGIN
 90
        0
 91
        1
 62
     0
 92
       -2
340
14
 93
        0
 40
0.045
309
GRIDFORMAT_END
309
TABLEFORMAT_END
  1
CELLSTYLE_BEGIN
 90
        3
 91
        2
300
_DATA
309
CELLSTYLE_END
  0
ENDSEC
  0
EOF