0
SECTION
  2
HEADER
  9
$ACADVER
  1
AC1027
  9
$ACADMAINTVER
 70
     8
  9
$DWGCODEPAGE
  3
ANSI_1252
  9
$REQUIREDVERSIONS
160
                 0
  9
$COMMENTS
  1
File was created by Cadenas
  9
$CUSTOMPROPERTYTAG
  1
NN
  9
$CUSTOMPROPERTY
  1
Grip Tight Low Backing Height Two-Bolt Pillow Block Metric Bore
  9
$CUSTOMPROPERTYTAG
  1
NT
  9
$CUSTOMPROPERTY
  1
GTB Normal Duty Pillow Blocks
  9
$CUSTOMPROPERTYTAG
  1
NB
  9
$CUSTOMPROPERTY
  1
129044
  9
$CUSTOMPROPERTYTAG
  1
NBSYN
  9
$CUSTOMPROPERTY
  1
$PN.$LUBE.
  9
$CUSTOMPROPERTYTAG
  1
LINA
  9
$CUSTOMPROPERTY
  1
129044
  9
$CUSTOMPROPERTYTAG
  1
SERIES
  9
$CUSTOMPROPERTY
  1
209
  9
$CUSTOMPROPERTYTAG
  1
SS
  9
$CUSTOMPROPERTY
  1
45
  9
$CUSTOMPROPERTYTAG
  1
PN
  9
$CUSTOMPROPERTY
  1
129044
  9
$CUSTOMPROPERTYTAG
  1
DESCRIPTION
  9
$CUSTOMPROPERTY
  1
P2B-GTB-45M
  9
$CUSTOMPROPERTYTAG
  1
A
  9
$CUSTOMPROPERTY
  1
46.8
  9
$CUSTOMPROPERTYTAG
  1
B
  9
$CUSTOMPROPERTY
  1
188.9
  9
$CUSTOMPROPERTYTAG
  1
C
  9
$CUSTOMPROPERTY
  1
50.8
  9
$CUSTOMPROPERTYTAG
  1
DMIN
  9
$CUSTOMPROPERTY
  1
139.7
  9
$CUSTOMPROPERTYTAG
  1
DMAX
  9
$CUSTOMPROPERTY
  1
157.2
  9
$CUSTOMPROPERTYTAG
  1
F
  9
$CUSTOMPROPERTY
  1
M12
  9
$CUSTOMPROPERTYTAG
  1
G
  9
$CUSTOMPROPERTY
  1
23.0
  9
$CUSTOMPROPERTYTAG
  1
H
  9
$CUSTOMPROPERTY
  1
17.5
  9
$CUSTOMPROPERTYTAG
  1
J
  9
$CUSTOMPROPERTY
  1
107.2
  9
$CUSTOMPROPERTYTAG
  1
L
  9
$CUSTOMPROPERTY
  1
67.9
  9
$CUSTOMPROPERTYTAG
  1
M
  9
$CUSTOMPROPERTY
  1
52.4
  9
$CUSTOMPROPERTYTAG
  1
R
  9
$CUSTOMPROPERTY
  1
16.7
  9
$CUSTOMPROPERTYTAG
  1
S
  9
$CUSTOMPROPERTY
  1
30.2
  9
$CUSTOMPROPERTYTAG
  1
U
  9
$CUSTOMPROPERTY
  1
85.7
  9
$CUSTOMPROPERTYTAG
  1
V
  9
$CUSTOMPROPERTY
  1
171.4
  9
$CUSTOMPROPERTYTAG
  1
W
  9
$CUSTOMPROPERTY
  1
17.5
  9
$CUSTOMPROPERTYTAG
  1
X
  9
$CUSTOMPROPERTY
  1
4.8
  9
$CUSTOMPROPERTYTAG
  1
Z
  9
$CUSTOMPROPERTY
  1
29.4
  9
$CUSTOMPROPERTYTAG
  1
COMPANY
  9
$CUSTOMPROPERTY
  1
baldor
  9
$INSBASE
 10
0.0
 20
0.0
 30
0.0
  9
$EXTMIN
 10
1.000000000000000E+20
 20
1.000000000000000E+20
 30
1.000000000000000E+20
  9
$EXTMAX
 10
-1.000000000000000E+20
 20
-1.000000000000000E+20
 30
-1.000000000000000E+20
  9
$LIMMIN
 10
0.0
 20
0.0
  9
$LIMMAX
 10
420.0
 20
297.0
  9
$ORTHOMODE
 70
     0
  9
$REGENMODE
 70
     1
  9
$FILLMODE
 70
     1
  9
$QTEXTMODE
 70
     0
  9
$MIRRTEXT
 70
     1
  9
$LTSCALE
 40
1.0
  9
$ATTMODE
 70
     1
  9
$TEXTSIZE
 40
2.5
  9
$TRACEWID
 40
1.0
  9
$TEXTSTYLE
  7
Standard
  9
$CLAYER
  8
0
  9
$CELTYPE
  6
ByLayer
  9
$CECOLOR
 62
   256
  9
$CELTSCALE
 40
1.0
  9
$DISPSILH
 70
     0
  9
$DIMSCALE
 40
1.0
  9
$DIMASZ
 40
2.5
  9
$DIMEXO
 40
0.625
  9
$DIMDLI
 40
3.75
  9
$DIMRND
 40
0.0
  9
$DIMDLE
 40
0.0
  9
$DIMEXE
 40
1.25
  9
$DIMTP
 40
0.0
  9
$DIMTM
 40
0.0
  9
$DIMTXT
 40
2.5
  9
$DIMCEN
 40
2.5
  9
$DIMTSZ
 40
0.0
  9
$DIMTOL
 70
     0
  9
$DIMLIM
 70
     0
  9
$DIMTIH
 70
     0
  9
$DIMTOH
 70
     0
  9
$DIMSE1
 70
     0
  9
$DIMSE2
 70
     0
  9
$DIMTAD
 70
     1
  9
$DIMZIN
 70
     8
  9
$DIMBLK
  1

  9
$DIMASO
 70
     1
  9
$DIMSHO
 70
     1
  9
$DIMPOST
  1

  9
$DIMAPOST
  1

  9
$DIMALT
 70
     0
  9
$DIMALTD
 70
     3
  9
$DIMALTF
 40
0.03937007874016
  9
$DIMLFAC
 40
1.0
  9
$DIMTOFL
 70
     1
  9
$DIMTVP
 40
0.0
  9
$DIMTIX
 70
     0
  9
$DIMSOXD
 70
     0
  9
$DIMSAH
 70
     0
  9
$DIMBLK1
  1

  9
$DIMBLK2
  1

  9
$DIMSTYLE
  2
ISO-25
  9
$DIMCLRD
 70
     0
  9
$DIMCLRE
 70
     0
  9
$DIMCLRT
 70
     0
  9
$DIMTFAC
 40
1.0
  9
$DIMGAP
 40
0.625
  9
$DIMJUST
 70
     0
  9
$DIMSD1
 70
     0
  9
$DIMSD2
 70
     0
  9
$DIMTOLJ
 70
     0
  9
$DIMTZIN
 70
     8
  9
$DIMALTZ
 70
     0
  9
$DIMALTTZ
 70
     0
  9
$DIMUPT
 70
     0
  9
$DIMDEC
 70
     2
  9
$DIMTDEC
 70
     2
  9
$DIMALTU
 70
     2
  9
$DIMALTTD
 70
     3
  9
$DIMTXSTY
  7
Standard
  9
$DIMAUNIT
 70
     0
  9
$DIMADEC
 70
     0
  9
$DIMALTRND
 40
0.0
  9
$DIMAZIN
 70
     0
  9
$DIMDSEP
 70
    44
  9
$DIMATFIT
 70
     3
  9
$DIMFRAC
 70
     0
  9
$DIMLDRBLK
  1

  9
$DIMLUNIT
 70
     2
  9
$DIMLWD
 70
    -2
  9
$DIMLWE
 70
    -2
  9
$DIMTMOVE
 70
     0
  9
$DIMFXL
 40
1.0
  9
$DIMFXLON
 70
     0
  9
$DIMJOGANG
 40
0.7853981633974483
  9
$DIMTFILL
 70
     0
  9
$DIMTFILLCLR
 70
     0
  9
$DIMARCSYM
 70
     0
  9
$DIMLTYPE
  6

  9
$DIMLTEX1
  6

  9
$DIMLTEX2
  6

  9
$DIMTXTDIRECTION
 70
     0
  9
$LUNITS
 70
     2
  9
$LUPREC
 70
     4
  9
$SKETCHINC
 40
1.0
  9
$FILLETRAD
 40
10.0
  9
$AUNITS
 70
     0
  9
$AUPREC
 70
     0
  9
$MENU
  1
.
  9
$ELEVATION
 40
0.0
  9
$PELEVATION
 40
0.0
  9
$THICKNESS
 40
0.0
  9
$LIMCHECK
 70
     0
  9
$CHAMFERA
 40
0.0
  9
$CHAMFERB
 40
0.0
  9
$CHAMFERC
 40
0.0
  9
$CHAMFERD
 40
0.0
  9
$SKPOLY
 70
     0
  9
$TDCREATE
 40
2458168.994439502
  9
$TDUCREATE
 40
2458168.952772836
  9
$TDUPDATE
 40
2458168.994439676
  9
$TDUUPDATE
 40
2458168.952773009
  9
$TDINDWG
 40
0.0000000116
  9
$TDUSRTIMER
 40
0.0000000116
  9
$USRTIMER
 70
     1
  9
$ANGBASE
 50
0.0
  9
$ANGDIR
 70
     0
  9
$PDMODE
 70
     0
  9
$PDSIZE
 40
0.0
  9
$PLINEWID
 40
0.0
  9
$SPLFRAME
 70
     0
  9
$SPLINETYPE
 70
     6
  9
$SPLINESEGS
 70
     8
  9
$HANDSEED
  5
298
  9
$SURFTAB1
 70
     6
  9
$SURFTAB2
 70
     6
  9
$SURFTYPE
 70
     6
  9
$SURFU
 70
     6
  9
$SURFV
 70
     6
  9
$UCSBASE
  2

  9
$UCSNAME
  2

  9
$UCSORG
 10
0.0
 20
0.0
 30
0.0
  9
$UCSXDIR
 10
1.0
 20
0.0
 30
0.0
  9
$UCSYDIR
 10
0.0
 20
1.0
 30
0.0
  9
$UCSORTHOREF
  2

  9
$UCSORTHOVIEW
 70
     0
  9
$UCSORGTOP
 10
0.0
 20
0.0
 30
0.0
  9
$UCSORGBOTTOM
 10
0.0
 20
0.0
 30
0.0
  9
$UCSORGLEFT
 10
0.0
 20
0.0
 30
0.0
  9
$UCSORGRIGHT
 10
0.0
 20
0.0
 30
0.0
  9
$UCSORGFRONT
 10
0.0
 20
0.0
 30
0.0
  9
$UCSORGBACK
 10
0.0
 20
0.0
 30
0.0
  9
$PUCSBASE
  2

  9
$PUCSNAME
  2

  9
$PUCSORG
 10
0.0
 20
0.0
 30
0.0
  9
$PUCSXDIR
 10
1.0
 20
0.0
 30
0.0
  9
$PUCSYDIR
 10
0.0
 20
1.0
 30
0.0
  9
$PUCSORTHOREF
  2

  9
$PUCSORTHOVIEW
 70
     0
  9
$PUCSORGTOP
 10
0.0
 20
0.0
 30
0.0
  9
$PUCSORGBOTTOM
 10
0.0
 20
0.0
 30
0.0
  9
$PUCSORGLEFT
 10
0.0
 20
0.0
 30
0.0
  9
$PUCSORGRIGHT
 10
0.0
 20
0.0
 30
0.0
  9
$PUCSORGFRONT
 10
0.0
 20
0.0
 30
0.0
  9
$PUCSORGBACK
 10
0.0
 20
0.0
 30
0.0
  9
$USERI1
 70
     0
  9
$USERI2
 70
     0
  9
$USERI3
 70
     0
  9
$USERI4
 70
     0
  9
$USERI5
 70
     0
  9
$USERR1
 40
0.0
  9
$USERR2
 40
0.0
  9
$USERR3
 40
0.0
  9
$USERR4
 40
0.0
  9
$USERR5
 40
0.0
  9
$WORLDVIEW
 70
     1
  9
$SHADEDGE
 70
     3
  9
$SHADEDIF
 70
    70
  9
$TILEMODE
 70
     1
  9
$MAXACTVP
 70
    64
  9
$PINSBASE
 10
0.0
 20
0.0
 30
0.0
  9
$PLIMCHECK
 70
     0
  9
$PEXTMIN
 10
1.000000000000000E+20
 20
1.000000000000000E+20
 30
1.000000000000000E+20
  9
$PEXTMAX
 10
-1.000000000000000E+20
 20
-1.000000000000000E+20
 30
-1.000000000000000E+20
  9
$PLIMMIN
 10
0.0
 20
0.0
  9
$PLIMMAX
 10
420.0
 20
297.0
  9
$UNITMODE
 70
     0
  9
$VISRETAIN
 70
     1
  9
$PLINEGEN
 70
     0
  9
$PSLTSCALE
 70
     1
  9
$TREEDEPTH
 70
  3020
  9
$CMLSTYLE
  2
Standard
  9
$CMLJUST
 70
     0
  9
$CMLSCALE
 40
20.0
  9
$PROXYGRAPHICS
 70
     1
  9
$MEASUREMENT
 70
     1
  9
$CELWEIGHT
370
    -1
  9
$ENDCAPS
280
     0
  9
$JOINSTYLE
280
     0
  9
$LWDISPLAY
290
     0
  9
$INSUNITS
 70
     4
  9
$HYPERLINKBASE
  1

  9
$STYLESHEET
  1

  9
$XEDIT
290
     1
  9
$CEPSNTYPE
380
     0
  9
$PSTYLEMODE
290
     1
  9
$FINGERPRINTGUID
  2
{1D172967-0487-41D4-B612-38B40FB48D50}
  9
$VERSIONGUID
  2
{FAEB1C32-E019-11D5-929B-00C0DF256EC4}
  9
$EXTNAMES
290
     1
  9
$PSVPSCALE
 40
0.0
  9
$OLESTARTUP
290
     0
  9
$SORTENTS
280
   127
  9
$INDEXCTL
280
     0
  9
$HIDETEXT
280
     1
  9
$XCLIPFRAME
280
     2
  9
$HALOGAP
280
     0
  9
$OBSCOLOR
 70
   257
  9
$OBSLTYPE
280
     0
  9
$INTERSECTIONDISPLAY
280
     0
  9
$INTERSECTIONCOLOR
 70
   257
  9
$DIMASSOC
280
     2
  9
$PROJECTNAME
  1

  9
$CAMERADISPLAY
290
     0
  9
$LENSLENGTH
 40
50.0
  9
$CAMERAHEIGHT
 40
0.0
  9
$STEPSPERSEC
 40
2.0
  9
$STEPSIZE
 40
6.0
  9
$3DDWFPREC
 40
2.0
  9
$PSOLWIDTH
 40
5.0
  9
$PSOLHEIGHT
 40
80.0
  9
$LOFTANG1
 40
1.570796326794897
  9
$LOFTANG2
 40
1.570796326794897
  9
$LOFTMAG1
 40
0.0
  9
$LOFTMAG2
 40
0.0
  9
$LOFTPARAM
 70
     7
  9
$LOFTNORMALS
280
     1
  9
$LATITUDE
 40
37.795
  9
$LONGITUDE
 40
-122.394
  9
$NORTHDIRECTION
 40
0.0
  9
$TIMEZONE
 70
 -8000
  9
$LIGHTGLYPHDISPLAY
280
     1
  9
$TILEMODELIGHTSYNCH
280
     1
  9
$CMATERIAL
347
44
  9
$SOLIDHIST
280
     0
  9
$SHOWHIST
280
     1
  9
$DWFFRAME
280
     2
  9
$DGNFRAME
280
     2
  9
$REALWORLDSCALE
290
     1
  9
$INTERFERECOLOR
 62
   256
  9
$CSHADOW
280
     0
  9
$SHADOWPLANELOCATION
 40
0.0
  0
ENDSEC
  0
SECTION
  2
CLASSES
  0
CLASS
  1
ACDBDICTIONARYWDFLT
  2
AcDbDictionaryWithDefault
  3
ObjectDBX Classes
 90
        0
 91
        4
280
     0
281
     0
  0
CLASS
  1
VISUALSTYLE
  2
AcDbVisualStyle
  3
ObjectDBX Classes
 90
     4095
 91
        4
280
     0
281
     0
  0
CLASS
  1
MATERIAL
  2
AcDbMaterial
  3
ObjectDBX Classes
 90
     1153
 91
        4
280
     0
281
     0
  0
CLASS
  1
SCALE
  2
AcDbScale
  3
ObjectDBX Classes
 90
     1153
 91
        4
280
     0
281
     0
  0
CLASS
  1
TABLESTYLE
  2
AcDbTableStyle
  3
ObjectDBX Classes
 90
     4095
 91
        4
280
     0
281
     0
  0
CLASS
  1
MLEADERSTYLE
  2
AcDbMLeaderStyle
  3
ACDB_MLEADERSTYLE_CLASS
 90
     4095
 91
        4
280
     0
281
     0
  0
CLASS
  1
SUN
  2
AcDbSun
  3
SCENEOE
 90
     1153
 91
        4
280
     0
281
     0
  0
CLASS
  1
DICTIONARYVAR
  2
AcDbDictionaryVar
  3
ObjectDBX Classes
 90
        0
 91
        4
280
     0
281
     0
  0
CLASS
  1
CELLSTYLEMAP
  2
AcDbCellStyleMap
  3
ObjectDBX Classes
 90
     1152
 91
        4
280
     0
281
     0
  0
ENDSEC
  0
SECTION
  2
TABLES
  0
TABLE
  2
VPORT
  5
8
330
0
100
AcDbSymbolTable
 70
     1
  0
VPORT
  5
29
330
8
100
AcDbSymbolTableRecord
100
AcDbViewportTableRecord
  2
*Active
 70
     0
 10
0.0
 20
0.0
 11
1.0
 21
1.0
 12
0.0
 22
-2.25
 13
0.0
 23
0.0
 14
10.0
 24
10.0
 15
10.0
 25
10.0
 16
0.0
 26
0.0
 36
1.0
 17
0.0
 27
0.0
 37
0.0
 40
61.58759999999999
 41
3.128519377277244
 42
50.0
 43
0.0
 44
0.0
 50
0.0
 51
0.0
 71
     0
 72
   100
 73
     1
 74
     3
 75
     0
 76
     0
 77
     0
 78
     0
281
     0
 65
     1
110
0.0
120
0.0
130
0.0
111
1.0
121
0.0
131
0.0
112
0.0
122
1.0
132
0.0
 79
     0
146
0.0
348
2F
 60
     3
 61
     5
292
     1
282
     1
141
0.0
142
0.0
 63
   250
361
6D
  0
ENDTAB
  0
TABLE
  2
LTYPE
  5
5
330
0
100
AcDbSymbolTable
 70
     3
  0
LTYPE
  5
14
330
5
100
AcDbSymbolTableRecord
100
AcDbLinetypeTableRecord
  2
ByBlock
 70
     0
  3

 72
    65
 73
     0
 40
0.0
  0
LTYPE
  5
15
330
5
100
AcDbSymbolTableRecord
100
AcDbLinetypeTableRecord
  2
ByLayer
 70
     0
  3

 72
    65
 73
     0
 40
0.0
  0
LTYPE
  5
16
330
5
100
AcDbSymbolTableRecord
100
AcDbLinetypeTableRecord
  2
Continuous
 70
     0
  3
Solid line
 72
    65
 73
     0
 40
0.0
  0
LTYPE
  5
A5
330
5
100
AcDbSymbolTableRecord
100
AcDbLinetypeTableRecord
  2
Dashed
 70
     0
  3

 72
    65
 73
     2
 40
2.0
 49
1.0
 74
     0
 49
-1.0
 74
     0
  0
LTYPE
  5
11B
330
5
100
AcDbSymbolTableRecord
100
AcDbLinetypeTableRecord
  2
Center
 70
     0
  3

 72
    65
 73
     4
 40
1.5
 49
0.45
 74
     0
 49
-0.5
 74
     0
 49
0.05
 74
     0
 49
-0.5
 74
     0
  0
ENDTAB
  0
TABLE
  2
LAYER
  5
2
330
0
100
AcDbSymbolTable
 70
     7
  0
LAYER
  5
10
330
2
100
AcDbSymbolTableRecord
100
AcDbLayerTableRecord
  2
0
 70
     0
 62
     7
  6
Continuous
370
    -3
390
F
347
46
348
0
  0
LAYER
  5
72
330
2
100
AcDbSymbolTableRecord
100
AcDbLayerTableRecord
  2
AM_6
 70
     0
 62
    -2
  6
Continuous
370
    35
390
F
347
46
348
0
  0
LAYER
  5
A6
330
2
100
AcDbSymbolTableRecord
100
AcDbLayerTableRecord
  2
AM_9
 70
     0
 62
     6
  6
Dashed
370
    25
390
F
347
46
348
0
  0
LAYER
  5
D6
330
2
100
AcDbSymbolTableRecord
100
AcDbLayerTableRecord
  2
AM_4
 70
     0
 62
     7
  6
Continuous
370
    50
390
F
347
46
348
0
  0
LAYER
  5
118
330
2
100
AcDbSymbolTableRecord
100
AcDbLayerTableRecord
  2
AM_5
 70
     0
 62
     3
  6
Continuous
370
    25
390
F
347
46
348
0
  0
LAYER
  5
11C
330
2
100
AcDbSymbolTableRecord
100
AcDbLayerTableRecord
  2
AM_7
 70
     0
 62
     7
  6
Center
370
    25
390
F
347
46
348
0
  0
LAYER
  5
28A
330
2
100
AcDbSymbolTableRecord
100
AcDbLayerTableRecord
  2
ConnectionPoints
 70
     0
 62
     7
  6
Continuous
370
    50
390
F
347
46
348
0
  0
ENDTAB
  0
TABLE
  2
STYLE
  5
3
330
0
100
AcDbSymbolTable
 70
     1
  0
STYLE
  5
11
330
3
100
AcDbSymbolTableRecord
100
AcDbTextStyleTableRecord
  2
Standard
 70
     0
 40
0.0
 41
1.0
 50
0.0
 71
     0
 42
2.5
  3
txt
  4

  0
ENDTAB
  0
TABLE
  2
VIEW
  5
6
330
0
100
AcDbSymbolTable
 70
     0
  0
ENDTAB
  0
TABLE
  2
UCS
  5
7
330
0
100
AcDbSymbolTable
 70
     0
  0
ENDTAB
  0
TABLE
  2
APPID
  5
9
330
0
100
AcDbSymbolTable
 70
     1
  0
APPID
  5
12
330
9
100
AcDbSymbolTableRecord
100
AcDbRegAppTableRecord
  2
ACAD
 70
     0
  0
ENDTAB
  0
TABLE
  2
DIMSTYLE
  5
A
330
0
100
AcDbSymbolTable
 70
     1
100
AcDbDimStyleTable
  0
DIMSTYLE
105
27
330
A
100
AcDbSymbolTableRecord
100
AcDbDimStyleTableRecord
  2
ISO-25
 70
     0
 41
2.5
 42
0.625
 43
3.75
 44
1.25
 73
     0
 74
     0
 77
     1
 78
     8
140
2.5
141
2.5
143
0.03937007874016
147
0.625
171
     3
172
     1
178
     0
271
     2
272
     2
274
     3
278
    44
283
     0
284
     8
340
11
  0
ENDTAB
  0
TABLE
  2
BLOCK_RECORD
  5
1
330
0
100
AcDbSymbolTable
 70
     5
  0
BLOCK_RECORD
  5
1F
330
1
100
AcDbSymbolTableRecord
100
AcDbBlockTableRecord
  2
*Model_Space
340
22
 70
     0
280
     1
281
     0
  0
BLOCK_RECORD
  5
1B
330
1
100
AcDbSymbolTableRecord
100
AcDbBlockTableRecord
  2
*Paper_Space
340
1E
 70
     0
280
     1
281
     0
  0
BLOCK_RECORD
  5
23
330
1
100
AcDbSymbolTableRecord
100
AcDbBlockTableRecord
  2
*Paper_Space0
340
26
 70
     0
280
     1
281
     0
  0
BLOCK_RECORD
  5
6E
330
1
100
AcDbSymbolTableRecord
100
AcDbBlockTableRecord
  2
1_129044_4
340
0
102
{BLKREFS
331
6F
102
}
 70
     0
280
     1
281
     0
  0
BLOCK_RECORD
  5
8F
330
1
100
AcDbSymbolTableRecord
100
AcDbBlockTableRecord
  2
2_129522_0_in_129044_4
340
0
102
{BLKREFS
331
90
102
}
 70
     0
280
     1
281
     0
  0
BLOCK_RECORD
  5
D9
330
1
100
AcDbSymbolTableRecord
100
AcDbBlockTableRecord
  2
3_129948_0_in_129044_4
340
0
102
{BLKREFS
331
DA
102
}
 70
     0
280
     1
281
     0
  0
BLOCK_RECORD
  5
132
330
1
100
AcDbSymbolTableRecord
100
AcDbBlockTableRecord
  2
4_129438_0_in_129044_4
340
0
102
{BLKREFS
331
133
102
}
 70
     0
280
     1
281
     0
  0
ENDTAB
  0
ENDSEC
  0
SECTION
  2
BLOCKS
  0
BLOCK
  5
20
330
1F
100
AcDbEntity
  8
0
100
AcDbBlockBegin
  2
*Model_Space
 70
     0
 10
0.0
 20
0.0
 30
0.0
  3
*Model_Space
  1

  0
ENDBLK
  5
21
330
1F
100
AcDbEntity
  8
0
100
AcDbBlockEnd
  0
BLOCK
  5
1C
330
1B
100
AcDbEntity
 67
     1
  8
0
100
AcDbBlockBegin
  2
*Paper_Space
 70
     0
 10
0.0
 20
0.0
 30
0.0
  3
*Paper_Space
  1

  0
ENDBLK
  5
1D
330
1B
100
AcDbEntity
 67
     1
  8
0
100
AcDbBlockEnd
  0
BLOCK
  5
24
330
23
100
AcDbEntity
  8
0
100
AcDbBlockBegin
  2
*Paper_Space0
 70
     0
 10
0.0
 20
0.0
 30
0.0
  3
*Paper_Space0
  1

  0
ENDBLK
  5
25
330
23
100
AcDbEntity
  8
0
100
AcDbBlockEnd
  0
BLOCK
  5
70
330
6E
100
AcDbEntity
  8
0
100
AcDbBlockBegin
  2
1_129044_4
 70
     2
 10
0.0
 20
0.0
 30
0.0
  3
1_129044_4
  1

  0
ATTDEF
  5
73
330
6E
100
AcDbEntity
  8
AM_6
100
AcDbText
 10
99.45
 20
27.94
 30
0.0
 40
0.5
  1
Grip Tight Low Backing Height Two-Bolt Pillow Block Metric Bore
100
AcDbAttributeDefinition
  3

  2
NN
 70
     8
280
     0
  0
ATTDEF
  5
74
330
6E
100
AcDbEntity
  8
AM_6
100
AcDbText
 10
99.45
 20
27.44
 30
0.0
 40
0.5
  1
GTB Normal Duty Pillow Blocks
100
AcDbAttributeDefinition
  3

  2
NT
 70
     8
280
     0
  0
ATTDEF
  5
75
330
6E
100
AcDbEntity
  8
AM_6
100
AcDbText
 10
99.45
 20
26.94
 30
0.0
 40
0.5
  1
129044
100
AcDbAttributeDefinition
  3

  2
NB
 70
     8
280
     0
  0
ATTDEF
  5
76
330
6E
100
AcDbEntity
  8
AM_6
100
AcDbText
 10
99.45
 20
26.44
 30
0.0
 40
0.5
  1
$PN.$LUBE.
100
AcDbAttributeDefinition
  3

  2
NBSYN
 70
     8
280
     0
  0
ATTDEF
  5
77
330
6E
100
AcDbEntity
  8
AM_6
100
AcDbText
 10
99.45
 20
25.94
 30
0.0
 40
0.5
  1
129044
100
AcDbAttributeDefinition
  3

  2
LINA
 70
     8
280
     0
  0
ATTDEF
  5
78
330
6E
100
AcDbEntity
  8
AM_6
100
AcDbText
 10
99.45
 20
25.44
 30
0.0
 40
0.5
  1
209
100
AcDbAttributeDefinition
  3

  2
SERIES
 70
     8
280
     0
  0
ATTDEF
  5
79
330
6E
100
AcDbEntity
  8
AM_6
100
AcDbText
 10
99.45
 20
24.94
 30
0.0
 40
0.5
  1
45
100
AcDbAttributeDefinition
  3

  2
SS
 70
     8
280
     0
  0
ATTDEF
  5
7A
330
6E
100
AcDbEntity
  8
AM_6
100
AcDbText
 10
99.45
 20
24.44
 30
0.0
 40
0.5
  1
129044
100
AcDbAttributeDefinition
  3

  2
PN
 70
     8
280
     0
  0
ATTDEF
  5
7B
330
6E
100
AcDbEntity
  8
AM_6
100
AcDbText
 10
99.45
 20
23.94
 30
0.0
 40
0.5
  1
P2B-GTB-45M
100
AcDbAttributeDefinition
  3

  2
DESCRIPTION
 70
     8
280
     0
  0
ATTDEF
  5
7C
330
6E
100
AcDbEntity
  8
AM_6
100
AcDbText
 10
99.45
 20
23.44
 30
0.0
 40
0.5
  1
46.8
100
AcDbAttributeDefinition
  3

  2
A
 70
     8
280
     0
  0
ATTDEF
  5
7D
330
6E
100
AcDbEntity
  8
AM_6
100
AcDbText
 10
99.45
 20
22.94
 30
0.0
 40
0.5
  1
188.9
100
AcDbAttributeDefinition
  3

  2
B
 70
     8
280
     0
  0
ATTDEF
  5
7E
330
6E
100
AcDbEntity
  8
AM_6
100
AcDbText
 10
99.45
 20
22.44
 30
0.0
 40
0.5
  1
50.8
100
AcDbAttributeDefinition
  3

  2
C
 70
     8
280
     0
  0
ATTDEF
  5
7F
330
6E
100
AcDbEntity
  8
AM_6
100
AcDbText
 10
99.45
 20
21.94
 30
0.0
 40
0.5
  1
139.7
100
AcDbAttributeDefinition
  3

  2
DMIN
 70
     8
280
     0
  0
ATTDEF
  5
80
330
6E
100
AcDbEntity
  8
AM_6
100
AcDbText
 10
99.45
 20
21.44
 30
0.0
 40
0.5
  1
157.2
100
AcDbAttributeDefinition
  3

  2
DMAX
 70
     8
280
     0
  0
ATTDEF
  5
81
330
6E
100
AcDbEntity
  8
AM_6
100
AcDbText
 10
99.45
 20
20.94
 30
0.0
 40
0.5
  1
M12
100
AcDbAttributeDefinition
  3

  2
F
 70
     8
280
     0
  0
ATTDEF
  5
82
330
6E
100
AcDbEntity
  8
AM_6
100
AcDbText
 10
99.45
 20
20.44
 30
0.0
 40
0.5
  1
23.0
100
AcDbAttributeDefinition
  3

  2
G
 70
     8
280
     0
  0
ATTDEF
  5
83
330
6E
100
AcDbEntity
  8
AM_6
100
AcDbText
 10
99.45
 20
19.94
 30
0.0
 40
0.5
  1
17.5
100
AcDbAttributeDefinition
  3

  2
H
 70
     8
280
     0
  0
ATTDEF
  5
84
330
6E
100
AcDbEntity
  8
AM_6
100
AcDbText
 10
99.45
 20
19.44
 30
0.0
 40
0.5
  1
107.2
100
AcDbAttributeDefinition
  3

  2
J
 70
     8
280
     0
  0
ATTDEF
  5
85
330
6E
100
AcDbEntity
  8
AM_6
100
AcDbText
 10
99.45
 20
18.94
 30
0.0
 40
0.5
  1
67.9
100
AcDbAttributeDefinition
  3

  2
L
 70
     8
280
     0
  0
ATTDEF
  5
86
330
6E
100
AcDbEntity
  8
AM_6
100
AcDbText
 10
99.45
 20
18.44
 30
0.0
 40
0.5
  1
52.4
100
AcDbAttributeDefinition
  3

  2
M
 70
     8
280
     0
  0
ATTDEF
  5
87
330
6E
100
AcDbEntity
  8
AM_6
100
AcDbText
 10
99.45
 20
17.94
 30
0.0
 40
0.5
  1
16.7
100
AcDbAttributeDefinition
  3

  2
R
 70
     8
280
     0
  0
ATTDEF
  5
88
330
6E
100
AcDbEntity
  8
AM_6
100
AcDbText
 10
99.45
 20
17.44
 30
0.0
 40
0.5
  1
30.2
100
AcDbAttributeDefinition
  3

  2
S
 70
     8
280
     0
  0
ATTDEF
  5
89
330
6E
100
AcDbEntity
  8
AM_6
100
AcDbText
 10
99.45
 20
16.94
 30
0.0
 40
0.5
  1
85.7
100
AcDbAttributeDefinition
  3

  2
U
 70
     8
280
     0
  0
ATTDEF
  5
8A
330
6E
100
AcDbEntity
  8
AM_6
100
AcDbText
 10
99.45
 20
16.44
 30
0.0
 40
0.5
  1
171.4
100
AcDbAttributeDefinition
  3

  2
V
 70
     8
280
     0
  0
ATTDEF
  5
8B
330
6E
100
AcDbEntity
  8
AM_6
100
AcDbText
 10
99.45
 20
15.94
 30
0.0
 40
0.5
  1
17.5
100
AcDbAttributeDefinition
  3

  2
W
 70
     8
280
     0
  0
ATTDEF
  5
8C
330
6E
100
AcDbEntity
  8
AM_6
100
AcDbText
 10
99.45
 20
15.44
 30
0.0
 40
0.5
  1
4.8
100
AcDbAttributeDefinition
  3

  2
X
 70
     8
280
     0
  0
ATTDEF
  5
8D
330
6E
100
AcDbEntity
  8
AM_6
100
AcDbText
 10
99.45
 20
14.94
 30
0.0
 40
0.5
  1
29.4
100
AcDbAttributeDefinition
  3

  2
Z
 70
     8
280
     0
  0
ATTDEF
  5
8E
330
6E
100
AcDbEntity
  8
AM_6
100
AcDbText
 10
99.45
 20
14.44
 30
0.0
 40
0.5
  1
baldor
100
AcDbAttributeDefinition
  3

  2
COMPANY
 70
     8
280
     0
  0
INSERT
  5
90
330
6E
100
AcDbEntity
  8
0
100
AcDbBlockReference
  2
2_129522_0_in_129044_4
 10
0.0
 20
0.0
 30
0.0
  0
INSERT
  5
DA
330
6E
100
AcDbEntity
  8
0
100
AcDbBlockReference
  2
3_129948_0_in_129044_4
 10
0.0
 20
0.0
 30
0.0
  0
INSERT
  5
133
330
6E
100
AcDbEntity
  8
0
100
AcDbBlockReference
  2
4_129438_0_in_129044_4
 10
0.0
 20
0.0
 30
0.0
  0
ENDBLK
  5
71
330
6E
100
AcDbEntity
  8
0
100
AcDbBlockEnd
  0
BLOCK
  5
91
330
8F
100
AcDbEntity
  8
0
100
AcDbBlockBegin
  2
2_129522_0_in_129044_4
 70
     2
 10
0.0
 20
0.0
 30
0.0
  3
2_129522_0_in_129044_4
  1

  0
ATTDEF
  5
93
330
8F
100
AcDbEntity
  8
AM_6
100
AcDbText
 10
47.49605175065157
 20
14.13
 30
0.0
 40
0.5
  1
INS-GT-M B
100
AcDbAttributeDefinition
  3

  2
NN
 70
     8
280
     0
  0
ATTDEF
  5
94
330
8F
100
AcDbEntity
  8
AM_6
100
AcDbText
 10
47.49605175065157
 20
13.63
 30
0.0
 40
0.5
  1
GT Normal Duty Bearing Inserts
100
AcDbAttributeDefinition
  3

  2
NT
 70
     8
280
     0
  0
ATTDEF
  5
95
330
8F
100
AcDbEntity
  8
AM_6
100
AcDbText
 10
47.49605175065157
 20
13.13
 30
0.0
 40
0.5
  1
129522
100
AcDbAttributeDefinition
  3

  2
NB
 70
     8
280
     0
  0
ATTDEF
  5
96
330
8F
100
AcDbEntity
  8
AM_6
100
AcDbText
 10
47.49605175065157
 20
12.63
 30
0.0
 40
0.5
  1
$PN.
100
AcDbAttributeDefinition
  3

  2
NBSYN
 70
     8
280
     0
  0
ATTDEF
  5
97
330
8F
100
AcDbEntity
  8
AM_6
100
AcDbText
 10
47.49605175065157
 20
12.13
 30
0.0
 40
0.5
  1
129522
100
AcDbAttributeDefinition
  3

  2
LINA
 70
     8
280
     0
  0
ATTDEF
  5
98
330
8F
100
AcDbEntity
  8
AM_6
100
AcDbText
 10
47.49605175065157
 20
11.63
 30
0.0
 40
0.5
  1
209
100
AcDbAttributeDefinition
  3

  2
SERIES
 70
     8
280
     0
  0
ATTDEF
  5
99
330
8F
100
AcDbEntity
  8
AM_6
100
AcDbText
 10
47.49605175065157
 20
11.13
 30
0.0
 40
0.5
  1
129522
100
AcDbAttributeDefinition
  3

  2
PN
 70
     8
280
     0
  0
ATTDEF
  5
9A
330
8F
100
AcDbEntity
  8
AM_6
100
AcDbText
 10
47.49605175065157
 20
10.63
 30
0.0
 40
0.5
  1
INS-GT-09
100
AcDbAttributeDefinition
  3

  2
DESCRIPTION
 70
     8
280
     0
  0
ATTDEF
  5
9B
330
8F
100
AcDbEntity
  8
AM_6
100
AcDbText
 10
47.49605175065157
 20
10.13
 30
0.0
 40
0.5
  1
47.0
100
AcDbAttributeDefinition
  3

  2
A
 70
     8
280
     0
  0
ATTDEF
  5
9C
330
8F
100
AcDbEntity
  8
AM_6
100
AcDbText
 10
47.49605175065157
 20
9.629999999999999
 30
0.0
 40
0.5
  1
22.1
100
AcDbAttributeDefinition
  3

  2
C
 70
     8
280
     0
  0
ATTDEF
  5
9D
330
8F
100
AcDbEntity
  8
AM_6
100
AcDbText
 10
47.49605175065157
 20
9.129999999999999
 30
0.0
 40
0.5
  1
85.0
100
AcDbAttributeDefinition
  3

  2
D
 70
     8
280
     0
  0
ATTDEF
  5
9E
330
8F
100
AcDbEntity
  8
AM_6
100
AcDbText
 10
47.49605175065157
 20
8.629999999999999
 30
0.0
 40
0.5
  1
6.4
100
AcDbAttributeDefinition
  3

  2
J
 70
     8
280
     0
  0
ATTDEF
  5
9F
330
8F
100
AcDbEntity
  8
AM_6
100
AcDbText
 10
47.49605175065157
 20
8.129999999999999
 30
0.0
 40
0.5
  1
72.6
100
AcDbAttributeDefinition
  3

  2
L
 70
     8
280
     0
  0
ATTDEF
  5
A0
330
8F
100
AcDbEntity
  8
AM_6
100
AcDbText
 10
47.49605175065157
 20
7.629999999999999
 30
0.0
 40
0.5
  1
#10 - 32 x 1/4
100
AcDbAttributeDefinition
  3

  2
N
 70
     8
280
     0
  0
ATTDEF
  5
A1
330
8F
100
AcDbEntity
  8
AM_6
100
AcDbText
 10
47.49605175065157
 20
7.129999999999999
 30
0.0
 40
0.5
  1
15.7
100
AcDbAttributeDefinition
  3

  2
W
 70
     8
280
     0
  0
ATTDEF
  5
A2
330
8F
100
AcDbEntity
  8
AM_6
100
AcDbText
 10
47.49605175065157
 20
6.629999999999999
 30
0.0
 40
0.5
  1
32.0
100
AcDbAttributeDefinition
  3

  2
X
 70
     8
280
     0
  0
ATTDEF
  5
A3
330
8F
100
AcDbEntity
  8
AM_6
100
AcDbText
 10
47.49605175065157
 20
6.129999999999999
 30
0.0
 40
0.5
  1
31.2
100
AcDbAttributeDefinition
  3

  2
Y
 70
     8
280
     0
  0
ATTDEF
  5
A4
330
8F
100
AcDbEntity
  8
AM_6
100
AcDbText
 10
47.49605175065157
 20
5.629999999999999
 30
0.0
 40
0.5
  1
baldor
100
AcDbAttributeDefinition
  3

  2
COMPANY
 70
     8
280
     0
  0
LINE
  5
A7
330
8F
100
AcDbEntity
  8
AM_9
100
AcDbLine
 10
27.08095238095238
 20
-24.0
 30
0.0
 11
27.08095238095238
 21
-12.00000000000007
 31
0.0
  0
LINE
  5
A8
330
8F
100
AcDbEntity
  8
AM_9
100
AcDbLine
 10
-27.08095238095238
 20
-12.00000000000007
 30
0.0
 11
-27.08095238095238
 21
-24.0
 31
0.0
  0
LINE
  5
A9
330
8F
100
AcDbEntity
  8
AM_9
100
AcDbLine
 10
-27.08095238095238
 20
-12.00000000000007
 30
0.0
 11
27.08095238095238
 21
-12.00000000000007
 31
0.0
  0
LINE
  5
AA
330
8F
100
AcDbEntity
  8
AM_9
100
AcDbLine
 10
27.08095238095238
 20
-12.00000000000007
 30
0.0
 11
27.99343208777175
 21
14.13
 31
0.0
  0
LINE
  5
AB
330
8F
100
AcDbEntity
  8
AM_9
100
AcDbLine
 10
-27.99343208777175
 20
14.13
 30
0.0
 11
-27.08095238095238
 21
-12.00000000000007
 31
0.0
  0
LINE
  5
AC
330
8F
100
AcDbEntity
  8
AM_9
100
AcDbLine
 10
29.67380952380953
 20
-20.0
 30
0.0
 11
29.67380952380953
 21
-16.0
 31
0.0
  0
LINE
  5
AD
330
8F
100
AcDbEntity
  8
AM_9
100
AcDbLine
 10
-29.67380952380953
 20
-16.0
 30
0.0
 11
-29.67380952380953
 21
-20.0
 31
0.0
  0
LINE
  5
AE
330
8F
100
AcDbEntity
  8
AM_9
100
AcDbLine
 10
31.38266666666666
 20
-24.0
 30
0.0
 11
32.26666666666667
 21
-23.116
 31
0.0
  0
LINE
  5
AF
330
8F
100
AcDbEntity
  8
AM_9
100
AcDbLine
 10
-32.26666666666667
 20
-23.116
 30
0.0
 11
-31.38266666666666
 21
-24.0
 31
0.0
  0
LINE
  5
B0
330
8F
100
AcDbEntity
  8
AM_9
100
AcDbLine
 10
-31.38266666666666
 20
-24.0
 30
0.0
 11
31.38266666666666
 21
-24.0
 31
0.0
  0
LINE
  5
B1
330
8F
100
AcDbEntity
  8
AM_9
100
AcDbLine
 10
-31.38266666666666
 20
14.13
 30
0.0
 11
31.38266666666666
 21
14.13
 31
0.0
  0
LINE
  5
B2
330
8F
100
AcDbEntity
  8
AM_9
100
AcDbLine
 10
-31.38266666666666
 20
14.13
 30
0.0
 11
-32.26666666666667
 21
13.246
 31
0.0
  0
LINE
  5
B3
330
8F
100
AcDbEntity
  8
AM_9
100
AcDbLine
 10
32.26666666666667
 20
13.246
 30
0.0
 11
31.38266666666666
 21
14.13
 31
0.0
  0
LINE
  5
B4
330
8F
100
AcDbEntity
  8
AM_9
100
AcDbLine
 10
-14.17379503278852
 20
-23.11599999999999
 30
0.0
 11
32.26666666666667
 21
-23.116
 31
0.0
  0
LINE
  5
B5
330
8F
100
AcDbEntity
  8
AM_9
100
AcDbLine
 10
-14.1737950327885
 20
-19.99999999999999
 30
0.0
 11
32.26666666666667
 21
-20.0
 31
0.0
  0
LINE
  5
B6
330
8F
100
AcDbEntity
  8
AM_9
100
AcDbLine
 10
32.26666666666667
 20
-23.116
 30
0.0
 11
32.26666666666667
 21
-20.0
 31
0.0
  0
LINE
  5
B7
330
8F
100
AcDbEntity
  8
AM_9
100
AcDbLine
 10
-32.26666666666667
 20
-20.0
 30
0.0
 11
-32.26666666666667
 21
-23.116
 31
0.0
  0
LINE
  5
B8
330
8F
100
AcDbEntity
  8
AM_9
100
AcDbLine
 10
-32.26666666666667
 20
-23.116
 30
0.0
 11
-18.78425043084362
 21
-23.116
 31
0.0
  0
LINE
  5
B9
330
8F
100
AcDbEntity
  8
AM_9
100
AcDbLine
 10
-32.26666666666667
 20
-20.0
 30
0.0
 11
-18.78425043084362
 21
-20.0
 31
0.0
  0
LINE
  5
BA
330
8F
100
AcDbEntity
  8
AM_9
100
AcDbLine
 10
-32.26666666666667
 20
13.246
 30
0.0
 11
32.26666666666667
 21
13.246
 31
0.0
  0
LINE
  5
BB
330
8F
100
AcDbEntity
  8
AM_9
100
AcDbLine
 10
32.26666666666667
 20
11.05
 30
0.0
 11
32.26666666666667
 21
13.246
 31
0.0
  0
LINE
  5
BC
330
8F
100
AcDbEntity
  8
AM_9
100
AcDbLine
 10
-32.26666666666667
 20
13.246
 30
0.0
 11
-32.26666666666667
 21
11.05
 31
0.0
  0
LINE
  5
BD
330
8F
100
AcDbEntity
  8
AM_9
100
AcDbLine
 10
32.26666666666667
 20
-16.0
 30
0.0
 11
32.26666666666667
 21
-11.05
 31
0.0
  0
LINE
  5
BE
330
8F
100
AcDbEntity
  8
AM_9
100
AcDbLine
 10
-32.26666666666667
 20
-11.05
 30
0.0
 11
-32.26666666666667
 21
-16.0
 31
0.0
  0
LINE
  5
BF
330
8F
100
AcDbEntity
  8
AM_9
100
AcDbLine
 10
-32.26666666666667
 20
-16.0
 30
0.0
 11
32.26666666666667
 21
-16.0
 31
0.0
  0
LINE
  5
C0
330
8F
100
AcDbEntity
  8
AM_9
100
AcDbLine
 10
40.29
 20
-7.680000000000001
 30
0.0
 11
40.29
 21
-5.120000000000001
 31
0.0
  0
LINE
  5
C1
330
8F
100
AcDbEntity
  8
AM_9
100
AcDbLine
 10
-40.29
 20
-5.120000000000001
 30
0.0
 11
-40.29
 21
-7.680000000000001
 31
0.0
  0
LINE
  5
C2
330
8F
100
AcDbEntity
  8
AM_9
100
AcDbLine
 10
-39.69396884512427
 20
-11.05
 30
0.0
 11
39.69396884512427
 21
-11.05
 31
0.0
  0
ARC
  5
C3
330
8F
100
AcDbEntity
  8
AM_9
100
AcDbCircle
 10
39.69396883195164
 20
-10.16600000000002
 30
0.0
 40
0.8839999999999755
100
AcDbArc
 50
270.0
 51
338.5875329531169
  0
ARC
  5
C4
330
8F
100
AcDbEntity
  8
AM_9
100
AcDbCircle
 10
-39.69396883195164
 20
-10.16600000000002
 30
0.0
 40
0.8839999999999762
100
AcDbArc
 50
201.4124670468831
 51
270.0
  0
LINE
  5
C5
330
8F
100
AcDbEntity
  8
AM_9
100
AcDbLine
 10
-39.69396883195164
 20
11.05
 30
0.0
 11
39.69396883195164
 21
11.05
 31
0.0
  0
ARC
  5
C6
330
8F
100
AcDbEntity
  8
AM_9
100
AcDbCircle
 10
39.69396883195164
 20
10.16600000000001
 30
0.0
 40
0.8839999999999884
100
AcDbArc
 50
21.41246175693929
 51
90.0
  0
ARC
  5
C7
330
8F
100
AcDbEntity
  8
AM_9
100
AcDbCircle
 10
-39.69396883195164
 20
10.16600000000001
 30
0.0
 40
0.8839999999999861
100
AcDbArc
 50
90.0
 51
158.5875382430607
  0
LINE
  5
C8
330
8F
100
AcDbEntity
  8
AM_9
100
AcDbLine
 10
-40.5169519694739
 20
-10.48873015873016
 30
0.0
 11
40.5169519694739
 21
-10.48873015873016
 31
0.0
  0
ARC
  5
C9
330
8F
100
AcDbEntity
  8
AM_9
100
AcDbCircle
 10
13.77000000001417
 20
-0.0000000000048299
 30
0.0
 40
28.72999999998503
100
AcDbArc
 50
338.5875329531146
 51
343.9103822016727
  0
ARC
  5
CA
330
8F
100
AcDbEntity
  8
AM_9
100
AcDbCircle
 10
-13.77000000001405
 20
-0.0000000000047891
 30
0.0
 40
28.72999999998516
100
AcDbArc
 50
196.0896177983273
 51
201.4124670468854
  0
LINE
  5
CB
330
8F
100
AcDbEntity
  8
AM_9
100
AcDbLine
 10
-41.37462834017024
 20
-7.962248062015507
 30
0.0
 11
41.37462834017024
 21
-7.962248062015507
 31
0.0
  0
LINE
  5
CC
330
8F
100
AcDbEntity
  8
AM_9
100
AcDbLine
 10
-41.16228504524585
 20
-7.680000000000001
 30
0.0
 11
41.16228504524585
 21
-7.680000000000001
 31
0.0
  0
ARC
  5
CD
330
8F
100
AcDbEntity
  8
AM_9
100
AcDbCircle
 10
41.16228504524587
 20
-7.900999999999988
 30
0.0
 40
0.2209999999999917
100
AcDbArc
 50
343.9103822016666
 51
90.0
  0
ARC
  5
CE
330
8F
100
AcDbEntity
  8
AM_9
100
AcDbCircle
 10
-41.16228504524587
 20
-7.900999999999988
 30
0.0
 40
0.2209999999999868
100
AcDbArc
 50
90.0
 51
196.0896177983334
  0
LINE
  5
CF
330
8F
100
AcDbEntity
  8
AM_9
100
AcDbLine
 10
-41.85492264543431
 20
-5.120000000000001
 30
0.0
 11
41.85492264543431
 21
-5.120000000000001
 31
0.0
  0
ARC
  5
D0
330
8F
100
AcDbEntity
  8
AM_9
100
AcDbCircle
 10
41.85492264543431
 20
-4.898999999999993
 30
0.0
 40
0.2210000000000081
100
AcDbArc
 50
270.0
 51
350.1052784005647
  0
ARC
  5
D1
330
8F
100
AcDbEntity
  8
AM_9
100
AcDbCircle
 10
-41.85492264543431
 20
-4.898999999999993
 30
0.0
 40
0.221000000000008
100
AcDbArc
 50
189.8947215994353
 51
270.0
  0
LINE
  5
D2
330
8F
100
AcDbEntity
  8
AM_9
100
AcDbLine
 10
-42.07263530602049
 20
-4.936976274441943
 30
0.0
 11
42.07263530602049
 21
-4.936976274441943
 31
0.0
  0
LINE
  5
D3
330
8F
100
AcDbEntity
  8
AM_9
100
AcDbLine
 10
-40.5169519992706
 20
10.48873008274664
 30
0.0
 11
40.5169519992706
 21
10.48873008274664
 31
0.0
  0
ARC
  5
D4
330
8F
100
AcDbEntity
  8
AM_9
100
AcDbCircle
 10
13.7700000000003
 20
0.0000000000000056
 30
0.0
 40
28.72999999999971
100
AcDbArc
 50
350.105155728205
 51
21.41246688411677
  0
ARC
  5
D5
330
8F
100
AcDbEntity
  8
AM_9
100
AcDbCircle
 10
-13.77000000000027
 20
0.0000000000000027
 30
0.0
 40
28.72999999999974
100
AcDbArc
 50
158.5875331158833
 51
189.894844271795
  0
LINE
  5
D7
330
8F
100
AcDbEntity
  8
AM_4
100
AcDbLine
 10
-18.78425043084362
 20
-23.116
 30
0.0
 11
-14.17379503278852
 21
-23.11599999999999
 31
0.0
  0
LINE
  5
D8
330
8F
100
AcDbEntity
  8
AM_4
100
AcDbLine
 10
-18.78425043084362
 20
-20.0
 30
0.0
 11
-14.1737950327885
 21
-19.99999999999999
 31
0.0
  0
ENDBLK
  5
92
330
8F
100
AcDbEntity
  8
0
100
AcDbBlockEnd
  0
BLOCK
  5
DB
330
D9
100
AcDbEntity
  8
0
100
AcDbBlockBegin
  2
3_129948_0_in_129044_4
 70
     2
 10
0.0
 20
0.0
 30
0.0
  3
3_129948_0_in_129044_4
  1

  0
ATTDEF
  5
DD
330
D9
100
AcDbEntity
  8
AM_6
100
AcDbText
 10
38.80355010941899
 20
16.7
 30
0.0
 40
0.5
  1
Grip Tight Normal Duty Adapter and Nut Metric Bore
100
AcDbAttributeDefinition
  3

  2
NN
 70
     8
280
     0
  0
ATTDEF
  5
DE
330
D9
100
AcDbEntity
  8
AM_6
100
AcDbText
 10
38.80355010941899
 20
16.2
 30
0.0
 40
0.5
  1
GT and GTM Adapter & Lock Nut Assemblies
100
AcDbAttributeDefinition
  3

  2
NT
 70
     8
280
     0
  0
ATTDEF
  5
DF
330
D9
100
AcDbEntity
  8
AM_6
100
AcDbText
 10
38.80355010941899
 20
15.7
 30
0.0
 40
0.5
  1
129948
100
AcDbAttributeDefinition
  3

  2
NB
 70
     8
280
     0
  0
ATTDEF
  5
E0
330
D9
100
AcDbEntity
  8
AM_6
100
AcDbText
 10
38.80355010941899
 20
15.2
 30
0.0
 40
0.5
  1
$PN.
100
AcDbAttributeDefinition
  3

  2
NBSYN
 70
     8
280
     0
  0
ATTDEF
  5
E1
330
D9
100
AcDbEntity
  8
AM_6
100
AcDbText
 10
38.80355010941899
 20
14.7
 30
0.0
 40
0.5
  1
129948
100
AcDbAttributeDefinition
  3

  2
LINA
 70
     8
280
     0
  0
ATTDEF
  5
E2
330
D9
100
AcDbEntity
  8
AM_6
100
AcDbText
 10
38.80355010941899
 20
14.2
 30
0.0
 40
0.5
  1
209
100
AcDbAttributeDefinition
  3

  2
SERIES
 70
     8
280
     0
  0
ATTDEF
  5
E3
330
D9
100
AcDbEntity
  8
AM_6
100
AcDbText
 10
38.80355010941899
 20
13.7
 30
0.0
 40
0.5
  1
45
100
AcDbAttributeDefinition
  3

  2
SS
 70
     8
280
     0
  0
ATTDEF
  5
E4
330
D9
100
AcDbEntity
  8
AM_6
100
AcDbText
 10
38.80355010941899
 20
13.2
 30
0.0
 40
0.5
  1
129948
100
AcDbAttributeDefinition
  3

  2
PN
 70
     8
280
     0
  0
ATTDEF
  5
E5
330
D9
100
AcDbEntity
  8
AM_6
100
AcDbText
 10
38.80355010941899
 20
12.7
 30
0.0
 40
0.5
  1
AN-GT-09-45M
100
AcDbAttributeDefinition
  3

  2
DESCRIPTION
 70
     8
280
     0
  0
ATTDEF
  5
E6
330
D9
100
AcDbEntity
  8
AM_6
100
AcDbText
 10
38.80355010941899
 20
12.2
 30
0.0
 40
0.5
  1
46.8
100
AcDbAttributeDefinition
  3

  2
A
 70
     8
280
     0
  0
ATTDEF
  5
E7
330
D9
100
AcDbEntity
  8
AM_6
100
AcDbText
 10
38.80355010941899
 20
11.7
 30
0.0
 40
0.5
  1
22.0
100
AcDbAttributeDefinition
  3

  2
C
 70
     8
280
     0
  0
ATTDEF
  5
E8
330
D9
100
AcDbEntity
  8
AM_6
100
AcDbText
 10
38.80355010941899
 20
11.2
 30
0.0
 40
0.5
  1
85.0
100
AcDbAttributeDefinition
  3

  2
D
 70
     8
280
     0
  0
ATTDEF
  5
E9
330
D9
100
AcDbEntity
  8
AM_6
100
AcDbText
 10
38.80355010941899
 20
10.7
 30
0.0
 40
0.5
  1
6.3
100
AcDbAttributeDefinition
  3

  2
J
 70
     8
280
     0
  0
ATTDEF
  5
EA
330
D9
100
AcDbEntity
  8
AM_6
100
AcDbText
 10
38.80355010941899
 20
10.2
 30
0.0
 40
0.5
  1
67.9
100
AcDbAttributeDefinition
  3

  2
L
 70
     8
280
     0
  0
ATTDEF
  5
EB
330
D9
100
AcDbEntity
  8
AM_6
100
AcDbText
 10
38.80355010941899
 20
9.7
 30
0.0
 40
0.5
  1
10 - 32 x 1/4
100
AcDbAttributeDefinition
  3

  2
N
 70
     8
280
     0
  0
ATTDEF
  5
EC
330
D9
100
AcDbEntity
  8
AM_6
100
AcDbText
 10
38.80355010941899
 20
9.2
 30
0.0
 40
0.5
  1
16.7
100
AcDbAttributeDefinition
  3

  2
W
 70
     8
280
     0
  0
ATTDEF
  5
ED
330
D9
100
AcDbEntity
  8
AM_6
100
AcDbText
 10
38.80355010941899
 20
8.7
 30
0.0
 40
0.5
  1
29.4
100
AcDbAttributeDefinition
  3

  2
X
 70
     8
280
     0
  0
ATTDEF
  5
EE
330
D9
100
AcDbEntity
  8
AM_6
100
AcDbText
 10
38.80355010941899
 20
8.2
 30
0.0
 40
0.5
  1
30.2
100
AcDbAttributeDefinition
  3

  2
Y
 70
     8
280
     0
  0
ATTDEF
  5
EF
330
D9
100
AcDbEntity
  8
AM_6
100
AcDbText
 10
38.80355010941899
 20
7.699999999999999
 30
0.0
 40
0.5
  1
baldor
100
AcDbAttributeDefinition
  3

  2
COMPANY
 70
     8
280
     0
  0
LINE
  5
F0
330
D9
100
AcDbEntity
  8
AM_9
100
AcDbLine
 10
-33.51820000000001
 20
-28.41453333333333
 30
0.0
 11
-25.8943
 21
-28.41453333333333
 31
0.0
  0
LINE
  5
F1
330
D9
100
AcDbEntity
  8
AM_9
100
AcDbLine
 10
-25.8943
 20
-24.45213333333333
 30
0.0
 11
-33.51820000000001
 21
-24.45213333333333
 31
0.0
  0
LINE
  5
F2
330
D9
100
AcDbEntity
  8
AM_9
100
AcDbLine
 10
-25.8943
 20
-28.41453333333333
 30
0.0
 11
-25.4625
 21
-28.84633333333333
 31
0.0
  0
LINE
  5
F3
330
D9
100
AcDbEntity
  8
AM_9
100
AcDbLine
 10
-25.4625
 20
-24.02033333333333
 30
0.0
 11
-25.8943
 21
-24.45213333333333
 31
0.0
  0
LINE
  5
F4
330
D9
100
AcDbEntity
  8
AM_9
100
AcDbLine
 10
-25.4625
 20
-24.02033333333333
 30
0.0
 11
-25.4625
 21
-28.84633333333333
 31
0.0
  0
LINE
  5
F5
330
D9
100
AcDbEntity
  8
AM_9
100
AcDbLine
 10
-25.8943
 20
-24.45213333333333
 30
0.0
 11
-25.8943
 21
-28.41453333333333
 31
0.0
  0
LINE
  5
F6
330
D9
100
AcDbEntity
  8
AM_9
100
AcDbLine
 10
-33.51820000000001
 20
-24.45213333333333
 30
0.0
 11
-33.9492417056672
 21
-24.02109162766613
 31
0.0
  0
LINE
  5
F7
330
D9
100
AcDbEntity
  8
AM_9
100
AcDbLine
 10
-33.78673154047181
 20
-28.68306487380514
 30
0.0
 11
-33.51820000000001
 21
-28.41453333333333
 31
0.0
  0
LINE
  5
F8
330
D9
100
AcDbEntity
  8
AM_9
100
AcDbLine
 10
-33.51820000000001
 20
-24.45213333333333
 30
0.0
 11
-33.51820000000001
 21
-28.41453333333333
 31
0.0
  0
LINE
  5
F9
330
D9
100
AcDbEntity
  8
AM_9
100
AcDbLine
 10
31.68665912219708
 20
-14.7
 30
0.0
 11
31.68665912219708
 21
-29.4
 31
0.0
  0
LINE
  5
FA
330
D9
100
AcDbEntity
  8
AM_9
100
AcDbLine
 10
22.5
 20
-30.09999999999999
 30
0.0
 11
22.5
 21
16.7
 31
0.0
  0
LINE
  5
FB
330
D9
100
AcDbEntity
  8
AM_9
100
AcDbLine
 10
-22.5
 20
16.7
 30
0.0
 11
-22.5
 21
-30.09999999999999
 31
0.0
  0
LINE
  5
FC
330
D9
100
AcDbEntity
  8
AM_9
100
AcDbLine
 10
25.32777777777777
 20
-22.04999999999999
 30
0.0
 11
25.32777777777777
 21
-11.02500000000029
 31
0.0
  0
LINE
  5
FD
330
D9
100
AcDbEntity
  8
AM_9
100
AcDbLine
 10
-25.32777777777777
 20
-11.02500000000029
 30
0.0
 11
-25.32777777777777
 21
-22.04999999999999
 31
0.0
  0
LINE
  5
FE
330
D9
100
AcDbEntity
  8
AM_9
100
AcDbLine
 10
-1.25
 20
16.7
 30
0.0
 11
-1.250000000000001
 21
-29.4
 31
0.0
  0
LINE
  5
FF
330
D9
100
AcDbEntity
  8
AM_9
100
AcDbLine
 10
1.25
 20
16.7
 30
0.0
 11
1.25
 21
-29.4
 31
0.0
  0
LINE
  5
100
330
D9
100
AcDbEntity
  8
AM_9
100
AcDbLine
 10
-25.32777777777777
 20
-11.02500000000029
 30
0.0
 11
25.32777777777777
 21
-11.02500000000029
 31
0.0
  0
LINE
  5
101
330
D9
100
AcDbEntity
  8
AM_9
100
AcDbLine
 10
25.32777777777777
 20
-11.02500000000029
 30
0.0
 11
26.29595611193648
 21
16.7
 31
0.0
  0
LINE
  5
102
330
D9
100
AcDbEntity
  8
AM_9
100
AcDbLine
 10
-26.29595611193648
 20
16.7
 30
0.0
 11
-25.32777777777777
 21
-11.02500000000029
 31
0.0
  0
LINE
  5
103
330
D9
100
AcDbEntity
  8
AM_9
100
AcDbLine
 10
-26.29595611193648
 20
16.7
 30
0.0
 11
26.29595611193648
 21
16.7
 31
0.0
  0
LINE
  5
104
330
D9
100
AcDbEntity
  8
AM_9
100
AcDbLine
 10
-33.07
 20
-14.7
 30
0.0
 11
-33.95
 21
-15.58
 31
0.0
  0
LINE
  5
105
330
D9
100
AcDbEntity
  8
AM_9
100
AcDbLine
 10
-19.18779776088761
 20
-14.7
 30
0.0
 11
-19.62975507663048
 21
-15.58
 31
0.0
  0
LINE
  5
106
330
D9
100
AcDbEntity
  8
AM_9
100
AcDbLine
 10
-19.62975507663048
 20
-15.58
 30
0.0
 11
-19.62975507663048
 21
-18.54783996688689
 31
0.0
  0
LINE
  5
107
330
D9
100
AcDbEntity
  8
AM_9
100
AcDbLine
 10
-33.95
 20
-15.58
 30
0.0
 11
-33.95
 21
-19.69264257251194
 31
0.0
  0
LINE
  5
108
330
D9
100
AcDbEntity
  8
AM_9
100
AcDbLine
 10
-33.95
 20
-15.58
 30
0.0
 11
-19.62975507663048
 21
-15.58
 31
0.0
  0
LINE
  5
109
330
D9
100
AcDbEntity
  8
AM_9
100
AcDbLine
 10
27.75277777777777
 20
-18.375
 30
0.0
 11
27.75277777777777
 21
-14.7
 31
0.0
  0
LINE
  5
10A
330
D9
100
AcDbEntity
  8
AM_9
100
AcDbLine
 10
-27.75277777777777
 20
-14.7
 30
0.0
 11
-27.75277777777777
 21
-18.375
 31
0.0
  0
LINE
  5
10B
330
D9
100
AcDbEntity
  8
AM_9
100
AcDbLine
 10
-13.11534953917757
 20
-14.7
 30
0.0
 11
-13.11534953917757
 21
-29.39999999999999
 31
0.0
  0
LINE
  5
10C
330
D9
100
AcDbEntity
  8
AM_9
100
AcDbLine
 10
-18.57130958301953
 20
-20.0
 30
0.0
 11
-18.57130958301953
 21
-23.53982027495232
 31
0.0
  0
LINE
  5
10D
330
D9
100
AcDbEntity
  8
AM_9
100
AcDbLine
 10
-18.57130958301953
 20
-14.7
 30
0.0
 11
-18.57130958301953
 21
-18.4975719620436
 31
0.0
  0
LINE
  5
10E
330
D9
100
AcDbEntity
  8
AM_9
100
AcDbLine
 10
-30.51727777777778
 20
-18.375
 30
0.0
 11
30.51727777777778
 21
-18.375
 31
0.0
  0
LINE
  5
10F
330
D9
100
AcDbEntity
  8
AM_9
100
AcDbLine
 10
-30.51727777777778
 20
-22.04999999999999
 30
0.0
 11
30.51727777777778
 21
-22.04999999999999
 31
0.0
  0
LINE
  5
110
330
D9
100
AcDbEntity
  8
AM_9
100
AcDbLine
 10
30.51727777777778
 20
-22.04999999999999
 30
0.0
 11
30.51727777777778
 21
-18.375
 31
0.0
  0
LINE
  5
111
330
D9
100
AcDbEntity
  8
AM_9
100
AcDbLine
 10
-30.51727777777778
 20
-18.375
 30
0.0
 11
-30.51727777777778
 21
-22.04999999999999
 31
0.0
  0
LINE
  5
112
330
D9
100
AcDbEntity
  8
AM_9
100
AcDbLine
 10
33.80355010941898
 20
-15.58
 30
0.0
 11
33.80355010941898
 21
-19.67439519474224
 31
0.0
  0
LINE
  5
113
330
D9
100
AcDbEntity
  8
AM_9
100
AcDbLine
 10
-14.17379503278852
 20
-18.32397499920236
 30
0.0
 11
-14.17379503278852
 21
-15.58
 31
0.0
  0
LINE
  5
114
330
D9
100
AcDbEntity
  8
AM_9
100
AcDbLine
 10
32.91963547793323
 20
-14.7
 30
0.0
 11
33.80355010941898
 21
-15.58
 31
0.0
  0
LINE
  5
115
330
D9
100
AcDbEntity
  8
AM_9
100
AcDbLine
 10
-33.07
 20
-14.7
 30
0.0
 11
32.91963547793323
 21
-14.7
 31
0.0
  0
LINE
  5
116
330
D9
100
AcDbEntity
  8
AM_9
100
AcDbLine
 10
-14.17379503278852
 20
-15.58
 30
0.0
 11
-13.73183771704565
 21
-14.69999999999999
 31
0.0
  0
LINE
  5
117
330
D9
100
AcDbEntity
  8
AM_9
100
AcDbLine
 10
-14.17379503278852
 20
-15.58
 30
0.0
 11
33.80355010941898
 21
-15.58
 31
0.0
  0
LINE
  5
119
330
D9
100
AcDbEntity
  8
AM_5
100
AcDbLine
 10
-33.62366666666667
 20
-28.84633333333333
 30
0.0
 11
-25.4625
 21
-28.84633333333333
 31
0.0
  0
LINE
  5
11A
330
D9
100
AcDbEntity
  8
AM_5
100
AcDbLine
 10
-33.95
 20
-24.02033333333333
 30
0.0
 11
-25.46250000000001
 21
-24.02033333333333
 31
0.0
  0
LINE
  5
11D
330
D9
100
AcDbEntity
  8
AM_7
100
AcDbLine
 10
-25.038125
 20
-26.43333333333333
 30
0.0
 11
-34.374375
 21
-26.43333333333333
 31
0.0
  0
LINE
  5
11E
330
D9
100
AcDbEntity
  8
AM_4
100
AcDbLine
 10
-1.25
 20
-30.1
 30
0.0
 11
-1.250000000000001
 21
-29.4
 31
0.0
  0
LINE
  5
11F
330
D9
100
AcDbEntity
  8
AM_4
100
AcDbLine
 10
1.25
 20
-30.1
 30
0.0
 11
1.250000000000001
 21
-29.4
 31
0.0
  0
LINE
  5
120
330
D9
100
AcDbEntity
  8
AM_4
100
AcDbLine
 10
25.32777777777777
 20
-30.09999999999999
 30
0.0
 11
25.32777777777777
 21
-29.4
 31
0.0
  0
LINE
  5
121
330
D9
100
AcDbEntity
  8
AM_4
100
AcDbLine
 10
-25.32777777777777
 20
-29.4
 30
0.0
 11
-25.32777777777777
 21
-30.09999999999999
 31
0.0
  0
LINE
  5
122
330
D9
100
AcDbEntity
  8
AM_4
100
AcDbLine
 10
-25.32777777777777
 20
-30.09999999999999
 30
0.0
 11
25.32777777777777
 21
-30.09999999999999
 31
0.0
  0
LINE
  5
123
330
D9
100
AcDbEntity
  8
AM_4
100
AcDbLine
 10
-19.62975507663048
 20
-18.54783996688689
 30
0.0
 11
-19.62975507663048
 21
-28.52
 31
0.0
  0
LINE
  5
124
330
D9
100
AcDbEntity
  8
AM_4
100
AcDbLine
 10
-33.95
 20
-19.69264257251194
 30
0.0
 11
-33.95
 21
-24.02175993710152
 31
0.0
  0
LWPOLYLINE
  5
125
330
D9
100
AcDbEntity
  8
AM_4
100
AcDbPolyline
 90
       16
 70
     0
 43
0.0
 10
-33.95
 20
-24.02033333333338
 10
-33.94796434130424
 20
-24.05120571846777
 10
-33.94206415625241
 20
-24.14301615380451
 10
-33.93263594872852
 20
-24.2978347901863
 10
-33.9210444730728
 20
-24.50501121455459
 10
-33.90802684310801
 20
-24.76793467725357
 10
-33.89524246484103
 20
-25.07455841696876
 10
-33.88378636935894
 20
-25.42542213299686
 10
-33.87521773649888
 20
-25.80473260275292
 10
-33.87043931900447
 20
-26.21175102844552
 10
-33.87025476682867
 20
-26.62237242137676
 10
-33.87483192394736
 20
-27.0393003128879
 10
-33.88346545958264
 20
-27.42964237361382
 10
-33.89562538342162
 20
-27.80228688717539
 10
-33.91670125546734
 20
-28.27808315773357
 10
-33.92979804388687
 20
-28.52
  0
LINE
  5
126
330
D9
100
AcDbEntity
  8
AM_4
100
AcDbLine
 10
-33.92979804388686
 20
-28.52
 30
0.0
 11
-19.62975507663048
 21
-28.52
 31
0.0
  0
LINE
  5
127
330
D9
100
AcDbEntity
  8
AM_4
100
AcDbLine
 10
-33.92979804388686
 20
-28.52
 30
0.0
 11
-33.78683333333341
 21
-28.68316666666658
 31
0.0
  0
LINE
  5
128
330
D9
100
AcDbEntity
  8
AM_4
100
AcDbLine
 10
-19.62975507663048
 20
-28.52
 30
0.0
 11
-19.18779776088761
 21
-29.4
 31
0.0
  0
LINE
  5
129
330
D9
100
AcDbEntity
  8
AM_4
100
AcDbLine
 10
-33.78837654115336
 20
-28.68162345884664
 30
0.0
 11
-33.07
 21
-29.4
 31
0.0
  0
LINE
  5
12A
330
D9
100
AcDbEntity
  8
AM_4
100
AcDbLine
 10
-18.57130958301953
 20
-23.53982027495232
 30
0.0
 11
-18.57130958301953
 21
-29.4
 31
0.0
  0
LINE
  5
12B
330
D9
100
AcDbEntity
  8
AM_4
100
AcDbLine
 10
-18.57130958301953
 20
-18.4975719620436
 30
0.0
 11
-18.57130958301953
 21
-20.0
 31
0.0
  0
LINE
  5
12C
330
D9
100
AcDbEntity
  8
AM_4
100
AcDbLine
 10
33.80355010941899
 20
-28.52
 30
0.0
 11
32.91963547793323
 21
-29.4
 31
0.0
  0
LINE
  5
12D
330
D9
100
AcDbEntity
  8
AM_4
100
AcDbLine
 10
-13.73183771704565
 20
-29.4
 30
0.0
 11
-14.17379503278852
 21
-28.51999999999999
 31
0.0
  0
LINE
  5
12E
330
D9
100
AcDbEntity
  8
AM_4
100
AcDbLine
 10
-33.07
 20
-29.4
 30
0.0
 11
32.91963547793323
 21
-29.4
 31
0.0
  0
LINE
  5
12F
330
D9
100
AcDbEntity
  8
AM_4
100
AcDbLine
 10
33.80355010941898
 20
-19.67439519474224
 30
0.0
 11
33.80355010941899
 21
-28.52
 31
0.0
  0
LINE
  5
130
330
D9
100
AcDbEntity
  8
AM_4
100
AcDbLine
 10
-14.17379503278852
 20
-28.51999999999999
 30
0.0
 11
-14.17379503278852
 21
-18.32397499920236
 31
0.0
  0
LINE
  5
131
330
D9
100
AcDbEntity
  8
AM_4
100
AcDbLine
 10
-14.17379503278852
 20
-28.51999999999999
 30
0.0
 11
33.80355010941899
 21
-28.52
 31
0.0
  0
ENDBLK
  5
DC
330
D9
100
AcDbEntity
  8
0
100
AcDbBlockEnd
  0
BLOCK
  5
134
330
132
100
AcDbEntity
  8
0
100
AcDbBlockBegin
  2
4_129438_0_in_129044_4
 70
     2
 10
0.0
 20
0.0
 30
0.0
  3
4_129438_0_in_129044_4
  1

  0
ATTDEF
  5
136
330
132
100
AcDbEntity
  8
AM_6
100
AcDbText
 10
99.45
 20
27.94
 30
0.0
 40
0.5
  1
GTB-M
100
AcDbAttributeDefinition
  3

  2
NN
 70
     8
280
     0
  0
ATTDEF
  5
137
330
132
100
AcDbEntity
  8
AM_6
100
AcDbText
 10
99.45
 20
27.44
 30
0.0
 40
0.5
  1
GTB Normal Duty Pillow Blocks
100
AcDbAttributeDefinition
  3

  2
NT
 70
     8
280
     0
  0
ATTDEF
  5
138
330
132
100
AcDbEntity
  8
AM_6
100
AcDbText
 10
99.45
 20
26.94
 30
0.0
 40
0.5
  1
129438
100
AcDbAttributeDefinition
  3

  2
NB
 70
     8
280
     0
  0
ATTDEF
  5
139
330
132
100
AcDbEntity
  8
AM_6
100
AcDbText
 10
99.45
 20
26.44
 30
0.0
 40
0.5
  1
$PN.$LUBE.
100
AcDbAttributeDefinition
  3

  2
NBSYN
 70
     8
280
     0
  0
ATTDEF
  5
13A
330
132
100
AcDbEntity
  8
AM_6
100
AcDbText
 10
99.45
 20
25.94
 30
0.0
 40
0.5
  1
129438
100
AcDbAttributeDefinition
  3

  2
LINA
 70
     8
280
     0
  0
ATTDEF
  5
13B
330
132
100
AcDbEntity
  8
AM_6
100
AcDbText
 10
99.45
 20
25.44
 30
0.0
 40
0.5
  1
209
100
AcDbAttributeDefinition
  3

  2
SERIES
 70
     8
280
     0
  0
ATTDEF
  5
13C
330
132
100
AcDbEntity
  8
AM_6
100
AcDbText
 10
99.45
 20
24.94
 30
0.0
 40
0.5
  1
129438
100
AcDbAttributeDefinition
  3

  2
PN
 70
     8
280
     0
  0
ATTDEF
  5
13D
330
132
100
AcDbEntity
  8
AM_6
100
AcDbText
 10
99.45
 20
24.44
 30
0.0
 40
0.5
  1
P2B-GTB-09
100
AcDbAttributeDefinition
  3

  2
DESCRIPTION
 70
     8
280
     0
  0
ATTDEF
  5
13E
330
132
100
AcDbEntity
  8
AM_6
100
AcDbText
 10
99.45
 20
23.94
 30
0.0
 40
0.5
  1
46.8
100
AcDbAttributeDefinition
  3

  2
A
 70
     8
280
     0
  0
ATTDEF
  5
13F
330
132
100
AcDbEntity
  8
AM_6
100
AcDbText
 10
99.45
 20
23.44
 30
0.0
 40
0.5
  1
188.9
100
AcDbAttributeDefinition
  3

  2
B
 70
     8
280
     0
  0
ATTDEF
  5
140
330
132
100
AcDbEntity
  8
AM_6
100
AcDbText
 10
99.45
 20
22.94
 30
0.0
 40
0.5
  1
50.8
100
AcDbAttributeDefinition
  3

  2
C
 70
     8
280
     0
  0
ATTDEF
  5
141
330
132
100
AcDbEntity
  8
AM_6
100
AcDbText
 10
99.45
 20
22.44
 30
0.0
 40
0.5
  1
139.7
100
AcDbAttributeDefinition
  3

  2
DMIN
 70
     8
280
     0
  0
ATTDEF
  5
142
330
132
100
AcDbEntity
  8
AM_6
100
AcDbText
 10
99.45
 20
21.94
 30
0.0
 40
0.5
  1
157.2
100
AcDbAttributeDefinition
  3

  2
DMAX
 70
     8
280
     0
  0
ATTDEF
  5
143
330
132
100
AcDbEntity
  8
AM_6
100
AcDbText
 10
99.45
 20
21.44
 30
0.0
 40
0.5
  1
M12
100
AcDbAttributeDefinition
  3

  2
F
 70
     8
280
     0
  0
ATTDEF
  5
144
330
132
100
AcDbEntity
  8
AM_6
100
AcDbText
 10
99.45
 20
20.94
 30
0.0
 40
0.5
  1
23.0
100
AcDbAttributeDefinition
  3

  2
G
 70
     8
280
     0
  0
ATTDEF
  5
145
330
132
100
AcDbEntity
  8
AM_6
100
AcDbText
 10
99.45
 20
20.44
 30
0.0
 40
0.5
  1
17.5
100
AcDbAttributeDefinition
  3

  2
H
 70
     8
280
     0
  0
ATTDEF
  5
146
330
132
100
AcDbEntity
  8
AM_6
100
AcDbText
 10
99.45
 20
19.94
 30
0.0
 40
0.5
  1
107.2
100
AcDbAttributeDefinition
  3

  2
J
 70
     8
280
     0
  0
ATTDEF
  5
147
330
132
100
AcDbEntity
  8
AM_6
100
AcDbText
 10
99.45
 20
19.44
 30
0.0
 40
0.5
  1
67.9
100
AcDbAttributeDefinition
  3

  2
L
 70
     8
280
     0
  0
ATTDEF
  5
148
330
132
100
AcDbEntity
  8
AM_6
100
AcDbText
 10
99.45
 20
18.94
 30
0.0
 40
0.5
  1
52.4
100
AcDbAttributeDefinition
  3

  2
M
 70
     8
280
     0
  0
ATTDEF
  5
149
330
132
100
AcDbEntity
  8
AM_6
100
AcDbText
 10
99.45
 20
18.44
 30
0.0
 40
0.5
  1
16.7
100
AcDbAttributeDefinition
  3

  2
R
 70
     8
280
     0
  0
ATTDEF
  5
14A
330
132
100
AcDbEntity
  8
AM_6
100
AcDbText
 10
99.45
 20
17.94
 30
0.0
 40
0.5
  1
30.2
100
AcDbAttributeDefinition
  3

  2
S
 70
     8
280
     0
  0
ATTDEF
  5
14B
330
132
100
AcDbEntity
  8
AM_6
100
AcDbText
 10
99.45
 20
17.44
 30
0.0
 40
0.5
  1
85.7
100
AcDbAttributeDefinition
  3

  2
U
 70
     8
280
     0
  0
ATTDEF
  5
14C
330
132
100
AcDbEntity
  8
AM_6
100
AcDbText
 10
99.45
 20
16.94
 30
0.0
 40
0.5
  1
171.5
100
AcDbAttributeDefinition
  3

  2
V
 70
     8
280
     0
  0
ATTDEF
  5
14D
330
132
100
AcDbEntity
  8
AM_6
100
AcDbText
 10
99.45
 20
16.44
 30
0.0
 40
0.5
  1
17.5
100
AcDbAttributeDefinition
  3

  2
W
 70
     8
280
     0
  0
ATTDEF
  5
14E
330
132
100
AcDbEntity
  8
AM_6
100
AcDbText
 10
99.45
 20
15.94
 30
0.0
 40
0.5
  1
4.8
100
AcDbAttributeDefinition
  3

  2
X
 70
     8
280
     0
  0
ATTDEF
  5
14F
330
132
100
AcDbEntity
  8
AM_6
100
AcDbText
 10
99.45
 20
15.44
 30
0.0
 40
0.5
  1
29.4
100
AcDbAttributeDefinition
  3

  2
Z
 70
     8
280
     0
  0
ATTDEF
  5
150
330
132
100
AcDbEntity
  8
AM_6
100
AcDbText
 10
99.45
 20
14.94
 30
0.0
 40
0.5
  1
baldor
100
AcDbAttributeDefinition
  3

  2
COMPANY
 70
     8
280
     0
  0
LINE
  5
151
330
132
100
AcDbEntity
  8
AM_9
100
AcDbLine
 10
-37.78
 20
-22.66666666666667
 30
0.0
 11
-37.78000000000004
 21
22.66666666666666
 31
0.0
  0
LINE
  5
152
330
132
100
AcDbEntity
  8
AM_9
100
AcDbLine
 10
-36.28000000000002
 20
-21.16666666666667
 30
0.0
 11
-36.28000000000008
 21
21.16666666666666
 31
0.0
  0
LINE
  5
153
330
132
100
AcDbEntity
  8
AM_9
100
AcDbLine
 10
37.78000000000004
 20
-22.66666666666665
 30
0.0
 11
37.78
 21
22.66666666666666
 31
0.0
  0
LINE
  5
154
330
132
100
AcDbEntity
  8
AM_9
100
AcDbLine
 10
36.28000000000004
 20
-21.16666666666666
 30
0.0
 11
36.28000000000002
 21
21.16666666666666
 31
0.0
  0
LWPOLYLINE
  5
155
330
132
100
AcDbEntity
  8
AM_9
100
AcDbPolyline
 90
        3
 70
     0
 43
0.0
 10
42.0486757583657
 20
2.309401076758506
 10
41.25872437874682
 20
2.884155423673197
 10
40.51721856198918
 20
3.464101615137763
  0
LWPOLYLINE
  5
156
330
132
100
AcDbEntity
  8
AM_9
100
AcDbPolyline
 90
        3
 70
     0
 43
0.0
 10
41.93143212436229
 20
0.0000000000000022
 10
41.96237842439539
 20
1.154700538379254
 10
42.0486757583657
 20
2.309401076758506
  0
LWPOLYLINE
  5
157
330
132
100
AcDbEntity
  8
AM_9
100
AcDbPolyline
 90
        3
 70
     0
 43
0.0
 10
40.51721856198918
 20
-3.464101615137758
 10
41.25527164320884
 20
-2.886751345948127
 10
42.0486757583657
 20
-2.309401076758501
  0
LWPOLYLINE
  5
158
330
132
100
AcDbEntity
  8
AM_9
100
AcDbPolyline
 90
        3
 70
     0
 43
0.0
 10
42.0486757583657
 20
-2.309401076758501
 10
41.96265181744061
 20
-1.159892382929124
 10
41.93143212436229
 20
0.0000000000000022
  0
LINE
  5
159
330
132
100
AcDbEntity
  8
AM_9
100
AcDbLine
 10
42.0486757583657
 20
-2.309401076758501
 30
0.0
 11
44.2890622245118
 21
-2.309401076758501
 31
0.0
  0
LINE
  5
15A
330
132
100
AcDbEntity
  8
AM_9
100
AcDbLine
 10
42.0486757583657
 20
2.309401076758506
 30
0.0
 11
44.2890622245118
 21
2.309401076758506
 31
0.0
  0
LINE
  5
15B
330
132
100
AcDbEntity
  8
AM_9
100
AcDbLine
 10
43.89494653052444
 20
2.681202994167676
 30
0.0
 11
44.2890622245118
 21
2.309401076758506
 31
0.0
  0
LWPOLYLINE
  5
15C
330
132
100
AcDbEntity
  8
AM_9
100
AcDbPolyline
 90
        3
 70
     0
 43
0.0
 10
44.2890622245118
 20
2.309401076758506
 10
44.37508616543689
 20
1.159892382929132
 10
44.4063058585152
 20
0.0000000000000024
  0
LINE
  5
15D
330
132
100
AcDbEntity
  8
AM_9
100
AcDbLine
 10
44.2890622245118
 20
-2.309401076758501
 30
0.0
 11
43.89731634076643
 21
-2.679021750650736
 31
0.0
  0
LWPOLYLINE
  5
15E
330
132
100
AcDbEntity
  8
AM_9
100
AcDbPolyline
 90
        3
 70
     0
 43
0.0
 10
44.4063058585152
 20
0.0000000000000024
 10
44.37535955848212
 20
-1.154700538379249
 10
44.2890622245118
 20
-2.309401076758501
  0
LWPOLYLINE
  5
15F
330
132
100
AcDbEntity
  8
AM_9
100
AcDbPolyline
 90
        3
 70
     0
 43
0.0
 10
40.51721856198918
 20
3.464101615137763
 10
39.84105808083574
 20
4.041451884327387
 10
39.22024863361951
 20
4.618802153517009
  0
LWPOLYLINE
  5
160
330
132
100
AcDbEntity
  8
AM_9
100
AcDbPolyline
 90
        3
 70
     0
 43
0.0
 10
39.22024863361951
 20
-4.618802153517005
 10
39.83815213138821
 20
-4.044047806602319
 10
40.51721856198918
 20
-3.464101615137758
  0
LINE
  5
161
330
132
100
AcDbEntity
  8
AM_9
100
AcDbLine
 10
39.10300499961609
 20
2.800000000000004
 30
0.0
 11
38.74912828899553
 21
2.800000000000004
 31
0.0
  0
LINE
  5
162
330
132
100
AcDbEntity
  8
AM_9
100
AcDbLine
 10
38.74938078959397
 20
-2.799999999999998
 30
0.0
 11
39.10300499961609
 21
-2.799999999999998
 31
0.0
  0
LWPOLYLINE
  5
163
330
132
100
AcDbEntity
  8
AM_9
100
AcDbPolyline
 90
       20
 70
     0
 43
0.0
 10
38.74964167944299
 20
2.799999987097525
 10
38.52077496374297
 20
2.781371366609441
 10
38.19097662108448
 20
2.687658335780705
 10
37.87443176235653
 20
2.51839588828883
 10
37.5806708911761
 20
2.277239931021668
 10
37.31841593437088
 20
1.972038550597791
 10
37.0960444053085
 20
1.610141381772283
 10
36.92027560208613
 20
1.202820917837691
 10
36.79744201050346
 20
0.7610424494855221
 10
36.73073772756643
 20
0.2977573482755165
 10
36.72315911871178
 20
-0.1735311644846555
 10
36.77398449478185
 20
-0.6399238428916705
 10
36.88233045780646
 20
-1.087781280656501
 10
37.04389840701857
 20
-1.505018373970244
 10
37.25445924176063
 20
-1.879645676516736
 10
37.50659705169811
 20
-2.201348317224537
 10
37.79327491129933
 20
-2.460427520816255
 10
38.10509406903314
 20
-2.650119917527964
 10
38.4327781853257
 20
-2.763963923709659
 10
38.74955748008677
 20
-2.799999995996911
  0
LWPOLYLINE
  5
164
330
132
100
AcDbEntity
  8
AM_9
100
AcDbPolyline
 90
       11
 70
     0
 43
0.0
 10
38.74955748008677
 20
-2.799999995996911
 10
38.76670367064396
 20
-2.79989365290303
 10
39.09687224720496
 20
-2.755867023493671
 10
39.41457253211388
 20
-2.634332257697092
 10
39.71088149671054
 20
-2.437690370441282
 10
39.9783398632249
 20
-2.172528530362262
 10
40.20983092954465
 20
-1.845041139165327
 10
40.39974022384217
 20
-1.465557667259267
 10
40.54282228269249
 20
-1.043933493250235
 10
40.63612317615061
 20
-0.5928135354864474
 10
40.67873617915538
 20
0.0000000000000022
  0
LINE
  5
165
330
132
100
AcDbEntity
  8
AM_9
100
AcDbLine
 10
33.80355010941898
 20
-21.16666666666666
 30
0.0
 11
-33.95
 21
-21.16666666666667
 31
0.0
  0
LINE
  5
166
330
132
100
AcDbEntity
  8
AM_9
100
AcDbLine
 10
42.5
 20
-22.105834262356
 30
0.0
 11
42.5
 21
22.105834262356
 31
0.0
  0
LINE
  5
167
330
132
100
AcDbEntity
  8
AM_9
100
AcDbLine
 10
-42.5
 20
22.105834262356
 30
0.0
 11
-42.5
 21
-22.105834262356
 31
0.0
  0
ELLIPSE
  5
168
330
132
100
AcDbEntity
  8
AM_9
100
AcDbEllipse
 10
41.577878733769
 20
-0.0000000000000122
 30
0.0
 11
1.714505518806310E-16
 21
2.800000000000025
 31
0.0
210
0.0
220
0.0
230
1.0
 40
0.7071067811865449
 41
3.141592653589793
 42
6.283185307179586
  0
ELLIPSE
  5
169
330
132
100
AcDbEntity
  8
AM_9
100
AcDbEllipse
 10
41.93143212436231
 20
0.0000000000000042
 30
0.0
 11
1.714505518806293E-16
 21
2.799999999999997
 31
0.0
210
0.0
220
0.0
230
1.0
 40
0.7071067811865468
 41
5.340288227132056
 42
5.685947495841445
  0
ELLIPSE
  5
16A
330
132
100
AcDbEntity
  8
AM_9
100
AcDbEllipse
 10
41.57787873376891
 20
0.0000000000000613
 30
0.0
 11
2.449293598294750E-16
 21
4.000000000000072
 31
0.0
210
0.0
220
0.0
230
1.0
 40
0.70710678118656
 41
3.986830925837651
 42
5.437467988835018
  0
ELLIPSE
  5
16B
330
132
100
AcDbEntity
  8
AM_9
100
AcDbEllipse
 10
41.93143212436262
 20
-0.0000000000002607
 30
0.0
 11
1.714505518806075E-16
 21
2.799999999999641
 31
0.0
210
0.0
220
0.0
230
1.0
 40
0.7071067811865148
 41
3.737524655520385
 42
4.076737995420931
  0
LWPOLYLINE
  5
16C
330
132
100
AcDbEntity
  8
AM_9
100
AcDbPolyline
 90
        3
 70
     0
 43
0.0
 10
42.56201722212064
 20
-1.791986927174355
 10
42.52097925823464
 20
-1.730292473972281
 10
42.50532344983447
 20
-1.705373621734874
  0
LINE
  5
16D
330
132
100
AcDbEntity
  8
AM_9
100
AcDbLine
 10
42.57824094331915
 20
-1.815003249409636
 30
0.0
 11
42.56201722212064
 21
-1.791986927174355
 31
0.0
  0
LWPOLYLINE
  5
16E
330
132
100
AcDbEntity
  8
AM_9
100
AcDbPolyline
 90
       21
 70
     0
 43
0.0
 10
43.91119869886345
 20
0.0000000000000024
 10
43.90864723500908
 20
-0.1416655104308581
 10
43.88728949396239
 20
-0.4321654394730172
 10
43.84503478986693
 20
-0.7139356932312786
 10
43.78368202255845
 20
-0.9809118787133793
 10
43.70592108334528
 20
-1.227698339567528
 10
43.61528345695076
 20
-1.449605740300006
 10
43.51604573856612
 20
-1.64288685763034
 10
43.41308093403906
 20
-1.804970431583575
 10
43.31173003291735
 20
-1.934580081978502
 10
43.21760558764355
 20
-2.0319217936179
 10
43.13588698895595
 20
-2.09918617737509
 10
43.07098589946221
 20
-2.140310673793689
 10
43.02592588298157
 20
-2.160871786769508
 10
43.00115315019779
 20
-2.167859258762118
 10
42.99079244553847
 20
-2.168760530115046
 10
42.97573245702311
 20
-2.166282705481158
 10
42.94248167980007
 20
-2.15459028764736
 10
42.88886297850627
 20
-2.126292096703857
 10
42.81816543621814
 20
-2.076283584285155
 10
42.78838719175204
 20
-2.051455849156798
  0
LWPOLYLINE
  5
16F
330
132
100
AcDbEntity
  8
AM_9
100
AcDbPolyline
 90
       21
 70
     0
 43
0.0
 10
42.79111539468443
 20
2.053819564562744
 10
42.80871483961001
 20
2.068637011291612
 10
42.88262525978092
 20
2.12241702952727
 10
42.93800265311705
 20
2.152611398692122
 10
42.97287283390898
 20
2.165535831528308
 10
42.98906258754896
 20
2.168660404605897
 10
43.00080071857713
 20
2.167920980535331
 10
43.02725082892172
 20
2.160389224643742
 10
43.07385355646839
 20
2.138753661495452
 10
43.13882766740412
 20
2.097051860785155
 10
43.22806565903995
 20
2.02215058938065
 10
43.32685469092186
 20
1.916929410845674
 10
43.43011867733239
 20
1.780428680773617
 10
43.53304713943132
 20
1.612668411822717
 10
43.63093710458866
 20
1.414913617121912
 10
43.71925214951651
 20
1.189995772162809
 10
43.79416436924397
 20
0.9414184316331038
 10
43.85245692224942
 20
0.6735301112247895
 10
43.89161242969868
 20
0.3914250394483905
 10
43.90990864150154
 20
0.1007539655194571
 10
43.91119869886345
 20
0.0000000000000024
  0
LWPOLYLINE
  5
170
330
132
100
AcDbEntity
  8
AM_9
100
AcDbPolyline
 90
        3
 70
     0
 43
0.0
 10
42.50545274500777
 20
1.705582682821204
 10
42.51874991667905
 20
1.726792278357895
 10
42.54358448448659
 20
1.764906856639713
  0
ELLIPSE
  5
171
330
132
100
AcDbEntity
  8
AM_9
100
AcDbEllipse
 10
43.88932703482642
 20
0.0000000000041902
 30
0.0
 11
1.589605537551846E-16
 21
2.596022851092399
 31
0.0
210
0.0
220
0.0
230
1.0
 40
0.707106781186577
 41
0.7917830276277575
 42
0.8523799721267918
  0
ELLIPSE
  5
172
330
132
100
AcDbEntity
  8
AM_9
100
AcDbEllipse
 10
43.88932703482325
 20
-0.0000000000044127
 30
0.0
 11
1.589605537551719E-16
 21
2.596022851092192
 31
0.0
210
0.0
220
0.0
230
1.0
 40
0.7071067811856863
 41
2.289045391793089
 42
7.05915177293222
  0
ELLIPSE
  5
173
330
132
100
AcDbEntity
  8
AM_9
100
AcDbEllipse
 10
44.26751359448811
 20
0.0000000000000175
 30
0.0
 11
1.616869327254492E-16
 21
2.640547998623307
 31
0.0
210
0.0
220
0.0
230
1.0
 40
0.7071067811865432
 41
3.694307766686558
 42
4.71238898038469
  0
ELLIPSE
  5
174
330
132
100
AcDbEntity
  8
AM_9
100
AcDbEllipse
 10
45.39128211447794
 20
0.0000000000000153
 30
0.0
 11
1.105973895516158E-16
 21
1.806192440606026
 31
0.0
210
0.0
220
0.0
230
1.0
 40
0.7071067811865672
 41
3.791528698868415
 42
5.638408470410204
  0
LWPOLYLINE
  5
175
330
132
100
AcDbEntity
  8
AM_9
100
AcDbPolyline
 90
        3
 70
     0
 43
0.0
 10
38.97576941128043
 20
2.781538745609984
 10
38.85459685484391
 20
2.795753039450773
 10
38.74964167944299
 20
2.799999987097525
  0
LWPOLYLINE
  5
176
330
132
100
AcDbEntity
  8
AM_9
100
AcDbPolyline
 90
       10
 70
     0
 43
0.0
 10
40.67873617915538
 20
0.0000000000000022
 10
40.65192350983646
 20
0.4696890595892841
 10
40.57283741611235
 20
0.9261301746947028
 10
40.44270439452519
 20
1.356077560233095
 10
40.26534857425487
 20
1.747837674989746
 10
40.04431793992047
 20
2.089983110841567
 10
39.78584417502399
 20
2.373250405615242
 10
39.49589582168436
 20
2.588824134121405
 10
39.18265184980809
 20
2.731376840560845
 10
38.97576941128043
 20
2.781538745609984
  0
ELLIPSE
  5
177
330
132
100
AcDbEntity
  8
AM_9
100
AcDbEllipse
 10
39.10300499961615
 20
0.0000000000000517
 30
0.0
 11
2.449293598294748E-16
 21
4.000000000000068
 31
0.0
210
0.0
220
0.0
230
1.0
 40
0.7071067811865482
 41
0.0
 42
6.283185307179586
  0
ELLIPSE
  5
178
330
132
100
AcDbEntity
  8
AM_9
100
AcDbEllipse
 10
39.1030049996161
 20
-0.0000000000000013
 30
0.0
 11
1.714505518806288E-16
 21
2.799999999999989
 31
0.0
210
0.0
220
0.0
230
1.0
 40
0.7071067811865464
 41
0.0
 42
6.283185307179586
  0
LINE
  5
179
330
132
100
AcDbEntity
  8
AM_7
100
AcDbLine
 10
83.23
 20
-17.5
 30
0.0
 11
88.27
 21
-17.5
 31
0.0
  0
LINE
  5
17A
330
132
100
AcDbEntity
  8
AM_7
100
AcDbLine
 10
85.75
 20
-20.02
 30
0.0
 11
85.75
 21
-14.98
 31
0.0
  0
LINE
  5
17B
330
132
100
AcDbEntity
  8
AM_7
100
AcDbLine
 10
-88.27
 20
-17.50000000000001
 30
0.0
 11
-83.23
 21
-17.50000000000001
 31
0.0
  0
LINE
  5
17C
330
132
100
AcDbEntity
  8
AM_7
100
AcDbLine
 10
-85.75
 20
-20.02000000000001
 30
0.0
 11
-85.75
 21
-14.98000000000001
 31
0.0
  0
LINE
  5
17D
330
132
100
AcDbEntity
  8
AM_7
100
AcDbLine
 10
0.0
 20
27.94
 30
0.0
 11
0.0
 21
-32.44
 31
0.0
  0
LINE
  5
17E
330
132
100
AcDbEntity
  8
AM_7
100
AcDbLine
 10
-86.08125000000001
 20
-0.0000000000000013
 30
0.0
 11
-62.36874999999998
 21
0.000000000000004
 31
0.0
  0
LINE
  5
17F
330
132
100
AcDbEntity
  8
AM_7
100
AcDbLine
 10
-78.59999999999998
 20
-7.481250000000031
 30
0.0
 11
-78.59999999999998
 21
7.481250000000029
 31
0.0
  0
LINE
  5
180
330
132
100
AcDbEntity
  8
AM_7
100
AcDbLine
 10
62.36874999999998
 20
0.0000000000000013
 30
0.0
 11
86.08125000000001
 21
-0.0000000000000067
 31
0.0
  0
LINE
  5
181
330
132
100
AcDbEntity
  8
AM_7
100
AcDbLine
 10
78.59999999999997
 20
-7.481250000000053
 30
0.0
 11
78.59999999999997
 21
7.481250000000038
 31
0.0
  0
LINE
  5
182
330
132
100
AcDbEntity
  8
AM_7
100
AcDbLine
 10
-69.85000000000002
 20
-7.481250000000033
 30
0.0
 11
-69.85000000000002
 21
7.481250000000042
 31
0.0
  0
LINE
  5
183
330
132
100
AcDbEntity
  8
AM_7
100
AcDbLine
 10
69.85000000000002
 20
-7.481250000000037
 30
0.0
 11
69.85000000000002
 21
7.481250000000038
 31
0.0
  0
LINE
  5
184
330
132
100
AcDbEntity
  8
AM_4
100
AcDbLine
 10
-39.27999999999998
 20
25.4
 30
0.0
 11
-88.80555555555556
 21
25.4
 31
0.0
  0
LINE
  5
185
330
132
100
AcDbEntity
  8
AM_4
100
AcDbLine
 10
-94.45
 20
19.75555555555554
 30
0.0
 11
-94.45
 21
-19.75555555555556
 31
0.0
  0
LINE
  5
186
330
132
100
AcDbEntity
  8
AM_4
100
AcDbLine
 10
-88.80555555555556
 20
25.4
 30
0.0
 11
-94.45
 21
19.75555555555554
 31
0.0
  0
LINE
  5
187
330
132
100
AcDbEntity
  8
AM_4
100
AcDbLine
 10
88.80555555555556
 20
25.4
 30
0.0
 11
39.27999999999999
 21
25.4
 31
0.0
  0
LINE
  5
188
330
132
100
AcDbEntity
  8
AM_4
100
AcDbLine
 10
94.45
 20
-19.75555555555555
 30
0.0
 11
94.45
 21
19.75555555555556
 31
0.0
  0
LINE
  5
189
330
132
100
AcDbEntity
  8
AM_4
100
AcDbLine
 10
94.45
 20
19.75555555555556
 30
0.0
 11
88.80555555555556
 21
25.4
 31
0.0
  0
LINE
  5
18A
330
132
100
AcDbEntity
  8
AM_4
100
AcDbLine
 10
88.80555555555554
 20
-25.4
 30
0.0
 11
94.45
 21
-19.75555555555555
 31
0.0
  0
LWPOLYLINE
  5
18B
330
132
100
AcDbEntity
  8
AM_4
100
AcDbPolyline
 90
       10
 70
     0
 43
0.0
 10
94.45
 20
0.0000000000000048
 10
94.44998172908738
 20
0.0240663166267643
 10
94.4189844192126
 20
0.9910761548484429
 10
94.32830313852746
 20
1.960352106787843
 10
94.17526522643594
 20
2.938301061187515
 10
93.95849110423542
 20
3.916535586602222
 10
93.76125993199314
 20
4.621547065057287
 10
93.52894717380548
 20
5.324381305064984
 10
93.258079840041
 20
6.030190328918616
 10
92.95
 20
6.730527468185527
  0
ARC
  5
18C
330
132
100
AcDbEntity
  8
AM_4
100
AcDbCircle
 10
66.262
 20
17.85000000000002
 30
0.0
 40
2.0
100
AcDbArc
 50
180.0
 51
270.0
  0
ARC
  5
18D
330
132
100
AcDbEntity
  8
AM_4
100
AcDbCircle
 10
78.6
 20
0.0000000000000027
 30
0.0
 40
7.125000000000001
100
AcDbArc
 50
270.0
 51
90.0
  0
CIRCLE
  5
18E
330
132
100
AcDbEntity
  8
AM_4
100
AcDbCircle
 10
85.75
 20
-17.5
 30
0.0
 40
2.4
  0
LINE
  5
18F
330
132
100
AcDbEntity
  8
AM_4
100
AcDbLine
 10
78.60000000000001
 20
7.125000000000009
 30
0.0
 11
69.85
 21
7.125000000000002
 31
0.0
  0
LINE
  5
190
330
132
100
AcDbEntity
  8
AM_4
100
AcDbLine
 10
69.85
 20
-7.125
 30
0.0
 11
78.6
 21
-7.124999999999998
 31
0.0
  0
ARC
  5
191
330
132
100
AcDbEntity
  8
AM_4
100
AcDbCircle
 10
69.85
 20
0.0000000000000018
 30
0.0
 40
7.125
100
AcDbArc
 50
90.0
 51
270.0
  0
LINE
  5
192
330
132
100
AcDbEntity
  8
AM_4
100
AcDbLine
 10
88.80555555555554
 20
-25.4
 30
0.0
 11
39.28000000000004
 21
-25.4
 31
0.0
  0
LINE
  5
193
330
132
100
AcDbEntity
  8
AM_4
100
AcDbLine
 10
92.95
 20
-21.25555555555555
 30
0.0
 11
92.95
 21
6.730527468185527
 31
0.0
  0
ARC
  5
194
330
132
100
AcDbEntity
  8
AM_4
100
AcDbCircle
 10
78.59999999999998
 20
-0.0000000000000071
 30
0.0
 40
15.85000000000002
100
AcDbArc
 50
25.1278127088148
 51
90.0
  0
LINE
  5
195
330
132
100
AcDbEntity
  8
AM_4
100
AcDbLine
 10
66.262
 20
15.85000000000001
 30
0.0
 11
78.6
 21
15.85000000000001
 31
0.0
  0
LWPOLYLINE
  5
196
330
132
100
AcDbEntity
  8
AM_4
100
AcDbPolyline
 90
       10
 70
     0
 43
0.0
 10
-92.94999999999997
 20
6.730527468185604
 10
-93.2501066227129
 20
6.049535184057007
 10
-93.518473916856
 20
5.353656319945053
 10
-93.7559217599156
 20
4.639023130715922
 10
-93.95849110423539
 20
3.916535586602365
 10
-94.17151963999028
 20
2.958086560835875
 10
-94.32442219217558
 20
1.991242507133805
 10
-94.41778435678269
 20
1.010048534636629
 10
-94.44998172908738
 20
0.0240663166267226
 10
-94.45
 20
0.0000000000000038
  0
LINE
  5
197
330
132
100
AcDbEntity
  8
AM_4
100
AcDbLine
 10
-94.45
 20
-19.75555555555556
 30
0.0
 11
-88.80555555555556
 21
-25.40000000000001
 31
0.0
  0
ARC
  5
198
330
132
100
AcDbEntity
  8
AM_4
100
AcDbCircle
 10
-66.26199999999999
 20
17.84999999999999
 30
0.0
 40
1.99999999999998
100
AcDbArc
 50
270.0
 51
0.0
  0
CIRCLE
  5
199
330
132
100
AcDbEntity
  8
AM_4
100
AcDbCircle
 10
-85.75
 20
-17.50000000000001
 30
0.0
 40
2.4
  0
LINE
  5
19A
330
132
100
AcDbEntity
  8
AM_4
100
AcDbLine
 10
-69.85
 20
7.125000000000004
 30
0.0
 11
-78.60000000000001
 21
7.125000000000003
 31
0.0
  0
ARC
  5
19B
330
132
100
AcDbEntity
  8
AM_4
100
AcDbCircle
 10
-69.85
 20
0.0000000000000027
 30
0.0
 40
7.125000000000001
100
AcDbArc
 50
270.0
 51
90.0
  0
LINE
  5
19C
330
132
100
AcDbEntity
  8
AM_4
100
AcDbLine
 10
-78.60000000000001
 20
-7.125000000000004
 30
0.0
 11
-69.85
 21
-7.124999999999998
 31
0.0
  0
ARC
  5
19D
330
132
100
AcDbEntity
  8
AM_4
100
AcDbCircle
 10
-78.60000000000001
 20
-0.0000000000000013
 30
0.0
 40
7.125000000000004
100
AcDbArc
 50
90.0
 51
270.0
  0
LINE
  5
19E
330
132
100
AcDbEntity
  8
AM_4
100
AcDbLine
 10
-78.60000000000001
 20
15.85000000000001
 30
0.0
 11
-66.262
 21
15.85000000000001
 31
0.0
  0
ARC
  5
19F
330
132
100
AcDbEntity
  8
AM_4
100
AcDbCircle
 10
-78.60000000000001
 20
0.0000000000000071
 30
0.0
 40
15.85
100
AcDbArc
 50
90.0
 51
154.8721872911849
  0
LINE
  5
1A0
330
132
100
AcDbEntity
  8
AM_4
100
AcDbLine
 10
-92.94999999999997
 20
-21.25555555555559
 30
0.0
 11
-92.94999999999997
 21
6.730527468185604
 31
0.0
  0
LINE
  5
1A1
330
132
100
AcDbEntity
  8
AM_4
100
AcDbLine
 10
-39.27999999999999
 20
-25.40000000000001
 30
0.0
 11
-88.80555555555556
 21
-25.40000000000001
 31
0.0
  0
LWPOLYLINE
  5
1A2
330
132
100
AcDbEntity
  8
AM_4
100
AcDbPolyline
 90
       29
 70
     0
 43
0.0
 10
64.262
 20
14.83228761857052
 10
62.99054498301992
 20
14.28881999571789
 10
61.77129456057124
 20
13.63660582487243
 10
60.61352796457233
 20
12.88060884969197
 10
59.52605649789732
 20
12.02658266364109
 10
58.51715647504084
 20
11.08102692167073
 10
57.5945062343673
 20
10.05113787391948
 10
56.7651277013197
 20
8.944753597904713
 10
56.03533294732696
 20
7.770294346020004
 10
55.4106761511291
 20
6.536698462330077
 10
54.89591132812325
 20
5.253354356375372
 10
54.49495614943601
 20
3.930029051706563
 10
54.21086212608054
 20
2.576793852937845
 10
54.04579138511522
 20
1.203947697037602
 10
54.00100021455125
 20
-0.1780612278005924
 10
54.07682950224226
 20
-1.558714999178916
 10
54.27270214152195
 20
-2.927506008235638
 10
54.58712742333427
 20
-4.27401692889323
 10
55.01771238142946
 20
-5.587999999999964
 10
55.56118000428211
 20
-6.859455016980045
 10
56.21339417512755
 20
-8.078705439428726
 10
56.96939115030801
 20
-9.23647203542764
 10
57.82341733635889
 20
-10.32394350210265
 10
58.76897307832924
 20
-11.33284352495914
 10
59.7988621260805
 20
-12.25549376563267
 10
60.90524640209527
 20
-13.08487229868028
 10
62.07970565397996
 20
-13.81466705267302
 10
63.3133015376699
 20
-14.43932384887089
 10
64.262
 20
-14.83228761857052
  0
LINE
  5
1A3
330
132
100
AcDbEntity
  8
AM_4
100
AcDbLine
 10
64.262
 20
14.83228761857052
 30
0.0
 11
64.262
 21
25.4
 31
0.0
  0
LINE
  5
1A4
330
132
100
AcDbEntity
  8
AM_4
100
AcDbLine
 10
64.26200000000003
 20
-25.4
 30
0.0
 11
64.262
 21
-14.83228761857052
 31
0.0
  0
LWPOLYLINE
  5
1A5
330
132
100
AcDbEntity
  8
AM_4
100
AcDbPolyline
 90
       29
 70
     0
 43
0.0
 10
-64.26199999999999
 20
-14.83228761857052
 10
-62.99054498301989
 20
-14.28881999571788
 10
-61.77129456057122
 20
-13.63660582487242
 10
-60.61352796457231
 20
-12.88060884969196
 10
-59.5260564978973
 20
-12.02658266364107
 10
-58.51715647504082
 20
-11.08102692167072
 10
-57.59450623436729
 20
-10.05113787391946
 10
-56.76512770131968
 20
-8.944753597904699
 10
-56.03533294732695
 20
-7.770294346019986
 10
-55.41067615112909
 20
-6.536698462330057
 10
-54.89591132812325
 20
-5.253354356375352
 10
-54.49495614943601
 20
-3.930029051706541
 10
-54.21086212608054
 20
-2.576793852937824
 10
-54.04579138511522
 20
-1.20394769703758
 10
-54.00100021455125
 20
0.1780612278006147
 10
-54.07682950224227
 20
1.558714999178938
 10
-54.27270214152196
 20
2.92750600823566
 10
-54.58712742333428
 20
4.274016928893251
 10
-55.01771238142947
 20
5.587999999999982
 10
-55.56118000428211
 20
6.859455016980063
 10
-56.21339417512757
 20
8.078705439428745
 10
-56.96939115030803
 20
9.236472035427656
 10
-57.82341733635891
 20
10.32394350210267
 10
-58.76897307832926
 20
11.33284352495915
 10
-59.79886212608051
 20
12.25549376563269
 10
-60.90524640209529
 20
13.0848722986803
 10
-62.07970565397999
 20
13.81466705267303
 10
-63.31330153766992
 20
14.43932384887089
 10
-64.26199999999999
 20
14.83228761857051
  0
LINE
  5
1A6
330
132
100
AcDbEntity
  8
AM_4
100
AcDbLine
 10
-64.26199999999987
 20
-25.4
 30
0.0
 11
-64.26199999999999
 21
-14.83228761857052
 31
0.0
  0
LINE
  5
1A7
330
132
100
AcDbEntity
  8
AM_4
100
AcDbLine
 10
-64.26199999999999
 20
14.83228761857051
 30
0.0
 11
-64.26199999999999
 21
25.4
 31
0.0
  0
LWPOLYLINE
  5
1A8
330
132
100
AcDbEntity
  8
AM_4
100
AcDbPolyline
 90
        3
 70
     0
 43
0.0
 10
42.99209229614208
 20
3.464101615137781
 10
43.66825277729556
 20
2.886751345948141
 10
43.89494653052444
 20
2.681202994167676
  0
LWPOLYLINE
  5
1A9
330
132
100
AcDbEntity
  8
AM_4
100
AcDbPolyline
 90
        3
 70
     0
 43
0.0
 10
43.89731634076643
 20
-2.679021750650736
 10
43.67115872674309
 20
-2.884155423673198
 10
42.99209229614208
 20
-3.464101615137776
  0
LINE
  5
1AA
330
132
100
AcDbEntity
  8
AM_4
100
AcDbLine
 10
-37.78061883586082
 20
23.94308276481962
 30
0.0
 11
-37.78000000000004
 21
23.9
 31
0.0
  0
LINE
  5
1AB
330
132
100
AcDbEntity
  8
AM_4
100
AcDbLine
 10
37.77999999999999
 20
23.90000000000001
 30
0.0
 11
37.78061883586077
 21
23.9430827648196
 31
0.0
  0
LINE
  5
1AC
330
132
100
AcDbEntity
  8
AM_4
100
AcDbLine
 10
37.78
 20
22.66666666666667
 30
0.0
 11
37.77999999999999
 21
23.90000000000001
 31
0.0
  0
LWPOLYLINE
  5
1AD
330
132
100
AcDbEntity
  8
AM_4
100
AcDbPolyline
 90
        9
 70
     0
 43
0.0
 10
37.78
 20
22.66666666666667
 10
37.75956669955624
 20
22.41992311241599
 10
37.68782526002703
 20
22.14895242383589
 10
37.60659336976548
 20
21.96639959843046
 10
37.51256918794801
 20
21.81181393261173
 10
37.30860834764362
 20
21.5742502976294
 10
37.08569706369562
 20
21.40141876939425
 10
36.69383271801031
 20
21.22414437286859
 10
36.28000000000002
 20
21.16666666666666
  0
LINE
  5
1AE
330
132
100
AcDbEntity
  8
AM_4
100
AcDbLine
 10
-36.28000000000008
 20
21.16666666666666
 30
0.0
 11
36.28000000000002
 21
21.16666666666666
 31
0.0
  0
LWPOLYLINE
  5
1AF
330
132
100
AcDbEntity
  8
AM_4
100
AcDbPolyline
 90
        9
 70
     0
 43
0.0
 10
-36.28000000000008
 20
21.16666666666666
 10
-36.66871597163782
 20
21.21736514261275
 10
-37.0386742648456
 20
21.37267541481791
 10
-37.33026925561564
 20
21.59571639204666
 10
-37.506406545
 20
21.80212913816002
 10
-37.65777813912258
 20
22.07360056634056
 10
-37.73903268549694
 20
22.31849483746201
 10
-37.77894639930665
 20
22.61045552892926
 10
-37.78000000000004
 20
22.66666666666666
  0
LINE
  5
1B0
330
132
100
AcDbEntity
  8
AM_4
100
AcDbLine
 10
-37.78000000000004
 20
23.9
 30
0.0
 11
-37.78000000000004
 21
22.66666666666666
 31
0.0
  0
LINE
  5
1B1
330
132
100
AcDbEntity
  8
AM_4
100
AcDbLine
 10
37.78061883586081
 20
-23.94308276481962
 30
0.0
 11
37.78000000000004
 21
-23.9
 31
0.0
  0
LINE
  5
1B2
330
132
100
AcDbEntity
  8
AM_4
100
AcDbLine
 10
-37.78
 20
-23.90000000000001
 30
0.0
 11
-37.78061883586075
 21
-23.94308276481963
 31
0.0
  0
LINE
  5
1B3
330
132
100
AcDbEntity
  8
AM_4
100
AcDbLine
 10
-37.78
 20
-22.66666666666667
 30
0.0
 11
-37.78
 21
-23.90000000000001
 31
0.0
  0
LWPOLYLINE
  5
1B4
330
132
100
AcDbEntity
  8
AM_4
100
AcDbPolyline
 90
        9
 70
     0
 43
0.0
 10
-37.78
 20
-22.66666666666667
 10
-37.75956669955624
 20
-22.41992311241599
 10
-37.68782526002703
 20
-22.14895242383589
 10
-37.60659336976548
 20
-21.96639959843046
 10
-37.51256918794801
 20
-21.81181393261173
 10
-37.30860834764362
 20
-21.5742502976294
 10
-37.08569706369562
 20
-21.40141876939425
 10
-36.69383271801031
 20
-21.22414437286859
 10
-36.28000000000002
 20
-21.16666666666666
  0
LINE
  5
1B5
330
132
100
AcDbEntity
  8
AM_4
100
AcDbLine
 10
-33.95
 20
-21.16666666666667
 30
0.0
 11
-36.28000000000002
 21
-21.16666666666666
 31
0.0
  0
LINE
  5
1B6
330
132
100
AcDbEntity
  8
AM_4
100
AcDbLine
 10
36.28000000000004
 20
-21.16666666666666
 30
0.0
 11
33.80355010941898
 21
-21.16666666666666
 31
0.0
  0
LWPOLYLINE
  5
1B7
330
132
100
AcDbEntity
  8
AM_4
100
AcDbPolyline
 90
        9
 70
     0
 43
0.0
 10
36.28000000000004
 20
-21.16666666666666
 10
36.66871597163779
 20
-21.21736514261273
 10
37.03867426484555
 20
-21.37267541481788
 10
37.3302692556156
 20
-21.59571639204662
 10
37.50640654499999
 20
-21.80212913815998
 10
37.65777813912258
 20
-22.07360056634053
 10
37.73903268549693
 20
-22.31849483746197
 10
37.77894639930665
 20
-22.61045552892923
 10
37.78000000000004
 20
-22.66666666666665
  0
LINE
  5
1B8
330
132
100
AcDbEntity
  8
AM_4
100
AcDbLine
 10
37.78000000000004
 20
-23.9
 30
0.0
 11
37.78000000000004
 21
-22.66666666666665
 31
0.0
  0
LWPOLYLINE
  5
1B9
330
132
100
AcDbEntity
  8
AM_4
100
AcDbPolyline
 90
       37
 70
     0
 43
0.0
 10
-42.5
 20
22.105834262356
 10
-42.33827466889919
 20
21.75620726757304
 10
-41.85432950301885
 20
21.40924114533092
 10
-41.05184761728541
 20
21.06757651732378
 10
-39.93693638340112
 20
20.73381365767351
 10
-38.51808094905763
 20
20.41049270327357
 10
-36.80607966083866
 20
20.10007432181346
 10
-34.81396188228218
 20
19.80492098461184
 10
-32.5568888325566
 20
19.52727898678329
 10
-30.0520382004283
 20
19.26926135157608
 10
-27.31847341167796
 20
19.03283174898947
 10
-24.3769985449195
 20
18.81978955105922
 10
-21.25000000000005
 20
18.63175613754998
 10
-17.96127612397978
 20
18.47016255627625
 10
-14.53585609134098
 20
18.33623863196438
 10
-10.9998094168572
 20
18.23100360654386
 10
-7.380047550844612
 20
18.15525838210079
 10
-3.704119066775549
 20
18.1095794255294
 10
-0.0000000000000807
 20
18.09431438127091
 10
3.704119066775388
 20
18.1095794255294
 10
7.380047550844452
 20
18.15525838210079
 10
10.99980941685704
 20
18.23100360654385
 10
14.53585609134083
 20
18.33623863196437
 10
17.96127612397963
 20
18.47016255627624
 10
21.24999999999991
 20
18.63175613754997
 10
24.37699854491937
 20
18.81978955105921
 10
27.31847341167783
 20
19.03283174898946
 10
30.05203820042819
 20
19.26926135157607
 10
32.55688883255649
 20
19.52727898678328
 10
34.81396188228208
 20
19.80492098461183
 10
36.80607966083858
 20
20.10007432181345
 10
38.51808094905757
 20
20.41049270327355
 10
39.93693638340106
 20
20.7338136576735
 10
41.05184761728537
 20
21.06757651732377
 10
41.85432950301882
 20
21.4092411453309
 10
42.33827466889917
 20
21.75620726757302
 10
42.5
 20
22.10583426235599
  0
LWPOLYLINE
  5
1BA
330
132
100
AcDbEntity
  8
AM_4
100
AcDbPolyline
 90
        7
 70
     0
 43
0.0
 10
42.5
 20
22.105834262356
 10
42.33827466889919
 20
22.45546125713897
 10
41.85432950301885
 20
22.80242737938109
 10
41.05184761728541
 20
23.14409200738822
 10
39.93693638340112
 20
23.47785486703849
 10
38.51808094905764
 20
23.80117582143844
 10
37.78061883586093
 20
23.94308276481959
  0
LWPOLYLINE
  5
1BB
330
132
100
AcDbEntity
  8
AM_4
100
AcDbPolyline
 90
       37
 70
     0
 43
0.0
 10
42.5
 20
-22.105834262356
 10
42.33827466889919
 20
-21.75620726757303
 10
41.85432950301885
 20
-21.40924114533091
 10
41.05184761728541
 20
-21.06757651732378
 10
39.93693638340112
 20
-20.7338136576735
 10
38.51808094905764
 20
-20.41049270327356
 10
36.80607966083866
 20
-20.10007432181345
 10
34.81396188228218
 20
-19.80492098461184
 10
32.5568888325566
 20
-19.52727898678328
 10
30.05203820042831
 20
-19.26926135157607
 10
27.31847341167796
 20
-19.03283174898946
 10
24.37699854491951
 20
-18.81978955105921
 10
21.25000000000005
 20
-18.63175613754997
 10
17.96127612397979
 20
-18.47016255627624
 10
14.53585609134099
 20
-18.33623863196436
 10
10.9998094168572
 20
-18.23100360654385
 10
7.380047550844616
 20
-18.15525838210078
 10
3.704119066775554
 20
-18.10957942552939
 10
0.0000000000000859
 20
-18.0943143812709
 10
-3.704119066775382
 20
-18.10957942552939
 10
-7.380047550844448
 20
-18.15525838210078
 10
-10.99980941685704
 20
-18.23100360654384
 10
-14.53585609134083
 20
-18.33623863196436
 10
-17.96127612397963
 20
-18.47016255627623
 10
-21.2499999999999
 20
-18.63175613754996
 10
-24.37699854491936
 20
-18.8197895510592
 10
-27.31847341167783
 20
-19.03283174898944
 10
-30.05203820042819
 20
-19.26926135157606
 10
-32.55688883255649
 20
-19.52727898678327
 10
-34.81396188228208
 20
-19.80492098461182
 10
-36.80607966083858
 20
-20.10007432181344
 10
-38.51808094905757
 20
-20.41049270327354
 10
-39.93693638340106
 20
-20.73381365767349
 10
-41.05184761728536
 20
-21.06757651732376
 10
-41.85432950301882
 20
-21.4092411453309
 10
-42.33827466889917
 20
-21.75620726757301
 10
-42.5
 20
-22.10583426235598
  0
LWPOLYLINE
  5
1BC
330
132
100
AcDbEntity
  8
AM_4
100
AcDbPolyline
 90
        7
 70
     0
 43
0.0
 10
-42.5
 20
-22.105834262356
 10
-42.33827466889919
 20
-22.45546125713897
 10
-41.85432950301885
 20
-22.80242737938109
 10
-41.05184761728541
 20
-23.14409200738822
 10
-39.93693638340112
 20
-23.47785486703849
 10
-38.51808094905763
 20
-23.80117582143844
 10
-37.78061883586072
 20
-23.94308276481964
  0
LWPOLYLINE
  5
1BD
330
132
100
AcDbEntity
  8
AM_4
100
AcDbPolyline
 90
        3
 70
     0
 43
0.0
 10
41.46063509976561
 20
4.618802153517009
 10
42.25058647938447
 20
4.044047806602335
 10
42.99209229614208
 20
3.464101615137781
  0
LWPOLYLINE
  5
1BE
330
132
100
AcDbEntity
  8
AM_4
100
AcDbPolyline
 90
        3
 70
     0
 43
0.0
 10
42.99209229614208
 20
-3.464101615137776
 10
42.25403921492246
 20
-4.041451884327386
 10
41.46063509976561
 20
-4.618802153517004
  0
LINE
  5
1BF
330
132
100
AcDbEntity
  8
AM_4
100
AcDbLine
 10
41.9314321243623
 20
2.800000000000009
 30
0.0
 11
41.57787873376902
 21
2.800000000000009
 31
0.0
  0
LINE
  5
1C0
330
132
100
AcDbEntity
  8
AM_4
100
AcDbLine
 10
41.57787873376902
 20
-2.800000000000003
 30
0.0
 11
41.9314321243623
 21
-2.800000000000003
 31
0.0
  0
ELLIPSE
  5
1C1
330
132
100
AcDbEntity
  8
AM_4
100
AcDbEllipse
 10
41.57787873376903
 20
0.0000000000000029
 30
0.0
 11
1.714505518806304E-16
 21
2.800000000000015
 31
0.0
210
0.0
220
0.0
230
1.0
 40
0.7071067811865475
 41
0.0
 42
3.141592653589793
  0
ELLIPSE
  5
1C2
330
132
100
AcDbEntity
  8
AM_4
100
AcDbEllipse
 10
41.93143212436229
 20
0.0000000000000029
 30
0.0
 11
1.714505518806298E-16
 21
2.800000000000005
 31
0.0
210
0.0
220
0.0
230
1.0
 40
0.7071067811865474
 41
5.685947495841438
 42
10.02070996270004
  0
LWPOLYLINE
  5
1C3
330
132
100
AcDbEntity
  8
AM_4
100
AcDbPolyline
 90
        3
 70
     0
 43
0.0
 10
40.16366517139588
 20
3.464101615137734
 10
40.83982565254937
 20
4.041451884327372
 10
41.46063509976561
 20
4.618802153517009
  0
LINE
  5
1C4
330
132
100
AcDbEntity
  8
AM_4
100
AcDbLine
 10
39.22024863361951
 20
4.618802153517009
 30
0.0
 11
41.46063509976561
 21
4.618802153517009
 31
0.0
  0
LWPOLYLINE
  5
1C5
330
132
100
AcDbEntity
  8
AM_4
100
AcDbPolyline
 90
        3
 70
     0
 43
0.0
 10
39.22024863361951
 20
4.618802153517009
 10
38.43029725400064
 20
4.044047806602318
 10
37.688791437243
 20
3.464101615137752
  0
LWPOLYLINE
  5
1C6
330
132
100
AcDbEntity
  8
AM_4
100
AcDbPolyline
 90
        3
 70
     0
 43
0.0
 10
37.688791437243
 20
3.464101615137752
 10
37.01263095608955
 20
2.886751345948128
 10
36.39182150887332
 20
2.309401076758506
  0
LWPOLYLINE
  5
1C7
330
132
100
AcDbEntity
  8
AM_4
100
AcDbPolyline
 90
        3
 70
     0
 43
0.0
 10
41.46063509976561
 20
-4.618802153517004
 10
40.8427316019969
 20
-4.044047806602304
 10
40.16366517139591
 20
-3.464101615137709
  0
LWPOLYLINE
  5
1C8
330
132
100
AcDbEntity
  8
AM_4
100
AcDbPolyline
 90
        3
 70
     0
 43
0.0
 10
36.39182150887332
 20
-2.309401076758501
 10
37.00972500664202
 20
-2.884155423673187
 10
37.688791437243
 20
-3.464101615137747
  0
LWPOLYLINE
  5
1C9
330
132
100
AcDbEntity
  8
AM_4
100
AcDbPolyline
 90
        3
 70
     0
 43
0.0
 10
37.688791437243
 20
-3.464101615137747
 10
38.42684451846264
 20
-4.041451884327375
 10
39.22024863361951
 20
-4.618802153517005
  0
LINE
  5
1CA
330
132
100
AcDbEntity
  8
AM_4
100
AcDbLine
 10
39.22024863361951
 20
-4.618802153517005
 30
0.0
 11
41.46063509976561
 21
-4.618802153517004
 31
0.0
  0
LINE
  5
1CB
330
132
100
AcDbEntity
  8
AM_4
100
AcDbLine
 10
36.39182150887332
 20
2.309401076758506
 30
0.0
 11
38.63220797501942
 21
2.309401076758506
 31
0.0
  0
LWPOLYLINE
  5
1CC
330
132
100
AcDbEntity
  8
AM_4
100
AcDbPolyline
 90
        3
 70
     0
 43
0.0
 10
36.39182150887332
 20
2.309401076758506
 10
36.30579756794823
 20
1.15989238292913
 10
36.27457787486991
 20
0.0000000000000026
  0
LWPOLYLINE
  5
1CD
330
132
100
AcDbEntity
  8
AM_4
100
AcDbPolyline
 90
        3
 70
     0
 43
0.0
 10
36.27457787486991
 20
0.0000000000000026
 10
36.30552417490301
 20
-1.154700538379249
 10
36.39182150887332
 20
-2.309401076758501
  0
LINE
  5
1CE
330
132
100
AcDbEntity
  8
AM_4
100
AcDbLine
 10
36.39182150887332
 20
-2.309401076758501
 30
0.0
 11
38.63220797501942
 21
-2.309401076758501
 31
0.0
  0
LWPOLYLINE
  5
1CF
330
132
100
AcDbEntity
  8
AM_4
100
AcDbPolyline
 90
        3
 70
     0
 43
0.0
 10
38.63220797501942
 20
-2.309401076758501
 10
38.71823191594451
 20
-1.159892382929128
 10
38.74945160902281
 20
0.0000000000000027
  0
LWPOLYLINE
  5
1D0
330
132
100
AcDbEntity
  8
AM_4
100
AcDbPolyline
 90
        3
 70
     0
 43
0.0
 10
40.16366517139591
 20
-3.464101615137709
 10
39.42561209017627
 20
-2.886751345948115
 10
38.63220797501942
 20
-2.309401076758501
  0
ELLIPSE
  5
1D1
330
132
100
AcDbEntity
  8
AM_4
100
AcDbEllipse
 10
41.57787873376906
 20
0.0000000000000593
 30
0.0
 11
2.449293598294733E-16
 21
4.000000000000044
 31
0.0
210
0.0
220
0.0
230
1.0
 40
0.7071067811865527
 41
5.437467988835049
 42
10.27001623301721
  0
LWPOLYLINE
  5
1D2
330
132
100
AcDbEntity
  8
AM_4
100
AcDbPolyline
 90
        3
 70
     0
 43
0.0
 10
38.74945160902281
 20
0.0000000000000027
 10
38.71850530898973
 20
1.154700538379254
 10
38.63220797501942
 20
2.309401076758506
  0
LWPOLYLINE
  5
1D3
330
132
100
AcDbEntity
  8
AM_4
100
AcDbPolyline
 90
        3
 70
     0
 43
0.0
 10
38.63220797501942
 20
2.309401076758506
 10
39.42215935463828
 20
2.884155423673185
 10
40.16366517139588
 20
3.464101615137734
  0
ELLIPSE
  5
1D4
330
132
100
AcDbEntity
  8
AM_4
100
AcDbEllipse
 10
43.88932703482558
 20
-0.0000000000030125
 30
0.0
 11
1.589605537552729E-16
 21
2.59602285109384
 31
0.0
210
0.0
220
0.0
230
1.0
 40
0.7071067811860967
 41
-4.092768552264928
 42
-3.994139915386644
  0
LINE
  5
1D5
330
132
100
AcDbEntity
  8
AM_4
100
AcDbLine
 10
42.39650154838617
 20
1.51131035360777
 30
0.0
 11
42.38238761797193
 21
1.483213173840451
 31
0.0
  0
LWPOLYLINE
  5
1D6
330
132
100
AcDbEntity
  8
AM_4
100
AcDbPolyline
 90
       15
 70
     0
 43
0.0
 10
45.13702037872806
 20
2.337392270919912
 10
45.10675020628956
 20
2.359816055531197
 10
44.87118550561371
 20
2.505906720604568
 10
44.62418846894793
 20
2.611434608480277
 10
44.3708431859534
 20
2.675339820480047
 10
44.11579860845171
 20
2.69779917507235
 10
43.86299886003681
 20
2.679744026695609
 10
43.61598265462496
 20
2.622464846337728
 10
43.37778366148026
 20
2.527391770863713
 10
43.15082703236448
 20
2.395774329742756
 10
42.93763863297422
 20
2.228866240744491
 10
42.74103586540083
 20
2.028315300462295
 10
42.56406638838099
 20
1.796553407844726
 10
42.40972660406339
 20
1.536957432125355
 10
42.39650154838617
 20
1.51131035360777
  0
LINE
  5
1D7
330
132
100
AcDbEntity
  8
AM_4
100
AcDbLine
 10
45.24411654765026
 20
2.25055332683337
 30
0.0
 11
45.13702037872806
 21
2.337392270919912
 31
0.0
  0
LWPOLYLINE
  5
1D8
330
132
100
AcDbEntity
  8
AM_4
100
AcDbPolyline
 90
       15
 70
     0
 43
0.0
 10
42.3912428090244
 20
-1.500931358579104
 10
42.4324119269973
 20
-1.57951145513222
 10
42.59452749488476
 20
-1.840708421705489
 10
42.78180744477501
 20
-2.074223166467037
 10
42.99146646343768
 20
-2.27547205005311
 10
43.21970317264817
 20
-2.440331730536251
 10
43.46182444365289
 20
-2.565660827863252
 10
43.71272290185099
 20
-2.649702077147795
 10
43.96748553780159
 20
-2.692085150734415
 10
44.22181507274555
 20
-2.693443150339735
 10
44.47213555708022
 20
-2.654900283396239
 10
44.7148972933708
 20
-2.577893904486233
 10
44.94757976025374
 20
-2.463757793092851
 10
45.16774237551683
 20
-2.313703889430208
 10
45.20310205402403
 20
-2.285240527053156
  0
ELLIPSE
  5
1D9
330
132
100
AcDbEntity
  8
AM_4
100
AcDbEllipse
 10
43.88932703482966
 20
0.000000000000007
 30
0.0
 11
1.589605537555651E-16
 21
2.596022851098613
 31
0.0
210
0.0
220
0.0
230
1.0
 40
0.7071067811865483
 41
0.9593388419250077
 42
2.190416754914621
  0
ELLIPSE
  5
1DA
330
132
100
AcDbEntity
  8
AM_4
100
AcDbEllipse
 10
43.88932703482997
 20
0.0000000000010727
 30
0.0
 11
1.589605537554615E-16
 21
2.596022851096921
 31
0.0
210
0.0
220
0.0
230
1.0
 40
0.7071067811869164
 41
0.8523799721269256
 42
0.9593388419251958
  0
LINE
  5
1DB
330
132
100
AcDbEntity
  8
AM_4
100
AcDbLine
 10
46.06179684899016
 20
1.537254407736902
 30
0.0
 11
45.24776702732251
 21
2.247376280880925
 31
0.0
  0
LINE
  5
1DC
330
132
100
AcDbEntity
  8
AM_4
100
AcDbLine
 10
45.24776702732251
 20
-2.247376280880919
 30
0.0
 11
46.06179684899016
 21
-1.537254407736897
 31
0.0
  0
ELLIPSE
  5
1DD
330
132
100
AcDbEntity
  8
AM_4
100
AcDbEllipse
 10
44.26751359448811
 20
0.0000000000000087
 30
0.0
 11
1.616869327254478E-16
 21
2.640547998623286
 31
0.0
210
0.0
220
0.0
230
1.0
 40
0.7071067811865462
 41
5.730470194082816
 42
9.97749307386615
  0
ELLIPSE
  5
1DE
330
132
100
AcDbEntity
  8
AM_4
100
AcDbEllipse
 10
45.39128211447796
 20
0.0000000000000026
 30
0.0
 11
1.105973895516182E-16
 21
1.806192440606066
 31
0.0
210
0.0
220
0.0
230
1.0
 40
0.7071067811865475
 41
5.730470194082825
 42
9.977493073866142
  0
ELLIPSE
  5
1DF
330
132
100
AcDbEntity
  8
AM_4
100
AcDbEllipse
 10
45.39128211448049
 20
0.0000000000018416
 30
0.0
 11
1.105973895514828E-16
 21
1.806192440603854
 31
0.0
210
0.0
220
0.0
230
1.0
 40
0.7071067811860051
 41
-0.6447768367687772
 42
-0.5527151130959584
  0
ELLIPSE
  5
1E0
330
132
100
AcDbEntity
  8
AM_4
100
AcDbEllipse
 10
45.46696603029503
 20
0.0000000000000028
 30
0.0
 11
-2.992631774243832E-16
 21
-1.629112860038458
 31
0.0
210
0.0
220
0.0
230
1.0
 40
0.7071067811865451
 41
0.0
 42
6.283185307179586
  0
LWPOLYLINE
  5
1E1
330
132
100
AcDbEntity
  8
AM_4
100
AcDbPolyline
 90
        8
 70
     0
 43
0.0
 10
46.67750142470914
 20
0.0000000000000027
 10
46.67326689400259
 20
0.1455038460105246
 10
46.64280814128118
 20
0.4140387523961568
 10
46.5833752579894
 20
0.6740777100415296
 10
46.49591513767437
 20
0.9199033801827456
 10
46.38182029489553
 20
1.146148730983438
 10
46.24301465121874
 20
1.347586137346683
 10
46.16308750750794
 20
1.439589598206614
  0
LWPOLYLINE
  5
1E2
330
132
100
AcDbEntity
  8
AM_4
100
AcDbPolyline
 90
        8
 70
     0
 43
0.0
 10
46.16853801645122
 20
-1.433767832953524
 10
46.24190447033091
 20
-1.348967753188432
 10
46.37855709069888
 20
-1.151651116531445
 10
46.49224785343528
 20
-0.9284479824747786
 10
46.58030518208135
 20
-0.6845654691071507
 10
46.64080020871538
 20
-0.4256858407754556
 10
46.67253510114982
 20
-0.1575535913578034
 10
46.67750142470914
 20
0.0000000000000027
  0
ELLIPSE
  5
1E3
330
132
100
AcDbEntity
  8
AM_4
100
AcDbEllipse
 10
45.39128211447926
 20
0.0000000000002773
 30
0.0
 11
1.105973895516411E-16
 21
1.806192440606439
 31
0.0
210
0.0
220
0.0
230
1.0
 40
0.7071067811860947
 41
3.694307766685899
 42
3.791528698867828
  0
LINE
  5
1E4
330
132
100
AcDbEntity
  8
AM_4
100
AcDbLine
 10
-8.35773
 20
-1.295029999999996
 30
0.0
 11
-8.35773
 21
1.295030000000002
 31
0.0
  0
LINE
  5
1E5
330
132
100
AcDbEntity
  8
AM_4
100
AcDbLine
 10
-6.95829
 20
-1.295029999999996
 30
0.0
 11
-8.35773
 21
-1.295029999999996
 31
0.0
  0
LINE
  5
1E6
330
132
100
AcDbEntity
  8
AM_4
100
AcDbLine
 10
-6.647310000000003
 20
-1.221029999999997
 30
0.0
 11
-6.958289999999996
 21
-1.295029999999995
 31
0.0
  0
LINE
  5
1E7
330
132
100
AcDbEntity
  8
AM_4
100
AcDbLine
 10
-6.414069999999998
 20
-1.073019999999998
 30
0.0
 11
-6.647310000000005
 21
-1.221030000000003
 31
0.0
  0
LINE
  5
1E8
330
132
100
AcDbEntity
  8
AM_4
100
AcDbLine
 10
-6.258579999999995
 20
-0.8510189999999876
 30
0.0
 11
-6.414069999999995
 21
-1.073019999999991
 31
0.0
  0
LINE
  5
1E9
330
132
100
AcDbEntity
  8
AM_4
100
AcDbLine
 10
-6.180830000000003
 20
-0.5550120000000145
 30
0.0
 11
-6.258579999999995
 21
-0.8510189999999808
 31
0.0
  0
LINE
  5
1EA
330
132
100
AcDbEntity
  8
AM_4
100
AcDbLine
 10
-6.18083
 20
0.555012000000003
 30
0.0
 11
-6.18083
 21
-0.5550119999999966
 31
0.0
  0
LINE
  5
1EB
330
132
100
AcDbEntity
  8
AM_4
100
AcDbLine
 10
-6.258580000000002
 20
0.8510190000000117
 30
0.0
 11
-6.180829999999997
 21
0.5550119999999935
 31
0.0
  0
LINE
  5
1EC
330
132
100
AcDbEntity
  8
AM_4
100
AcDbLine
 10
-6.414070000000002
 20
1.073020000000006
 30
0.0
 11
-6.258580000000001
 21
0.8510190000000049
 31
0.0
  0
LINE
  5
1ED
330
132
100
AcDbEntity
  8
AM_4
100
AcDbLine
 10
-6.64731
 20
1.221030000000002
 30
0.0
 11
-6.414070000000006
 21
1.073020000000006
 31
0.0
  0
LINE
  5
1EE
330
132
100
AcDbEntity
  8
AM_4
100
AcDbLine
 10
-6.958290000000002
 20
1.295030000000007
 30
0.0
 11
-6.647309999999997
 21
1.221030000000006
 31
0.0
  0
LINE
  5
1EF
330
132
100
AcDbEntity
  8
AM_4
100
AcDbLine
 10
-8.35773
 20
1.295030000000002
 30
0.0
 11
-6.95829
 21
1.295030000000003
 31
0.0
  0
LINE
  5
1F0
330
132
100
AcDbEntity
  8
AM_4
100
AcDbLine
 10
-4.625899999999991
 20
0.5550120000000317
 30
0.0
 11
-4.548160000000037
 21
0.8510189999998591
 31
0.0
  0
LINE
  5
1F1
330
132
100
AcDbEntity
  8
AM_4
100
AcDbLine
 10
-4.6259
 20
-0.5550119999999938
 30
0.0
 11
-4.6259
 21
0.5550120000000032
 31
0.0
  0
LINE
  5
1F2
330
132
100
AcDbEntity
  8
AM_4
100
AcDbLine
 10
-4.548160000000016
 20
-0.8510189999999357
 30
0.0
 11
-4.62589999999997
 21
-0.5550120000001116
 31
0.0
  0
LINE
  5
1F3
330
132
100
AcDbEntity
  8
AM_4
100
AcDbLine
 10
-4.392659999999987
 20
-1.073020000000021
 30
0.0
 11
-4.548160000000015
 21
-0.851018999999979
 31
0.0
  0
LINE
  5
1F4
330
132
100
AcDbEntity
  8
AM_4
100
AcDbLine
 10
-4.15943000000001
 20
-1.221029999999991
 30
0.0
 11
-4.392659999999989
 21
-1.073020000000005
 31
0.0
  0
LINE
  5
1F5
330
132
100
AcDbEntity
  8
AM_4
100
AcDbLine
 10
-3.848439999999992
 20
-1.29503
 30
0.0
 11
-4.15943000000001
 21
-1.221029999999996
 31
0.0
  0
LINE
  5
1F6
330
132
100
AcDbEntity
  8
AM_4
100
AcDbLine
 10
-3.22647
 20
-1.295029999999996
 30
0.0
 11
-3.84844
 21
-1.295029999999997
 31
0.0
  0
LINE
  5
1F7
330
132
100
AcDbEntity
  8
AM_4
100
AcDbLine
 10
-2.915489999999997
 20
-1.221029999999995
 30
0.0
 11
-3.226469999999996
 21
-1.295029999999995
 31
0.0
  0
LINE
  5
1F8
330
132
100
AcDbEntity
  8
AM_4
100
AcDbLine
 10
-2.682250000000006
 20
-1.073020000000001
 30
0.0
 11
-2.915489999999997
 21
-1.221029999999995
 31
0.0
  0
LINE
  5
1F9
330
132
100
AcDbEntity
  8
AM_4
100
AcDbLine
 10
-2.526749999999999
 20
-0.8510189999999972
 30
0.0
 11
-2.682249999999994
 21
-1.07301999999999
 31
0.0
  0
LINE
  5
1FA
330
132
100
AcDbEntity
  8
AM_4
100
AcDbLine
 10
-2.449009999999999
 20
-0.5550119999999903
 30
0.0
 11
-2.526749999999999
 21
-0.8510189999999929
 31
0.0
  0
LINE
  5
1FB
330
132
100
AcDbEntity
  8
AM_4
100
AcDbLine
 10
-2.44901
 20
0.5550120000000031
 30
0.0
 11
-2.44901
 21
-0.5550119999999965
 31
0.0
  0
LINE
  5
1FC
330
132
100
AcDbEntity
  8
AM_4
100
AcDbLine
 10
-2.526750000000006
 20
0.8510190000000256
 30
0.0
 11
-2.449010000000006
 21
0.5550120000000247
 31
0.0
  0
LINE
  5
1FD
330
132
100
AcDbEntity
  8
AM_4
100
AcDbLine
 10
-2.682250000000001
 20
1.073020000000006
 30
0.0
 11
-2.526749999999994
 21
0.8510189999999962
 31
0.0
  0
LINE
  5
1FE
330
132
100
AcDbEntity
  8
AM_4
100
AcDbLine
 10
-2.915490000000004
 20
1.221030000000006
 30
0.0
 11
-2.682250000000001
 21
1.073020000000004
 31
0.0
  0
LINE
  5
1FF
330
132
100
AcDbEntity
  8
AM_4
100
AcDbLine
 10
-3.226470000000004
 20
1.295030000000007
 30
0.0
 11
-2.915490000000005
 21
1.221030000000007
 31
0.0
  0
LINE
  5
200
330
132
100
AcDbEntity
  8
AM_4
100
AcDbLine
 10
-3.84844
 20
1.295030000000002
 30
0.0
 11
-3.22647
 21
1.295030000000003
 31
0.0
  0
LINE
  5
201
330
132
100
AcDbEntity
  8
AM_4
100
AcDbLine
 10
-4.159430000000031
 20
1.221029999999998
 30
0.0
 11
-3.848440000000011
 21
1.295030000000002
 31
0.0
  0
LINE
  5
202
330
132
100
AcDbEntity
  8
AM_4
100
AcDbLine
 10
-4.392660000000008
 20
1.073019999999998
 30
0.0
 11
-4.159430000000031
 21
1.221029999999984
 31
0.0
  0
LINE
  5
203
330
132
100
AcDbEntity
  8
AM_4
100
AcDbLine
 10
-4.548160000000036
 20
0.8510189999999606
 30
0.0
 11
-4.392660000000007
 21
1.073020000000001
 31
0.0
  0
LINE
  5
204
330
132
100
AcDbEntity
  8
AM_4
100
AcDbLine
 10
64.26200000000003
 20
-25.4
 30
0.0
 11
53.4045811341281
 21
-20.94600212550058
 31
0.0
  0
LINE
  5
205
330
132
100
AcDbEntity
  8
AM_4
100
AcDbLine
 10
-53.40458113412808
 20
-20.94600212550058
 30
0.0
 11
-64.26199999999987
 21
-25.4
 31
0.0
  0
LWPOLYLINE
  5
206
330
132
100
AcDbEntity
  8
AM_4
100
AcDbPolyline
 90
       19
 70
     0
 43
0.0
 10
-39.27999999999999
 20
-25.4
 10
-39.14926638587851
 20
-25.39429204713762
 10
-39.0195277334996
 20
-25.37721162951832
 10
-38.89177143234621
 20
-25.34888873943361
 10
-38.76696978501149
 20
-25.30953893117887
 10
-38.64607260738894
 20
-25.25946168055498
 10
-38.53
 20
-25.19903810567666
 10
-38.41963534547343
 20
-25.12872806643349
 10
-38.31581858547019
 20
-25.04906666467847
 10
-38.21933982822018
 20
-24.96066017177982
 10
-38.13093333532154
 20
-24.86418141452982
 10
-38.05127193356651
 20
-24.76036465452658
 10
-37.98096189432334
 20
-24.65000000000001
 10
-37.92053831944502
 20
-24.53392739261106
 10
-37.87046106882114
 20
-24.41303021498851
 10
-37.8311112605664
 20
-24.28822856765379
 10
-37.80278837048169
 20
-24.1604722665004
 10
-37.78570795286238
 20
-24.03073361412149
 10
-37.78061883586078
 20
-23.94308276481964
  0
LWPOLYLINE
  5
207
330
132
100
AcDbEntity
  8
AM_4
100
AcDbPolyline
 90
        7
 70
     0
 43
0.0
 10
37.7806188358608
 20
-23.94308276481962
 10
39.33331321962954
 20
-23.62528855665495
 10
40.58665733969302
 20
-23.29593038383909
 10
41.5311124905077
 20
-22.95751486093905
 10
42.15949079809825
 20
-22.61261753442499
 10
42.46700992411874
 20
-22.26386328120637
 10
42.5
 20
-22.105834262356
  0
LWPOLYLINE
  5
208
330
132
100
AcDbEntity
  8
AM_4
100
AcDbPolyline
 90
       19
 70
     0
 43
0.0
 10
37.78061883586082
 20
-23.94308276481962
 10
37.7900793442334
 20
-24.07359850091484
 10
37.81087904843505
 20
-24.20279304759646
 10
37.84285965015759
 20
-24.32968315635442
 10
37.8857777577115
 20
-24.45330311684275
 10
37.93930673838363
 20
-24.57271210651835
 10
38.0030392043094
 20
-24.68700135086867
 10
38.07649011294037
 20
-24.79530103973447
 10
38.15910045851101
 20
-24.89678694709034
 10
38.25024152641003
 20
-24.99068670390244
 10
38.34921967807824
 20
-25.0762856763232
 10
38.45528163001679
 20
-25.15293240448644
 10
38.56762018672948
 20
-25.22004356051026
 10
38.68538038396785
 20
-25.2771083879745
 10
38.80766599552538
 20
-25.32369258908548
 10
38.93354635406003
 20
-25.35944162994443
 10
39.0620634340347
 20
-25.38408343876456
 10
39.19223914287006
 20
-25.3974304765016
 10
39.28000000000004
 20
-25.4
  0
LINE
  5
209
330
132
100
AcDbEntity
  8
AM_4
100
AcDbLine
 10
53.4045811341281
 20
20.94600212550059
 30
0.0
 11
64.262
 21
25.4
 31
0.0
  0
LWPOLYLINE
  5
20A
330
132
100
AcDbEntity
  8
AM_4
100
AcDbPolyline
 90
       19
 70
     0
 43
0.0
 10
39.27999987963219
 20
25.4
 10
39.14926626596873
 20
25.39429203664687
 10
39.01952761496045
 20
25.37721160861666
 10
38.89177131607983
 20
25.34888870828012
 10
38.76696967190275
 20
25.30953889001064
 10
38.64607249829866
 20
25.25946162968534
 10
38.52999989575842
 20
25.19903804549275
 10
38.41963524687389
 20
25.12872799739334
 10
38.3158184932631
 20
25.04906658730753
 10
38.21933974310728
 20
24.96066008666692
 10
38.13093325795059
 20
24.86418132232271
 10
38.05127186452637
 20
24.76036455592703
 10
37.98096183413944
 20
24.64999989575842
 10
37.92053826857538
 20
24.53392728352076
 10
37.87046102765292
 20
24.41303010187976
 10
37.83111122941292
 20
24.2882284513874
 10
37.80278834958003
 20
24.16047214796124
 10
37.78570794237164
 20
24.03073349421172
 10
37.78061883586077
 20
23.9430827648196
  0
LWPOLYLINE
  5
20B
330
132
100
AcDbEntity
  8
AM_4
100
AcDbPolyline
 90
        7
 70
     0
 43
0.0
 10
-37.78061883586082
 20
23.94308276481961
 10
-39.33331321962955
 20
23.62528855665495
 10
-40.58665733969303
 20
23.29593038383909
 10
-41.53111249050771
 20
22.95751486093905
 10
-42.15949079809826
 20
22.61261753442498
 10
-42.46700992411874
 20
22.26386328120637
 10
-42.5
 20
22.105834262356
  0
LWPOLYLINE
  5
20C
330
132
100
AcDbEntity
  8
AM_4
100
AcDbPolyline
 90
       19
 70
     0
 43
0.0
 10
-37.78061883586082
 20
23.94308276481961
 10
-37.7900793442334
 20
24.07359850091484
 10
-37.81087904843505
 20
24.20279304759645
 10
-37.84285965015759
 20
24.32968315635442
 10
-37.8857777577115
 20
24.45330311684275
 10
-37.93930673838364
 20
24.57271210651835
 10
-38.0030392043094
 20
24.68700135086867
 10
-38.07649011294038
 20
24.79530103973446
 10
-38.15910045851101
 20
24.89678694709034
 10
-38.25024152641003
 20
24.99068670390243
 10
-38.34921967807824
 20
25.0762856763232
 10
-38.45528163001679
 20
25.15293240448643
 10
-38.56762018672948
 20
25.22004356051026
 10
-38.68538038396786
 20
25.2771083879745
 10
-38.80766599552538
 20
25.32369258908547
 10
-38.93354635406003
 20
25.35944162994443
 10
-39.0620634340347
 20
25.38408343876455
 10
-39.19223914287007
 20
25.39743047650159
 10
-39.28000000000004
 20
25.39999999999999
  0
LINE
  5
20D
330
132
100
AcDbEntity
  8
AM_4
100
AcDbLine
 10
-64.26199999999999
 20
25.4
 30
0.0
 11
-53.40458113412808
 21
20.94600212550059
 31
0.0
  0
LINE
  5
20E
330
132
100
AcDbEntity
  8
AM_4
100
AcDbLine
 10
0.5053510000000002
 20
-1.295029999999996
 30
0.0
 11
-0.894082
 21
-1.295029999999996
 31
0.0
  0
LINE
  5
20F
330
132
100
AcDbEntity
  8
AM_4
100
AcDbLine
 10
-0.8940820000000003
 20
1.295030000000002
 30
0.0
 11
0.505351
 21
1.295030000000003
 31
0.0
  0
LINE
  5
210
330
132
100
AcDbEntity
  8
AM_4
100
AcDbLine
 10
0.8163360000000042
 20
-1.221029999999994
 30
0.0
 11
0.5053509999999987
 21
-1.295029999999995
 31
0.0
  0
LINE
  5
211
330
132
100
AcDbEntity
  8
AM_4
100
AcDbLine
 10
1.049570000000003
 20
-1.073019999999995
 30
0.0
 11
0.8163360000000042
 21
-1.221029999999995
 31
0.0
  0
LINE
  5
212
330
132
100
AcDbEntity
  8
AM_4
100
AcDbLine
 10
1.205069999999998
 20
-0.8510189999999999
 30
0.0
 11
1.049570000000003
 21
-1.073019999999992
 31
0.0
  0
LINE
  5
213
330
132
100
AcDbEntity
  8
AM_4
100
AcDbLine
 10
1.282810000000005
 20
-0.555011999999979
 30
0.0
 11
1.205069999999998
 21
-0.8510190000000085
 31
0.0
  0
LINE
  5
214
330
132
100
AcDbEntity
  8
AM_4
100
AcDbLine
 10
1.28281
 20
0.5550120000000031
 30
0.0
 11
1.28281
 21
-0.5550119999999965
 31
0.0
  0
LINE
  5
215
330
132
100
AcDbEntity
  8
AM_4
100
AcDbLine
 10
1.205070000000003
 20
0.851018999999991
 30
0.0
 11
1.282809999999998
 21
0.5550120000000083
 31
0.0
  0
LINE
  5
216
330
132
100
AcDbEntity
  8
AM_4
100
AcDbLine
 10
1.049569999999996
 20
1.073020000000009
 30
0.0
 11
1.205070000000003
 21
0.8510189999999987
 31
0.0
  0
LINE
  5
217
330
132
100
AcDbEntity
  8
AM_4
100
AcDbLine
 10
0.8163359999999974
 20
1.221030000000002
 30
0.0
 11
1.049569999999996
 21
1.073020000000003
 31
0.0
  0
LINE
  5
218
330
132
100
AcDbEntity
  8
AM_4
100
AcDbLine
 10
0.5053510000000038
 20
1.295030000000004
 30
0.0
 11
0.8163359999999973
 21
1.221030000000006
 31
0.0
  0
LINE
  5
219
330
132
100
AcDbEntity
  8
AM_4
100
AcDbLine
 10
-0.894082
 20
-1.295029999999996
 30
0.0
 11
-0.8940820000000003
 21
1.295030000000002
 31
0.0
  0
LINE
  5
21A
330
132
100
AcDbEntity
  8
AM_4
100
AcDbLine
 10
0.505351
 20
-1.739039999999997
 30
0.0
 11
-1.36056
 21
-1.739039999999997
 31
0.0
  0
LINE
  5
21B
330
132
100
AcDbEntity
  8
AM_4
100
AcDbLine
 10
-1.36056
 20
1.739040000000004
 30
0.0
 11
0.505351
 21
1.739040000000004
 31
0.0
  0
LINE
  5
21C
330
132
100
AcDbEntity
  8
AM_4
100
AcDbLine
 10
8.8242
 20
-1.739039999999997
 30
0.0
 11
6.02534
 21
-1.739039999999997
 31
0.0
  0
LINE
  5
21D
330
132
100
AcDbEntity
  8
AM_4
100
AcDbLine
 10
6.02534
 20
-1.739039999999997
 30
0.0
 11
6.02534
 21
1.739040000000004
 31
0.0
  0
LINE
  5
21E
330
132
100
AcDbEntity
  8
AM_4
100
AcDbLine
 10
6.02534
 20
1.739040000000004
 30
0.0
 11
8.8242
 21
1.739040000000004
 31
0.0
  0
LINE
  5
21F
330
132
100
AcDbEntity
  8
AM_4
100
AcDbLine
 10
8.8242
 20
1.739040000000004
 30
0.0
 11
8.8242
 21
1.295030000000003
 31
0.0
  0
LINE
  5
220
330
132
100
AcDbEntity
  8
AM_4
100
AcDbLine
 10
8.8242
 20
1.295030000000003
 30
0.0
 11
6.491810000000001
 21
1.295030000000002
 31
0.0
  0
LINE
  5
221
330
132
100
AcDbEntity
  8
AM_4
100
AcDbLine
 10
6.491810000000001
 20
1.295030000000002
 30
0.0
 11
6.491810000000001
 21
0.3330070000000034
 31
0.0
  0
LINE
  5
222
330
132
100
AcDbEntity
  8
AM_4
100
AcDbLine
 10
6.491810000000001
 20
0.3330070000000034
 30
0.0
 11
8.51322
 21
0.3330070000000031
 31
0.0
  0
LINE
  5
223
330
132
100
AcDbEntity
  8
AM_4
100
AcDbLine
 10
8.51322
 20
0.3330070000000031
 30
0.0
 11
8.51322
 21
-0.1110019999999967
 31
0.0
  0
LINE
  5
224
330
132
100
AcDbEntity
  8
AM_4
100
AcDbLine
 10
8.51322
 20
-0.1110019999999967
 30
0.0
 11
6.491810000000001
 21
-0.1110019999999955
 31
0.0
  0
LINE
  5
225
330
132
100
AcDbEntity
  8
AM_4
100
AcDbLine
 10
6.491810000000001
 20
-0.1110019999999955
 30
0.0
 11
6.491810000000001
 21
-1.295029999999997
 31
0.0
  0
LINE
  5
226
330
132
100
AcDbEntity
  8
AM_4
100
AcDbLine
 10
6.491810000000001
 20
-1.295029999999997
 30
0.0
 11
8.8242
 21
-1.295029999999996
 31
0.0
  0
LINE
  5
227
330
132
100
AcDbEntity
  8
AM_4
100
AcDbLine
 10
8.8242
 20
-1.295029999999996
 30
0.0
 11
8.8242
 21
-1.739039999999997
 31
0.0
  0
LINE
  5
228
330
132
100
AcDbEntity
  8
AM_4
100
AcDbLine
 10
2.37126
 20
-0.5550119999999963
 30
0.0
 11
2.37126
 21
0.5550120000000033
 31
0.0
  0
LINE
  5
229
330
132
100
AcDbEntity
  8
AM_4
100
AcDbLine
 10
2.371259999999974
 20
0.555011999999879
 30
0.0
 11
2.449010000000001
 21
0.9250200000000055
 31
0.0
  0
LINE
  5
22A
330
132
100
AcDbEntity
  8
AM_4
100
AcDbLine
 10
2.449010000000001
 20
0.9250200000000028
 30
0.0
 11
2.604499999999978
 21
1.221029999999959
 31
0.0
  0
LINE
  5
22B
330
132
100
AcDbEntity
  8
AM_4
100
AcDbLine
 10
2.604499999999978
 20
1.221029999999979
 30
0.0
 11
2.915489999999987
 21
1.517029999999987
 31
0.0
  0
LINE
  5
22C
330
132
100
AcDbEntity
  8
AM_4
100
AcDbLine
 10
2.915489999999987
 20
1.51703
 30
0.0
 11
3.226469999999986
 21
1.66504
 31
0.0
  0
LINE
  5
22D
330
132
100
AcDbEntity
  8
AM_4
100
AcDbLine
 10
3.226469999999987
 20
1.665040000000005
 30
0.0
 11
3.61519999999999
 21
1.739040000000005
 31
0.0
  0
LINE
  5
22E
330
132
100
AcDbEntity
  8
AM_4
100
AcDbLine
 10
3.6152
 20
1.739040000000003
 30
0.0
 11
4.31492
 21
1.739040000000004
 31
0.0
  0
LINE
  5
22F
330
132
100
AcDbEntity
  8
AM_4
100
AcDbLine
 10
4.314919999999999
 20
1.739040000000001
 30
0.0
 11
4.703650000000003
 21
1.66504
 31
0.0
  0
LINE
  5
230
330
132
100
AcDbEntity
  8
AM_4
100
AcDbLine
 10
4.703650000000004
 20
1.665040000000002
 30
0.0
 11
5.014640000000003
 21
1.517030000000003
 31
0.0
  0
LINE
  5
231
330
132
100
AcDbEntity
  8
AM_4
100
AcDbLine
 10
5.014640000000003
 20
1.517030000000002
 30
0.0
 11
5.325620000000005
 21
1.221029999999999
 31
0.0
  0
LINE
  5
232
330
132
100
AcDbEntity
  8
AM_4
100
AcDbLine
 10
5.325620000000005
 20
1.22102999999998
 30
0.0
 11
5.403369999999996
 21
0.8510190000000222
 31
0.0
  0
LINE
  5
233
330
132
100
AcDbEntity
  8
AM_4
100
AcDbLine
 10
5.40337
 20
0.8510190000000032
 30
0.0
 11
4.93689
 21
0.8510190000000047
 31
0.0
  0
LINE
  5
234
330
132
100
AcDbEntity
  8
AM_4
100
AcDbLine
 10
4.936889999999995
 20
0.851019000000017
 30
0.0
 11
4.859140000000013
 21
1.073019999999964
 31
0.0
  0
LINE
  5
235
330
132
100
AcDbEntity
  8
AM_4
100
AcDbLine
 10
4.859140000000013
 20
1.073019999999995
 30
0.0
 11
4.625900000000011
 21
1.221029999999996
 31
0.0
  0
LINE
  5
236
330
132
100
AcDbEntity
  8
AM_4
100
AcDbLine
 10
4.625900000000012
 20
1.221029999999998
 30
0.0
 11
4.314919999999987
 21
1.295030000000003
 31
0.0
  0
LINE
  5
237
330
132
100
AcDbEntity
  8
AM_4
100
AcDbLine
 10
4.31492
 20
1.295030000000003
 30
0.0
 11
3.6152
 21
1.295030000000002
 31
0.0
  0
LINE
  5
238
330
132
100
AcDbEntity
  8
AM_4
100
AcDbLine
 10
3.615200000000005
 20
1.295030000000007
 30
0.0
 11
3.304219999999997
 21
1.221030000000005
 31
0.0
  0
LINE
  5
239
330
132
100
AcDbEntity
  8
AM_4
100
AcDbLine
 10
3.304219999999997
 20
1.221030000000002
 30
0.0
 11
3.07098
 21
1.073020000000003
 31
0.0
  0
LINE
  5
23A
330
132
100
AcDbEntity
  8
AM_4
100
AcDbLine
 10
3.070979999999999
 20
1.073020000000003
 30
0.0
 11
2.91549
 21
0.8510190000000031
 31
0.0
  0
LINE
  5
23B
330
132
100
AcDbEntity
  8
AM_4
100
AcDbLine
 10
2.915490000000001
 20
0.8510190000000065
 30
0.0
 11
2.837739999999995
 21
0.5550119999999866
 31
0.0
  0
LINE
  5
23C
330
132
100
AcDbEntity
  8
AM_4
100
AcDbLine
 10
2.83774
 20
0.5550120000000031
 30
0.0
 11
2.83774
 21
-0.5550119999999965
 31
0.0
  0
LINE
  5
23D
330
132
100
AcDbEntity
  8
AM_4
100
AcDbLine
 10
2.837740000000001
 20
-0.5550120000000024
 30
0.0
 11
2.915489999999993
 21
-0.8510189999999755
 31
0.0
  0
LINE
  5
23E
330
132
100
AcDbEntity
  8
AM_4
100
AcDbLine
 10
2.915489999999993
 20
-0.8510189999999876
 30
0.0
 11
3.070980000000004
 21
-1.073020000000004
 31
0.0
  0
LINE
  5
23F
330
132
100
AcDbEntity
  8
AM_4
100
AcDbLine
 10
3.070979999999994
 20
-1.073019999999997
 30
0.0
 11
3.304220000000003
 21
-1.221030000000002
 31
0.0
  0
LINE
  5
240
330
132
100
AcDbEntity
  8
AM_4
100
AcDbLine
 10
3.304220000000003
 20
-1.22103
 30
0.0
 11
3.615199999999998
 21
-1.295029999999998
 31
0.0
  0
LINE
  5
241
330
132
100
AcDbEntity
  8
AM_4
100
AcDbLine
 10
3.6152
 20
-1.295029999999997
 30
0.0
 11
4.31492
 21
-1.295029999999996
 31
0.0
  0
LINE
  5
242
330
132
100
AcDbEntity
  8
AM_4
100
AcDbLine
 10
4.314919999999968
 20
-1.295030000000001
 30
0.0
 11
4.625899999999991
 21
-1.221029999999996
 31
0.0
  0
LINE
  5
243
330
132
100
AcDbEntity
  8
AM_4
100
AcDbLine
 10
4.625899999999991
 20
-1.221030000000002
 30
0.0
 11
4.859139999999994
 21
-1.073020000000001
 31
0.0
  0
LINE
  5
244
330
132
100
AcDbEntity
  8
AM_4
100
AcDbLine
 10
4.859139999999995
 20
-1.07302000000002
 30
0.0
 11
4.936889999999975
 21
-0.8510190000000727
 31
0.0
  0
LINE
  5
245
330
132
100
AcDbEntity
  8
AM_4
100
AcDbLine
 10
4.93689
 20
-0.8510189999999968
 30
0.0
 11
4.93689
 21
-0.2590059999999966
 31
0.0
  0
LINE
  5
246
330
132
100
AcDbEntity
  8
AM_4
100
AcDbLine
 10
4.93689
 20
-0.2590059999999966
 30
0.0
 11
4.23717
 21
-0.2590059999999957
 31
0.0
  0
LINE
  5
247
330
132
100
AcDbEntity
  8
AM_4
100
AcDbLine
 10
4.23717
 20
-0.2590059999999957
 30
0.0
 11
4.23717
 21
0.1850040000000034
 31
0.0
  0
LINE
  5
248
330
132
100
AcDbEntity
  8
AM_4
100
AcDbLine
 10
4.23717
 20
0.1850040000000034
 30
0.0
 11
5.40337
 21
0.1850040000000021
 31
0.0
  0
LINE
  5
249
330
132
100
AcDbEntity
  8
AM_4
100
AcDbLine
 10
5.40337
 20
0.1850040000000021
 30
0.0
 11
5.40337
 21
-0.9250199999999966
 31
0.0
  0
LINE
  5
24A
330
132
100
AcDbEntity
  8
AM_4
100
AcDbLine
 10
5.403370000000002
 20
-0.9250199999999883
 30
0.0
 11
5.32562
 21
-1.221029999999998
 31
0.0
  0
LINE
  5
24B
330
132
100
AcDbEntity
  8
AM_4
100
AcDbLine
 10
5.325619999999999
 20
-1.221029999999995
 30
0.0
 11
5.014639999999997
 21
-1.517029999999997
 31
0.0
  0
LINE
  5
24C
330
132
100
AcDbEntity
  8
AM_4
100
AcDbLine
 10
5.014639999999996
 20
-1.517029999999995
 30
0.0
 11
4.703649999999999
 21
-1.665039999999995
 31
0.0
  0
LINE
  5
24D
330
132
100
AcDbEntity
  8
AM_4
100
AcDbLine
 10
4.703649999999999
 20
-1.665039999999998
 30
0.0
 11
4.314920000000005
 21
-1.739039999999996
 31
0.0
  0
LINE
  5
24E
330
132
100
AcDbEntity
  8
AM_4
100
AcDbLine
 10
4.31492
 20
-1.739039999999997
 30
0.0
 11
3.6152
 21
-1.739039999999997
 31
0.0
  0
LINE
  5
24F
330
132
100
AcDbEntity
  8
AM_4
100
AcDbLine
 10
3.615200000000011
 20
-1.739039999999999
 30
0.0
 11
3.226470000000007
 21
-1.665039999999998
 31
0.0
  0
LINE
  5
250
330
132
100
AcDbEntity
  8
AM_4
100
AcDbLine
 10
3.226470000000007
 20
-1.66504
 30
0.0
 11
2.915490000000007
 21
-1.51703
 31
0.0
  0
LINE
  5
251
330
132
100
AcDbEntity
  8
AM_4
100
AcDbLine
 10
2.915490000000007
 20
-1.517030000000007
 30
0.0
 11
2.604499999999998
 21
-1.221029999999998
 31
0.0
  0
LINE
  5
252
330
132
100
AcDbEntity
  8
AM_4
100
AcDbLine
 10
2.604499999999998
 20
-1.22102999999999
 30
0.0
 11
2.44901000000002
 21
-0.9250200000000343
 31
0.0
  0
LINE
  5
253
330
132
100
AcDbEntity
  8
AM_4
100
AcDbLine
 10
2.449010000000021
 20
-0.9250200000000959
 30
0.0
 11
2.371259999999994
 21
-0.5550119999999678
 31
0.0
  0
LINE
  5
254
330
132
100
AcDbEntity
  8
AM_4
100
AcDbLine
 10
-1.36056
 20
-1.739039999999997
 30
0.0
 11
-1.36056
 21
1.739040000000004
 31
0.0
  0
LINE
  5
255
330
132
100
AcDbEntity
  8
AM_4
100
AcDbLine
 10
0.5053510000000038
 20
1.739040000000001
 30
0.0
 11
0.8940820000000029
 21
1.665040000000001
 31
0.0
  0
LINE
  5
256
330
132
100
AcDbEntity
  8
AM_4
100
AcDbLine
 10
0.8940820000000029
 20
1.665039999999999
 30
0.0
 11
1.205070000000003
 21
1.517029999999999
 31
0.0
  0
LINE
  5
257
330
132
100
AcDbEntity
  8
AM_4
100
AcDbLine
 10
1.205070000000003
 20
1.517030000000003
 30
0.0
 11
1.516050000000002
 21
1.221030000000003
 31
0.0
  0
LINE
  5
258
330
132
100
AcDbEntity
  8
AM_4
100
AcDbLine
 10
1.516050000000003
 20
1.221029999999998
 30
0.0
 11
1.671549999999997
 21
0.9250200000000085
 31
0.0
  0
LINE
  5
259
330
132
100
AcDbEntity
  8
AM_4
100
AcDbLine
 10
1.671549999999997
 20
0.9250200000000176
 30
0.0
 11
1.749290000000002
 21
0.5550119999999917
 31
0.0
  0
LINE
  5
25A
330
132
100
AcDbEntity
  8
AM_4
100
AcDbLine
 10
1.74929
 20
0.5550120000000031
 30
0.0
 11
1.74929
 21
-0.5550119999999965
 31
0.0
  0
LINE
  5
25B
330
132
100
AcDbEntity
  8
AM_4
100
AcDbLine
 10
1.749289999999997
 20
-0.555012000000011
 30
0.0
 11
1.671550000000004
 21
-0.9250199999999796
 31
0.0
  0
LINE
  5
25C
330
132
100
AcDbEntity
  8
AM_4
100
AcDbLine
 10
1.671550000000004
 20
-0.9250199999999926
 30
0.0
 11
1.516049999999997
 21
-1.221030000000005
 31
0.0
  0
LINE
  5
25D
330
132
100
AcDbEntity
  8
AM_4
100
AcDbLine
 10
1.516049999999997
 20
-1.221029999999999
 30
0.0
 11
1.205069999999998
 21
-1.517029999999998
 31
0.0
  0
LINE
  5
25E
330
132
100
AcDbEntity
  8
AM_4
100
AcDbLine
 10
1.205069999999998
 20
-1.517029999999999
 30
0.0
 11
0.8940819999999974
 21
-1.665039999999999
 31
0.0
  0
LINE
  5
25F
330
132
100
AcDbEntity
  8
AM_4
100
AcDbLine
 10
0.8940819999999974
 20
-1.665039999999999
 30
0.0
 11
0.5053509999999984
 21
-1.739039999999999
 31
0.0
  0
LINE
  5
260
330
132
100
AcDbEntity
  8
AM_4
100
AcDbLine
 10
-5.09238
 20
-0.5550119999999964
 30
0.0
 11
-5.09238
 21
0.5550120000000032
 31
0.0
  0
LINE
  5
261
330
132
100
AcDbEntity
  8
AM_4
100
AcDbLine
 10
-5.092380000000003
 20
0.5550119999999866
 30
0.0
 11
-5.014640000000008
 21
0.9250199999999603
 31
0.0
  0
LINE
  5
262
330
132
100
AcDbEntity
  8
AM_4
100
AcDbLine
 10
-5.014640000000008
 20
0.9250199999999881
 30
0.0
 11
-4.859139999999993
 21
1.221030000000018
 31
0.0
  0
LINE
  5
263
330
132
100
AcDbEntity
  8
AM_4
100
AcDbLine
 10
-4.859139999999994
 20
1.22103000000001
 30
0.0
 11
-4.548160000000037
 21
1.517029999999968
 31
0.0
  0
LINE
  5
264
330
132
100
AcDbEntity
  8
AM_4
100
AcDbLine
 10
-4.548160000000038
 20
1.517029999999983
 30
0.0
 11
-4.237170000000006
 21
1.665039999999997
 31
0.0
  0
LINE
  5
265
330
132
100
AcDbEntity
  8
AM_4
100
AcDbLine
 10
-4.237170000000006
 20
1.665040000000004
 30
0.0
 11
-3.848440000000011
 21
1.739040000000003
 31
0.0
  0
LINE
  5
266
330
132
100
AcDbEntity
  8
AM_4
100
AcDbLine
 10
-3.84844
 20
1.739040000000003
 30
0.0
 11
-3.22647
 21
1.739040000000004
 31
0.0
  0
LINE
  5
267
330
132
100
AcDbEntity
  8
AM_4
100
AcDbLine
 10
-3.226470000000003
 20
1.73904
 30
0.0
 11
-2.837739999999998
 21
1.665039999999999
 31
0.0
  0
LINE
  5
268
330
132
100
AcDbEntity
  8
AM_4
100
AcDbLine
 10
-2.837739999999999
 20
1.665040000000001
 30
0.0
 11
-2.526750000000007
 21
1.517030000000005
 31
0.0
  0
LINE
  5
269
330
132
100
AcDbEntity
  8
AM_4
100
AcDbLine
 10
-2.526749999999994
 20
1.517029999999999
 30
0.0
 11
-2.215769999999996
 21
1.22103
 31
0.0
  0
LINE
  5
26A
330
132
100
AcDbEntity
  8
AM_4
100
AcDbLine
 10
-2.215769999999995
 20
1.221029999999993
 30
0.0
 11
-2.060279999999996
 21
0.9250199999999951
 31
0.0
  0
LINE
  5
26B
330
132
100
AcDbEntity
  8
AM_4
100
AcDbLine
 10
-2.060279999999996
 20
0.9250199999999846
 30
0.0
 11
-1.982529999999998
 21
0.5550119999999953
 31
0.0
  0
LINE
  5
26C
330
132
100
AcDbEntity
  8
AM_4
100
AcDbLine
 10
-1.98253
 20
0.5550120000000031
 30
0.0
 11
-1.98253
 21
-0.5550119999999965
 31
0.0
  0
LINE
  5
26D
330
132
100
AcDbEntity
  8
AM_4
100
AcDbLine
 10
-1.982530000000004
 20
-0.5550120000000145
 30
0.0
 11
-2.060280000000001
 21
-0.925020000000004
 31
0.0
  0
LINE
  5
26E
330
132
100
AcDbEntity
  8
AM_4
100
AcDbLine
 10
-2.060280000000001
 20
-0.9250199999999987
 30
0.0
 11
-2.21577
 21
-1.221029999999997
 31
0.0
  0
LINE
  5
26F
330
132
100
AcDbEntity
  8
AM_4
100
AcDbLine
 10
-2.21577
 20
-1.221029999999996
 30
0.0
 11
-2.526749999999999
 21
-1.517029999999995
 31
0.0
  0
LINE
  5
270
330
132
100
AcDbEntity
  8
AM_4
100
AcDbLine
 10
-2.526749999999999
 20
-1.517029999999998
 30
0.0
 11
-2.837740000000005
 21
-1.66504
 31
0.0
  0
LINE
  5
271
330
132
100
AcDbEntity
  8
AM_4
100
AcDbLine
 10
-2.837740000000004
 20
-1.665039999999997
 30
0.0
 11
-3.226469999999996
 21
-1.739039999999995
 31
0.0
  0
LINE
  5
272
330
132
100
AcDbEntity
  8
AM_4
100
AcDbLine
 10
-3.22647
 20
-1.739039999999997
 30
0.0
 11
-3.84844
 21
-1.739039999999997
 31
0.0
  0
LINE
  5
273
330
132
100
AcDbEntity
  8
AM_4
100
AcDbLine
 10
-3.848439999999991
 20
-1.739039999999997
 30
0.0
 11
-4.237169999999987
 21
-1.665039999999998
 31
0.0
  0
LINE
  5
274
330
132
100
AcDbEntity
  8
AM_4
100
AcDbLine
 10
-4.237169999999987
 20
-1.66504
 30
0.0
 11
-4.548159999999967
 21
-1.517030000000009
 31
0.0
  0
LINE
  5
275
330
132
100
AcDbEntity
  8
AM_4
100
AcDbLine
 10
-4.548160000000016
 20
-1.517029999999984
 30
0.0
 11
-4.859139999999972
 21
-1.221030000000026
 31
0.0
  0
LINE
  5
276
330
132
100
AcDbEntity
  8
AM_4
100
AcDbLine
 10
-4.859139999999973
 20
-1.221030000000045
 30
0.0
 11
-5.014639999999988
 21
-0.925020000000016
 31
0.0
  0
LINE
  5
277
330
132
100
AcDbEntity
  8
AM_4
100
AcDbLine
 10
-5.014639999999988
 20
-0.9250200000000542
 30
0.0
 11
-5.092379999999983
 21
-0.5550120000000839
 31
0.0
  0
LINE
  5
278
330
132
100
AcDbEntity
  8
AM_4
100
AcDbLine
 10
-8.8242
 20
-1.739039999999997
 30
0.0
 11
-8.8242
 21
1.739040000000003
 31
0.0
  0
LINE
  5
279
330
132
100
AcDbEntity
  8
AM_4
100
AcDbLine
 10
-8.8242
 20
1.739040000000003
 30
0.0
 11
-6.95829
 21
1.739040000000003
 31
0.0
  0
LINE
  5
27A
330
132
100
AcDbEntity
  8
AM_4
100
AcDbLine
 10
-6.958290000000003
 20
1.739040000000002
 30
0.0
 11
-6.569560000000004
 21
1.665040000000002
 31
0.0
  0
LINE
  5
27B
330
132
100
AcDbEntity
  8
AM_4
100
AcDbLine
 10
-6.569560000000004
 20
1.665039999999999
 30
0.0
 11
-6.258580000000001
 21
1.517029999999998
 31
0.0
  0
LINE
  5
27C
330
132
100
AcDbEntity
  8
AM_4
100
AcDbLine
 10
-6.258580000000003
 20
1.517030000000009
 30
0.0
 11
-5.947589999999993
 21
1.22103
 31
0.0
  0
LINE
  5
27D
330
132
100
AcDbEntity
  8
AM_4
100
AcDbLine
 10
-5.947590000000005
 20
1.221030000000012
 30
0.0
 11
-5.792100000000008
 21
0.9250200000000176
 31
0.0
  0
LINE
  5
27E
330
132
100
AcDbEntity
  8
AM_4
100
AcDbLine
 10
-5.792099999999995
 20
0.9250199999999846
 30
0.0
 11
-5.714349999999995
 21
0.5550119999999796
 31
0.0
  0
LINE
  5
27F
330
132
100
AcDbEntity
  8
AM_4
100
AcDbLine
 10
-5.71435
 20
0.555012000000003
 30
0.0
 11
-5.71435
 21
-0.5550119999999966
 31
0.0
  0
LINE
  5
280
330
132
100
AcDbEntity
  8
AM_4
100
AcDbLine
 10
-5.714350000000001
 20
-0.5550119999999937
 30
0.0
 11
-5.792100000000001
 21
-0.9250199999999953
 31
0.0
  0
LINE
  5
281
330
132
100
AcDbEntity
  8
AM_4
100
AcDbLine
 10
-5.7921
 20
-0.9250199999999987
 30
0.0
 11
-5.947589999999997
 21
-1.221029999999993
 31
0.0
  0
LINE
  5
282
330
132
100
AcDbEntity
  8
AM_4
100
AcDbLine
 10
-5.947589999999998
 20
-1.221029999999992
 30
0.0
 11
-6.258579999999995
 21
-1.517029999999989
 31
0.0
  0
LINE
  5
283
330
132
100
AcDbEntity
  8
AM_4
100
AcDbLine
 10
-6.258580000000007
 20
-1.517029999999998
 30
0.0
 11
-6.569559999999997
 21
-1.665039999999993
 31
0.0
  0
LINE
  5
284
330
132
100
AcDbEntity
  8
AM_4
100
AcDbLine
 10
-6.569560000000009
 20
-1.665040000000001
 30
0.0
 11
-6.958289999999996
 21
-1.739039999999998
 31
0.0
  0
LINE
  5
285
330
132
100
AcDbEntity
  8
AM_4
100
AcDbLine
 10
-6.95829
 20
-1.739039999999997
 30
0.0
 11
-8.8242
 21
-1.739039999999997
 31
0.0
  0
LWPOLYLINE
  5
286
330
132
100
AcDbEntity
  8
AM_4
100
AcDbPolyline
 90
       32
 70
     0
 43
0.0
 10
53.4045811341281
 20
-20.94600212550058
 10
52.13040581441829
 20
-20.51108191436613
 10
50.4594866292611
 20
-20.08829873153768
 10
48.40454028258417
 20
-19.68087021232001
 10
45.98120615689626
 20
-19.29189713375645
 10
43.20792728814298
 20
-18.92433981584322
 10
40.10581000306712
 20
-18.58099559170682
 10
36.69846328731774
 20
-18.26447751820985
 10
33.01181910681389
 20
-17.97719448901045
 10
29.07393504982581
 20
-17.72133290142706
 10
24.9147807917866
 20
-17.49884001663465
 10
20.56601000796593
 20
-17.31140913983135
 10
16.06071946988829
 20
-17.16046673316351
 10
11.43319715891722
 20
-17.04716155948738
 10
6.718661314013607
 20
-16.97235593959017
 10
1.952992399671729
 20
-16.93661918940818
 10
-2.827539966080704
 20
-16.94022328718871
 10
-7.586553045375951
 20
-16.98314080357144
 10
-12.28782787510991
 20
-17.06504511034242
 10
-16.89558491512096
 20
-17.18531286627193
 10
-21.37475635209483
 20
-17.34302876111768
 10
-25.69125298679851
 20
-17.53699248168844
 10
-29.81222367346995
 20
-17.76572784695218
 10
-33.70630533687348
 20
-18.02749404266506
 10
-37.34386166423977
 20
-18.32029887001893
 10
-40.69720865550103
 20
-18.64191390747725
 10
-43.74082531524746
 20
-18.98989147040849
 10
-46.45154788291244
 20
-19.36158323944415
 10
-48.80874612297695
 20
-19.75416041578825
 10
-50.79448033351894
 20
-20.16463525008422
 10
-52.39363787817705
 20
-20.58988378099158
 10
-53.40458113412808
 20
-20.94600212550058
  0
LINE
  5
287
330
132
100
AcDbEntity
  8
AM_4
100
AcDbLine
 10
53.4045811341281
 20
-20.94600212550058
 30
0.0
 11
53.4045811341281
 21
20.94600212550059
 31
0.0
  0
LWPOLYLINE
  5
288
330
132
100
AcDbEntity
  8
AM_4
100
AcDbPolyline
 90
       32
 70
     0
 43
0.0
 10
-53.40458113412808
 20
20.94600212550059
 10
-52.13040581441826
 20
20.51108191436614
 10
-50.45948662926107
 20
20.08829873153769
 10
-48.40454028258414
 20
19.68087021232002
 10
-45.98120615689623
 20
19.29189713375646
 10
-43.20792728814295
 20
18.92433981584324
 10
-40.10581000306709
 20
18.58099559170684
 10
-36.69846328731771
 20
18.26447751820987
 10
-33.01181910681386
 20
17.97719448901046
 10
-29.07393504982578
 20
17.72133290142708
 10
-24.91478079178657
 20
17.49884001663466
 10
-20.5660100079659
 20
17.31140913983137
 10
-16.06071946988826
 20
17.16046673316353
 10
-11.4331971589172
 20
17.0471615594874
 10
-6.71866131401358
 20
16.97235593959019
 10
-1.952992399671702
 20
16.93661918940819
 10
2.827539966080731
 20
16.94022328718873
 10
7.586553045375978
 20
16.98314080357147
 10
12.28782787510994
 20
17.06504511034244
 10
16.89558491512098
 20
17.18531286627194
 10
21.37475635209486
 20
17.34302876111769
 10
25.69125298679853
 20
17.53699248168846
 10
29.81222367346998
 20
17.76572784695221
 10
33.70630533687351
 20
18.02749404266507
 10
37.3438616642398
 20
18.32029887001894
 10
40.69720865550106
 20
18.64191390747726
 10
43.74082531524749
 20
18.98989147040851
 10
46.45154788291245
 20
19.36158323944417
 10
48.80874612297698
 20
19.75416041578826
 10
50.79448033351895
 20
20.16463525008423
 10
52.39363787817707
 20
20.5898837809916
 10
53.4045811341281
 20
20.94600212550059
  0
LINE
  5
289
330
132
100
AcDbEntity
  8
AM_4
100
AcDbLine
 10
-53.40458113412808
 20
-20.94600212550058
 30
0.0
 11
-53.40458113412808
 21
20.94600212550059
 31
0.0
  0
ENDBLK
  5
135
330
132
100
AcDbEntity
  8
0
100
AcDbBlockEnd
  0
ENDSEC
  0
SECTION
  2
ENTITIES
  0
INSERT
  5
6F
330
1F
100
AcDbEntity
  8
0
100
AcDbBlockReference
  2
1_129044_4
 10
0.0
 20
0.0
 30
0.0
  0
POINT
  5
28B
330
1F
100
AcDbEntity
  8
ConnectionPoints
100
AcDbPoint
 10
0.0
 20
0.0
 30
0.0
  0
POINT
  5
28C
330
1F
100
AcDbEntity
  8
ConnectionPoints
100
AcDbPoint
 10
0.0
 20
16.7
 30
-0.000000000000001
  0
POINT
  5
28D
330
1F
100
AcDbEntity
  8
ConnectionPoints
100
AcDbPoint
 10
0.0
 20
0.0
 30
0.0
  0
POINT
  5
28E
330
1F
100
AcDbEntity
  8
ConnectionPoints
100
AcDbPoint
 10
0.0
 20
0.0
 30
0.0
  0
ENDSEC
  0
SECTION
  2
OBJECTS
  0
DICTIONARY
  5
C
330
0
100
AcDbDictionary
281
     1
  3
ACAD_DETAILVIEWSTYLE
350
296
  3
ACAD_GROUP
350
D
  3
ACAD_LAYOUT
350
1A
  3
ACAD_MATERIAL
350
43
  3
ACAD_MLEADERSTYLE
350
6B
  3
ACAD_MLINESTYLE
350
17
  3
ACAD_PLOTSETTINGS
350
19
  3
ACAD_PLOTSTYLENAME
350
E
  3
ACAD_SCALELIST
350
47
  3
ACAD_SECTIONVIEWSTYLE
350
297
  3
ACAD_TABLESTYLE
350
69
  3
ACAD_VISUALSTYLE
350
2A
  3
ACDB_RECOMPOSE_DATA
350
293
  3
AcDbVariableDictionary
350
28F
  0
SUN
  5
6D
330
29
100
AcDbSun
 90
        1
290
     0
 63
     7
421
 16777215
 40
1.0
291
     1
 91
  2455826
 92
 54000000
292
     0
 70
     2
 71
   256
280
     1
  0
DICTIONARY
  5
296
102
{ACAD_REACTORS
330
C
102
}
330
C
100
AcDbDictionary
281
     1
  0
DICTIONARY
  5
D
102
{ACAD_REACTORS
330
C
102
}
330
C
100
AcDbDictionary
281
     1
  0
DICTIONARY
  5
1A
102
{ACAD_REACTORS
330
C
102
}
330
C
100
AcDbDictionary
281
     1
  3
Layout1
350
1E
  3
Layout2
350
26
  3
Model
350
22
  0
DICTIONARY
  5
43
102
{ACAD_REACTORS
330
C
102
}
330
C
100
AcDbDictionary
281
     1
  3
ByBlock
350
45
  3
ByLayer
350
44
  3
Global
350
46
  0
DICTIONARY
  5
6B
102
{ACAD_REACTORS
330
C
102
}
330
C
100
AcDbDictionary
281
     1
  3
Standard
350
6C
  0
DICTIONARY
  5
17
102
{ACAD_REACTORS
330
C
102
}
330
C
100
AcDbDictionary
281
     1
  3
Standard
350
18
  0
DICTIONARY
  5
19
102
{ACAD_REACTORS
330
C
102
}
330
C
100
AcDbDictionary
281
     1
  0
ACDBDICTIONARYWDFLT
  5
E
102
{ACAD_REACTORS
330
C
102
}
330
C
100
AcDbDictionary
281
     1
  3
Normal
350
F
100
AcDbDictionaryWithDefault
340
F
  0
DICTIONARY
  5
47
102
{ACAD_REACTORS
330
C
102
}
330
C
100
AcDbDictionary
281
     1
  3
A0
350
48
  3
A1
350
49
  3
A2
350
4A
  3
A3
350
4B
  3
A4
350
4C
  3
A5
350
4D
  3
A6
350
4E
  3
A7
350
4F
  3
A8
350
50
  3
A9
350
51
  3
B0
350
52
  3
B1
350
53
  3
B2
350
54
  3
B3
350
55
  3
B4
350
56
  3
B5
350
57
  3
B6
350
58
  3
B7
350
59
  3
B8
350
5A
  3
B9
350
5B
  3
C0
350
5C
  3
C1
350
5D
  3
C2
350
5E
  3
C3
350
5F
  3
C4
350
60
  3
C5
350
61
  3
C6
350
62
  3
C7
350
63
  3
C8
350
64
  3
C9
350
65
  3
D0
350
66
  3
D1
350
67
  3
D2
350
68
  0
DICTIONARY
  5
297
102
{ACAD_REACTORS
330
C
102
}
330
C
100
AcDbDictionary
281
     1
  0
DICTIONARY
  5
69
102
{ACAD_REACTORS
330
C
102
}
330
C
100
AcDbDictionary
281
     1
  3
Standard
350
6A
  0
DICTIONARY
  5
2A
102
{ACAD_REACTORS
330
C
102
}
330
C
100
AcDbDictionary
281
     1
  3
2dWireframe
350
2F
  3
Basic
350
32
  3
Brighten
350
36
  3
ColorChange
350
3A
  3
Conceptual
350
34
  3
Dim
350
35
  3
EdgeColorOff
350
3D
  3
Facepattern
350
39
  3
Flat
350
2B
  3
FlatWithEdges
350
2C
  3
Gouraud
350
2D
  3
GouraudWithEdges
350
2E
  3
Hidden
350
31
  3
JitterOff
350
3B
  3
Linepattern
350
38
  3
OverhangOff
350
3C
  3
Realistic
350
33
  3
Shaded
350
42
  3
Shaded with edges
350
41
  3
Shades of Gray
350
3E
  3
Sketchy
350
3F
  3
Thicken
350
37
  3
Wireframe
350
30
  3
X-Ray
350
40
  0
XRECORD
  5
293
102
{ACAD_REACTORS
330
C
102
}
330
C
100
AcDbXrecord
280
     1
 90
        1
330
6A
  0
DICTIONARY
  5
28F
102
{ACAD_REACTORS
330
C
102
}
330
C
100
AcDbDictionary
281
     1
  3
CANNOSCALE
350
290
  3
CMLEADERSTYLE
350
295
  3
CTABLESTYLE
350
294
  0
LAYOUT
  5
1E
102
{ACAD_REACTORS
330
1A
102
}
330
1A
100
AcDbPlotSettings
  1

  2
none_device
  4

  6

 40
0.0
 41
0.0
 42
0.0
 43
0.0
 44
0.0
 45
0.0
 46
0.0
 47
0.0
 48
0.0
 49
0.0
140
0.0
141
0.0
142
1.0
143
1.0
 70
   688
 72
     1
 73
     0
 74
     5
  7

 75
    16
 76
     0
 77
     2
 78
   300
147
1.0
148
0.0
149
0.0
100
AcDbLayout
  1
Layout1
 70
     1
 71
     1
 10
0.0
 20
0.0
 11
420.0
 21
297.0
 12
0.0
 22
0.0
 32
0.0
 14
1.000000000000000E+20
 24
1.000000000000000E+20
 34
1.000000000000000E+20
 15
-1.000000000000000E+20
 25
-1.000000000000000E+20
 35
-1.000000000000000E+20
146
0.0
 13
0.0
 23
0.0
 33
0.0
 16
1.0
 26
0.0
 36
0.0
 17
0.0
 27
1.0
 37
0.0
 76
     0
330
1B
  0
LAYOUT
  5
26
102
{ACAD_REACTORS
330
1A
102
}
330
1A
100
AcDbPlotSettings
  1

  2
none_device
  4

  6

 40
0.0
 41
0.0
 42
0.0
 43
0.0
 44
0.0
 45
0.0
 46
0.0
 47
0.0
 48
0.0
 49
0.0
140
0.0
141
0.0
142
1.0
143
1.0
 70
   688
 72
     1
 73
     0
 74
     5
  7

 75
    16
 76
     0
 77
     2
 78
   300
147
1.0
148
0.0
149
0.0
100
AcDbLayout
  1
Layout2
 70
     1
 71
     2
 10
0.0
 20
0.0
 11
0.0
 21
0.0
 12
0.0
 22
0.0
 32
0.0
 14
0.0
 24
0.0
 34
0.0
 15
0.0
 25
0.0
 35
0.0
146
0.0
 13
0.0
 23
0.0
 33
0.0
 16
1.0
 26
0.0
 36
0.0
 17
0.0
 27
1.0
 37
0.0
 76
     0
330
23
  0
LAYOUT
  5
22
102
{ACAD_REACTORS
330
1A
102
}
330
1A
100
AcDbPlotSettings
  1

  2
none_device
  4
Letter_(8.50_x_11.00_Inches)
  6

 40
6.35
 41
6.35
 42
6.35000508
 43
6.35000508
 44
215.9
 45
279.4
 46
0.0
 47
0.0
 48
0.0
 49
0.0
140
0.0
141
0.0
142
1.0
143
1.0
 70
  1712
 72
     1
 73
     0
 74
     0
  7

 75
     0
 76
     0
 77
     2
 78
   300
147
1.0
148
0.0
149
0.0
100
AcDbLayout
  1
Model
 70
     1
 71
     0
 10
0.0
 20
0.0
 11
420.0
 21
297.0
 12
0.0
 22
0.0
 32
0.0
 14
1.000000000000000E+20
 24
1.000000000000000E+20
 34
1.000000000000000E+20
 15
-1.000000000000000E+20
 25
-1.000000000000000E+20
 35
-1.000000000000000E+20
146
0.0
 13
0.0
 23
0.0
 33
0.0
 16
1.0
 26
0.0
 36
0.0
 17
0.0
 27
1.0
 37
0.0
 76
     0
330
1F
331
29
  0
MATERIAL
  5
45
102
{ACAD_REACTORS
330
43
102
}
330
43
100
AcDbMaterial
  1
ByBlock
 72
     1
 94
      127
  0
MATERIAL
  5
44
102
{ACAD_REACTORS
330
43
102
}
330
43
100
AcDbMaterial
  1
ByLayer
 72
     1
 94
      127
  0
MATERIAL
  5
46
102
{ACAD_REACTORS
330
43
102
}
330
43
100
AcDbMaterial
  1
Global
 72
     1
 94
      127
  0
MLEADERSTYLE
  5
6C
102
{ACAD_REACTORS
330
6B
102
}
330
6B
100
AcDbMLeaderStyle
179
     2
170
     2
171
     1
172
     0
 90
        2
 40
0.0
 41
0.0
173
     1
 91
-1056964608
340
14
 92
       -2
290
     1
 42
2.0
291
     1
 43
8.0
  3
Standard
341
0
 44
4.0
300

342
11
174
     1
178
     6
175
     1
176
     0
 93
-1056964608
 45
4.0
292
     0
297
     0
 46
4.0
343
0
 94
-1056964608
 47
1.0
 49
1.0
140
1.0
293
     1
141
0.0
294
     1
177
     0
142
1.0
295
     0
296
     0
143
3.75
271
     0
272
     9
273
     9
298
     0
  0
MLINESTYLE
  5
18
102
{ACAD_REACTORS
330
17
102
}
330
17
100
AcDbMlineStyle
  2
Standard
 70
     0
  3

 62
   256
 51
90.0
 52
90.0
 71
     2
 49
0.5
 62
   256
  6
BYLAYER
 49
-0.5
 62
   256
  6
BYLAYER
  0
ACDBPLACEHOLDER
  5
F
102
{ACAD_REACTORS
330
E
102
}
330
E
  0
SCALE
  5
48
102
{ACAD_REACTORS
330
47
102
}
330
47
100
AcDbScale
 70
     0
300
1:1
140
1.0
141
1.0
290
     1
  0
SCALE
  5
49
102
{ACAD_REACTORS
330
47
102
}
330
47
100
AcDbScale
 70
     0
300
1:2
140
1.0
141
2.0
290
     0
  0
SCALE
  5
4A
102
{ACAD_REACTORS
330
47
102
}
330
47
100
AcDbScale
 70
     0
300
1:4
140
1.0
141
4.0
290
     0
  0
SCALE
  5
4B
102
{ACAD_REACTORS
330
47
102
}
330
47
100
AcDbScale
 70
     0
300
1:5
140
1.0
141
5.0
290
     0
  0
SCALE
  5
4C
102
{ACAD_REACTORS
330
47
102
}
330
47
100
AcDbScale
 70
     0
300
1:8
140
1.0
141
8.0
290
     0
  0
SCALE
  5
4D
102
{ACAD_REACTORS
330
47
102
}
330
47
100
AcDbScale
 70
     0
300
1:10
140
1.0
141
10.0
290
     0
  0
SCALE
  5
4E
102
{ACAD_REACTORS
330
47
102
}
330
47
100
AcDbScale
 70
     0
300
1:16
140
1.0
141
16.0
290
     0
  0
SCALE
  5
4F
102
{ACAD_REACTORS
330
47
102
}
330
47
100
AcDbScale
 70
     0
300
1:20
140
1.0
141
20.0
290
     0
  0
SCALE
  5
50
102
{ACAD_REACTORS
330
47
102
}
330
47
100
AcDbScale
 70
     0
300
1:30
140
1.0
141
30.0
290
     0
  0
SCALE
  5
51
102
{ACAD_REACTORS
330
47
102
}
330
47
100
AcDbScale
 70
     0
300
1:40
140
1.0
141
40.0
290
     0
  0
SCALE
  5
52
102
{ACAD_REACTORS
330
47
102
}
330
47
100
AcDbScale
 70
     0
300
1:50
140
1.0
141
50.0
290
     0
  0
SCALE
  5
53
102
{ACAD_REACTORS
330
47
102
}
330
47
100
AcDbScale
 70
     0
300
1:100
140
1.0
141
100.0
290
     0
  0
SCALE
  5
54
102
{ACAD_REACTORS
330
47
102
}
330
47
100
AcDbScale
 70
     0
300
2:1
140
2.0
141
1.0
290
     0
  0
SCALE
  5
55
102
{ACAD_REACTORS
330
47
102
}
330
47
100
AcDbScale
 70
     0
300
4:1
140
4.0
141
1.0
290
     0
  0
SCALE
  5
56
102
{ACAD_REACTORS
330
47
102
}
330
47
100
AcDbScale
 70
     0
300
8:1
140
8.0
141
1.0
290
     0
  0
SCALE
  5
57
102
{ACAD_REACTORS
330
47
102
}
330
47
100
AcDbScale
 70
     0
300
10:1
140
10.0
141
1.0
290
     0
  0
SCALE
  5
58
102
{ACAD_REACTORS
330
47
102
}
330
47
100
AcDbScale
 70
     0
300
100:1
140
100.0
141
1.0
290
     0
  0
SCALE
  5
59
102
{ACAD_REACTORS
330
47
102
}
330
47
100
AcDbScale
 70
     0
300
1/128" = 1'-0"
140
0.0078125
141
12.0
290
     0
  0
SCALE
  5
5A
102
{ACAD_REACTORS
330
47
102
}
330
47
100
AcDbScale
 70
     0
300
1/64" = 1'-0"
140
0.015625
141
12.0
290
     0
  0
SCALE
  5
5B
102
{ACAD_REACTORS
330
47
102
}
330
47
100
AcDbScale
 70
     0
300
1/32" = 1'-0"
140
0.03125
141
12.0
290
     0
  0
SCALE
  5
5C
102
{ACAD_REACTORS
330
47
102
}
330
47
100
AcDbScale
 70
     0
300
1/16" = 1'-0"
140
0.0625
141
12.0
290
     0
  0
SCALE
  5
5D
102
{ACAD_REACTORS
330
47
102
}
330
47
100
AcDbScale
 70
     0
300
3/32" = 1'-0"
140
0.09375
141
12.0
290
     0
  0
SCALE
  5
5E
102
{ACAD_REACTORS
330
47
102
}
330
47
100
AcDbScale
 70
     0
300
1/8" = 1'-0"
140
0.125
141
12.0
290
     0
  0
SCALE
  5
5F
102
{ACAD_REACTORS
330
47
102
}
330
47
100
AcDbScale
 70
     0
300
3/16" = 1'-0"
140
0.1875
141
12.0
290
     0
  0
SCALE
  5
60
102
{ACAD_REACTORS
330
47
102
}
330
47
100
AcDbScale
 70
     0
300
1/4" = 1'-0"
140
0.25
141
12.0
290
     0
  0
SCALE
  5
61
102
{ACAD_REACTORS
330
47
102
}
330
47
100
AcDbScale
 70
     0
300
3/8" = 1'-0"
140
0.375
141
12.0
290
     0
  0
SCALE
  5
62
102
{ACAD_REACTORS
330
47
102
}
330
47
100
AcDbScale
 70
     0
300
1/2" = 1'-0"
140
0.5
141
12.0
290
     0
  0
SCALE
  5
63
102
{ACAD_REACTORS
330
47
102
}
330
47
100
AcDbScale
 70
     0
300
3/4" = 1'-0"
140
0.75
141
12.0
290
     0
  0
SCALE
  5
64
102
{ACAD_REACTORS
330
47
102
}
330
47
100
AcDbScale
 70
     0
300
1" = 1'-0"
140
1.0
141
12.0
290
     0
  0
SCALE
  5
65
102
{ACAD_REACTORS
330
47
102
}
330
47
100
AcDbScale
 70
     0
300
1-1/2" = 1'-0"
140
1.5
141
12.0
290
     0
  0
SCALE
  5
66
102
{ACAD_REACTORS
330
47
102
}
330
47
100
AcDbScale
 70
     0
300
3" = 1'-0"
140
3.0
141
12.0
290
     0
  0
SCALE
  5
67
102
{ACAD_REACTORS
330
47
102
}
330
47
100
AcDbScale
 70
     0
300
6" = 1'-0"
140
6.0
141
12.0
290
     0
  0
SCALE
  5
68
102
{ACAD_REACTORS
330
47
102
}
330
47
100
AcDbScale
 70
     0
300
1'-0" = 1'-0"
140
12.0
141
12.0
290
     0
  0
TABLESTYLE
  5
6A
102
{ACAD_REACTORS
330
69
102
}
102
{ACAD_XDICTIONARY
360
291
102
}
330
69
100
AcDbTableStyle
  3
Standard
 70
     0
 71
     0
 40
0.06
 41
0.06
280
     0
281
     0
  7
Standard
140
4.5
170
     2
 62
     0
 63
   257
283
     0
 90
        4
 91
        0
  1

274
    -2
284
     1
 64
     0
275
    -2
285
     1
 65
     0
276
    -2
286
     1
 66
     0
277
    -2
287
     1
 67
     0
278
    -2
288
     1
 68
     0
279
    -2
289
     1
 69
     0
  7
Standard
140
6.0
170
     5
 62
     0
 63
   257
283
     0
 90
        4
 91
        0
  1

274
    -2
284
     1
 64
     0
275
    -2
285
     1
 65
     0
276
    -2
286
     1
 66
     0
277
    -2
287
     1
 67
     0
278
    -2
288
     1
 68
     0
279
    -2
289
     1
 69
     0
  7
Standard
140
4.5
170
     5
 62
     0
 63
   257
283
     0
 90
        4
 91
        0
  1

274
    -2
284
     1
 64
     0
275
    -2
285
     1
 65
     0
276
    -2
286
     1
 66
     0
277
    -2
287
     1
 67
     0
278
    -2
288
     1
 68
     0
279
    -2
289
     1
 69
     0
  0
VISUALSTYLE
  5
2F
102
{ACAD_REACTORS
330
2A
102
}
330
2A
100
AcDbVisualStyle
  2
2dWireframe
 70
     4
177
     3
291
     0
 70
    58
 90
        0
176
     1
 90
        2
176
     1
 90
        0
176
     1
 90
        0
176
     1
 40
0.6
176
     1
 40
30.0
176
     1
 62
     7
420
 16777215
176
     1
 90
        1
176
     1
 90
        4
176
     1
 62
     7
176
     1
 62
   257
176
     1
 90
        1
176
     1
 90
        1
176
     1
 40
1.0
176
     1
 90
        0
176
     1
 62
   257
176
     1
 40
1.0
176
     1
 90
        1
176
     1
 90
        6
176
     1
 90
        2
176
     1
 62
     7
176
     1
 90
        5
176
     1
 90
        0
176
     1
 90
        0
176
     1
290
     0
176
     1
 90
        1
176
     1
 40
0.0
176
     1
 90
        0
176
     1
290
     1
176
     1
290
     1
176
     1
290
     0
176
     1
290
     0
176
     1
290
     0
176
     1
290
     0
176
     1
290
     0
176
     1
290
     0
176
     1
290
     0
176
     1
 90
       50
176
     1
 40
0.0
176
     1
 40
1.0
176
     1
 90
        0
176
     1
 62
    18
420
        0
176
     1
 90
       50
176
     1
 90
        3
176
     1
 62
     5
420
      255
176
     1
290
     0
176
     1
 90
       50
176
     1
 90
       50
176
     1
 90
       50
176
     1
290
     0
176
     1
 90
       50
176
     1
 62
   256
176
     0
 40
1.0
176
     0
 90
        2
176
     1
  1
strokes_ogs.tif
176
     1
290
     0
176
     1
 40
1.0
176
     1
 40
1.0
176
     1
  0
VISUALSTYLE
  5
32
102
{ACAD_REACTORS
330
2A
102
}
330
2A
100
AcDbVisualStyle
  2
Basic
 70
     7
177
     3
291
     1
 70
    58
 90
        1
176
     1
 90
        0
176
     1
 90
        1
176
     1
 90
        0
176
     1
 40
0.6
176
     1
 40
30.0
176
     1
 62
     7
420
 16777215
176
     1
 90
        0
176
     1
 90
        4
176
     1
 62
     7
176
     1
 62
   257
176
     1
 90
        1
176
     1
 90
        1
176
     1
 40
1.0
176
     1
 90
        8
176
     1
 62
     7
176
     1
 40
1.0
176
     1
 90
        1
176
     1
 90
        6
176
     1
 90
        2
176
     1
 62
     7
176
     1
 90
        5
176
     1
 90
        0
176
     1
 90
        0
176
     1
290
     0
176
     1
 90
        1
176
     1
 40
0.0
176
     1
 90
        0
176
     1
290
     0
176
     1
290
     1
176
     1
290
     1
176
     1
290
     0
176
     1
290
     0
176
     1
290
     0
176
     1
290
     0
176
     1
290
     0
176
     1
290
     0
176
     1
 90
       50
176
     1
 40
0.0
176
     1
 40
1.0
176
     1
 90
        0
176
     1
 62
    18
420
        0
176
     1
 90
       50
176
     1
 90
        3
176
     1
 62
     5
420
      255
176
     1
290
     0
176
     1
 90
       50
176
     1
 90
       50
176
     1
 90
       50
176
     1
290
     0
176
     1
 90
       50
176
     1
 62
   256
176
     0
 40
1.0
176
     0
 90
        2
176
     1
  1
strokes_ogs.tif
176
     1
290
     0
176
     1
 40
1.0
176
     1
 40
1.0
176
     1
  0
VISUALSTYLE
  5
36
102
{ACAD_REACTORS
330
2A
102
}
330
2A
100
AcDbVisualStyle
  2
Brighten
 70
    12
177
     3
291
     1
 70
    58
 90
        2
176
     1
 90
        2
176
     1
 90
        0
176
     1
 90
        0
176
     1
 40
0.6
176
     1
 40
30.0
176
     1
 62
     7
420
 16777215
176
     1
 90
        1
176
     1
 90
        4
176
     1
 62
     7
176
     1
 62
   257
176
     1
 90
        1
176
     1
 90
        1
176
     1
 40
1.0
176
     1
 90
        8
176
     1
 62
     7
176
     1
 40
1.0
176
     1
 90
        1
176
     1
 90
        6
176
     1
 90
        2
176
     1
 62
     7
176
     1
 90
        5
176
     1
 90
        0
176
     1
 90
        0
176
     1
290
     0
176
     1
 90
        1
176
     1
 40
50.0
176
     1
 90
        0
176
     1
290
     0
176
     1
290
     1
176
     1
290
     1
176
     1
290
     0
176
     1
290
     0
176
     1
290
     0
176
     1
290
     0
176
     1
290
     0
176
     1
290
     0
176
     1
 90
       50
176
     1
 40
0.0
176
     1
 40
1.0
176
     1
 90
        0
176
     1
 62
    18
420
        0
176
     1
 90
       50
176
     1
 90
        3
176
     1
 62
     5
420
      255
176
     1
290
     0
176
     1
 90
       50
176
     1
 90
       50
176
     1
 90
       50
176
     1
290
     0
176
     1
 90
       50
176
     1
 62
   256
176
     0
 40
1.0
176
     0
 90
        2
176
     1
  1
strokes_ogs.tif
176
     1
290
     0
176
     1
 40
1.0
176
     1
 40
1.0
176
     1
  0
VISUALSTYLE
  5
3A
102
{ACAD_REACTORS
330
2A
102
}
330
2A
100
AcDbVisualStyle
  2
ColorChange
 70
    16
177
     3
291
     1
 70
    58
 90
        2
176
     1
 90
        2
176
     1
 90
        3
176
     1
 90
        0
176
     1
 40
0.6
176
     1
 40
30.0
176
     1
 62
     8
420
  8421504
176
     1
 90
        1
176
     1
 90
        4
176
     1
 62
     7
176
     1
 62
   257
176
     1
 90
        1
176
     1
 90
        1
176
     1
 40
1.0
176
     1
 90
        8
176
     1
 62
     8
420
  8421504
176
     1
 40
1.0
176
     1
 90
        1
176
     1
 90
        6
176
     1
 90
        2
176
     1
 62
     7
176
     1
 90
        5
176
     1
 90
        0
176
     1
 90
        0
176
     1
290
     0
176
     1
 90
        1
176
     1
 40
0.0
176
     1
 90
        0
176
     1
290
     0
176
     1
290
     1
176
     1
290
     1
176
     1
290
     0
176
     1
290
     0
176
     1
290
     0
176
     1
290
     0
176
     1
290
     0
176
     1
290
     0
176
     1
 90
       50
176
     1
 40
0.0
176
     1
 40
1.0
176
     1
 90
        0
176
     1
 62
    18
420
        0
176
     1
 90
       50
176
     1
 90
        3
176
     1
 62
     5
420
      255
176
     1
290
     0
176
     1
 90
       50
176
     1
 90
       50
176
     1
 90
       50
176
     1
290
     0
176
     1
 90
       50
176
     1
 62
   256
176
     0
 40
1.0
176
     0
 90
        2
176
     1
  1
strokes_ogs.tif
176
     1
290
     0
176
     1
 40
1.0
176
     1
 40
1.0
176
     1
  0
VISUALSTYLE
  5
34
102
{ACAD_REACTORS
330
2A
102
}
330
2A
100
AcDbVisualStyle
  2
Conceptual
 70
     9
177
     3
291
     0
 70
    58
 90
        3
176
     1
 90
        2
176
     1
 90
        0
176
     1
 90
        0
176
     1
 40
0.6
176
     1
 40
30.0
176
     1
 62
     7
420
 16777215
176
     1
 90
        2
176
     1
 90
        2
176
     1
 62
     7
176
     1
 62
   257
176
     1
 90
        1
176
     1
 90
        1
176
     1
 40
179.0
176
     1
 90
        8
176
     1
 62
     7
176
     1
 40
1.0
176
     1
 90
        1
176
     1
 90
        6
176
     1
 90
        2
176
     1
 62
     7
176
     1
 90
        3
176
     1
 90
        0
176
     1
 90
        0
176
     1
290
     0
176
     1
 90
        1
176
     1
 40
0.0
176
     1
 90
        0
176
     1
290
     0
176
     1
290
     1
176
     1
290
     1
176
     1
290
     0
176
     1
290
     0
176
     1
290
     0
176
     1
290
     0
176
     1
290
     0
176
     1
290
     0
176
     1
 90
       50
176
     1
 40
0.0
176
     1
 40
1.0
176
     1
 90
        0
176
     1
 62
    18
420
        0
176
     1
 90
       50
176
     1
 90
        3
176
     1
 62
     5
420
      255
176
     1
290
     0
176
     1
 90
       50
176
     1
 90
       50
176
     1
 90
       50
176
     1
290
     0
176
     1
 90
       50
176
     1
 62
   256
176
     0
 40
1.0
176
     0
 90
        2
176
     1
  1
strokes_ogs.tif
176
     1
290
     0
176
     1
 40
1.0
176
     1
 40
1.0
176
     1
  0
VISUALSTYLE
  5
35
102
{ACAD_REACTORS
330
2A
102
}
330
2A
100
AcDbVisualStyle
  2
Dim
 70
    11
177
     3
291
     1
 70
    58
 90
        2
176
     1
 90
        2
176
     1
 90
        0
176
     1
 90
        0
176
     1
 40
0.6
176
     1
 40
30.0
176
     1
 62
     7
420
 16777215
176
     1
 90
        1
176
     1
 90
        4
176
     1
 62
     7
176
     1
 62
   257
176
     1
 90
        1
176
     1
 90
        1
176
     1
 40
1.0
176
     1
 90
        8
176
     1
 62
     7
176
     1
 40
1.0
176
     1
 90
        1
176
     1
 90
        6
176
     1
 90
        2
176
     1
 62
     7
176
     1
 90
        5
176
     1
 90
        0
176
     1
 90
        0
176
     1
290
     0
176
     1
 90
        1
176
     1
 40
-50.0
176
     1
 90
        0
176
     1
290
     0
176
     1
290
     1
176
     1
290
     1
176
     1
290
     0
176
     1
290
     0
176
     1
290
     0
176
     1
290
     0
176
     1
290
     0
176
     1
290
     0
176
     1
 90
       50
176
     1
 40
0.0
176
     1
 40
1.0
176
     1
 90
        0
176
     1
 62
    18
420
        0
176
     1
 90
       50
176
     1
 90
        3
176
     1
 62
     5
420
      255
176
     1
290
     0
176
     1
 90
       50
176
     1
 90
       50
176
     1
 90
       50
176
     1
290
     0
176
     1
 90
       50
176
     1
 62
   256
176
     0
 40
1.0
176
     0
 90
        2
176
     1
  1
strokes_ogs.tif
176
     1
290
     0
176
     1
 40
1.0
176
     1
 40
1.0
176
     1
  0
VISUALSTYLE
  5
3D
102
{ACAD_REACTORS
330
2A
102
}
330
2A
100
AcDbVisualStyle
  2
EdgeColorOff
 70
    22
177
     3
291
     1
 70
    58
 90
        2
176
     0
 90
        2
176
     0
 90
        0
176
     0
 90
        0
176
     0
 40
0.6
176
     0
 40
30.0
176
     0
 62
     7
420
 16777215
176
     0
 90
        1
176
     0
 90
        4
176
     0
 62
     7
176
     0
 62
   257
176
     0
 90
        1
176
     0
 90
        1
176
     0
 40
1.0
176
     0
 90
        8
176
     2
 62
     7
176
     0
 40
1.0
176
     0
 90
        1
176
     0
 90
        6
176
     0
 90
        2
176
     0
 62
     7
176
     0
 90
        5
176
     0
 90
        0
176
     0
 90
        0
176
     0
290
     0
176
     0
 90
        1
176
     0
 40
0.0
176
     0
 90
        0
176
     0
290
     0
176
     0
290
     1
176
     0
290
     1
176
     0
290
     0
176
     0
290
     0
176
     0
290
     0
176
     0
290
     0
176
     0
290
     0
176
     0
290
     0
176
     0
 90
       50
176
     0
 40
0.0
176
     0
 40
1.0
176
     0
 90
        0
176
     0
 62
    18
420
        0
176
     0
 90
       50
176
     0
 90
        3
176
     0
 62
     5
420
      255
176
     0
290
     0
176
     0
 90
       50
176
     0
 90
       50
176
     0
 90
       50
176
     0
290
     0
176
     0
 90
       50
176
     0
 62
   256
176
     0
 40
1.0
176
     0
 90
        2
176
     0
  1
strokes_ogs.tif
176
     0
290
     0
176
     0
 40
1.0
176
     0
 40
1.0
176
     0
  0
VISUALSTYLE
  5
39
102
{ACAD_REACTORS
330
2A
102
}
330
2A
100
AcDbVisualStyle
  2
Facepattern
 70
    15
177
     3
291
     1
 70
    58
 90
        2
176
     1
 90
        2
176
     1
 90
        0
176
     1
 90
        0
176
     1
 40
0.6
176
     1
 40
30.0
176
     1
 62
     7
420
 16777215
176
     1
 90
        1
176
     1
 90
        4
176
     1
 62
     7
176
     1
 62
   257
176
     1
 90
        1
176
     1
 90
        1
176
     1
 40
1.0
176
     1
 90
        8
176
     1
 62
     7
176
     1
 40
1.0
176
     1
 90
        1
176
     1
 90
        6
176
     1
 90
        2
176
     1
 62
     7
176
     1
 90
        5
176
     1
 90
        0
176
     1
 90
        0
176
     1
290
     0
176
     1
 90
        1
176
     1
 40
0.0
176
     1
 90
        0
176
     1
290
     0
176
     1
290
     1
176
     1
290
     1
176
     1
290
     0
176
     1
290
     0
176
     1
290
     0
176
     1
290
     0
176
     1
290
     0
176
     1
290
     0
176
     1
 90
       50
176
     1
 40
0.0
176
     1
 40
1.0
176
     1
 90
        0
176
     1
 62
    18
420
        0
176
     1
 90
       50
176
     1
 90
        3
176
     1
 62
     5
420
      255
176
     1
290
     0
176
     1
 90
       50
176
     1
 90
       50
176
     1
 90
       50
176
     1
290
     0
176
     1
 90
       50
176
     1
 62
   256
176
     0
 40
1.0
176
     0
 90
        2
176
     1
  1
strokes_ogs.tif
176
     1
290
     0
176
     1
 40
1.0
176
     1
 40
1.0
176
     1
  0
VISUALSTYLE
  5
2B
102
{ACAD_REACTORS
330
2A
102
}
330
2A
100
AcDbVisualStyle
  2
Flat
 70
     0
177
     3
291
     1
 70
    58
 90
        2
176
     1
 90
        1
176
     1
 90
        1
176
     1
 90
        2
176
     1
 40
0.6
176
     1
 40
30.0
176
     1
 62
     7
420
 16777215
176
     1
 90
        0
176
     1
 90
        0
176
     1
 62
     7
176
     1
 62
   257
176
     1
 90
        1
176
     1
 90
        1
176
     1
 40
1.0
176
     1
 90
        8
176
     1
 62
     7
176
     1
 40
1.0
176
     1
 90
        1
176
     1
 90
        6
176
     1
 90
        2
176
     1
 62
     7
176
     1
 90
        5
176
     1
 90
        0
176
     1
 90
        0
176
     1
290
     0
176
     1
 90
       13
176
     1
 40
0.0
176
     1
 90
        0
176
     1
290
     0
176
     1
290
     1
176
     1
290
     1
176
     1
290
     0
176
     1
290
     0
176
     1
290
     0
176
     1
290
     0
176
     1
290
     0
176
     1
290
     0
176
     1
 90
       50
176
     1
 40
0.0
176
     1
 40
1.0
176
     1
 90
        0
176
     1
 62
    18
420
        0
176
     1
 90
       50
176
     1
 90
        3
176
     1
 62
     5
420
      255
176
     1
290
     0
176
     1
 90
       50
176
     1
 90
       50
176
     1
 90
       50
176
     1
290
     0
176
     1
 90
       50
176
     1
 62
   256
176
     0
 40
1.0
176
     0
 90
        2
176
     1
  1
strokes_ogs.tif
176
     1
290
     0
176
     1
 40
1.0
176
     1
 40
1.0
176
     1
  0
VISUALSTYLE
  5
2C
102
{ACAD_REACTORS
330
2A
102
}
330
2A
100
AcDbVisualStyle
  2
FlatWithEdges
 70
     1
177
     3
291
     1
 70
    58
 90
        2
176
     1
 90
        1
176
     1
 90
        1
176
     1
 90
        2
176
     1
 40
0.6
176
     1
 40
30.0
176
     1
 62
     7
420
 16777215
176
     1
 90
        1
176
     1
 90
        0
176
     1
 62
     7
176
     1
 62
   257
176
     1
 90
        1
176
     1
 90
        1
176
     1
 40
1.0
176
     1
 90
        0
176
     1
 62
   257
176
     1
 40
1.0
176
     1
 90
        1
176
     1
 90
        6
176
     1
 90
        2
176
     1
 62
     7
176
     1
 90
        5
176
     1
 90
        0
176
     1
 90
        0
176
     1
290
     0
176
     1
 90
       13
176
     1
 40
0.0
176
     1
 90
        0
176
     1
290
     0
176
     1
290
     1
176
     1
290
     1
176
     1
290
     0
176
     1
290
     0
176
     1
290
     0
176
     1
290
     0
176
     1
290
     0
176
     1
290
     0
176
     1
 90
       50
176
     1
 40
0.0
176
     1
 40
1.0
176
     1
 90
        0
176
     1
 62
    18
420
        0
176
     1
 90
       50
176
     1
 90
        3
176
     1
 62
     5
420
      255
176
     1
290
     0
176
     1
 90
       50
176
     1
 90
       50
176
     1
 90
       50
176
     1
290
     0
176
     1
 90
       50
176
     1
 62
   256
176
     0
 40
1.0
176
     0
 90
        2
176
     1
  1
strokes_ogs.tif
176
     1
290
     0
176
     1
 40
1.0
176
     1
 40
1.0
176
     1
  0
VISUALSTYLE
  5
2D
102
{ACAD_REACTORS
330
2A
102
}
330
2A
100
AcDbVisualStyle
  2
Gouraud
 70
     2
177
     3
291
     1
 70
    58
 90
        2
176
     1
 90
        2
176
     1
 90
        1
176
     1
 90
        2
176
     1
 40
0.6
176
     1
 40
30.0
176
     1
 62
     7
420
 16777215
176
     1
 90
        0
176
     1
 90
        0
176
     1
 62
     7
176
     1
 62
   257
176
     1
 90
        1
176
     1
 90
        1
176
     1
 40
1.0
176
     1
 90
        0
176
     1
 62
     7
176
     1
 40
1.0
176
     1
 90
        1
176
     1
 90
        6
176
     1
 90
        2
176
     1
 62
     7
176
     1
 90
        5
176
     1
 90
        0
176
     1
 90
        0
176
     1
290
     0
176
     1
 90
       13
176
     1
 40
0.0
176
     1
 90
        0
176
     1
290
     0
176
     1
290
     1
176
     1
290
     1
176
     1
290
     0
176
     1
290
     0
176
     1
290
     0
176
     1
290
     0
176
     1
290
     0
176
     1
290
     0
176
     1
 90
       50
176
     1
 40
0.0
176
     1
 40
1.0
176
     1
 90
        0
176
     1
 62
    18
420
        0
176
     1
 90
       50
176
     1
 90
        3
176
     1
 62
     5
420
      255
176
     1
290
     0
176
     1
 90
       50
176
     1
 90
       50
176
     1
 90
       50
176
     1
290
     0
176
     1
 90
       50
176
     1
 62
   256
176
     0
 40
1.0
176
     0
 90
        2
176
     1
  1
strokes_ogs.tif
176
     1
290
     0
176
     1
 40
1.0
176
     1
 40
1.0
176
     1
  0
VISUALSTYLE
  5
2E
102
{ACAD_REACTORS
330
2A
102
}
330
2A
100
AcDbVisualStyle
  2
GouraudWithEdges
 70
     3
177
     3
291
     1
 70
    58
 90
        2
176
     1
 90
        2
176
     1
 90
        1
176
     1
 90
        2
176
     1
 40
0.6
176
     1
 40
30.0
176
     1
 62
     7
420
 16777215
176
     1
 90
        1
176
     1
 90
        0
176
     1
 62
     7
176
     1
 62
   257
176
     1
 90
        1
176
     1
 90
        1
176
     1
 40
1.0
176
     1
 90
        0
176
     1
 62
   257
176
     1
 40
1.0
176
     1
 90
        1
176
     1
 90
        6
176
     1
 90
        2
176
     1
 62
     7
176
     1
 90
        5
176
     1
 90
        0
176
     1
 90
        0
176
     1
290
     0
176
     1
 90
       13
176
     1
 40
0.0
176
     1
 90
        0
176
     1
290
     0
176
     1
290
     1
176
     1
290
     1
176
     1
290
     0
176
     1
290
     0
176
     1
290
     0
176
     1
290
     0
176
     1
290
     0
176
     1
290
     0
176
     1
 90
       50
176
     1
 40
0.0
176
     1
 40
1.0
176
     1
 90
        0
176
     1
 62
    18
420
        0
176
     1
 90
       50
176
     1
 90
        3
176
     1
 62
     5
420
      255
176
     1
290
     0
176
     1
 90
       50
176
     1
 90
       50
176
     1
 90
       50
176
     1
290
     0
176
     1
 90
       50
176
     1
 62
   256
176
     0
 40
1.0
176
     0
 90
        2
176
     1
  1
strokes_ogs.tif
176
     1
290
     0
176
     1
 40
1.0
176
     1
 40
1.0
176
     1
  0
VISUALSTYLE
  5
31
102
{ACAD_REACTORS
330
2A
102
}
330
2A
100
AcDbVisualStyle
  2
Hidden
 70
     6
177
     3
291
     0
 70
    58
 90
        1
176
     1
 90
        2
176
     1
 90
        2
176
     1
 90
        0
176
     1
 40
0.6
176
     1
 40
30.0
176
     1
 62
     7
420
 16777215
176
     1
 90
        2
176
     1
 90
        2
176
     1
 62
     7
176
     1
 62
   257
176
     1
 90
        2
176
     1
 90
        1
176
     1
 40
40.0
176
     1
 90
        0
176
     1
 62
   257
176
     1
 40
1.0
176
     1
 90
        1
176
     1
 90
        6
176
     1
 90
        2
176
     1
 62
     7
176
     1
 90
        3
176
     1
 90
        0
176
     1
 90
        0
176
     1
290
     0
176
     1
 90
        1
176
     1
 40
0.0
176
     1
 90
        0
176
     1
290
     0
176
     1
290
     1
176
     1
290
     1
176
     1
290
     0
176
     1
290
     0
176
     1
290
     0
176
     1
290
     0
176
     1
290
     0
176
     1
290
     0
176
     1
 90
       50
176
     1
 40
0.0
176
     1
 40
1.0
176
     1
 90
        0
176
     1
 62
    18
420
        0
176
     1
 90
       50
176
     1
 90
        3
176
     1
 62
     5
420
      255
176
     1
290
     0
176
     1
 90
       50
176
     1
 90
       50
176
     1
 90
       50
176
     1
290
     0
176
     1
 90
       50
176
     1
 62
   256
176
     0
 40
1.0
176
     0
 90
        2
176
     1
  1
strokes_ogs.tif
176
     1
290
     0
176
     1
 40
1.0
176
     1
 40
1.0
176
     1
  0
VISUALSTYLE
  5
3B
102
{ACAD_REACTORS
330
2A
102
}
330
2A
100
AcDbVisualStyle
  2
JitterOff
 70
    20
177
     3
291
     1
 70
    58
 90
        2
176
     0
 90
        2
176
     0
 90
        0
176
     0
 90
        0
176
     0
 40
0.6
176
     0
 40
30.0
176
     0
 62
     7
420
 16777215
176
     0
 90
        1
176
     0
 90
        4
176
     0
 62
     7
176
     0
 62
   257
176
     0
 90
        1
176
     0
 90
        1
176
     0
 40
1.0
176
     0
 90
       10
176
     2
 62
     7
176
     0
 40
1.0
176
     0
 90
        1
176
     0
 90
        6
176
     0
 90
        2
176
     0
 62
     7
176
     0
 90
        5
176
     0
 90
        0
176
     0
 90
        0
176
     0
290
     0
176
     0
 90
        1
176
     0
 40
0.0
176
     0
 90
        0
176
     0
290
     0
176
     0
290
     1
176
     0
290
     1
176
     0
290
     0
176
     0
290
     0
176
     0
290
     0
176
     0
290
     0
176
     0
290
     0
176
     0
290
     0
176
     0
 90
       50
176
     0
 40
0.0
176
     0
 40
1.0
176
     0
 90
        0
176
     0
 62
    18
420
        0
176
     0
 90
       50
176
     0
 90
        3
176
     0
 62
     5
420
      255
176
     0
290
     0
176
     0
 90
       50
176
     0
 90
       50
176
     0
 90
       50
176
     0
290
     0
176
     0
 90
       50
176
     0
 62
   256
176
     0
 40
1.0
176
     0
 90
        2
176
     0
  1
strokes_ogs.tif
176
     0
290
     0
176
     0
 40
1.0
176
     0
 40
1.0
176
     0
  0
VISUALSTYLE
  5
38
102
{ACAD_REACTORS
330
2A
102
}
330
2A
100
AcDbVisualStyle
  2
Linepattern
 70
    14
177
     3
291
     1
 70
    58
 90
        2
176
     1
 90
        2
176
     1
 90
        0
176
     1
 90
        0
176
     1
 40
0.6
176
     1
 40
30.0
176
     1
 62
     7
420
 16777215
176
     1
 90
        1
176
     1
 90
        4
176
     1
 62
     7
176
     1
 62
   257
176
     1
 90
        7
176
     1
 90
        7
176
     1
 40
1.0
176
     1
 90
        8
176
     1
 62
     7
176
     1
 40
1.0
176
     1
 90
        1
176
     1
 90
        6
176
     1
 90
        2
176
     1
 62
     7
176
     1
 90
        5
176
     1
 90
        0
176
     1
 90
        0
176
     1
290
     0
176
     1
 90
        1
176
     1
 40
0.0
176
     1
 90
        0
176
     1
290
     0
176
     1
290
     1
176
     1
290
     1
176
     1
290
     0
176
     1
290
     0
176
     1
290
     0
176
     1
290
     0
176
     1
290
     0
176
     1
290
     0
176
     1
 90
       50
176
     1
 40
0.0
176
     1
 40
1.0
176
     1
 90
        0
176
     1
 62
    18
420
        0
176
     1
 90
       50
176
     1
 90
        3
176
     1
 62
     5
420
      255
176
     1
290
     0
176
     1
 90
       50
176
     1
 90
       50
176
     1
 90
       50
176
     1
290
     0
176
     1
 90
       50
176
     1
 62
   256
176
     0
 40
1.0
176
     0
 90
        2
176
     1
  1
strokes_ogs.tif
176
     1
290
     0
176
     1
 40
1.0
176
     1
 40
1.0
176
     1
  0
VISUALSTYLE
  5
3C
102
{ACAD_REACTORS
330
2A
102
}
330
2A
100
AcDbVisualStyle
  2
OverhangOff
 70
    21
177
     3
291
     1
 70
    58
 90
        2
176
     0
 90
        2
176
     0
 90
        0
176
     0
 90
        0
176
     0
 40
0.6
176
     0
 40
30.0
176
     0
 62
     7
420
 16777215
176
     0
 90
        1
176
     0
 90
        4
176
     0
 62
     7
176
     0
 62
   257
176
     0
 90
        1
176
     0
 90
        1
176
     0
 40
1.0
176
     0
 90
        9
176
     2
 62
     7
176
     0
 40
1.0
176
     0
 90
        1
176
     0
 90
        6
176
     0
 90
        2
176
     0
 62
     7
176
     0
 90
        5
176
     0
 90
        0
176
     0
 90
        0
176
     0
290
     0
176
     0
 90
        1
176
     0
 40
0.0
176
     0
 90
        0
176
     0
290
     0
176
     0
290
     1
176
     0
290
     1
176
     0
290
     0
176
     0
290
     0
176
     0
290
     0
176
     0
290
     0
176
     0
290
     0
176
     0
290
     0
176
     0
 90
       50
176
     0
 40
0.0
176
     0
 40
1.0
176
     0
 90
        0
176
     0
 62
    18
420
        0
176
     0
 90
       50
176
     0
 90
        3
176
     0
 62
     5
420
      255
176
     0
290
     0
176
     0
 90
       50
176
     0
 90
       50
176
     0
 90
       50
176
     0
290
     0
176
     0
 90
       50
176
     0
 62
   256
176
     0
 40
1.0
176
     0
 90
        2
176
     0
  1
strokes_ogs.tif
176
     0
290
     0
176
     0
 40
1.0
176
     0
 40
1.0
176
     0
  0
VISUALSTYLE
  5
33
102
{ACAD_REACTORS
330
2A
102
}
330
2A
100
AcDbVisualStyle
  2
Realistic
 70
     8
177
     3
291
     0
 70
    58
 90
        2
176
     1
 90
        3
176
     1
 90
        0
176
     1
 90
        2
176
     1
 40
0.6
176
     1
 40
30.0
176
     1
 62
     7
420
 16777215
176
     1
 90
        0
176
     1
 90
        0
176
     1
 62
     7
176
     1
 62
   257
176
     1
 90
        1
176
     1
 90
        1
176
     1
 40
1.0
176
     1
 90
        8
176
     1
 62
   257
176
     1
 40
1.0
176
     1
 90
        1
176
     1
 90
        6
176
     1
 90
        2
176
     1
 62
     7
176
     1
 90
        3
176
     1
 90
        0
176
     1
 90
        0
176
     1
290
     0
176
     1
 90
       13
176
     1
 40
0.0
176
     1
 90
        0
176
     1
290
     0
176
     1
290
     1
176
     1
290
     1
176
     1
290
     0
176
     1
290
     0
176
     1
290
     0
176
     1
290
     0
176
     1
290
     0
176
     1
290
     0
176
     1
 90
       50
176
     1
 40
0.0
176
     1
 40
1.0
176
     1
 90
        0
176
     1
 62
    18
420
        0
176
     1
 90
       50
176
     1
 90
        3
176
     1
 62
     5
420
      255
176
     1
290
     0
176
     1
 90
       50
176
     1
 90
       50
176
     1
 90
       50
176
     1
290
     0
176
     1
 90
       50
176
     1
 62
   256
176
     0
 40
1.0
176
     0
 90
        2
176
     1
  1
strokes_ogs.tif
176
     1
290
     0
176
     1
 40
1.0
176
     1
 40
1.0
176
     1
  0
VISUALSTYLE
  5
42
102
{ACAD_REACTORS
330
2A
102
}
330
2A
100
AcDbVisualStyle
  2
Shaded
 70
    27
177
     3
291
     0
 70
    58
 90
        2
176
     1
 90
        2
176
     1
 90
        1
176
     1
 90
        2
176
     1
 40
0.6
176
     1
 40
30.0
176
     1
 62
     7
420
 16777215
176
     1
 90
        0
176
     1
 90
        4
176
     1
 62
     7
176
     1
 62
   257
176
     1
 90
        1
176
     1
 90
        1
176
     1
 40
1.0
176
     1
 90
        8
176
     1
 62
   257
176
     1
 40
1.0
176
     1
 90
        1
176
     1
 90
        6
176
     1
 90
        2
176
     1
 62
     8
420
  7895160
176
     1
 90
        3
176
     1
 90
        0
176
     1
 90
        0
176
     1
290
     0
176
     1
 90
        5
176
     1
 40
0.0
176
     1
 90
        0
176
     1
290
     0
176
     1
290
     1
176
     1
290
     1
176
     1
290
     0
176
     1
290
     0
176
     1
290
     0
176
     1
290
     0
176
     1
290
     0
176
     1
290
     0
176
     1
 90
       50
176
     1
 40
0.0
176
     1
 40
1.0
176
     1
 90
        0
176
     1
 62
    18
420
        0
176
     1
 90
       50
176
     1
 90
        3
176
     1
 62
     5
420
      255
176
     1
290
     0
176
     1
 90
       50
176
     1
 90
       50
176
     1
 90
       50
176
     1
290
     0
176
     1
 90
       50
176
     1
 62
   256
176
     0
 40
1.0
176
     0
 90
        2
176
     1
  1
strokes_ogs.tif
176
     1
290
     0
176
     1
 40
1.0
176
     1
 40
1.0
176
     1
  0
VISUALSTYLE
  5
41
102
{ACAD_REACTORS
330
2A
102
}
330
2A
100
AcDbVisualStyle
  2
Shaded with edges
 70
    26
177
     3
291
     0
 70
    58
 90
        2
176
     1
 90
        2
176
     1
 90
        1
176
     1
 90
        2
176
     1
 40
0.6
176
     1
 40
30.0
176
     1
 62
     7
420
 16777215
176
     1
 90
        1
176
     1
 90
       10
176
     1
 62
     7
176
     1
 62
   257
176
     1
 90
        2
176
     1
 90
        1
176
     1
 40
1.0
176
     1
 90
        8
176
     1
 62
   257
176
     1
 40
1.0
176
     1
 90
        1
176
     1
 90
        6
176
     1
 90
        2
176
     1
 62
     7
176
     1
 90
        3
176
     1
 90
        0
176
     1
 90
        0
176
     1
290
     0
176
     1
 90
        5
176
     1
 40
0.0
176
     1
 90
        0
176
     1
290
     0
176
     1
290
     1
176
     1
290
     1
176
     1
290
     0
176
     1
290
     0
176
     1
290
     0
176
     1
290
     0
176
     1
290
     0
176
     1
290
     0
176
     1
 90
       50
176
     1
 40
0.0
176
     1
 40
1.0
176
     1
 90
        0
176
     1
 62
    18
420
        0
176
     1
 90
       50
176
     1
 90
        3
176
     1
 62
     5
420
      255
176
     1
290
     0
176
     1
 90
       50
176
     1
 90
       50
176
     1
 90
       50
176
     1
290
     0
176
     1
 90
       50
176
     1
 62
   256
176
     0
 40
1.0
176
     0
 90
        2
176
     1
  1
strokes_ogs.tif
176
     1
290
     0
176
     1
 40
1.0
176
     1
 40
1.0
176
     1
  0
VISUALSTYLE
  5
3E
102
{ACAD_REACTORS
330
2A
102
}
330
2A
100
AcDbVisualStyle
  2
Shades of Gray
 70
    23
177
     3
291
     0
 70
    58
 90
        2
176
     1
 90
        2
176
     1
 90
        3
176
     1
 90
        0
176
     1
 40
0.6
176
     1
 40
30.0
176
     1
 62
     7
420
 16777215
176
     1
 90
        2
176
     1
 90
        2
176
     1
 62
     7
176
     1
 62
     7
176
     1
 90
        1
176
     1
 90
        1
176
     1
 40
40.0
176
     1
 90
        8
176
     1
 62
     7
176
     1
 40
1.0
176
     1
 90
        1
176
     1
 90
        6
176
     1
 90
        2
176
     1
 62
     7
176
     1
 90
        3
176
     1
 90
        0
176
     1
 90
        0
176
     1
290
     0
176
     1
 90
        1
176
     1
 40
0.0
176
     1
 90
        0
176
     1
290
     0
176
     1
290
     1
176
     1
290
     1
176
     1
290
     0
176
     1
290
     0
176
     1
290
     0
176
     1
290
     0
176
     1
290
     0
176
     1
290
     0
176
     1
 90
       50
176
     1
 40
0.0
176
     1
 40
1.0
176
     1
 90
        0
176
     1
 62
    18
420
        0
176
     1
 90
       50
176
     1
 90
        3
176
     1
 62
     5
420
      255
176
     1
290
     0
176
     1
 90
       50
176
     1
 90
       50
176
     1
 90
       50
176
     1
290
     0
176
     1
 90
       50
176
     1
 62
   256
176
     0
 40
1.0
176
     0
 90
        2
176
     1
  1
strokes_ogs.tif
176
     1
290
     0
176
     1
 40
1.0
176
     1
 40
1.0
176
     1
  0
VISUALSTYLE
  5
3F
102
{ACAD_REACTORS
330
2A
102
}
330
2A
100
AcDbVisualStyle
  2
Sketchy
 70
    24
177
     3
291
     0
 70
    58
 90
        1
176
     1
 90
        2
176
     1
 90
        2
176
     1
 90
        0
176
     1
 40
0.6
176
     1
 40
30.0
176
     1
 62
     7
420
 16777215
176
     1
 90
        2
176
     1
 90
        2
176
     1
 62
     7
176
     1
 62
     7
176
     1
 90
        1
176
     1
 90
        1
176
     1
 40
40.0
176
     1
 90
       11
176
     1
 62
     7
176
     1
 40
1.0
176
     1
 90
        1
176
     1
 90
        6
176
     1
 90
        2
176
     1
 62
     7
176
     1
 90
        6
176
     1
 90
        0
176
     1
 90
        0
176
     1
290
     0
176
     1
 90
        1
176
     1
 40
0.0
176
     1
 90
        0
176
     1
290
     0
176
     1
290
     1
176
     1
290
     1
176
     1
290
     0
176
     1
290
     0
176
     1
290
     0
176
     1
290
     0
176
     1
290
     0
176
     1
290
     0
176
     1
 90
       50
176
     1
 40
0.0
176
     1
 40
1.0
176
     1
 90
        0
176
     1
 62
    18
420
        0
176
     1
 90
       50
176
     1
 90
        3
176
     1
 62
     5
420
      255
176
     1
290
     0
176
     1
 90
       50
176
     1
 90
       50
176
     1
 90
       50
176
     1
290
     0
176
     1
 90
       50
176
     1
 62
   256
176
     0
 40
1.0
176
     0
 90
        2
176
     1
  1
strokes_ogs.tif
176
     1
290
     0
176
     1
 40
1.0
176
     1
 40
1.0
176
     1
  0
VISUALSTYLE
  5
37
102
{ACAD_REACTORS
330
2A
102
}
330
2A
100
AcDbVisualStyle
  2
Thicken
 70
    13
177
     3
291
     1
 70
    58
 90
        2
176
     1
 90
        2
176
     1
 90
        0
176
     1
 90
        0
176
     1
 40
0.6
176
     1
 40
30.0
176
     1
 62
     7
420
 16777215
176
     1
 90
        1
176
     1
 90
        4
176
     1
 62
     7
176
     1
 62
   257
176
     1
 90
        1
176
     1
 90
        1
176
     1
 40
1.0
176
     1
 90
       12
176
     1
 62
     7
176
     1
 40
1.0
176
     1
 90
        1
176
     1
 90
        6
176
     1
 90
        2
176
     1
 62
     7
176
     1
 90
        5
176
     1
 90
        0
176
     1
 90
        0
176
     1
290
     0
176
     1
 90
        1
176
     1
 40
0.0
176
     1
 90
        0
176
     1
290
     0
176
     1
290
     1
176
     1
290
     1
176
     1
290
     0
176
     1
290
     0
176
     1
290
     0
176
     1
290
     0
176
     1
290
     0
176
     1
290
     0
176
     1
 90
       50
176
     1
 40
0.0
176
     1
 40
1.0
176
     1
 90
        0
176
     1
 62
    18
420
        0
176
     1
 90
       50
176
     1
 90
        3
176
     1
 62
     5
420
      255
176
     1
290
     0
176
     1
 90
       50
176
     1
 90
       50
176
     1
 90
       50
176
     1
290
     0
176
     1
 90
       50
176
     1
 62
   256
176
     0
 40
1.0
176
     0
 90
        2
176
     1
  1
strokes_ogs.tif
176
     1
290
     0
176
     1
 40
1.0
176
     1
 40
1.0
176
     1
  0
VISUALSTYLE
  5
30
102
{ACAD_REACTORS
330
2A
102
}
330
2A
100
AcDbVisualStyle
  2
Wireframe
 70
     5
177
     3
291
     0
 70
    58
 90
        0
176
     1
 90
        2
176
     1
 90
        0
176
     1
 90
        0
176
     1
 40
0.6
176
     1
 40
30.0
176
     1
 62
     7
420
 16777215
176
     1
 90
        1
176
     1
 90
        4
176
     1
 62
     7
176
     1
 62
   257
176
     1
 90
        1
176
     1
 90
        1
176
     1
 40
1.0
176
     1
 90
        0
176
     1
 62
   257
176
     1
 40
1.0
176
     1
 90
        1
176
     1
 90
        6
176
     1
 90
        2
176
     1
 62
     7
176
     1
 90
        3
176
     1
 90
        0
176
     1
 90
        0
176
     1
290
     0
176
     1
 90
        1
176
     1
 40
0.0
176
     1
 90
        0
176
     1
290
     0
176
     1
290
     1
176
     1
290
     1
176
     1
290
     0
176
     1
290
     0
176
     1
290
     0
176
     1
290
     0
176
     1
290
     0
176
     1
290
     0
176
     1
 90
       50
176
     1
 40
0.0
176
     1
 40
1.0
176
     1
 90
        0
176
     1
 62
    18
420
        0
176
     1
 90
       50
176
     1
 90
        3
176
     1
 62
     5
420
      255
176
     1
290
     0
176
     1
 90
       50
176
     1
 90
       50
176
     1
 90
       50
176
     1
290
     0
176
     1
 90
       50
176
     1
 62
   256
176
     0
 40
1.0
176
     0
 90
        2
176
     1
  1
strokes_ogs.tif
176
     1
290
     0
176
     1
 40
1.0
176
     1
 40
1.0
176
     1
  0
VISUALSTYLE
  5
40
102
{ACAD_REACTORS
330
2A
102
}
330
2A
100
AcDbVisualStyle
  2
X-Ray
 70
    25
177
     3
291
     0
 70
    58
 90
        2
176
     1
 90
        2
176
     1
 90
        1
176
     1
 90
        1
176
     1
 40
0.5
176
     1
 40
30.0
176
     1
 62
     7
420
 16777215
176
     1
 90
        1
176
     1
 90
        0
176
     1
 62
     7
176
     1
 62
   257
176
     1
 90
        1
176
     1
 90
        1
176
     1
 40
1.0
176
     1
 90
        8
176
     1
 62
     7
176
     1
 40
1.0
176
     1
 90
        1
176
     1
 90
        6
176
     1
 90
        2
176
     1
 62
     7
176
     1
 90
        3
176
     1
 90
        0
176
     1
 90
        0
176
     1
290
     0
176
     1
 90
       13
176
     1
 40
0.0
176
     1
 90
        0
176
     1
290
     0
176
     1
290
     1
176
     1
290
     1
176
     1
290
     0
176
     1
290
     0
176
     1
290
     0
176
     1
290
     0
176
     1
290
     0
176
     1
290
     0
176
     1
 90
       50
176
     1
 40
0.0
176
     1
 40
1.0
176
     1
 90
        0
176
     1
 62
    18
420
        0
176
     1
 90
       50
176
     1
 90
        3
176
     1
 62
     5
420
      255
176
     1
290
     0
176
     1
 90
       50
176
     1
 90
       50
176
     1
 90
       50
176
     1
290
     0
176
     1
 90
       50
176
     1
 62
   256
176
     0
 40
1.0
176
     0
 90
        2
176
     1
  1
strokes_ogs.tif
176
     1
290
     0
176
     1
 40
1.0
176
     1
 40
1.0
176
     1
  0
DICTIONARYVAR
  5
290
102
{ACAD_REACTORS
330
28F
102
}
330
28F
100
DictionaryVariables
280
     0
  1
1:1
  0
DICTIONARYVAR
  5
295
102
{ACAD_REACTORS
330
28F
102
}
330
28F
100
DictionaryVariables
280
     0
  1
Standard
  0
DICTIONARYVAR
  5
294
102
{ACAD_REACTORS
330
28F
102
}
330
28F
100
DictionaryVariables
280
     0
  1
Standard
  0
DICTIONARY
  5
291
330
6A
100
AcDbDictionary
280
     1
281
     1
  3
ACAD_ROUNDTRIP_2008_TABLESTYLE_CELLSTYLEMAP
360
292
  0
CELLSTYLEMAP
  5
292
102
{ACAD_REACTORS
330
291
102
}
330
291
100
AcDbCellStyleMap
 90
        3
300
CELLSTYLE
  1
TABLEFORMAT_BEGIN
 90
        5
170
     1
 91
        0
 92
    32768
 62
   257
 93
        1
300
CONTENTFORMAT
  1
CONTENTFORMAT_BEGIN
 90
        0
 91
        0
 92
        4
 93
        0
300

 40
0.0
140
1.0
 94
        5
 62
     0
340
11
144
6.0
309
CONTENTFORMAT_END
171
     1
301
MARGIN
  1
CELLMARGIN_BEGIN
 40
1.5
 40
1.5
 40
1.5
 40
1.5
 40
1.5
 40
1.5
309
CELLMARGIN_END
 94
        6
 95
        1
302
GRIDFORMAT
  1
GRIDFORMAT_BEGIN
 90
        0
 91
        1
 62
     0
 92
       -2
340
14
 93
        0
 40
0.045
309
GRIDFORMAT_END
 95
        2
302
GRIDFORMAT
  1
GRIDFORMAT_BEGIN
 90
        0
 91
        1
 62
     0
 92
       -2
340
14
 93
        0
 40
0.045
309
GRIDFORMAT_END
 95
        4
302
GRIDFORMAT
  1
GRIDFORMAT_BEGIN
 90
        0
 91
        1
 62
     0
 92
       -2
340
14
 93
        0
 40
0.045
309
GRIDFORMAT_END
 95
        8
302
GRIDFORMAT
  1
GRIDFORMAT_BEGIN
 90
        0
 91
        1
 62
     0
 92
       -2
340
14
 93
        0
 40
0.045
309
GRIDFORMAT_END
 95
       16
302
GRIDFORMAT
  1
GRIDFORMAT_BEGIN
 90
        0
 91
        1
 62
     0
 92
       -2
340
14
 93
        0
 40
0.045
309
GRIDFORMAT_END
 95
       32
302
GRIDFORMAT
  1
GRIDFORMAT_BEGIN
 90
        0
 91
        1
 62
     0
 92
       -2
340
14
 93
        0
 40
0.045
309
GRIDFORMAT_END
309
TABLEFORMAT_END
  1
CELLSTYLE_BEGIN
 90
        1
 91
        1
300
_TITLE
309
CELLSTYLE_END
300
CELLSTYLE
  1
TABLEFORMAT_BEGIN
 90
        5
170
     1
 91
        0
 92
        0
 62
   257
 93
        1
300
CONTENTFORMAT
  1
CONTENTFORMAT_BEGIN
 90
        0
 91
        0
 92
        4
 93
        0
300

 40
0.0
140
1.0
 94
        5
 62
     0
340
11
144
4.5
309
CONTENTFORMAT_END
171
     1
301
MARGIN
  1
CELLMARGIN_BEGIN
 40
1.5
 40
1.5
 40
1.5
 40
1.5
 40
1.5
 40
1.5
309
CELLMARGIN_END
 94
        6
 95
        1
302
GRIDFORMAT
  1
GRIDFORMAT_BEGIN
 90
        0
 91
        1
 62
     0
 92
       -2
340
14
 93
        0
 40
0.045
309
GRIDFORMAT_END
 95
        2
302
GRIDFORMAT
  1
GRIDFORMAT_BEGIN
 90
        0
 91
        1
 62
     0
 92
       -2
340
14
 93
        0
 40
0.045
309
GRIDFORMAT_END
 95
        4
302
GRIDFORMAT
  1
GRIDFORMAT_BEGIN
 90
        0
 91
        1
 62
     0
 92
       -2
340
14
 93
        0
 40
0.045
309
GRIDFORMAT_END
 95
        8
302
GRIDFORMAT
  1
GRIDFORMAT_BEGIN
 90
        0
 91
        1
 62
     0
 92
       -2
340
14
 93
        0
 40
0.045
309
GRIDFORMAT_END
 95
       16
302
GRIDFORMAT
  1
GRIDFORMAT_BEGIN
 90
        0
 91
        1
 62
     0
 92
       -2
340
14
 93
        0
 40
0.045
309
GRIDFORMAT_END
 95
       32
302
GRIDFORMAT
  1
GRIDFORMAT_BEGIN
 90
        0
 91
        1
 62
     0
 92
       -2
340
14
 93
        0
 40
0.045
309
GRIDFORMAT_END
309
TABLEFORMAT_END
  1
CELLSTYLE_BEGIN
 90
        2
 91
        1
300
_HEADER
309
CELLSTYLE_END
300
CELLSTYLE
  1
TABLEFORMAT_BEGIN
 90
        5
170
     1
 91
        0
 92
        0
 62
   257
 93
        1
300
CONTENTFORMAT
  1
CONTENTFORMAT_BEGIN
 90
        0
 91
        0
 92
        4
 93
        0
300

 40
0.0
140
1.0
 94
        2
 62
     0
340
11
144
4.5
309
CONTENTFORMAT_END
171
     1
301
MARGIN
  1
CELLMARGIN_BEGIN
 40
1.5
 40
1.5
 40
1.5
 40
1.5
 40
1.5
 40
1.5
309
CELLMARGIN_END
 94
        6
 95
        1
302
GRIDFORMAT
  1
GRIDFORMAT_BEGIN
 90
        0
 91
        1
 62
     0
 92
       -2
340
14
 93
        0
 40
0.045
309
GRIDFORMAT_END
 95
        2
302
GRIDFORMAT
  1
GRIDFORMAT_BEGIN
 90
        0
 91
        1
 62
     0
 92
       -2
340
14
 93
        0
 40
0.045
309
GRIDFORMAT_END
 95
        4
302
GRIDFORMAT
  1
GRIDFORMAT_BEGIN
 90
        0
 91
        1
 62
     0
 92
       -2
340
14
 93
        0
 40
0.045
309
GRIDFORMAT_END
 95
        8
302
GRIDFORMAT
  1
GRIDFORMAT_BEGIN
 90
        0
 91
        1
 62
     0
 92
       -2
340
14
 93
        0
 40
0.045
309
GRIDFORMAT_END
 95
       16
302
GRIDFORMAT
  1
GRIDFORMAT_BEGIN
 90
        0
 91
        1
 62
     0
 92
       -2
340
14
 93
        0
 40
0.045
309
GRIDFORMAT_END
 95
       32
302
GRIDFORMAT
  1
GRIDFORMAT_BEGIN
 90
        0
 91
        1
 62
     0
 92
       -2
340
14
 93
        0
 40
0.045
309
GRIDFORMAT_END
309
TABLEFORMAT_END
  1
CELLSTYLE_BEGIN
 90
        3
 91
        2
300
_DATA
309
CELLSTYLE_END
  0
ENDSEC
  0
EOF