0
SECTION
  2
HEADER
  9
$ACADVER
  1
AC1027
  9
$ACADMAINTVER
 70
     8
  9
$DWGCODEPAGE
  3
ANSI_1252
  9
$REQUIREDVERSIONS
160
                 0
  9
$COMMENTS
  1
File was created by Cadenas
  9
$CUSTOMPROPERTYTAG
  1
NN
  9
$CUSTOMPROPERTY
  1
Grip Tight Low Backing Height Two-Bolt Pillow Block Metric Bore
  9
$CUSTOMPROPERTYTAG
  1
NT
  9
$CUSTOMPROPERTY
  1
GTB Normal Duty Pillow Blocks
  9
$CUSTOMPROPERTYTAG
  1
NB
  9
$CUSTOMPROPERTY
  1
129044
  9
$CUSTOMPROPERTYTAG
  1
NBSYN
  9
$CUSTOMPROPERTY
  1
$PN.$LUBE.
  9
$CUSTOMPROPERTYTAG
  1
LINA
  9
$CUSTOMPROPERTY
  1
129044
  9
$CUSTOMPROPERTYTAG
  1
SERIES
  9
$CUSTOMPROPERTY
  1
209
  9
$CUSTOMPROPERTYTAG
  1
SS
  9
$CUSTOMPROPERTY
  1
45
  9
$CUSTOMPROPERTYTAG
  1
PN
  9
$CUSTOMPROPERTY
  1
129044
  9
$CUSTOMPROPERTYTAG
  1
DESCRIPTION
  9
$CUSTOMPROPERTY
  1
P2B-GTB-45M
  9
$CUSTOMPROPERTYTAG
  1
A
  9
$CUSTOMPROPERTY
  1
46.8
  9
$CUSTOMPROPERTYTAG
  1
B
  9
$CUSTOMPROPERTY
  1
188.9
  9
$CUSTOMPROPERTYTAG
  1
C
  9
$CUSTOMPROPERTY
  1
50.8
  9
$CUSTOMPROPERTYTAG
  1
DMIN
  9
$CUSTOMPROPERTY
  1
139.7
  9
$CUSTOMPROPERTYTAG
  1
DMAX
  9
$CUSTOMPROPERTY
  1
157.2
  9
$CUSTOMPROPERTYTAG
  1
F
  9
$CUSTOMPROPERTY
  1
M12
  9
$CUSTOMPROPERTYTAG
  1
G
  9
$CUSTOMPROPERTY
  1
23.0
  9
$CUSTOMPROPERTYTAG
  1
H
  9
$CUSTOMPROPERTY
  1
17.5
  9
$CUSTOMPROPERTYTAG
  1
J
  9
$CUSTOMPROPERTY
  1
107.2
  9
$CUSTOMPROPERTYTAG
  1
L
  9
$CUSTOMPROPERTY
  1
67.9
  9
$CUSTOMPROPERTYTAG
  1
M
  9
$CUSTOMPROPERTY
  1
52.4
  9
$CUSTOMPROPERTYTAG
  1
R
  9
$CUSTOMPROPERTY
  1
16.7
  9
$CUSTOMPROPERTYTAG
  1
S
  9
$CUSTOMPROPERTY
  1
30.2
  9
$CUSTOMPROPERTYTAG
  1
U
  9
$CUSTOMPROPERTY
  1
85.7
  9
$CUSTOMPROPERTYTAG
  1
V
  9
$CUSTOMPROPERTY
  1
171.4
  9
$CUSTOMPROPERTYTAG
  1
W
  9
$CUSTOMPROPERTY
  1
17.5
  9
$CUSTOMPROPERTYTAG
  1
X
  9
$CUSTOMPROPERTY
  1
4.8
  9
$CUSTOMPROPERTYTAG
  1
Z
  9
$CUSTOMPROPERTY
  1
29.4
  9
$CUSTOMPROPERTYTAG
  1
COMPANY
  9
$CUSTOMPROPERTY
  1
baldor
  9
$INSBASE
 10
0.0
 20
0.0
 30
0.0
  9
$EXTMIN
 10
1.000000000000000E+20
 20
1.000000000000000E+20
 30
1.000000000000000E+20
  9
$EXTMAX
 10
-1.000000000000000E+20
 20
-1.000000000000000E+20
 30
-1.000000000000000E+20
  9
$LIMMIN
 10
0.0
 20
0.0
  9
$LIMMAX
 10
420.0
 20
297.0
  9
$ORTHOMODE
 70
     0
  9
$REGENMODE
 70
     1
  9
$FILLMODE
 70
     1
  9
$QTEXTMODE
 70
     0
  9
$MIRRTEXT
 70
     1
  9
$LTSCALE
 40
1.0
  9
$ATTMODE
 70
     1
  9
$TEXTSIZE
 40
2.5
  9
$TRACEWID
 40
1.0
  9
$TEXTSTYLE
  7
Standard
  9
$CLAYER
  8
0
  9
$CELTYPE
  6
ByLayer
  9
$CECOLOR
 62
   256
  9
$CELTSCALE
 40
1.0
  9
$DISPSILH
 70
     0
  9
$DIMSCALE
 40
1.0
  9
$DIMASZ
 40
2.5
  9
$DIMEXO
 40
0.625
  9
$DIMDLI
 40
3.75
  9
$DIMRND
 40
0.0
  9
$DIMDLE
 40
0.0
  9
$DIMEXE
 40
1.25
  9
$DIMTP
 40
0.0
  9
$DIMTM
 40
0.0
  9
$DIMTXT
 40
2.5
  9
$DIMCEN
 40
2.5
  9
$DIMTSZ
 40
0.0
  9
$DIMTOL
 70
     0
  9
$DIMLIM
 70
     0
  9
$DIMTIH
 70
     0
  9
$DIMTOH
 70
     0
  9
$DIMSE1
 70
     0
  9
$DIMSE2
 70
     0
  9
$DIMTAD
 70
     1
  9
$DIMZIN
 70
     8
  9
$DIMBLK
  1

  9
$DIMASO
 70
     1
  9
$DIMSHO
 70
     1
  9
$DIMPOST
  1

  9
$DIMAPOST
  1

  9
$DIMALT
 70
     0
  9
$DIMALTD
 70
     3
  9
$DIMALTF
 40
0.03937007874016
  9
$DIMLFAC
 40
1.0
  9
$DIMTOFL
 70
     1
  9
$DIMTVP
 40
0.0
  9
$DIMTIX
 70
     0
  9
$DIMSOXD
 70
     0
  9
$DIMSAH
 70
     0
  9
$DIMBLK1
  1

  9
$DIMBLK2
  1

  9
$DIMSTYLE
  2
ISO-25
  9
$DIMCLRD
 70
     0
  9
$DIMCLRE
 70
     0
  9
$DIMCLRT
 70
     0
  9
$DIMTFAC
 40
1.0
  9
$DIMGAP
 40
0.625
  9
$DIMJUST
 70
     0
  9
$DIMSD1
 70
     0
  9
$DIMSD2
 70
     0
  9
$DIMTOLJ
 70
     0
  9
$DIMTZIN
 70
     8
  9
$DIMALTZ
 70
     0
  9
$DIMALTTZ
 70
     0
  9
$DIMUPT
 70
     0
  9
$DIMDEC
 70
     2
  9
$DIMTDEC
 70
     2
  9
$DIMALTU
 70
     2
  9
$DIMALTTD
 70
     3
  9
$DIMTXSTY
  7
Standard
  9
$DIMAUNIT
 70
     0
  9
$DIMADEC
 70
     0
  9
$DIMALTRND
 40
0.0
  9
$DIMAZIN
 70
     0
  9
$DIMDSEP
 70
    44
  9
$DIMATFIT
 70
     3
  9
$DIMFRAC
 70
     0
  9
$DIMLDRBLK
  1

  9
$DIMLUNIT
 70
     2
  9
$DIMLWD
 70
    -2
  9
$DIMLWE
 70
    -2
  9
$DIMTMOVE
 70
     0
  9
$DIMFXL
 40
1.0
  9
$DIMFXLON
 70
     0
  9
$DIMJOGANG
 40
0.7853981633974483
  9
$DIMTFILL
 70
     0
  9
$DIMTFILLCLR
 70
     0
  9
$DIMARCSYM
 70
     0
  9
$DIMLTYPE
  6

  9
$DIMLTEX1
  6

  9
$DIMLTEX2
  6

  9
$DIMTXTDIRECTION
 70
     0
  9
$LUNITS
 70
     2
  9
$LUPREC
 70
     4
  9
$SKETCHINC
 40
1.0
  9
$FILLETRAD
 40
10.0
  9
$AUNITS
 70
     0
  9
$AUPREC
 70
     0
  9
$MENU
  1
.
  9
$ELEVATION
 40
0.0
  9
$PELEVATION
 40
0.0
  9
$THICKNESS
 40
0.0
  9
$LIMCHECK
 70
     0
  9
$CHAMFERA
 40
0.0
  9
$CHAMFERB
 40
0.0
  9
$CHAMFERC
 40
0.0
  9
$CHAMFERD
 40
0.0
  9
$SKPOLY
 70
     0
  9
$TDCREATE
 40
2458168.994433889
  9
$TDUCREATE
 40
2458168.952767222
  9
$TDUPDATE
 40
2458168.994434074
  9
$TDUUPDATE
 40
2458168.952767408
  9
$TDINDWG
 40
0.0000000116
  9
$TDUSRTIMER
 40
0.0000000116
  9
$USRTIMER
 70
     1
  9
$ANGBASE
 50
0.0
  9
$ANGDIR
 70
     0
  9
$PDMODE
 70
     0
  9
$PDSIZE
 40
0.0
  9
$PLINEWID
 40
0.0
  9
$SPLFRAME
 70
     0
  9
$SPLINETYPE
 70
     6
  9
$SPLINESEGS
 70
     8
  9
$HANDSEED
  5
29A
  9
$SURFTAB1
 70
     6
  9
$SURFTAB2
 70
     6
  9
$SURFTYPE
 70
     6
  9
$SURFU
 70
     6
  9
$SURFV
 70
     6
  9
$UCSBASE
  2

  9
$UCSNAME
  2

  9
$UCSORG
 10
0.0
 20
0.0
 30
0.0
  9
$UCSXDIR
 10
1.0
 20
0.0
 30
0.0
  9
$UCSYDIR
 10
0.0
 20
1.0
 30
0.0
  9
$UCSORTHOREF
  2

  9
$UCSORTHOVIEW
 70
     0
  9
$UCSORGTOP
 10
0.0
 20
0.0
 30
0.0
  9
$UCSORGBOTTOM
 10
0.0
 20
0.0
 30
0.0
  9
$UCSORGLEFT
 10
0.0
 20
0.0
 30
0.0
  9
$UCSORGRIGHT
 10
0.0
 20
0.0
 30
0.0
  9
$UCSORGFRONT
 10
0.0
 20
0.0
 30
0.0
  9
$UCSORGBACK
 10
0.0
 20
0.0
 30
0.0
  9
$PUCSBASE
  2

  9
$PUCSNAME
  2

  9
$PUCSORG
 10
0.0
 20
0.0
 30
0.0
  9
$PUCSXDIR
 10
1.0
 20
0.0
 30
0.0
  9
$PUCSYDIR
 10
0.0
 20
1.0
 30
0.0
  9
$PUCSORTHOREF
  2

  9
$PUCSORTHOVIEW
 70
     0
  9
$PUCSORGTOP
 10
0.0
 20
0.0
 30
0.0
  9
$PUCSORGBOTTOM
 10
0.0
 20
0.0
 30
0.0
  9
$PUCSORGLEFT
 10
0.0
 20
0.0
 30
0.0
  9
$PUCSORGRIGHT
 10
0.0
 20
0.0
 30
0.0
  9
$PUCSORGFRONT
 10
0.0
 20
0.0
 30
0.0
  9
$PUCSORGBACK
 10
0.0
 20
0.0
 30
0.0
  9
$USERI1
 70
     0
  9
$USERI2
 70
     0
  9
$USERI3
 70
     0
  9
$USERI4
 70
     0
  9
$USERI5
 70
     0
  9
$USERR1
 40
0.0
  9
$USERR2
 40
0.0
  9
$USERR3
 40
0.0
  9
$USERR4
 40
0.0
  9
$USERR5
 40
0.0
  9
$WORLDVIEW
 70
     1
  9
$SHADEDGE
 70
     3
  9
$SHADEDIF
 70
    70
  9
$TILEMODE
 70
     1
  9
$MAXACTVP
 70
    64
  9
$PINSBASE
 10
0.0
 20
0.0
 30
0.0
  9
$PLIMCHECK
 70
     0
  9
$PEXTMIN
 10
1.000000000000000E+20
 20
1.000000000000000E+20
 30
1.000000000000000E+20
  9
$PEXTMAX
 10
-1.000000000000000E+20
 20
-1.000000000000000E+20
 30
-1.000000000000000E+20
  9
$PLIMMIN
 10
0.0
 20
0.0
  9
$PLIMMAX
 10
420.0
 20
297.0
  9
$UNITMODE
 70
     0
  9
$VISRETAIN
 70
     1
  9
$PLINEGEN
 70
     0
  9
$PSLTSCALE
 70
     1
  9
$TREEDEPTH
 70
  3020
  9
$CMLSTYLE
  2
Standard
  9
$CMLJUST
 70
     0
  9
$CMLSCALE
 40
20.0
  9
$PROXYGRAPHICS
 70
     1
  9
$MEASUREMENT
 70
     1
  9
$CELWEIGHT
370
    -1
  9
$ENDCAPS
280
     0
  9
$JOINSTYLE
280
     0
  9
$LWDISPLAY
290
     0
  9
$INSUNITS
 70
     4
  9
$HYPERLINKBASE
  1

  9
$STYLESHEET
  1

  9
$XEDIT
290
     1
  9
$CEPSNTYPE
380
     0
  9
$PSTYLEMODE
290
     1
  9
$FINGERPRINTGUID
  2
{BC333A36-83B7-46AB-8E69-78F53B3EB3EA}
  9
$VERSIONGUID
  2
{FAEB1C32-E019-11D5-929B-00C0DF256EC4}
  9
$EXTNAMES
290
     1
  9
$PSVPSCALE
 40
0.0
  9
$OLESTARTUP
290
     0
  9
$SORTENTS
280
   127
  9
$INDEXCTL
280
     0
  9
$HIDETEXT
280
     1
  9
$XCLIPFRAME
280
     2
  9
$HALOGAP
280
     0
  9
$OBSCOLOR
 70
   257
  9
$OBSLTYPE
280
     0
  9
$INTERSECTIONDISPLAY
280
     0
  9
$INTERSECTIONCOLOR
 70
   257
  9
$DIMASSOC
280
     2
  9
$PROJECTNAME
  1

  9
$CAMERADISPLAY
290
     0
  9
$LENSLENGTH
 40
50.0
  9
$CAMERAHEIGHT
 40
0.0
  9
$STEPSPERSEC
 40
2.0
  9
$STEPSIZE
 40
6.0
  9
$3DDWFPREC
 40
2.0
  9
$PSOLWIDTH
 40
5.0
  9
$PSOLHEIGHT
 40
80.0
  9
$LOFTANG1
 40
1.570796326794897
  9
$LOFTANG2
 40
1.570796326794897
  9
$LOFTMAG1
 40
0.0
  9
$LOFTMAG2
 40
0.0
  9
$LOFTPARAM
 70
     7
  9
$LOFTNORMALS
280
     1
  9
$LATITUDE
 40
37.795
  9
$LONGITUDE
 40
-122.394
  9
$NORTHDIRECTION
 40
0.0
  9
$TIMEZONE
 70
 -8000
  9
$LIGHTGLYPHDISPLAY
280
     1
  9
$TILEMODELIGHTSYNCH
280
     1
  9
$CMATERIAL
347
44
  9
$SOLIDHIST
280
     0
  9
$SHOWHIST
280
     1
  9
$DWFFRAME
280
     2
  9
$DGNFRAME
280
     2
  9
$REALWORLDSCALE
290
     1
  9
$INTERFERECOLOR
 62
   256
  9
$CSHADOW
280
     0
  9
$SHADOWPLANELOCATION
 40
0.0
  0
ENDSEC
  0
SECTION
  2
CLASSES
  0
CLASS
  1
ACDBDICTIONARYWDFLT
  2
AcDbDictionaryWithDefault
  3
ObjectDBX Classes
 90
        0
 91
        4
280
     0
281
     0
  0
CLASS
  1
VISUALSTYLE
  2
AcDbVisualStyle
  3
ObjectDBX Classes
 90
     4095
 91
        4
280
     0
281
     0
  0
CLASS
  1
MATERIAL
  2
AcDbMaterial
  3
ObjectDBX Classes
 90
     1153
 91
        4
280
     0
281
     0
  0
CLASS
  1
SCALE
  2
AcDbScale
  3
ObjectDBX Classes
 90
     1153
 91
        4
280
     0
281
     0
  0
CLASS
  1
TABLESTYLE
  2
AcDbTableStyle
  3
ObjectDBX Classes
 90
     4095
 91
        4
280
     0
281
     0
  0
CLASS
  1
MLEADERSTYLE
  2
AcDbMLeaderStyle
  3
ACDB_MLEADERSTYLE_CLASS
 90
     4095
 91
        4
280
     0
281
     0
  0
CLASS
  1
SUN
  2
AcDbSun
  3
SCENEOE
 90
     1153
 91
        4
280
     0
281
     0
  0
CLASS
  1
DICTIONARYVAR
  2
AcDbDictionaryVar
  3
ObjectDBX Classes
 90
        0
 91
        4
280
     0
281
     0
  0
CLASS
  1
CELLSTYLEMAP
  2
AcDbCellStyleMap
  3
ObjectDBX Classes
 90
     1152
 91
        4
280
     0
281
     0
  0
ENDSEC
  0
SECTION
  2
TABLES
  0
TABLE
  2
VPORT
  5
8
330
0
100
AcDbSymbolTable
 70
     1
  0
VPORT
  5
29
330
8
100
AcDbSymbolTableRecord
100
AcDbViewportTableRecord
  2
*Active
 70
     0
 10
0.0
 20
0.0
 11
1.0
 21
1.0
 12
-2.25
 22
11.91999816894506
 13
0.0
 23
0.0
 14
10.0
 24
10.0
 15
10.0
 25
10.0
 16
0.0
 26
0.0
 36
1.0
 17
0.0
 27
0.0
 37
0.0
 40
131.2127962646479
 41
0.4693719039092932
 42
50.0
 43
0.0
 44
0.0
 50
0.0
 51
0.0
 71
     0
 72
   100
 73
     1
 74
     3
 75
     0
 76
     0
 77
     0
 78
     0
281
     0
 65
     1
110
0.0
120
0.0
130
0.0
111
1.0
121
0.0
131
0.0
112
0.0
122
1.0
132
0.0
 79
     0
146
0.0
348
2F
 60
     3
 61
     5
292
     1
282
     1
141
0.0
142
0.0
 63
   250
361
6D
  0
ENDTAB
  0
TABLE
  2
LTYPE
  5
5
330
0
100
AcDbSymbolTable
 70
     3
  0
LTYPE
  5
14
330
5
100
AcDbSymbolTableRecord
100
AcDbLinetypeTableRecord
  2
ByBlock
 70
     0
  3

 72
    65
 73
     0
 40
0.0
  0
LTYPE
  5
15
330
5
100
AcDbSymbolTableRecord
100
AcDbLinetypeTableRecord
  2
ByLayer
 70
     0
  3

 72
    65
 73
     0
 40
0.0
  0
LTYPE
  5
16
330
5
100
AcDbSymbolTableRecord
100
AcDbLinetypeTableRecord
  2
Continuous
 70
     0
  3
Solid line
 72
    65
 73
     0
 40
0.0
  0
LTYPE
  5
A5
330
5
100
AcDbSymbolTableRecord
100
AcDbLinetypeTableRecord
  2
Dashed
 70
     0
  3

 72
    65
 73
     2
 40
2.0
 49
1.0
 74
     0
 49
-1.0
 74
     0
  0
LTYPE
  5
11D
330
5
100
AcDbSymbolTableRecord
100
AcDbLinetypeTableRecord
  2
Center
 70
     0
  3

 72
    65
 73
     4
 40
1.5
 49
0.45
 74
     0
 49
-0.5
 74
     0
 49
0.05
 74
     0
 49
-0.5
 74
     0
  0
ENDTAB
  0
TABLE
  2
LAYER
  5
2
330
0
100
AcDbSymbolTable
 70
     7
  0
LAYER
  5
10
330
2
100
AcDbSymbolTableRecord
100
AcDbLayerTableRecord
  2
0
 70
     0
 62
     7
  6
Continuous
370
    -3
390
F
347
46
348
0
  0
LAYER
  5
72
330
2
100
AcDbSymbolTableRecord
100
AcDbLayerTableRecord
  2
AM_6
 70
     0
 62
    -2
  6
Continuous
370
    35
390
F
347
46
348
0
  0
LAYER
  5
A6
330
2
100
AcDbSymbolTableRecord
100
AcDbLayerTableRecord
  2
AM_9
 70
     0
 62
     6
  6
Dashed
370
    25
390
F
347
46
348
0
  0
LAYER
  5
D7
330
2
100
AcDbSymbolTableRecord
100
AcDbLayerTableRecord
  2
AM_4
 70
     0
 62
     7
  6
Continuous
370
    50
390
F
347
46
348
0
  0
LAYER
  5
11E
330
2
100
AcDbSymbolTableRecord
100
AcDbLayerTableRecord
  2
AM_7
 70
     0
 62
     7
  6
Center
370
    25
390
F
347
46
348
0
  0
LAYER
  5
12C
330
2
100
AcDbSymbolTableRecord
100
AcDbLayerTableRecord
  2
AM_5
 70
     0
 62
     3
  6
Continuous
370
    25
390
F
347
46
348
0
  0
LAYER
  5
28C
330
2
100
AcDbSymbolTableRecord
100
AcDbLayerTableRecord
  2
ConnectionPoints
 70
     0
 62
     7
  6
Continuous
370
    50
390
F
347
46
348
0
  0
ENDTAB
  0
TABLE
  2
STYLE
  5
3
330
0
100
AcDbSymbolTable
 70
     1
  0
STYLE
  5
11
330
3
100
AcDbSymbolTableRecord
100
AcDbTextStyleTableRecord
  2
Standard
 70
     0
 40
0.0
 41
1.0
 50
0.0
 71
     0
 42
2.5
  3
txt
  4

  0
ENDTAB
  0
TABLE
  2
VIEW
  5
6
330
0
100
AcDbSymbolTable
 70
     0
  0
ENDTAB
  0
TABLE
  2
UCS
  5
7
330
0
100
AcDbSymbolTable
 70
     0
  0
ENDTAB
  0
TABLE
  2
APPID
  5
9
330
0
100
AcDbSymbolTable
 70
     1
  0
APPID
  5
12
330
9
100
AcDbSymbolTableRecord
100
AcDbRegAppTableRecord
  2
ACAD
 70
     0
  0
ENDTAB
  0
TABLE
  2
DIMSTYLE
  5
A
330
0
100
AcDbSymbolTable
 70
     1
100
AcDbDimStyleTable
  0
DIMSTYLE
105
27
330
A
100
AcDbSymbolTableRecord
100
AcDbDimStyleTableRecord
  2
ISO-25
 70
     0
 41
2.5
 42
0.625
 43
3.75
 44
1.25
 73
     0
 74
     0
 77
     1
 78
     8
140
2.5
141
2.5
143
0.03937007874016
147
0.625
171
     3
172
     1
178
     0
271
     2
272
     2
274
     3
278
    44
283
     0
284
     8
340
11
  0
ENDTAB
  0
TABLE
  2
BLOCK_RECORD
  5
1
330
0
100
AcDbSymbolTable
 70
     5
  0
BLOCK_RECORD
  5
1F
330
1
100
AcDbSymbolTableRecord
100
AcDbBlockTableRecord
  2
*Model_Space
340
22
 70
     0
280
     1
281
     0
  0
BLOCK_RECORD
  5
1B
330
1
100
AcDbSymbolTableRecord
100
AcDbBlockTableRecord
  2
*Paper_Space
340
1E
 70
     0
280
     1
281
     0
  0
BLOCK_RECORD
  5
23
330
1
100
AcDbSymbolTableRecord
100
AcDbBlockTableRecord
  2
*Paper_Space0
340
26
 70
     0
280
     1
281
     0
  0
BLOCK_RECORD
  5
6E
330
1
100
AcDbSymbolTableRecord
100
AcDbBlockTableRecord
  2
1_129044_2
340
0
102
{BLKREFS
331
6F
102
}
 70
     0
280
     1
281
     0
  0
BLOCK_RECORD
  5
8F
330
1
100
AcDbSymbolTableRecord
100
AcDbBlockTableRecord
  2
2_129522_0_in_129044_2
340
0
102
{BLKREFS
331
90
102
}
 70
     0
280
     1
281
     0
  0
BLOCK_RECORD
  5
D9
330
1
100
AcDbSymbolTableRecord
100
AcDbBlockTableRecord
  2
3_129948_0_in_129044_2
340
0
102
{BLKREFS
331
DA
102
}
 70
     0
280
     1
281
     0
  0
BLOCK_RECORD
  5
12E
330
1
100
AcDbSymbolTableRecord
100
AcDbBlockTableRecord
  2
4_129438_0_in_129044_2
340
0
102
{BLKREFS
331
12F
102
}
 70
     0
280
     1
281
     0
  0
ENDTAB
  0
ENDSEC
  0
SECTION
  2
BLOCKS
  0
BLOCK
  5
20
330
1F
100
AcDbEntity
  8
0
100
AcDbBlockBegin
  2
*Model_Space
 70
     0
 10
0.0
 20
0.0
 30
0.0
  3
*Model_Space
  1

  0
ENDBLK
  5
21
330
1F
100
AcDbEntity
  8
0
100
AcDbBlockEnd
  0
BLOCK
  5
1C
330
1B
100
AcDbEntity
 67
     1
  8
0
100
AcDbBlockBegin
  2
*Paper_Space
 70
     0
 10
0.0
 20
0.0
 30
0.0
  3
*Paper_Space
  1

  0
ENDBLK
  5
1D
330
1B
100
AcDbEntity
 67
     1
  8
0
100
AcDbBlockEnd
  0
BLOCK
  5
24
330
23
100
AcDbEntity
  8
0
100
AcDbBlockBegin
  2
*Paper_Space0
 70
     0
 10
0.0
 20
0.0
 30
0.0
  3
*Paper_Space0
  1

  0
ENDBLK
  5
25
330
23
100
AcDbEntity
  8
0
100
AcDbBlockEnd
  0
BLOCK
  5
70
330
6E
100
AcDbEntity
  8
0
100
AcDbBlockBegin
  2
1_129044_2
 70
     2
 10
0.0
 20
0.0
 30
0.0
  3
1_129044_2
  1

  0
ATTDEF
  5
73
330
6E
100
AcDbEntity
  8
AM_6
100
AcDbText
 10
32.94
 20
76.23999633789063
 30
0.0
 40
0.5
  1
Grip Tight Low Backing Height Two-Bolt Pillow Block Metric Bore
100
AcDbAttributeDefinition
  3

  2
NN
 70
     8
280
     0
  0
ATTDEF
  5
74
330
6E
100
AcDbEntity
  8
AM_6
100
AcDbText
 10
32.94
 20
75.73999633789063
 30
0.0
 40
0.5
  1
GTB Normal Duty Pillow Blocks
100
AcDbAttributeDefinition
  3

  2
NT
 70
     8
280
     0
  0
ATTDEF
  5
75
330
6E
100
AcDbEntity
  8
AM_6
100
AcDbText
 10
32.94
 20
75.23999633789063
 30
0.0
 40
0.5
  1
129044
100
AcDbAttributeDefinition
  3

  2
NB
 70
     8
280
     0
  0
ATTDEF
  5
76
330
6E
100
AcDbEntity
  8
AM_6
100
AcDbText
 10
32.94
 20
74.73999633789063
 30
0.0
 40
0.5
  1
$PN.$LUBE.
100
AcDbAttributeDefinition
  3

  2
NBSYN
 70
     8
280
     0
  0
ATTDEF
  5
77
330
6E
100
AcDbEntity
  8
AM_6
100
AcDbText
 10
32.94
 20
74.23999633789063
 30
0.0
 40
0.5
  1
129044
100
AcDbAttributeDefinition
  3

  2
LINA
 70
     8
280
     0
  0
ATTDEF
  5
78
330
6E
100
AcDbEntity
  8
AM_6
100
AcDbText
 10
32.94
 20
73.73999633789063
 30
0.0
 40
0.5
  1
209
100
AcDbAttributeDefinition
  3

  2
SERIES
 70
     8
280
     0
  0
ATTDEF
  5
79
330
6E
100
AcDbEntity
  8
AM_6
100
AcDbText
 10
32.94
 20
73.23999633789063
 30
0.0
 40
0.5
  1
45
100
AcDbAttributeDefinition
  3

  2
SS
 70
     8
280
     0
  0
ATTDEF
  5
7A
330
6E
100
AcDbEntity
  8
AM_6
100
AcDbText
 10
32.94
 20
72.73999633789063
 30
0.0
 40
0.5
  1
129044
100
AcDbAttributeDefinition
  3

  2
PN
 70
     8
280
     0
  0
ATTDEF
  5
7B
330
6E
100
AcDbEntity
  8
AM_6
100
AcDbText
 10
32.94
 20
72.23999633789063
 30
0.0
 40
0.5
  1
P2B-GTB-45M
100
AcDbAttributeDefinition
  3

  2
DESCRIPTION
 70
     8
280
     0
  0
ATTDEF
  5
7C
330
6E
100
AcDbEntity
  8
AM_6
100
AcDbText
 10
32.94
 20
71.73999633789063
 30
0.0
 40
0.5
  1
46.8
100
AcDbAttributeDefinition
  3

  2
A
 70
     8
280
     0
  0
ATTDEF
  5
7D
330
6E
100
AcDbEntity
  8
AM_6
100
AcDbText
 10
32.94
 20
71.23999633789063
 30
0.0
 40
0.5
  1
188.9
100
AcDbAttributeDefinition
  3

  2
B
 70
     8
280
     0
  0
ATTDEF
  5
7E
330
6E
100
AcDbEntity
  8
AM_6
100
AcDbText
 10
32.94
 20
70.73999633789063
 30
0.0
 40
0.5
  1
50.8
100
AcDbAttributeDefinition
  3

  2
C
 70
     8
280
     0
  0
ATTDEF
  5
7F
330
6E
100
AcDbEntity
  8
AM_6
100
AcDbText
 10
32.94
 20
70.23999633789063
 30
0.0
 40
0.5
  1
139.7
100
AcDbAttributeDefinition
  3

  2
DMIN
 70
     8
280
     0
  0
ATTDEF
  5
80
330
6E
100
AcDbEntity
  8
AM_6
100
AcDbText
 10
32.94
 20
69.73999633789063
 30
0.0
 40
0.5
  1
157.2
100
AcDbAttributeDefinition
  3

  2
DMAX
 70
     8
280
     0
  0
ATTDEF
  5
81
330
6E
100
AcDbEntity
  8
AM_6
100
AcDbText
 10
32.94
 20
69.23999633789063
 30
0.0
 40
0.5
  1
M12
100
AcDbAttributeDefinition
  3

  2
F
 70
     8
280
     0
  0
ATTDEF
  5
82
330
6E
100
AcDbEntity
  8
AM_6
100
AcDbText
 10
32.94
 20
68.73999633789063
 30
0.0
 40
0.5
  1
23.0
100
AcDbAttributeDefinition
  3

  2
G
 70
     8
280
     0
  0
ATTDEF
  5
83
330
6E
100
AcDbEntity
  8
AM_6
100
AcDbText
 10
32.94
 20
68.23999633789063
 30
0.0
 40
0.5
  1
17.5
100
AcDbAttributeDefinition
  3

  2
H
 70
     8
280
     0
  0
ATTDEF
  5
84
330
6E
100
AcDbEntity
  8
AM_6
100
AcDbText
 10
32.94
 20
67.73999633789063
 30
0.0
 40
0.5
  1
107.2
100
AcDbAttributeDefinition
  3

  2
J
 70
     8
280
     0
  0
ATTDEF
  5
85
330
6E
100
AcDbEntity
  8
AM_6
100
AcDbText
 10
32.94
 20
67.23999633789063
 30
0.0
 40
0.5
  1
67.9
100
AcDbAttributeDefinition
  3

  2
L
 70
     8
280
     0
  0
ATTDEF
  5
86
330
6E
100
AcDbEntity
  8
AM_6
100
AcDbText
 10
32.94
 20
66.73999633789063
 30
0.0
 40
0.5
  1
52.4
100
AcDbAttributeDefinition
  3

  2
M
 70
     8
280
     0
  0
ATTDEF
  5
87
330
6E
100
AcDbEntity
  8
AM_6
100
AcDbText
 10
32.94
 20
66.23999633789063
 30
0.0
 40
0.5
  1
16.7
100
AcDbAttributeDefinition
  3

  2
R
 70
     8
280
     0
  0
ATTDEF
  5
88
330
6E
100
AcDbEntity
  8
AM_6
100
AcDbText
 10
32.94
 20
65.73999633789063
 30
0.0
 40
0.5
  1
30.2
100
AcDbAttributeDefinition
  3

  2
S
 70
     8
280
     0
  0
ATTDEF
  5
89
330
6E
100
AcDbEntity
  8
AM_6
100
AcDbText
 10
32.94
 20
65.23999633789063
 30
0.0
 40
0.5
  1
85.7
100
AcDbAttributeDefinition
  3

  2
U
 70
     8
280
     0
  0
ATTDEF
  5
8A
330
6E
100
AcDbEntity
  8
AM_6
100
AcDbText
 10
32.94
 20
64.73999633789063
 30
0.0
 40
0.5
  1
171.4
100
AcDbAttributeDefinition
  3

  2
V
 70
     8
280
     0
  0
ATTDEF
  5
8B
330
6E
100
AcDbEntity
  8
AM_6
100
AcDbText
 10
32.94
 20
64.23999633789063
 30
0.0
 40
0.5
  1
17.5
100
AcDbAttributeDefinition
  3

  2
W
 70
     8
280
     0
  0
ATTDEF
  5
8C
330
6E
100
AcDbEntity
  8
AM_6
100
AcDbText
 10
32.94
 20
63.73999633789063
 30
0.0
 40
0.5
  1
4.8
100
AcDbAttributeDefinition
  3

  2
X
 70
     8
280
     0
  0
ATTDEF
  5
8D
330
6E
100
AcDbEntity
  8
AM_6
100
AcDbText
 10
32.94
 20
63.23999633789063
 30
0.0
 40
0.5
  1
29.4
100
AcDbAttributeDefinition
  3

  2
Z
 70
     8
280
     0
  0
ATTDEF
  5
8E
330
6E
100
AcDbEntity
  8
AM_6
100
AcDbText
 10
32.94
 20
62.73999633789063
 30
0.0
 40
0.5
  1
baldor
100
AcDbAttributeDefinition
  3

  2
COMPANY
 70
     8
280
     0
  0
INSERT
  5
90
330
6E
100
AcDbEntity
  8
0
100
AcDbBlockReference
  2
2_129522_0_in_129044_2
 10
0.0
 20
0.0
 30
0.0
  0
INSERT
  5
DA
330
6E
100
AcDbEntity
  8
0
100
AcDbBlockReference
  2
3_129948_0_in_129044_2
 10
0.0
 20
0.0
 30
0.0
  0
INSERT
  5
12F
330
6E
100
AcDbEntity
  8
0
100
AcDbBlockReference
  2
4_129438_0_in_129044_2
 10
0.0
 20
0.0
 30
0.0
  0
ENDBLK
  5
71
330
6E
100
AcDbEntity
  8
0
100
AcDbBlockEnd
  0
BLOCK
  5
91
330
8F
100
AcDbEntity
  8
0
100
AcDbBlockBegin
  2
2_129522_0_in_129044_2
 70
     2
 10
0.0
 20
0.0
 30
0.0
  3
2_129522_0_in_129044_2
  1

  0
ATTDEF
  5
93
330
8F
100
AcDbEntity
  8
AM_6
100
AcDbText
 10
19.13
 20
42.4999999935558
 30
0.0
 40
0.5
  1
INS-GT-M B
100
AcDbAttributeDefinition
  3

  2
NN
 70
     8
280
     0
  0
ATTDEF
  5
94
330
8F
100
AcDbEntity
  8
AM_6
100
AcDbText
 10
19.13
 20
41.9999999935558
 30
0.0
 40
0.5
  1
GT Normal Duty Bearing Inserts
100
AcDbAttributeDefinition
  3

  2
NT
 70
     8
280
     0
  0
ATTDEF
  5
95
330
8F
100
AcDbEntity
  8
AM_6
100
AcDbText
 10
19.13
 20
41.4999999935558
 30
0.0
 40
0.5
  1
129522
100
AcDbAttributeDefinition
  3

  2
NB
 70
     8
280
     0
  0
ATTDEF
  5
96
330
8F
100
AcDbEntity
  8
AM_6
100
AcDbText
 10
19.13
 20
40.9999999935558
 30
0.0
 40
0.5
  1
$PN.
100
AcDbAttributeDefinition
  3

  2
NBSYN
 70
     8
280
     0
  0
ATTDEF
  5
97
330
8F
100
AcDbEntity
  8
AM_6
100
AcDbText
 10
19.13
 20
40.4999999935558
 30
0.0
 40
0.5
  1
129522
100
AcDbAttributeDefinition
  3

  2
LINA
 70
     8
280
     0
  0
ATTDEF
  5
98
330
8F
100
AcDbEntity
  8
AM_6
100
AcDbText
 10
19.13
 20
39.9999999935558
 30
0.0
 40
0.5
  1
209
100
AcDbAttributeDefinition
  3

  2
SERIES
 70
     8
280
     0
  0
ATTDEF
  5
99
330
8F
100
AcDbEntity
  8
AM_6
100
AcDbText
 10
19.13
 20
39.4999999935558
 30
0.0
 40
0.5
  1
129522
100
AcDbAttributeDefinition
  3

  2
PN
 70
     8
280
     0
  0
ATTDEF
  5
9A
330
8F
100
AcDbEntity
  8
AM_6
100
AcDbText
 10
19.13
 20
38.9999999935558
 30
0.0
 40
0.5
  1
INS-GT-09
100
AcDbAttributeDefinition
  3

  2
DESCRIPTION
 70
     8
280
     0
  0
ATTDEF
  5
9B
330
8F
100
AcDbEntity
  8
AM_6
100
AcDbText
 10
19.13
 20
38.4999999935558
 30
0.0
 40
0.5
  1
47.0
100
AcDbAttributeDefinition
  3

  2
A
 70
     8
280
     0
  0
ATTDEF
  5
9C
330
8F
100
AcDbEntity
  8
AM_6
100
AcDbText
 10
19.13
 20
37.9999999935558
 30
0.0
 40
0.5
  1
22.1
100
AcDbAttributeDefinition
  3

  2
C
 70
     8
280
     0
  0
ATTDEF
  5
9D
330
8F
100
AcDbEntity
  8
AM_6
100
AcDbText
 10
19.13
 20
37.4999999935558
 30
0.0
 40
0.5
  1
85.0
100
AcDbAttributeDefinition
  3

  2
D
 70
     8
280
     0
  0
ATTDEF
  5
9E
330
8F
100
AcDbEntity
  8
AM_6
100
AcDbText
 10
19.13
 20
36.9999999935558
 30
0.0
 40
0.5
  1
6.4
100
AcDbAttributeDefinition
  3

  2
J
 70
     8
280
     0
  0
ATTDEF
  5
9F
330
8F
100
AcDbEntity
  8
AM_6
100
AcDbText
 10
19.13
 20
36.4999999935558
 30
0.0
 40
0.5
  1
72.6
100
AcDbAttributeDefinition
  3

  2
L
 70
     8
280
     0
  0
ATTDEF
  5
A0
330
8F
100
AcDbEntity
  8
AM_6
100
AcDbText
 10
19.13
 20
35.9999999935558
 30
0.0
 40
0.5
  1
#10 - 32 x 1/4
100
AcDbAttributeDefinition
  3

  2
N
 70
     8
280
     0
  0
ATTDEF
  5
A1
330
8F
100
AcDbEntity
  8
AM_6
100
AcDbText
 10
19.13
 20
35.4999999935558
 30
0.0
 40
0.5
  1
15.7
100
AcDbAttributeDefinition
  3

  2
W
 70
     8
280
     0
  0
ATTDEF
  5
A2
330
8F
100
AcDbEntity
  8
AM_6
100
AcDbText
 10
19.13
 20
34.9999999935558
 30
0.0
 40
0.5
  1
32.0
100
AcDbAttributeDefinition
  3

  2
X
 70
     8
280
     0
  0
ATTDEF
  5
A3
330
8F
100
AcDbEntity
  8
AM_6
100
AcDbText
 10
19.13
 20
34.4999999935558
 30
0.0
 40
0.5
  1
31.2
100
AcDbAttributeDefinition
  3

  2
Y
 70
     8
280
     0
  0
ATTDEF
  5
A4
330
8F
100
AcDbEntity
  8
AM_6
100
AcDbText
 10
19.13
 20
33.9999999935558
 30
0.0
 40
0.5
  1
baldor
100
AcDbAttributeDefinition
  3

  2
COMPANY
 70
     8
280
     0
  0
LINE
  5
A7
330
8F
100
AcDbEntity
  8
AM_9
100
AcDbLine
 10
-24.0
 20
-27.08095238095238
 30
0.0
 11
-12.00000000000007
 21
-27.08095238095238
 31
0.0
  0
LINE
  5
A8
330
8F
100
AcDbEntity
  8
AM_9
100
AcDbLine
 10
-12.00000000000007
 20
27.08095238095238
 30
0.0
 11
-24.0
 21
27.08095238095238
 31
0.0
  0
LINE
  5
A9
330
8F
100
AcDbEntity
  8
AM_9
100
AcDbLine
 10
-12.00000000000007
 20
27.08095238095238
 30
0.0
 11
-12.00000000000007
 21
-27.08095238095238
 31
0.0
  0
LINE
  5
AA
330
8F
100
AcDbEntity
  8
AM_9
100
AcDbLine
 10
-12.00000000000007
 20
-27.08095238095238
 30
0.0
 11
14.13
 21
-27.99343208777175
 31
0.0
  0
LINE
  5
AB
330
8F
100
AcDbEntity
  8
AM_9
100
AcDbLine
 10
14.13
 20
27.99343208777175
 30
0.0
 11
-12.00000000000007
 21
27.08095238095238
 31
0.0
  0
LINE
  5
AC
330
8F
100
AcDbEntity
  8
AM_9
100
AcDbLine
 10
-20.0
 20
-29.67380952380953
 30
0.0
 11
-16.0
 21
-29.67380952380953
 31
0.0
  0
LINE
  5
AD
330
8F
100
AcDbEntity
  8
AM_9
100
AcDbLine
 10
-16.0
 20
29.67380952380953
 30
0.0
 11
-20.0
 21
29.67380952380953
 31
0.0
  0
LINE
  5
AE
330
8F
100
AcDbEntity
  8
AM_9
100
AcDbLine
 10
-24.0
 20
31.38266666666666
 30
0.0
 11
-24.0
 21
-31.38266666666666
 31
0.0
  0
LINE
  5
AF
330
8F
100
AcDbEntity
  8
AM_9
100
AcDbLine
 10
-24.0
 20
-31.38266666666666
 30
0.0
 11
-23.116
 21
-32.26666666666667
 31
0.0
  0
LINE
  5
B0
330
8F
100
AcDbEntity
  8
AM_9
100
AcDbLine
 10
-23.116
 20
32.26666666666667
 30
0.0
 11
-24.0
 21
31.38266666666666
 31
0.0
  0
LINE
  5
B1
330
8F
100
AcDbEntity
  8
AM_9
100
AcDbLine
 10
-23.11599999999999
 20
-3.149999999999999
 30
0.0
 11
-23.116
 21
-32.26666666666667
 31
0.0
  0
LINE
  5
B2
330
8F
100
AcDbEntity
  8
AM_9
100
AcDbLine
 10
-23.116
 20
32.26666666666667
 30
0.0
 11
-23.11599999999999
 21
3.149999999999999
 31
0.0
  0
LINE
  5
B3
330
8F
100
AcDbEntity
  8
AM_9
100
AcDbLine
 10
-20.0
 20
32.26666666666667
 30
0.0
 11
-20.0
 21
-32.26666666666667
 31
0.0
  0
LINE
  5
B4
330
8F
100
AcDbEntity
  8
AM_9
100
AcDbLine
 10
-23.116
 20
-32.26666666666667
 30
0.0
 11
-20.0
 21
-32.26666666666667
 31
0.0
  0
LINE
  5
B5
330
8F
100
AcDbEntity
  8
AM_9
100
AcDbLine
 10
-20.0
 20
32.26666666666667
 30
0.0
 11
-23.116
 21
32.26666666666667
 31
0.0
  0
LINE
  5
B6
330
8F
100
AcDbEntity
  8
AM_9
100
AcDbLine
 10
14.13
 20
31.38266666666666
 30
0.0
 11
14.13
 21
-31.38266666666666
 31
0.0
  0
LINE
  5
B7
330
8F
100
AcDbEntity
  8
AM_9
100
AcDbLine
 10
14.13
 20
31.38266666666666
 30
0.0
 11
13.246
 21
32.26666666666667
 31
0.0
  0
LINE
  5
B8
330
8F
100
AcDbEntity
  8
AM_9
100
AcDbLine
 10
13.246
 20
-32.26666666666667
 30
0.0
 11
14.13
 21
-31.38266666666666
 31
0.0
  0
LINE
  5
B9
330
8F
100
AcDbEntity
  8
AM_9
100
AcDbLine
 10
-16.0
 20
32.26666666666667
 30
0.0
 11
-16.0
 21
-32.26666666666667
 31
0.0
  0
LINE
  5
BA
330
8F
100
AcDbEntity
  8
AM_9
100
AcDbLine
 10
-16.0
 20
-32.26666666666667
 30
0.0
 11
-11.05
 21
-32.26666666666667
 31
0.0
  0
LINE
  5
BB
330
8F
100
AcDbEntity
  8
AM_9
100
AcDbLine
 10
-11.05
 20
32.26666666666667
 30
0.0
 11
-16.0
 21
32.26666666666667
 31
0.0
  0
LINE
  5
BC
330
8F
100
AcDbEntity
  8
AM_9
100
AcDbLine
 10
13.246
 20
32.26666666666667
 30
0.0
 11
13.246
 21
-32.26666666666667
 31
0.0
  0
LINE
  5
BD
330
8F
100
AcDbEntity
  8
AM_9
100
AcDbLine
 10
11.05
 20
-32.26666666666667
 30
0.0
 11
13.246
 21
-32.26666666666667
 31
0.0
  0
LINE
  5
BE
330
8F
100
AcDbEntity
  8
AM_9
100
AcDbLine
 10
13.246
 20
32.26666666666667
 30
0.0
 11
11.05
 21
32.26666666666667
 31
0.0
  0
LINE
  5
BF
330
8F
100
AcDbEntity
  8
AM_9
100
AcDbLine
 10
-7.680000000000001
 20
-40.29
 30
0.0
 11
-5.120000000000001
 21
-40.29
 31
0.0
  0
LINE
  5
C0
330
8F
100
AcDbEntity
  8
AM_9
100
AcDbLine
 10
-5.120000000000001
 20
40.29
 30
0.0
 11
-7.680000000000001
 21
40.29
 31
0.0
  0
LINE
  5
C1
330
8F
100
AcDbEntity
  8
AM_9
100
AcDbLine
 10
-11.05
 20
39.69396884512427
 30
0.0
 11
-11.05
 21
-39.69396884511182
 31
0.0
  0
ARC
  5
C2
330
8F
100
AcDbEntity
  8
AM_9
100
AcDbCircle
 10
-10.16600000000002
 20
-39.69396883195164
 30
0.0
 40
0.8839999999999755
100
AcDbArc
 50
179.9999991462263
 51
248.5875329531169
  0
ARC
  5
C3
330
8F
100
AcDbEntity
  8
AM_9
100
AcDbCircle
 10
-10.16600000000002
 20
39.69396883195164
 30
0.0
 40
0.8839999999999762
100
AcDbArc
 50
111.4124670468831
 51
179.9999991462263
  0
LINE
  5
C4
330
8F
100
AcDbEntity
  8
AM_9
100
AcDbLine
 10
11.05
 20
39.69396883195164
 30
0.0
 11
11.05
 21
-39.69396883193918
 31
0.0
  0
ARC
  5
C5
330
8F
100
AcDbEntity
  8
AM_9
100
AcDbCircle
 10
10.16600000000001
 20
-39.69396883195164
 30
0.0
 40
0.8839999999999884
100
AcDbArc
 50
291.4124617569393
 51
0.0
  0
ARC
  5
C6
330
8F
100
AcDbEntity
  8
AM_9
100
AcDbCircle
 10
10.16600000000001
 20
39.69396883195164
 30
0.0
 40
0.8839999999999861
100
AcDbArc
 50
0.0
 51
68.5875382430607
  0
LINE
  5
C7
330
8F
100
AcDbEntity
  8
AM_9
100
AcDbLine
 10
-10.48873015873016
 20
40.5169519694739
 30
0.0
 11
-10.48873015873016
 21
-40.5169519694739
 31
0.0
  0
ARC
  5
C8
330
8F
100
AcDbEntity
  8
AM_9
100
AcDbCircle
 10
-0.0000000000048406
 20
-13.77000000001421
 30
0.0
 40
28.72999999998499
100
AcDbArc
 50
248.5875329531146
 51
253.9103822016727
  0
ARC
  5
C9
330
8F
100
AcDbEntity
  8
AM_9
100
AcDbCircle
 10
-0.0000000000041585
 20
13.7700000000122
 30
0.0
 40
28.72999999998711
100
AcDbArc
 50
106.0896177983275
 51
111.4124670468853
  0
LINE
  5
CA
330
8F
100
AcDbEntity
  8
AM_9
100
AcDbLine
 10
-7.962248062015507
 20
41.37462834017024
 30
0.0
 11
-7.962248062015507
 21
-41.37462834017024
 31
0.0
  0
LINE
  5
CB
330
8F
100
AcDbEntity
  8
AM_9
100
AcDbLine
 10
-7.680000000000001
 20
41.16228504524585
 30
0.0
 11
-7.680000000000001
 21
-41.16228504514483
 31
0.0
  0
ARC
  5
CC
330
8F
100
AcDbEntity
  8
AM_9
100
AcDbCircle
 10
-7.900999999999988
 20
-41.16228504524587
 30
0.0
 40
0.2209999999999917
100
AcDbArc
 50
253.9103822016666
 51
0.0
  0
ARC
  5
CD
330
8F
100
AcDbEntity
  8
AM_9
100
AcDbCircle
 10
-7.900999999999988
 20
41.16228504524587
 30
0.0
 40
0.2209999999999868
100
AcDbArc
 50
0.0
 51
106.0896177983334
  0
LINE
  5
CE
330
8F
100
AcDbEntity
  8
AM_9
100
AcDbLine
 10
-5.120000000000001
 20
41.85492264543431
 30
0.0
 11
-5.120000000000001
 21
-41.85492264533226
 31
0.0
  0
ARC
  5
CF
330
8F
100
AcDbEntity
  8
AM_9
100
AcDbCircle
 10
-4.898999999999993
 20
-41.85492264543431
 30
0.0
 40
0.2210000000000081
100
AcDbArc
 50
180.0
 51
260.1052784005647
  0
ARC
  5
D0
330
8F
100
AcDbEntity
  8
AM_9
100
AcDbCircle
 10
-4.898999999999993
 20
41.85492264543431
 30
0.0
 40
0.221000000000008
100
AcDbArc
 50
99.89472159943533
 51
180.0
  0
LINE
  5
D1
330
8F
100
AcDbEntity
  8
AM_9
100
AcDbLine
 10
-4.936976274441943
 20
42.07263530602049
 30
0.0
 11
-4.936976274441943
 21
-42.07263530602049
 31
0.0
  0
LINE
  5
D2
330
8F
100
AcDbEntity
  8
AM_9
100
AcDbLine
 10
10.48873008274664
 20
40.5169519992706
 30
0.0
 11
10.48873008274664
 21
-40.5169519992706
 31
0.0
  0
ARC
  5
D3
330
8F
100
AcDbEntity
  8
AM_9
100
AcDbCircle
 10
-0.0000000000000986
 20
-13.76999999999926
 30
0.0
 40
28.73000000000072
100
AcDbArc
 50
260.1051557282056
 51
291.4124668841162
  0
ARC
  5
D4
330
8F
100
AcDbEntity
  8
AM_9
100
AcDbCircle
 10
0.0000000000008233
 20
13.76999999999288
 30
0.0
 40
28.73000000000716
100
AcDbArc
 50
93.23036506111828
 51
99.89484427179403
  0
ARC
  5
D5
330
8F
100
AcDbEntity
  8
AM_9
100
AcDbCircle
 10
0.0000000000000058
 20
13.76999999999474
 30
0.0
 40
28.73000000000527
100
AcDbArc
 50
86.84216578301726
 51
93.15540713398062
  0
ARC
  5
D6
330
8F
100
AcDbEntity
  8
AM_9
100
AcDbCircle
 10
-0.0000000000000338
 20
13.77000000000005
 30
0.0
 40
28.72999999999996
100
AcDbArc
 50
68.58753311588336
 51
86.7696349388825
  0
LINE
  5
D8
330
8F
100
AcDbEntity
  8
AM_4
100
AcDbLine
 10
-23.11599999999999
 20
3.149999999999999
 30
0.0
 11
-23.11599999999999
 21
-3.149999999999999
 31
0.0
  0
ENDBLK
  5
92
330
8F
100
AcDbEntity
  8
0
100
AcDbBlockEnd
  0
BLOCK
  5
DB
330
D9
100
AcDbEntity
  8
0
100
AcDbBlockBegin
  2
3_129948_0_in_129044_2
 70
     2
 10
0.0
 20
0.0
 30
0.0
  3
3_129948_0_in_129044_2
  1

  0
ATTDEF
  5
DD
330
D9
100
AcDbEntity
  8
AM_6
100
AcDbText
 10
21.7
 20
33.95
 30
0.0
 40
0.5
  1
Grip Tight Normal Duty Adapter and Nut Metric Bore
100
AcDbAttributeDefinition
  3

  2
NN
 70
     8
280
     0
  0
ATTDEF
  5
DE
330
D9
100
AcDbEntity
  8
AM_6
100
AcDbText
 10
21.7
 20
33.45
 30
0.0
 40
0.5
  1
GT and GTM Adapter & Lock Nut Assemblies
100
AcDbAttributeDefinition
  3

  2
NT
 70
     8
280
     0
  0
ATTDEF
  5
DF
330
D9
100
AcDbEntity
  8
AM_6
100
AcDbText
 10
21.7
 20
32.95
 30
0.0
 40
0.5
  1
129948
100
AcDbAttributeDefinition
  3

  2
NB
 70
     8
280
     0
  0
ATTDEF
  5
E0
330
D9
100
AcDbEntity
  8
AM_6
100
AcDbText
 10
21.7
 20
32.45
 30
0.0
 40
0.5
  1
$PN.
100
AcDbAttributeDefinition
  3

  2
NBSYN
 70
     8
280
     0
  0
ATTDEF
  5
E1
330
D9
100
AcDbEntity
  8
AM_6
100
AcDbText
 10
21.7
 20
31.95
 30
0.0
 40
0.5
  1
129948
100
AcDbAttributeDefinition
  3

  2
LINA
 70
     8
280
     0
  0
ATTDEF
  5
E2
330
D9
100
AcDbEntity
  8
AM_6
100
AcDbText
 10
21.7
 20
31.45
 30
0.0
 40
0.5
  1
209
100
AcDbAttributeDefinition
  3

  2
SERIES
 70
     8
280
     0
  0
ATTDEF
  5
E3
330
D9
100
AcDbEntity
  8
AM_6
100
AcDbText
 10
21.7
 20
30.95
 30
0.0
 40
0.5
  1
45
100
AcDbAttributeDefinition
  3

  2
SS
 70
     8
280
     0
  0
ATTDEF
  5
E4
330
D9
100
AcDbEntity
  8
AM_6
100
AcDbText
 10
21.7
 20
30.45
 30
0.0
 40
0.5
  1
129948
100
AcDbAttributeDefinition
  3

  2
PN
 70
     8
280
     0
  0
ATTDEF
  5
E5
330
D9
100
AcDbEntity
  8
AM_6
100
AcDbText
 10
21.7
 20
29.95
 30
0.0
 40
0.5
  1
AN-GT-09-45M
100
AcDbAttributeDefinition
  3

  2
DESCRIPTION
 70
     8
280
     0
  0
ATTDEF
  5
E6
330
D9
100
AcDbEntity
  8
AM_6
100
AcDbText
 10
21.7
 20
29.45
 30
0.0
 40
0.5
  1
46.8
100
AcDbAttributeDefinition
  3

  2
A
 70
     8
280
     0
  0
ATTDEF
  5
E7
330
D9
100
AcDbEntity
  8
AM_6
100
AcDbText
 10
21.7
 20
28.95
 30
0.0
 40
0.5
  1
22.0
100
AcDbAttributeDefinition
  3

  2
C
 70
     8
280
     0
  0
ATTDEF
  5
E8
330
D9
100
AcDbEntity
  8
AM_6
100
AcDbText
 10
21.7
 20
28.45
 30
0.0
 40
0.5
  1
85.0
100
AcDbAttributeDefinition
  3

  2
D
 70
     8
280
     0
  0
ATTDEF
  5
E9
330
D9
100
AcDbEntity
  8
AM_6
100
AcDbText
 10
21.7
 20
27.95
 30
0.0
 40
0.5
  1
6.3
100
AcDbAttributeDefinition
  3

  2
J
 70
     8
280
     0
  0
ATTDEF
  5
EA
330
D9
100
AcDbEntity
  8
AM_6
100
AcDbText
 10
21.7
 20
27.45
 30
0.0
 40
0.5
  1
67.9
100
AcDbAttributeDefinition
  3

  2
L
 70
     8
280
     0
  0
ATTDEF
  5
EB
330
D9
100
AcDbEntity
  8
AM_6
100
AcDbText
 10
21.7
 20
26.95
 30
0.0
 40
0.5
  1
10 - 32 x 1/4
100
AcDbAttributeDefinition
  3

  2
N
 70
     8
280
     0
  0
ATTDEF
  5
EC
330
D9
100
AcDbEntity
  8
AM_6
100
AcDbText
 10
21.7
 20
26.45
 30
0.0
 40
0.5
  1
16.7
100
AcDbAttributeDefinition
  3

  2
W
 70
     8
280
     0
  0
ATTDEF
  5
ED
330
D9
100
AcDbEntity
  8
AM_6
100
AcDbText
 10
21.7
 20
25.95
 30
0.0
 40
0.5
  1
29.4
100
AcDbAttributeDefinition
  3

  2
X
 70
     8
280
     0
  0
ATTDEF
  5
EE
330
D9
100
AcDbEntity
  8
AM_6
100
AcDbText
 10
21.7
 20
25.45
 30
0.0
 40
0.5
  1
30.2
100
AcDbAttributeDefinition
  3

  2
Y
 70
     8
280
     0
  0
ATTDEF
  5
EF
330
D9
100
AcDbEntity
  8
AM_6
100
AcDbText
 10
21.7
 20
24.95
 30
0.0
 40
0.5
  1
baldor
100
AcDbAttributeDefinition
  3

  2
COMPANY
 70
     8
280
     0
  0
LWPOLYLINE
  5
F0
330
D9
100
AcDbEntity
  8
AM_9
100
AcDbPolyline
 90
        5
 70
     0
 43
0.0
 10
-28.52
 20
1.171027199108119
 10
-28.63818081809386
 20
0.6157546904929291
 10
-28.6830971775639
 20
0.024213891565664
 10
-28.64422034465414
 20
-0.572973777513795
 10
-28.52
 20
-1.171027199108133
  0
LWPOLYLINE
  5
F1
330
D9
100
AcDbEntity
  8
AM_9
100
AcDbPolyline
 90
       13
 70
     0
 43
0.0
 10
-24.31823630510975
 20
1.122371959592189
 10
-24.50501121455459
 20
1.401870841346528
 10
-24.76793467725357
 20
1.68766572728917
 10
-25.07455841696876
 20
1.927443449141355
 10
-25.42542213299686
 20
2.119320946823587
 10
-25.80473260275292
 20
2.252137496866413
 10
-26.21175102844552
 20
2.322894818461791
 10
-26.62237242137676
 20
2.32558423414857
 10
-27.03930031288791
 20
2.257933153199388
 10
-27.42964237361382
 20
2.124445445114976
 10
-27.8022868871754
 20
1.920697755177524
 10
-28.27808315773357
 20
1.503288439493826
 10
-28.52
 20
1.171027199108119
  0
LWPOLYLINE
  5
F2
330
D9
100
AcDbEntity
  8
AM_9
100
AcDbPolyline
 90
       15
 70
     0
 43
0.0
 10
-28.52
 20
-1.171027199108133
 10
-28.44262483510292
 20
-1.29126635331956
 10
-28.20183923330018
 20
-1.58660504733118
 10
-27.90846175496436
 20
-1.845743876705776
 10
-27.57522020759211
 20
-2.054792088572795
 10
-27.20240320498655
 20
-2.210989973129388
 10
-26.8080437419524
 20
-2.304434350768319
 10
-26.3922963513791
 20
-2.332423501134498
 10
-25.98228430742896
 20
-2.291603335043158
 10
-25.57345125033874
 20
-2.179475308359427
 10
-25.20063737890448
 20
-2.005126557784095
 10
-24.85307376651517
 20
-1.762526830821565
 10
-24.56669911656618
 20
-1.477829813779351
 10
-24.32691491257581
 20
-1.13751526163099
 10
-24.21412778430191
 20
-0.9155643481437538
  0
CIRCLE
  5
F3
330
D9
100
AcDbEntity
  8
AM_9
100
AcDbCircle
 10
-26.43333333333333
 20
0.0
 30
0.0
 40
1.981200000000003
  0
LINE
  5
F4
330
D9
100
AcDbEntity
  8
AM_9
100
AcDbLine
 10
-28.52
 20
1.171027199108119
 30
0.0
 11
-28.52
 21
3.15
 31
0.0
  0
LINE
  5
F5
330
D9
100
AcDbEntity
  8
AM_9
100
AcDbLine
 10
-28.52
 20
-3.15
 30
0.0
 11
-28.52
 21
-1.171027199108133
 31
0.0
  0
LINE
  5
F6
330
D9
100
AcDbEntity
  8
AM_9
100
AcDbLine
 10
-14.7
 20
25.86645176088058
 30
0.0
 11
-29.4
 21
25.86645176088058
 31
0.0
  0
LINE
  5
F7
330
D9
100
AcDbEntity
  8
AM_9
100
AcDbLine
 10
-14.7
 20
26.93424060721365
 30
0.0
 11
-15.58000000000001
 21
27.69973313285707
 31
0.0
  0
LINE
  5
F8
330
D9
100
AcDbEntity
  8
AM_9
100
AcDbLine
 10
-15.58000000000001
 20
27.69973313285707
 30
0.0
 11
-28.52
 21
27.69973313285707
 31
0.0
  0
LINE
  5
F9
330
D9
100
AcDbEntity
  8
AM_9
100
AcDbLine
 10
-28.52
 20
27.69973313285707
 30
0.0
 11
-29.4
 21
26.93424060721365
 31
0.0
  0
LINE
  5
FA
330
D9
100
AcDbEntity
  8
AM_9
100
AcDbLine
 10
-14.7
 20
-25.86645176088059
 30
0.0
 11
-29.4
 21
-25.86645176088059
 31
0.0
  0
LINE
  5
FB
330
D9
100
AcDbEntity
  8
AM_9
100
AcDbLine
 10
-29.4
 20
-26.93424060721366
 30
0.0
 11
-28.52
 21
-27.69973313285709
 31
0.0
  0
LINE
  5
FC
330
D9
100
AcDbEntity
  8
AM_9
100
AcDbLine
 10
-28.52
 20
-27.69973313285709
 30
0.0
 11
-15.58000000000001
 21
-27.69973313285708
 31
0.0
  0
LINE
  5
FD
330
D9
100
AcDbEntity
  8
AM_9
100
AcDbLine
 10
-15.58000000000001
 20
-27.69973313285708
 30
0.0
 11
-14.7
 21
-26.93424060721366
 31
0.0
  0
LINE
  5
FE
330
D9
100
AcDbEntity
  8
AM_9
100
AcDbLine
 10
-14.7
 20
29.01645176088058
 30
0.0
 11
-29.4
 21
29.01645176088058
 31
0.0
  0
LINE
  5
FF
330
D9
100
AcDbEntity
  8
AM_9
100
AcDbLine
 10
-14.7
 20
-29.01645176088059
 30
0.0
 11
-29.4
 21
-29.01645176088059
 31
0.0
  0
LINE
  5
100
330
D9
100
AcDbEntity
  8
AM_9
100
AcDbLine
 10
-22.05
 20
25.32777777777778
 30
0.0
 11
-29.4
 21
25.32777777777778
 31
0.0
  0
LINE
  5
101
330
D9
100
AcDbEntity
  8
AM_9
100
AcDbLine
 10
16.7
 20
22.46525094451428
 30
0.0
 11
-30.1
 21
22.46525094451428
 31
0.0
  0
LINE
  5
102
330
D9
100
AcDbEntity
  8
AM_9
100
AcDbLine
 10
-30.09999999999999
 20
-22.5
 30
0.0
 11
16.7
 21
-22.5
 31
0.0
  0
LINE
  5
103
330
D9
100
AcDbEntity
  8
AM_9
100
AcDbLine
 10
-22.04999999999999
 20
25.29691339196332
 30
0.0
 11
-11.02500000000029
 21
25.29691339196332
 31
0.0
  0
LINE
  5
104
330
D9
100
AcDbEntity
  8
AM_9
100
AcDbLine
 10
-22.04999999999999
 20
-25.32777777777777
 30
0.0
 11
-11.02500000000029
 21
-25.32777777777777
 31
0.0
  0
LINE
  5
105
330
D9
100
AcDbEntity
  8
AM_9
100
AcDbLine
 10
-11.02500000000029
 20
25.29691339196332
 30
0.0
 11
16.7
 21
26.26622941803581
 31
0.0
  0
LINE
  5
106
330
D9
100
AcDbEntity
  8
AM_9
100
AcDbLine
 10
-11.02500000000029
 20
25.29691339196332
 30
0.0
 11
-11.02500000000029
 21
-25.32777777777777
 31
0.0
  0
LINE
  5
107
330
D9
100
AcDbEntity
  8
AM_9
100
AcDbLine
 10
16.7
 20
26.26622941803581
 30
0.0
 11
16.7
 21
-26.29595611193648
 31
0.0
  0
LINE
  5
108
330
D9
100
AcDbEntity
  8
AM_9
100
AcDbLine
 10
-11.02500000000029
 20
-25.32777777777777
 30
0.0
 11
16.7
 21
-26.29595611193648
 31
0.0
  0
LINE
  5
109
330
D9
100
AcDbEntity
  8
AM_9
100
AcDbLine
 10
-18.375
 20
-27.75277777777777
 30
0.0
 11
-14.7
 21
-27.75277777777777
 31
0.0
  0
LINE
  5
10A
330
D9
100
AcDbEntity
  8
AM_9
100
AcDbLine
 10
-14.7
 20
27.75277777777777
 30
0.0
 11
-18.375
 21
27.75277777777777
 31
0.0
  0
LINE
  5
10B
330
D9
100
AcDbEntity
  8
AM_9
100
AcDbLine
 10
-18.375
 20
30.51727777777778
 30
0.0
 11
-18.375
 21
-30.51727777777778
 31
0.0
  0
LINE
  5
10C
330
D9
100
AcDbEntity
  8
AM_9
100
AcDbLine
 10
-22.04999999999999
 20
30.51727777777778
 30
0.0
 11
-22.04999999999999
 21
-30.51727777777778
 31
0.0
  0
LINE
  5
10D
330
D9
100
AcDbEntity
  8
AM_9
100
AcDbLine
 10
-22.04999999999999
 20
-30.51727777777778
 30
0.0
 11
-18.375
 21
-30.51727777777778
 31
0.0
  0
LINE
  5
10E
330
D9
100
AcDbEntity
  8
AM_9
100
AcDbLine
 10
-18.375
 20
30.51727777777778
 30
0.0
 11
-22.04999999999999
 21
30.51727777777778
 31
0.0
  0
LINE
  5
10F
330
D9
100
AcDbEntity
  8
AM_9
100
AcDbLine
 10
-14.7
 20
3.15
 30
0.0
 11
-21.80850984764028
 21
3.15
 31
0.0
  0
LINE
  5
110
330
D9
100
AcDbEntity
  8
AM_9
100
AcDbLine
 10
-15.58000000000001
 20
30.84973313285707
 30
0.0
 11
-14.7
 21
30.08424060721365
 31
0.0
  0
LINE
  5
111
330
D9
100
AcDbEntity
  8
AM_9
100
AcDbLine
 10
-14.7
 20
33.07
 30
0.0
 11
-15.58
 21
33.95
 31
0.0
  0
LINE
  5
112
330
D9
100
AcDbEntity
  8
AM_9
100
AcDbLine
 10
-14.7
 20
33.07
 30
0.0
 11
-14.7
 21
-33.07
 31
0.0
  0
LINE
  5
113
330
D9
100
AcDbEntity
  8
AM_9
100
AcDbLine
 10
-22.40315867707172
 20
-3.149999999999999
 30
0.0
 11
-14.7
 21
-3.15
 31
0.0
  0
LINE
  5
114
330
D9
100
AcDbEntity
  8
AM_9
100
AcDbLine
 10
-14.7
 20
-30.08424060721366
 30
0.0
 11
-15.58000000000001
 21
-30.84973313285708
 31
0.0
  0
LINE
  5
115
330
D9
100
AcDbEntity
  8
AM_9
100
AcDbLine
 10
-15.58
 20
-33.95
 30
0.0
 11
-14.7
 21
-33.07
 31
0.0
  0
LINE
  5
116
330
D9
100
AcDbEntity
  8
AM_9
100
AcDbLine
 10
-28.52
 20
-30.84973313285708
 30
0.0
 11
-29.4
 21
-30.08424060721366
 31
0.0
  0
LINE
  5
117
330
D9
100
AcDbEntity
  8
AM_9
100
AcDbLine
 10
-15.58000000000001
 20
-30.84973313285708
 30
0.0
 11
-28.52
 21
-30.84973313285708
 31
0.0
  0
LINE
  5
118
330
D9
100
AcDbEntity
  8
AM_9
100
AcDbLine
 10
-25.31033073206986
 20
-33.95
 30
0.0
 11
-15.58
 21
-33.95
 31
0.0
  0
LINE
  5
119
330
D9
100
AcDbEntity
  8
AM_9
100
AcDbLine
 10
-29.4
 20
30.08424060721365
 30
0.0
 11
-28.52
 21
30.84973313285707
 31
0.0
  0
LINE
  5
11A
330
D9
100
AcDbEntity
  8
AM_9
100
AcDbLine
 10
-28.52
 20
30.84973313285707
 30
0.0
 11
-15.58000000000001
 21
30.84973313285707
 31
0.0
  0
LINE
  5
11B
330
D9
100
AcDbEntity
  8
AM_9
100
AcDbLine
 10
-15.58
 20
33.95
 30
0.0
 11
-18.90133779264214
 21
33.95
 31
0.0
  0
LINE
  5
11C
330
D9
100
AcDbEntity
  8
AM_9
100
AcDbLine
 10
-15.58
 20
33.95
 30
0.0
 11
-15.58
 21
-33.95
 31
0.0
  0
LINE
  5
11F
330
D9
100
AcDbEntity
  8
AM_7
100
AcDbLine
 10
-26.43333333333333
 20
-2.533650000000002
 30
0.0
 11
-26.43333333333333
 21
2.533650000000002
 31
0.0
  0
LINE
  5
120
330
D9
100
AcDbEntity
  8
AM_4
100
AcDbLine
 10
-30.1
 20
25.29691339196332
 30
0.0
 11
-30.09999999999999
 21
-25.32777777777777
 31
0.0
  0
LINE
  5
121
330
D9
100
AcDbEntity
  8
AM_4
100
AcDbLine
 10
-30.1
 20
25.29691339196332
 30
0.0
 11
-29.4
 21
25.29691339196332
 31
0.0
  0
LINE
  5
122
330
D9
100
AcDbEntity
  8
AM_4
100
AcDbLine
 10
-30.09999999999999
 20
-25.32777777777777
 30
0.0
 11
-29.4
 21
-25.32777777777777
 31
0.0
  0
LINE
  5
123
330
D9
100
AcDbEntity
  8
AM_4
100
AcDbLine
 10
-29.4
 20
-3.15
 30
0.0
 11
-22.40315867707172
 21
-3.149999999999999
 31
0.0
  0
LINE
  5
124
330
D9
100
AcDbEntity
  8
AM_4
100
AcDbLine
 10
-29.4
 20
33.07
 30
0.0
 11
-29.4
 21
-33.07
 31
0.0
  0
LINE
  5
125
330
D9
100
AcDbEntity
  8
AM_4
100
AcDbLine
 10
-29.4
 20
-33.07
 30
0.0
 11
-28.52
 21
-33.95
 31
0.0
  0
LINE
  5
126
330
D9
100
AcDbEntity
  8
AM_4
100
AcDbLine
 10
-28.51999999999999
 20
-3.15
 30
0.0
 11
-28.52
 21
-33.95
 31
0.0
  0
LINE
  5
127
330
D9
100
AcDbEntity
  8
AM_4
100
AcDbLine
 10
-28.52
 20
-33.95
 30
0.0
 11
-25.31033073206986
 21
-33.95
 31
0.0
  0
LINE
  5
128
330
D9
100
AcDbEntity
  8
AM_4
100
AcDbLine
 10
-21.80850984764028
 20
3.15
 30
0.0
 11
-29.4
 21
3.15
 31
0.0
  0
LINE
  5
129
330
D9
100
AcDbEntity
  8
AM_4
100
AcDbLine
 10
-28.52
 20
33.95
 30
0.0
 11
-29.4
 21
33.07
 31
0.0
  0
LINE
  5
12A
330
D9
100
AcDbEntity
  8
AM_4
100
AcDbLine
 10
-18.90133779264214
 20
33.95
 30
0.0
 11
-28.52
 21
33.95
 31
0.0
  0
LINE
  5
12B
330
D9
100
AcDbEntity
  8
AM_4
100
AcDbLine
 10
-28.52
 20
33.95
 30
0.0
 11
-28.51999999999999
 21
3.15
 31
0.0
  0
ARC
  5
12D
330
D9
100
AcDbEntity
  8
AM_5
100
AcDbCircle
 10
-26.43333944446481
 20
0.0000000000000001
 30
0.0
 40
2.413
100
AcDbArc
 50
74.99999999999996
 51
15.0
  0
ENDBLK
  5
DC
330
D9
100
AcDbEntity
  8
0
100
AcDbBlockEnd
  0
BLOCK
  5
130
330
12E
100
AcDbEntity
  8
0
100
AcDbBlockBegin
  2
4_129438_0_in_129044_2
 70
     2
 10
0.0
 20
0.0
 30
0.0
  3
4_129438_0_in_129044_2
  1

  0
ATTDEF
  5
132
330
12E
100
AcDbEntity
  8
AM_6
100
AcDbText
 10
32.94
 20
76.23999633789063
 30
0.0
 40
0.5
  1
GTB-M
100
AcDbAttributeDefinition
  3

  2
NN
 70
     8
280
     0
  0
ATTDEF
  5
133
330
12E
100
AcDbEntity
  8
AM_6
100
AcDbText
 10
32.94
 20
75.73999633789063
 30
0.0
 40
0.5
  1
GTB Normal Duty Pillow Blocks
100
AcDbAttributeDefinition
  3

  2
NT
 70
     8
280
     0
  0
ATTDEF
  5
134
330
12E
100
AcDbEntity
  8
AM_6
100
AcDbText
 10
32.94
 20
75.23999633789063
 30
0.0
 40
0.5
  1
129438
100
AcDbAttributeDefinition
  3

  2
NB
 70
     8
280
     0
  0
ATTDEF
  5
135
330
12E
100
AcDbEntity
  8
AM_6
100
AcDbText
 10
32.94
 20
74.73999633789063
 30
0.0
 40
0.5
  1
$PN.$LUBE.
100
AcDbAttributeDefinition
  3

  2
NBSYN
 70
     8
280
     0
  0
ATTDEF
  5
136
330
12E
100
AcDbEntity
  8
AM_6
100
AcDbText
 10
32.94
 20
74.23999633789063
 30
0.0
 40
0.5
  1
129438
100
AcDbAttributeDefinition
  3

  2
LINA
 70
     8
280
     0
  0
ATTDEF
  5
137
330
12E
100
AcDbEntity
  8
AM_6
100
AcDbText
 10
32.94
 20
73.73999633789063
 30
0.0
 40
0.5
  1
209
100
AcDbAttributeDefinition
  3

  2
SERIES
 70
     8
280
     0
  0
ATTDEF
  5
138
330
12E
100
AcDbEntity
  8
AM_6
100
AcDbText
 10
32.94
 20
73.23999633789063
 30
0.0
 40
0.5
  1
129438
100
AcDbAttributeDefinition
  3

  2
PN
 70
     8
280
     0
  0
ATTDEF
  5
139
330
12E
100
AcDbEntity
  8
AM_6
100
AcDbText
 10
32.94
 20
72.73999633789063
 30
0.0
 40
0.5
  1
P2B-GTB-09
100
AcDbAttributeDefinition
  3

  2
DESCRIPTION
 70
     8
280
     0
  0
ATTDEF
  5
13A
330
12E
100
AcDbEntity
  8
AM_6
100
AcDbText
 10
32.94
 20
72.23999633789063
 30
0.0
 40
0.5
  1
46.8
100
AcDbAttributeDefinition
  3

  2
A
 70
     8
280
     0
  0
ATTDEF
  5
13B
330
12E
100
AcDbEntity
  8
AM_6
100
AcDbText
 10
32.94
 20
71.73999633789063
 30
0.0
 40
0.5
  1
188.9
100
AcDbAttributeDefinition
  3

  2
B
 70
     8
280
     0
  0
ATTDEF
  5
13C
330
12E
100
AcDbEntity
  8
AM_6
100
AcDbText
 10
32.94
 20
71.23999633789063
 30
0.0
 40
0.5
  1
50.8
100
AcDbAttributeDefinition
  3

  2
C
 70
     8
280
     0
  0
ATTDEF
  5
13D
330
12E
100
AcDbEntity
  8
AM_6
100
AcDbText
 10
32.94
 20
70.73999633789063
 30
0.0
 40
0.5
  1
139.7
100
AcDbAttributeDefinition
  3

  2
DMIN
 70
     8
280
     0
  0
ATTDEF
  5
13E
330
12E
100
AcDbEntity
  8
AM_6
100
AcDbText
 10
32.94
 20
70.23999633789063
 30
0.0
 40
0.5
  1
157.2
100
AcDbAttributeDefinition
  3

  2
DMAX
 70
     8
280
     0
  0
ATTDEF
  5
13F
330
12E
100
AcDbEntity
  8
AM_6
100
AcDbText
 10
32.94
 20
69.73999633789063
 30
0.0
 40
0.5
  1
M12
100
AcDbAttributeDefinition
  3

  2
F
 70
     8
280
     0
  0
ATTDEF
  5
140
330
12E
100
AcDbEntity
  8
AM_6
100
AcDbText
 10
32.94
 20
69.23999633789063
 30
0.0
 40
0.5
  1
23.0
100
AcDbAttributeDefinition
  3

  2
G
 70
     8
280
     0
  0
ATTDEF
  5
141
330
12E
100
AcDbEntity
  8
AM_6
100
AcDbText
 10
32.94
 20
68.73999633789063
 30
0.0
 40
0.5
  1
17.5
100
AcDbAttributeDefinition
  3

  2
H
 70
     8
280
     0
  0
ATTDEF
  5
142
330
12E
100
AcDbEntity
  8
AM_6
100
AcDbText
 10
32.94
 20
68.23999633789063
 30
0.0
 40
0.5
  1
107.2
100
AcDbAttributeDefinition
  3

  2
J
 70
     8
280
     0
  0
ATTDEF
  5
143
330
12E
100
AcDbEntity
  8
AM_6
100
AcDbText
 10
32.94
 20
67.73999633789063
 30
0.0
 40
0.5
  1
67.9
100
AcDbAttributeDefinition
  3

  2
L
 70
     8
280
     0
  0
ATTDEF
  5
144
330
12E
100
AcDbEntity
  8
AM_6
100
AcDbText
 10
32.94
 20
67.23999633789063
 30
0.0
 40
0.5
  1
52.4
100
AcDbAttributeDefinition
  3

  2
M
 70
     8
280
     0
  0
ATTDEF
  5
145
330
12E
100
AcDbEntity
  8
AM_6
100
AcDbText
 10
32.94
 20
66.73999633789063
 30
0.0
 40
0.5
  1
16.7
100
AcDbAttributeDefinition
  3

  2
R
 70
     8
280
     0
  0
ATTDEF
  5
146
330
12E
100
AcDbEntity
  8
AM_6
100
AcDbText
 10
32.94
 20
66.23999633789063
 30
0.0
 40
0.5
  1
30.2
100
AcDbAttributeDefinition
  3

  2
S
 70
     8
280
     0
  0
ATTDEF
  5
147
330
12E
100
AcDbEntity
  8
AM_6
100
AcDbText
 10
32.94
 20
65.73999633789063
 30
0.0
 40
0.5
  1
85.7
100
AcDbAttributeDefinition
  3

  2
U
 70
     8
280
     0
  0
ATTDEF
  5
148
330
12E
100
AcDbEntity
  8
AM_6
100
AcDbText
 10
32.94
 20
65.23999633789063
 30
0.0
 40
0.5
  1
171.5
100
AcDbAttributeDefinition
  3

  2
V
 70
     8
280
     0
  0
ATTDEF
  5
149
330
12E
100
AcDbEntity
  8
AM_6
100
AcDbText
 10
32.94
 20
64.73999633789063
 30
0.0
 40
0.5
  1
17.5
100
AcDbAttributeDefinition
  3

  2
W
 70
     8
280
     0
  0
ATTDEF
  5
14A
330
12E
100
AcDbEntity
  8
AM_6
100
AcDbText
 10
32.94
 20
64.23999633789063
 30
0.0
 40
0.5
  1
4.8
100
AcDbAttributeDefinition
  3

  2
X
 70
     8
280
     0
  0
ATTDEF
  5
14B
330
12E
100
AcDbEntity
  8
AM_6
100
AcDbText
 10
32.94
 20
63.73999633789063
 30
0.0
 40
0.5
  1
29.4
100
AcDbAttributeDefinition
  3

  2
Z
 70
     8
280
     0
  0
ATTDEF
  5
14C
330
12E
100
AcDbEntity
  8
AM_6
100
AcDbText
 10
32.94
 20
63.23999633789063
 30
0.0
 40
0.5
  1
baldor
100
AcDbAttributeDefinition
  3

  2
COMPANY
 70
     8
280
     0
  0
LINE
  5
14D
330
12E
100
AcDbEntity
  8
AM_9
100
AcDbLine
 10
-1.295029999999999
 20
54.1589175413163
 30
0.0
 11
1.295029999999999
 21
54.1589175413163
 31
0.0
  0
LINE
  5
14E
330
12E
100
AcDbEntity
  8
AM_9
100
AcDbLine
 10
-1.221030000000001
 20
54.39534235358666
 30
0.0
 11
-1.295029999999999
 21
54.35643660391931
 31
0.0
  0
LINE
  5
14F
330
12E
100
AcDbEntity
  8
AM_9
100
AcDbLine
 10
1.295030000000003
 20
54.3564366039193
 30
0.0
 11
1.221030000000002
 21
54.39534235358665
 31
0.0
  0
LINE
  5
150
330
12E
100
AcDbEntity
  8
AM_9
100
AcDbLine
 10
-1.073020000000001
 20
54.42333788031655
 30
0.0
 11
-1.221030000000006
 21
54.39534235358666
 31
0.0
  0
LINE
  5
151
330
12E
100
AcDbEntity
  8
AM_9
100
AcDbLine
 10
1.221029999999999
 20
54.39534235358666
 30
0.0
 11
1.073020000000003
 21
54.42333788031655
 31
0.0
  0
LINE
  5
152
330
12E
100
AcDbEntity
  8
AM_9
100
AcDbLine
 10
-0.8510189999999911
 20
54.44143804477982
 30
0.0
 11
-1.073019999999994
 21
54.42333788031655
 31
0.0
  0
LINE
  5
153
330
12E
100
AcDbEntity
  8
AM_9
100
AcDbLine
 10
1.073020000000003
 20
54.42333788031655
 30
0.0
 11
0.8510190000000015
 21
54.44143804477981
 31
0.0
  0
LINE
  5
154
330
12E
100
AcDbEntity
  8
AM_9
100
AcDbLine
 10
0.8510190000000084
 20
54.44143804477981
 30
0.0
 11
0.5550119999999902
 21
54.45031993029149
 31
0.0
  0
LINE
  5
155
330
12E
100
AcDbEntity
  8
AM_9
100
AcDbLine
 10
-0.5550120000000179
 20
54.45031993029149
 30
0.0
 11
-0.8510189999999841
 21
54.44143804477982
 31
0.0
  0
LINE
  5
156
330
12E
100
AcDbEntity
  8
AM_9
100
AcDbLine
 10
0.5550119999999994
 20
54.45031993029148
 30
0.0
 11
-0.5550120000000003
 21
54.45031993029149
 31
0.0
  0
LINE
  5
157
330
12E
100
AcDbEntity
  8
AM_9
100
AcDbLine
 10
-0.5550119999999974
 20
54.60440503466729
 30
0.0
 11
0.5550119999999996
 21
54.60440503466729
 31
0.0
  0
LINE
  5
158
330
12E
100
AcDbEntity
  8
AM_9
100
AcDbLine
 10
0.5550120000000283
 20
54.60440503466729
 30
0.0
 11
0.8510189999998558
 21
54.61093517432565
 31
0.0
  0
LINE
  5
159
330
12E
100
AcDbEntity
  8
AM_9
100
AcDbLine
 10
-0.851018999999939
 20
54.61093517432566
 30
0.0
 11
-0.5550120000001151
 21
54.60440503466731
 31
0.0
  0
LINE
  5
15A
330
12E
100
AcDbEntity
  8
AM_9
100
AcDbLine
 10
0.8510189999999572
 20
54.61093517432565
 30
0.0
 11
1.073019999999997
 21
54.62366280399364
 31
0.0
  0
LINE
  5
15B
330
12E
100
AcDbEntity
  8
AM_9
100
AcDbLine
 10
-1.073020000000024
 20
54.62366280399365
 30
0.0
 11
-0.8510189999999824
 21
54.61093517432565
 31
0.0
  0
LINE
  5
15C
330
12E
100
AcDbEntity
  8
AM_9
100
AcDbLine
 10
-1.221029999999994
 20
54.64191744508147
 30
0.0
 11
-1.073020000000008
 21
54.62366280399365
 31
0.0
  0
LINE
  5
15D
330
12E
100
AcDbEntity
  8
AM_9
100
AcDbLine
 10
1.073019999999995
 20
54.62366280399364
 30
0.0
 11
1.221029999999981
 21
54.64191744508147
 31
0.0
  0
LINE
  5
15E
330
12E
100
AcDbEntity
  8
AM_9
100
AcDbLine
 10
1.221029999999994
 20
54.64191744508148
 30
0.0
 11
1.295029999999998
 21
54.66470076353112
 31
0.0
  0
LINE
  5
15F
330
12E
100
AcDbEntity
  8
AM_9
100
AcDbLine
 10
-1.295030000000003
 20
54.66470076353111
 30
0.0
 11
-1.221029999999999
 21
54.64191744508147
 31
0.0
  0
LINE
  5
160
330
12E
100
AcDbEntity
  8
AM_9
100
AcDbLine
 10
-1.221029999999998
 20
54.72238954998127
 30
0.0
 11
-1.295029999999998
 21
54.70493479878299
 31
0.0
  0
LINE
  5
161
330
12E
100
AcDbEntity
  8
AM_9
100
AcDbLine
 10
1.295030000000003
 20
54.70493479878299
 30
0.0
 11
1.221030000000003
 21
54.72238954998126
 31
0.0
  0
LINE
  5
162
330
12E
100
AcDbEntity
  8
AM_9
100
AcDbLine
 10
-1.073020000000004
 20
54.73431770779189
 30
0.0
 11
-1.221029999999998
 21
54.72238954998128
 31
0.0
  0
LINE
  5
163
330
12E
100
AcDbEntity
  8
AM_9
100
AcDbLine
 10
1.221030000000003
 20
54.72238954998128
 30
0.0
 11
1.073020000000001
 21
54.73431770779189
 31
0.0
  0
LINE
  5
164
330
12E
100
AcDbEntity
  8
AM_9
100
AcDbLine
 10
1.073020000000003
 20
54.73431770779187
 30
0.0
 11
0.8510189999999928
 21
54.74171658285387
 31
0.0
  0
LINE
  5
165
330
12E
100
AcDbEntity
  8
AM_9
100
AcDbLine
 10
-0.8510190000000006
 20
54.74171658285387
 30
0.0
 11
-1.073019999999994
 21
54.73431770779187
 31
0.0
  0
LINE
  5
166
330
12E
100
AcDbEntity
  8
AM_9
100
AcDbLine
 10
0.8510190000000223
 20
54.74171658285388
 30
0.0
 11
-0.5550120000000001
 21
54.74524956578333
 31
0.0
  0
LINE
  5
167
330
12E
100
AcDbEntity
  8
AM_9
100
AcDbLine
 10
-0.5550119999999936
 20
54.74524956578332
 30
0.0
 11
-0.8510189999999963
 21
54.74171658285387
 31
0.0
  0
LINE
  5
168
330
12E
100
AcDbEntity
  8
AM_9
100
AcDbLine
 10
1.73904
 20
54.68062114643541
 30
0.0
 11
1.739040000000001
 21
54.79766984431728
 31
0.0
  0
LINE
  5
169
330
12E
100
AcDbEntity
  8
AM_9
100
AcDbLine
 10
-1.73904
 20
54.68062114643541
 30
0.0
 11
-1.73904
 21
54.79766984431726
 31
0.0
  0
LINE
  5
16A
330
12E
100
AcDbEntity
  8
AM_9
100
AcDbLine
 10
1.29503
 20
54.68062114643542
 30
0.0
 11
1.29503
 21
54.78112155411731
 31
0.0
  0
LINE
  5
16B
330
12E
100
AcDbEntity
  8
AM_9
100
AcDbLine
 10
-1.29503
 20
54.68062114643541
 30
0.0
 11
-1.29503
 21
54.78112155411731
 31
0.0
  0
LINE
  5
16C
330
12E
100
AcDbEntity
  8
AM_9
100
AcDbLine
 10
1.66504
 20
54.70493479878299
 30
0.0
 11
1.66504
 21
54.79270587749136
 31
0.0
  0
LINE
  5
16D
330
12E
100
AcDbEntity
  8
AM_9
100
AcDbLine
 10
-1.66504
 20
54.70493479878299
 30
0.0
 11
-1.66504
 21
54.79270587749136
 31
0.0
  0
LINE
  5
16E
330
12E
100
AcDbEntity
  8
AM_9
100
AcDbLine
 10
1.07302
 20
54.58414383738558
 30
0.0
 11
1.07302
 21
54.77681802722245
 31
0.0
  0
LINE
  5
16F
330
12E
100
AcDbEntity
  8
AM_9
100
AcDbLine
 10
1.51703
 20
54.72238954998127
 30
0.0
 11
1.51703
 21
54.78674845521586
 31
0.0
  0
LINE
  5
170
330
12E
100
AcDbEntity
  8
AM_9
100
AcDbLine
 10
-1.51703
 20
54.72238954998127
 30
0.0
 11
-1.51703
 21
54.78674845521586
 31
0.0
  0
LINE
  5
171
330
12E
100
AcDbEntity
  8
AM_9
100
AcDbLine
 10
-1.07302
 20
54.58414383738558
 30
0.0
 11
-1.07302
 21
54.77681802722243
 31
0.0
  0
LINE
  5
172
330
12E
100
AcDbEntity
  8
AM_9
100
AcDbLine
 10
0.8510190000000011
 20
54.57716662788477
 30
0.0
 11
0.8510190000000001
 21
54.77402395993701
 31
0.0
  0
LINE
  5
173
330
12E
100
AcDbEntity
  8
AM_9
100
AcDbLine
 10
-0.8510189999999997
 20
54.57716662788477
 30
0.0
 11
-0.8510189999999999
 21
54.77402395993701
 31
0.0
  0
LINE
  5
174
330
12E
100
AcDbEntity
  8
AM_9
100
AcDbLine
 10
-1.295029999999999
 20
54.79270587749136
 30
0.0
 11
1.295029999999999
 21
54.79270587749136
 31
0.0
  0
LINE
  5
175
330
12E
100
AcDbEntity
  8
AM_9
100
AcDbLine
 10
1.22103
 20
54.7380724884426
 30
0.0
 11
1.22103
 21
54.77902511360985
 31
0.0
  0
LINE
  5
176
330
12E
100
AcDbEntity
  8
AM_9
100
AcDbLine
 10
-1.22103
 20
54.73807248844262
 30
0.0
 11
-1.22103
 21
54.77902511360987
 31
0.0
  0
LINE
  5
177
330
12E
100
AcDbEntity
  8
AM_9
100
AcDbLine
 10
-0.9250199999999998
 20
54.7452495657833
 30
0.0
 11
-0.9250199999999998
 21
54.77450064215555
 31
0.0
  0
LINE
  5
178
330
12E
100
AcDbEntity
  8
AM_9
100
AcDbLine
 10
0.9250200000000001
 20
54.7452495657833
 30
0.0
 11
0.9250200000000001
 21
54.77450064215555
 31
0.0
  0
LINE
  5
179
330
12E
100
AcDbEntity
  8
AM_9
100
AcDbLine
 10
0.5550119999999998
 20
54.748672367578
 30
0.0
 11
0.5550119999999998
 21
54.77207303449359
 31
0.0
  0
LINE
  5
17A
330
12E
100
AcDbEntity
  8
AM_9
100
AcDbLine
 10
-0.5550119999999998
 20
54.748672367578
 30
0.0
 11
-0.5550119999999998
 21
54.77207303449358
 31
0.0
  0
LINE
  5
17B
330
12E
100
AcDbEntity
  8
AM_9
100
AcDbLine
 10
0.9250200000000001
 20
52.80000000000001
 30
0.0
 11
0.9250200000000001
 21
54.71960351872542
 31
0.0
  0
LINE
  5
17C
330
12E
100
AcDbEntity
  8
AM_9
100
AcDbLine
 10
0.555012
 20
52.80000000000001
 30
0.0
 11
0.555012
 21
54.72647651450255
 31
0.0
  0
LINE
  5
17D
330
12E
100
AcDbEntity
  8
AM_9
100
AcDbLine
 10
-0.5550119999999997
 20
52.80000000000001
 30
0.0
 11
-0.5550119999999997
 21
54.72647651450255
 31
0.0
  0
LINE
  5
17E
330
12E
100
AcDbEntity
  8
AM_9
100
AcDbLine
 10
1.22103
 20
54.60440503466729
 30
0.0
 11
1.22103
 21
54.70029369383312
 31
0.0
  0
LINE
  5
17F
330
12E
100
AcDbEntity
  8
AM_9
100
AcDbLine
 10
-1.22103
 20
54.60440503466729
 30
0.0
 11
-1.22103
 21
54.70029369383314
 31
0.0
  0
LINE
  5
180
330
12E
100
AcDbEntity
  8
AM_9
100
AcDbLine
 10
-1.73904
 20
54.46774529833595
 30
0.0
 11
-1.73904
 21
54.62985873488599
 31
0.0
  0
LINE
  5
181
330
12E
100
AcDbEntity
  8
AM_9
100
AcDbLine
 10
1.739040000000001
 20
54.46774529833595
 30
0.0
 11
1.739040000000001
 21
54.62985873488599
 31
0.0
  0
LINE
  5
182
330
12E
100
AcDbEntity
  8
AM_9
100
AcDbLine
 10
-1.295029999999999
 20
54.41411951804329
 30
0.0
 11
-1.29503
 21
54.5481421130397
 31
0.0
  0
LINE
  5
183
330
12E
100
AcDbEntity
  8
AM_9
100
AcDbLine
 10
1.29503
 20
54.41411951804329
 30
0.0
 11
1.29503
 21
54.5481421130397
 31
0.0
  0
LINE
  5
184
330
12E
100
AcDbEntity
  8
AM_9
100
AcDbLine
 10
-1.66504
 20
52.80000000000001
 30
0.0
 11
-1.66504
 21
54.59776256109311
 31
0.0
  0
LINE
  5
185
330
12E
100
AcDbEntity
  8
AM_9
100
AcDbLine
 10
1.66504
 20
52.80000000000001
 30
0.0
 11
1.66504
 21
54.59776256109311
 31
0.0
  0
LINE
  5
186
330
12E
100
AcDbEntity
  8
AM_9
100
AcDbLine
 10
-1.07302
 20
52.80000000000001
 30
0.0
 11
-1.07302
 21
54.53679656254653
 31
0.0
  0
LINE
  5
187
330
12E
100
AcDbEntity
  8
AM_9
100
AcDbLine
 10
-0.2590059999999997
 20
52.80000000000001
 30
0.0
 11
-0.2590059999999997
 21
54.53295877396621
 31
0.0
  0
LINE
  5
188
330
12E
100
AcDbEntity
  8
AM_9
100
AcDbLine
 10
-0.8510189999999996
 20
52.80000000000001
 30
0.0
 11
-0.8510189999999996
 21
54.53295877396621
 31
0.0
  0
LINE
  5
189
330
12E
100
AcDbEntity
  8
AM_9
100
AcDbLine
 10
1.07302
 20
52.80000000000001
 30
0.0
 11
1.07302
 21
54.53756080202762
 31
0.0
  0
LINE
  5
18A
330
12E
100
AcDbEntity
  8
AM_9
100
AcDbLine
 10
-1.51703
 20
52.80000000000001
 30
0.0
 11
-1.51703
 21
54.57007775026895
 31
0.0
  0
LINE
  5
18B
330
12E
100
AcDbEntity
  8
AM_9
100
AcDbLine
 10
1.51703
 20
52.80000000000001
 30
0.0
 11
1.51703
 21
54.57007775026895
 31
0.0
  0
LINE
  5
18C
330
12E
100
AcDbEntity
  8
AM_9
100
AcDbLine
 10
1.221030000000001
 20
52.80000000000001
 30
0.0
 11
1.221030000000001
 21
54.5406066304327
 31
0.0
  0
LINE
  5
18D
330
12E
100
AcDbEntity
  8
AM_9
100
AcDbLine
 10
-1.22103
 20
52.80000000000001
 30
0.0
 11
-1.22103
 21
54.5406066304327
 31
0.0
  0
LINE
  5
18E
330
12E
100
AcDbEntity
  8
AM_9
100
AcDbLine
 10
0.185004
 20
52.80000000000001
 30
0.0
 11
0.1850039999999991
 21
54.53295877396621
 31
0.0
  0
LINE
  5
18F
330
12E
100
AcDbEntity
  8
AM_9
100
AcDbLine
 10
-0.9250199999999996
 20
52.80000000000001
 30
0.0
 11
-0.9250199999999998
 21
54.71960351872542
 31
0.0
  0
LINE
  5
190
330
12E
100
AcDbEntity
  8
AM_9
100
AcDbLine
 10
0.8510190000000003
 20
52.80000000000001
 30
0.0
 11
0.8510190000000003
 21
54.53295877396621
 31
0.0
  0
LINE
  5
191
330
12E
100
AcDbEntity
  8
AM_9
100
AcDbLine
 10
-0.1110019999999995
 20
52.80000000000001
 30
0.0
 11
-0.1110019999999995
 21
54.1346939146385
 31
0.0
  0
LINE
  5
192
330
12E
100
AcDbEntity
  8
AM_9
100
AcDbLine
 10
0.3330070000000006
 20
52.80000000000001
 30
0.0
 11
0.3330070000000003
 21
54.1346939146385
 31
0.0
  0
LINE
  5
193
330
12E
100
AcDbEntity
  8
AM_9
100
AcDbLine
 10
1.73904
 20
52.80000000000001
 30
0.0
 11
1.739040000000001
 21
54.08487306410176
 31
0.0
  0
LINE
  5
194
330
12E
100
AcDbEntity
  8
AM_9
100
AcDbLine
 10
-1.739039999999999
 20
52.80000000000001
 30
0.0
 11
1.73904
 21
52.80000000000001
 31
0.0
  0
LINE
  5
195
330
12E
100
AcDbEntity
  8
AM_9
100
AcDbLine
 10
-1.739039999999999
 20
52.80000000000001
 30
0.0
 11
-1.739039999999999
 21
54.08487306410176
 31
0.0
  0
LINE
  5
196
330
12E
100
AcDbEntity
  8
AM_9
100
AcDbLine
 10
-1.295029999999999
 20
52.80000000000001
 30
0.0
 11
-1.295029999999999
 21
54.08487306410176
 31
0.0
  0
LINE
  5
197
330
12E
100
AcDbEntity
  8
AM_9
100
AcDbLine
 10
1.29503
 20
52.80000000000001
 30
0.0
 11
1.29503
 21
54.08487306410176
 31
0.0
  0
LWPOLYLINE
  5
198
330
12E
100
AcDbEntity
  8
AM_9
100
AcDbPolyline
 90
        3
 70
     0
 43
0.0
 10
3.464101615137752
 20
40.51721856198918
 10
2.886751345948128
 20
41.25527164320883
 10
2.309401076758506
 20
42.04867575836568
  0
LWPOLYLINE
  5
199
330
12E
100
AcDbEntity
  8
AM_9
100
AcDbPolyline
 90
        3
 70
     0
 43
0.0
 10
2.309401076758506
 20
42.04867575836568
 10
1.15989238292913
 20
41.96265181744059
 10
0.0000000000000022
 20
41.93143212436227
  0
LWPOLYLINE
  5
19A
330
12E
100
AcDbEntity
  8
AM_9
100
AcDbPolyline
 90
        3
 70
     0
 43
0.0
 10
-2.309401076758502
 20
42.04867575836568
 10
-2.884155423673187
 20
41.25872437874681
 10
-3.464101615137748
 20
40.51721856198918
  0
LWPOLYLINE
  5
19B
330
12E
100
AcDbEntity
  8
AM_9
100
AcDbPolyline
 90
        3
 70
     0
 43
0.0
 10
0.0000000000000022
 20
41.93143212436227
 10
-1.15470053837925
 20
41.96237842439538
 10
-2.309401076758502
 20
42.04867575836568
  0
LINE
  5
19C
330
12E
100
AcDbEntity
  8
AM_9
100
AcDbLine
 10
-22.66666666666665
 20
-48.06666666666666
 30
0.0
 11
22.66666666666667
 21
-48.06666666666666
 31
0.0
  0
LINE
  5
19D
330
12E
100
AcDbEntity
  8
AM_9
100
AcDbLine
 10
-21.16666666666666
 20
-46.56666666666667
 30
0.0
 11
21.16666666666667
 21
-46.56666666666668
 31
0.0
  0
LINE
  5
19E
330
12E
100
AcDbEntity
  8
AM_9
100
AcDbLine
 10
22.66666666666667
 20
-19.46590866104124
 30
0.0
 11
22.66666666666667
 21
-48.06666666666666
 31
0.0
  0
LINE
  5
19F
330
12E
100
AcDbEntity
  8
AM_9
100
AcDbLine
 10
21.16666666666667
 20
-22.13620563691979
 30
0.0
 11
21.16666666666667
 21
-46.56666666666668
 31
0.0
  0
LINE
  5
1A0
330
12E
100
AcDbEntity
  8
AM_9
100
AcDbLine
 10
21.16666666666667
 20
-46.56666666666668
 30
0.0
 11
22.66666666666666
 21
-48.06666666666667
 31
0.0
  0
LINE
  5
1A1
330
12E
100
AcDbEntity
  8
AM_9
100
AcDbLine
 10
-22.66666666666665
 20
-19.46590866104117
 30
0.0
 11
-22.66666666666665
 21
-48.06666666666666
 31
0.0
  0
LINE
  5
1A2
330
12E
100
AcDbEntity
  8
AM_9
100
AcDbLine
 10
-21.16666666666666
 20
-22.13620563691975
 30
0.0
 11
-21.16666666666666
 21
-46.56666666666667
 31
0.0
  0
LINE
  5
1A3
330
12E
100
AcDbEntity
  8
AM_9
100
AcDbLine
 10
-22.66666666666665
 20
-48.06666666666666
 30
0.0
 11
-21.16666666666666
 21
-46.56666666666667
 31
0.0
  0
LINE
  5
1A4
330
12E
100
AcDbEntity
  8
AM_9
100
AcDbLine
 10
2.309401076758506
 20
42.04867575836568
 30
0.0
 11
2.309401076758506
 21
44.2890622245118
 31
0.0
  0
LINE
  5
1A5
330
12E
100
AcDbEntity
  8
AM_9
100
AcDbLine
 10
-2.309401076758502
 20
42.04867575836568
 30
0.0
 11
-2.309401076758502
 21
44.2890622245118
 31
0.0
  0
LINE
  5
1A6
330
12E
100
AcDbEntity
  8
AM_9
100
AcDbLine
 10
23.90000000000001
 20
-19.46590866104125
 30
0.0
 11
23.90000000000001
 21
-52.40000000000001
 31
0.0
  0
LINE
  5
1A7
330
12E
100
AcDbEntity
  8
AM_9
100
AcDbLine
 10
-23.89999999999999
 20
-19.46590866104115
 30
0.0
 11
-23.89999999999999
 21
-52.40000000000001
 31
0.0
  0
LINE
  5
1A8
330
12E
100
AcDbEntity
  8
AM_9
100
AcDbLine
 10
2.309401076758506
 20
44.2890622245118
 30
0.0
 11
2.679794480708619
 21
43.89647689203087
 31
0.0
  0
LWPOLYLINE
  5
1A9
330
12E
100
AcDbEntity
  8
AM_9
100
AcDbPolyline
 90
        3
 70
     0
 43
0.0
 10
0.0000000000000024
 20
44.40630585851518
 10
1.154700538379254
 20
44.37535955848212
 10
2.309401076758506
 20
44.2890622245118
  0
LINE
  5
1AA
330
12E
100
AcDbEntity
  8
AM_9
100
AcDbLine
 10
-2.67873077210912
 20
43.89763241918176
 30
0.0
 11
-2.309401076758502
 21
44.2890622245118
 31
0.0
  0
LWPOLYLINE
  5
1AB
330
12E
100
AcDbEntity
  8
AM_9
100
AcDbPolyline
 90
        3
 70
     0
 43
0.0
 10
-2.309401076758502
 20
44.2890622245118
 10
-1.159892382929128
 20
44.3750861654369
 10
0.0000000000000024
 20
44.40630585851518
  0
LWPOLYLINE
  5
1AC
330
12E
100
AcDbEntity
  8
AM_9
100
AcDbPolyline
 90
        3
 70
     0
 43
0.0
 10
4.618802153517009
 20
39.22024863361949
 10
4.044047806602318
 20
39.83815213138819
 10
3.464101615137752
 20
40.51721856198918
  0
LWPOLYLINE
  5
1AD
330
12E
100
AcDbEntity
  8
AM_9
100
AcDbPolyline
 90
        3
 70
     0
 43
0.0
 10
-3.464101615137748
 20
40.51721856198918
 10
-4.041451884327375
 20
39.84105808083572
 10
-4.618802153517004
 20
39.22024863361949
  0
LINE
  5
1AE
330
12E
100
AcDbEntity
  8
AM_9
100
AcDbLine
 10
-2.799999999999998
 20
39.10300499961608
 30
0.0
 11
-2.799999999999999
 21
38.74938078959396
 31
0.0
  0
LINE
  5
1AF
330
12E
100
AcDbEntity
  8
AM_9
100
AcDbLine
 10
2.800000000000003
 20
38.74912828899553
 30
0.0
 11
2.800000000000004
 21
39.10300499961608
 31
0.0
  0
LWPOLYLINE
  5
1B0
330
12E
100
AcDbEntity
  8
AM_9
100
AcDbPolyline
 90
       20
 70
     0
 43
0.0
 10
2.799999987097524
 20
38.74926153767031
 10
2.78137136660944
 20
38.97678663246462
 10
2.687658335780705
 20
39.29995610571538
 10
2.51839588828883
 20
39.60514384115527
 10
2.277239931021668
 20
39.88397714868973
 10
1.972038550597791
 20
40.12948831158074
 10
1.610141381772282
 20
40.33513963149444
 10
1.20282091783769
 20
40.49608931077177
 10
0.7610424494855219
 20
40.60775138990867
 10
0.2977573482755163
 20
40.6680821528226
 10
-0.1735311644846557
 20
40.67494465351931
 10
-0.6399238428916707
 20
40.6289805973217
 10
-1.087781280656501
 20
40.53066173392607
 10
-1.505018373970245
 20
40.38303592859862
 10
-1.879645676516736
 20
40.18886295666837
 10
-2.201348317224537
 20
39.95366288091181
 10
-2.460427520816255
 20
39.68256923531077
 10
-2.650119917527965
 20
39.38326809687251
 10
-2.76396392370966
 20
39.06351930050486
 10
-2.799999995996911
 20
38.7493457376696
  0
LWPOLYLINE
  5
1B1
330
12E
100
AcDbEntity
  8
AM_9
100
AcDbPolyline
 90
       11
 70
     0
 43
0.0
 10
-2.799999995996911
 20
38.7493457376696
 10
-2.79989365290303
 20
38.73219186300305
 10
-2.755867023493671
 20
38.39884894540441
 10
-2.634332257697092
 20
38.07271295968722
 10
-2.437690370441282
 20
37.76352605790462
 10
-2.172528530362262
 20
37.4802927120438
 10
-1.845041139165327
 20
37.23182793913421
 10
-1.465557667259267
 20
37.02568014022255
 10
-1.043933493250235
 20
36.86896343159007
 10
-0.5928135354864471
 20
36.76609162275364
 10
0.0000000000000025
 20
36.71893820451071
  0
LINE
  5
1B2
330
12E
100
AcDbEntity
  8
AM_9
100
AcDbLine
 10
23.90000000000001
 20
-19.46590866104125
 30
0.0
 11
23.9430827648196
 21
-19.46470755956511
 31
0.0
  0
LINE
  5
1B3
330
12E
100
AcDbEntity
  8
AM_9
100
AcDbLine
 10
22.66666666666667
 20
-19.46590866104124
 30
0.0
 11
23.90000000000001
 21
-19.46590866104125
 31
0.0
  0
LWPOLYLINE
  5
1B4
330
12E
100
AcDbEntity
  8
AM_9
100
AcDbPolyline
 90
        9
 70
     0
 43
0.0
 10
22.66666666666667
 20
-19.46590866104124
 10
22.419923112416
 20
-19.50551518575614
 10
22.1489524238359
 20
-19.64377324165774
 10
21.96639959843047
 20
-19.79882283618388
 10
21.81181393261173
 20
-19.97641491658135
 10
21.5742502976294
 20
-20.35471180473393
 10
21.40141876939425
 20
-20.75815678955621
 10
21.22414437286859
 20
-21.44306397292857
 10
21.16666666666667
 20
-22.13620563691979
  0
LINE
  5
1B5
330
12E
100
AcDbEntity
  8
AM_9
100
AcDbLine
 10
-23.94308276481961
 20
-19.46470755956533
 30
0.0
 11
-23.89999999999999
 21
-19.46590866104117
 31
0.0
  0
LWPOLYLINE
  5
1B6
330
12E
100
AcDbEntity
  8
AM_9
100
AcDbPolyline
 90
        9
 70
     0
 43
0.0
 10
-21.16666666666666
 20
-22.13620563691975
 10
-21.21736514261273
 20
-21.48603040343209
 10
-21.37267541481787
 20
-20.84194349629296
 10
-21.59571639204662
 20
-20.31504362051041
 10
-21.80212913815998
 20
-19.98788222442577
 10
-22.07360056634052
 20
-19.70131329695109
 10
-22.31849483746197
 20
-19.54521455402817
 10
-22.61045552892923
 20
-19.4679533839157
 10
-22.66666666666665
 20
-19.46590866104116
  0
LINE
  5
1B7
330
12E
100
AcDbEntity
  8
AM_9
100
AcDbLine
 10
-23.89999999999999
 20
-19.46590866104115
 30
0.0
 11
-22.66666666666665
 21
-19.46590866104117
 31
0.0
  0
LINE
  5
1B8
330
12E
100
AcDbEntity
  8
AM_9
100
AcDbLine
 10
-21.16666666666666
 20
-42.5
 30
0.0
 11
21.16666666666667
 21
-42.5
 31
0.0
  0
LINE
  5
1B9
330
12E
100
AcDbEntity
  8
AM_9
100
AcDbLine
 10
18.09431438127091
 20
42.50000000000001
 30
0.0
 11
-18.0943143812709
 21
42.50000000000001
 31
0.0
  0
ELLIPSE
  5
1BA
330
12E
100
AcDbEntity
  8
AM_9
100
AcDbEllipse
 10
0.0000000000000029
 20
41.577878733769
 30
0.0
 11
-2.800000000000014
 21
3.429011037612606E-16
 31
0.0
210
0.0
220
0.0
230
1.0
 40
0.7071067811865477
 41
3.141592653589793
 42
6.283185307179586
  0
ELLIPSE
  5
1BB
330
12E
100
AcDbEntity
  8
AM_9
100
AcDbEllipse
 10
0.0000000000001147
 20
41.93143212436007
 30
0.0
 11
-2.800000000001734
 21
3.429011037614712E-16
 31
0.0
210
0.0
220
0.0
230
1.0
 40
0.7071067811869076
 41
4.586715938225289
 42
4.826211922821327
  0
ELLIPSE
  5
1BC
330
12E
100
AcDbEntity
  8
AM_9
100
AcDbEllipse
 10
0.0000000000000409
 20
41.93143212436225
 30
0.0
 11
-2.800000000000082
 21
3.429011037612689E-16
 31
0.0
210
0.0
220
0.0
230
1.0
 40
0.7071067811865483
 41
5.272753285659231
 42
5.690738803542999
  0
ELLIPSE
  5
1BD
330
12E
100
AcDbEntity
  8
AM_9
100
AcDbEllipse
 10
-0.0000000000000835
 20
41.57787873376892
 30
0.0
 11
-4.000000000000137
 21
4.898587196589580E-16
 31
0.0
210
0.0
220
0.0
230
1.0
 40
0.7071067811865432
 41
3.987653430652992
 42
5.437654011060759
  0
LWPOLYLINE
  5
1BE
330
12E
100
AcDbEntity
  8
AM_9
100
AcDbPolyline
 90
       21
 70
     0
 43
0.0
 10
-2.053961621406255
 20
42.79128001613999
 10
-2.099186177375115
 20
42.84829760332835
 10
-2.140310673793703
 20
42.91319869282208
 10
-2.160871786769513
 20
42.9582587093027
 10
-2.16785925876212
 20
42.98303144208647
 10
-2.168760530115046
 20
42.99339214674579
 10
-2.166282705481157
 20
43.00845213526114
 10
-2.154590287647353
 20
43.0417029124842
 10
-2.126292096703839
 20
43.09532161377802
 10
-2.076283584285129
 20
43.16601915606615
 10
-1.991944319934084
 20
43.25879066723353
 10
-1.876822629072473
 20
43.35952770149775
 10
-1.730292473972224
 20
43.46320533404967
 10
-1.552770843010276
 20
43.5650278532685
 10
-1.345997534176808
 20
43.66033079073816
 10
-1.113116305189343
 20
43.74475944543264
 10
-0.8578702725015953
 20
43.8146907279792
 10
-0.5848653268991155
 20
43.86711854556431
 10
-0.2993942428006666
 20
43.89977010570446
 10
-0.0072439743712323
 20
43.91119203295818
 10
0.0135456751194289
 20
43.91117539065126
  0
LINE
  5
1BF
330
12E
100
AcDbEntity
  8
AM_9
100
AcDbLine
 10
1.742065353524482
 20
42.52855234616998
 30
0.0
 11
1.70297380532447
 21
42.50384170381972
 31
0.0
  0
LWPOLYLINE
  5
1C0
330
12E
100
AcDbEntity
  8
AM_9
100
AcDbPolyline
 90
       20
 70
     0
 43
0.0
 10
0.0135456751194289
 20
43.91117539065126
 10
0.2855021154281357
 20
43.90080958485537
 10
0.572551003017418
 20
43.86898107086947
 10
0.8477383194029462
 20
43.81703134181894
 10
1.105397926812884
 20
43.74720002988748
 10
1.340453449874437
 20
43.66260109581309
 10
1.54865019312149
 20
43.56714838437981
 10
1.72679227835794
 20
43.46543467560518
 10
1.872967856929416
 20
43.36255426563108
 10
1.986507287178115
 20
43.26408958287092
 10
2.068637011291612
 20
43.17546975267424
 10
2.122417029527273
 20
43.10155933250333
 10
2.152611398692125
 20
43.04618193916718
 10
2.16553583152831
 20
43.01131175837526
 10
2.168660404605896
 20
42.99512200473529
 10
2.167920980535332
 20
42.98338387370712
 10
2.160389224643742
 20
42.95693376336254
 10
2.138753661495451
 20
42.91033103581586
 10
2.097051860785158
 20
42.84535692488013
 10
2.052226199043666
 20
42.78927407047269
  0
ELLIPSE
  5
1C1
330
12E
100
AcDbEntity
  8
AM_9
100
AcDbEllipse
 10
-0.0000000000001288
 20
41.9314321243622
 30
0.0
 11
-2.800000000000183
 21
3.429011037612813E-16
 31
0.0
210
0.0
220
0.0
230
1.0
 40
0.7071067811865481
 41
3.735785791677301
 42
4.136060546159179
  0
ELLIPSE
  5
1C2
330
12E
100
AcDbEntity
  8
AM_9
100
AcDbEllipse
 10
-0.0000000000021625
 20
43.88932703483133
 30
0.0
 11
-2.59602285110184
 21
3.179211075115254E-16
 31
0.0
210
0.0
220
0.0
230
1.0
 40
0.707106781186548
 41
-3.995959248158342
 42
-3.941933435618506
  0
ELLIPSE
  5
1C3
330
12E
100
AcDbEntity
  8
AM_9
100
AcDbEllipse
 10
0.0000000000000027
 20
43.88932703482965
 30
0.0
 11
-2.596022851098618
 21
3.179211075111309E-16
 31
0.0
210
0.0
220
0.0
230
1.0
 40
0.707106781186547
 41
2.372397041603311
 42
7.0581022459031
  0
ELLIPSE
  5
1C4
330
12E
100
AcDbEntity
  8
AM_9
100
AcDbEllipse
 10
-0.0000000000013267
 20
43.88932703482866
 30
0.0
 11
-2.596022851096694
 21
3.868375528502491E-8
 31
0.0
210
0.0
220
0.0
230
1.0
 40
0.7071067811865483
 41
0.7932371106651779
 42
0.8538129842320867
  0
ELLIPSE
  5
1C5
330
12E
100
AcDbEntity
  8
AM_9
100
AcDbEllipse
 10
0.0
 20
44.2675135944881
 30
0.0
 11
-2.640547998623284
 21
3.233738654508955E-16
 31
0.0
210
0.0
220
0.0
230
1.0
 40
0.7071067811865468
 41
3.694307766686563
 42
5.721925382404873
  0
LINE
  5
1C6
330
12E
100
AcDbEntity
  8
AM_9
100
AcDbLine
 10
1.369029999999182
 20
54.78310758332717
 30
0.0
 11
1.739040000000001
 21
54.78310758332717
 31
0.0
  0
LINE
  5
1C7
330
12E
100
AcDbEntity
  8
AM_9
100
AcDbLine
 10
-1.295029999999999
 20
54.78310758332717
 30
0.0
 11
1.29503
 21
54.78310758332717
 31
0.0
  0
LINE
  5
1C8
330
12E
100
AcDbEntity
  8
AM_9
100
AcDbLine
 10
-1.739040000000001
 20
54.78310758332717
 30
0.0
 11
-1.369029999999178
 21
54.78310758332717
 31
0.0
  0
LINE
  5
1C9
330
12E
100
AcDbEntity
  8
AM_9
100
AcDbLine
 10
-0.5550120000000001
 20
54.56287809431976
 30
0.0
 11
0.5550119999999996
 21
54.56287809431976
 31
0.0
  0
LINE
  5
1CA
330
12E
100
AcDbEntity
  8
AM_9
100
AcDbLine
 10
0.5550119999999832
 20
54.56287809431976
 30
0.0
 11
0.925019999999957
 21
54.57007775026895
 31
0.0
  0
LINE
  5
1CB
330
12E
100
AcDbEntity
  8
AM_9
100
AcDbLine
 10
0.9250199999999847
 20
54.57007775026895
 30
0.0
 11
1.221030000000015
 21
54.58414383738559
 31
0.0
  0
LINE
  5
1CC
330
12E
100
AcDbEntity
  8
AM_9
100
AcDbLine
 10
1.221030000000007
 20
54.58414383738559
 30
0.0
 11
1.517029999999964
 21
54.61093517432565
 31
0.0
  0
LINE
  5
1CD
330
12E
100
AcDbEntity
  8
AM_9
100
AcDbLine
 10
1.517029999999979
 20
54.61093517432565
 30
0.0
 11
1.665039999999994
 21
54.63594412464288
 31
0.0
  0
LINE
  5
1CE
330
12E
100
AcDbEntity
  8
AM_9
100
AcDbLine
 10
1.665040000000001
 20
54.63594412464289
 30
0.0
 11
1.73904
 21
54.66470076353112
 31
0.0
  0
LINE
  5
1CF
330
12E
100
AcDbEntity
  8
AM_9
100
AcDbLine
 10
1.739039999999996
 20
54.70493479878299
 30
0.0
 11
1.665039999999995
 21
54.72647651450255
 31
0.0
  0
LINE
  5
1D0
330
12E
100
AcDbEntity
  8
AM_9
100
AcDbLine
 10
1.665039999999997
 20
54.72647651450255
 30
0.0
 11
1.517030000000001
 21
54.74171658285387
 31
0.0
  0
LINE
  5
1D1
330
12E
100
AcDbEntity
  8
AM_9
100
AcDbLine
 10
1.517029999999996
 20
54.74171658285388
 30
0.0
 11
1.221029999999997
 21
54.75518572068859
 31
0.0
  0
LINE
  5
1D2
330
12E
100
AcDbEntity
  8
AM_9
100
AcDbLine
 10
1.22102999999999
 20
54.75518572068859
 30
0.0
 11
-0.9250200000000073
 21
54.76125680005526
 31
0.0
  0
LINE
  5
1D3
330
12E
100
AcDbEntity
  8
AM_9
100
AcDbLine
 10
-0.9250200000000021
 20
54.76125680005527
 30
0.0
 11
-1.221030000000001
 21
54.75518572068859
 31
0.0
  0
LINE
  5
1D4
330
12E
100
AcDbEntity
  8
AM_9
100
AcDbLine
 10
-1.221029999999999
 20
54.75518572068859
 30
0.0
 11
-1.517029999999998
 21
54.74171658285388
 31
0.0
  0
LINE
  5
1D5
330
12E
100
AcDbEntity
  8
AM_9
100
AcDbLine
 10
-1.517030000000001
 20
54.74171658285387
 30
0.0
 11
-1.665040000000004
 21
54.72647651450255
 31
0.0
  0
LINE
  5
1D6
330
12E
100
AcDbEntity
  8
AM_9
100
AcDbLine
 10
-1.66504
 20
54.72647651450256
 30
0.0
 11
-1.739039999999999
 21
54.70493479878301
 31
0.0
  0
LINE
  5
1D7
330
12E
100
AcDbEntity
  8
AM_9
100
AcDbLine
 10
-1.739040000000001
 20
54.66470076353111
 30
0.0
 11
-1.665040000000002
 21
54.63594412464288
 31
0.0
  0
LINE
  5
1D8
330
12E
100
AcDbEntity
  8
AM_9
100
AcDbLine
 10
-1.665040000000003
 20
54.63594412464288
 30
0.0
 11
-1.517030000000013
 21
54.61093517432565
 31
0.0
  0
LINE
  5
1D9
330
12E
100
AcDbEntity
  8
AM_9
100
AcDbLine
 10
-1.517029999999987
 20
54.61093517432565
 30
0.0
 11
-1.221030000000029
 21
54.58414383738559
 31
0.0
  0
LINE
  5
1DA
330
12E
100
AcDbEntity
  8
AM_9
100
AcDbLine
 10
-1.221030000000048
 20
54.58414383738559
 30
0.0
 11
-0.9250200000000195
 21
54.57007775026895
 31
0.0
  0
LINE
  5
1DB
330
12E
100
AcDbEntity
  8
AM_9
100
AcDbLine
 10
-0.9250200000000576
 20
54.57007775026895
 30
0.0
 11
-0.5550120000000873
 21
54.56287809431976
 31
0.0
  0
LINE
  5
1DC
330
12E
100
AcDbEntity
  8
AM_9
100
AcDbLine
 10
-1.295029999999999
 20
54.08487306410176
 30
0.0
 11
1.29503
 21
54.08487306410176
 31
0.0
  0
LINE
  5
1DD
330
12E
100
AcDbEntity
  8
AM_9
100
AcDbLine
 10
1.739039999999998
 20
54.35643660391932
 30
0.0
 11
1.665039999999999
 21
54.40478730228067
 31
0.0
  0
LINE
  5
1DE
330
12E
100
AcDbEntity
  8
AM_9
100
AcDbLine
 10
1.665039999999996
 20
54.40478730228065
 30
0.0
 11
1.517029999999995
 21
54.44143804477981
 31
0.0
  0
LINE
  5
1DF
330
12E
100
AcDbEntity
  8
AM_9
100
AcDbLine
 10
1.517030000000006
 20
54.44143804477981
 30
0.0
 11
1.221029999999997
 21
54.47629000943345
 31
0.0
  0
LINE
  5
1E0
330
12E
100
AcDbEntity
  8
AM_9
100
AcDbLine
 10
1.221030000000008
 20
54.47629000943346
 30
0.0
 11
0.9250200000000143
 21
54.49304155201837
 31
0.0
  0
LINE
  5
1E1
330
12E
100
AcDbEntity
  8
AM_9
100
AcDbLine
 10
0.9250199999999813
 20
54.49304155201835
 30
0.0
 11
0.5550119999999763
 21
54.50124956436777
 31
0.0
  0
LINE
  5
1E2
330
12E
100
AcDbEntity
  8
AM_9
100
AcDbLine
 10
0.5550119999999994
 20
54.5012495643678
 30
0.0
 11
-0.5550120000000003
 21
54.50124956436778
 31
0.0
  0
LINE
  5
1E3
330
12E
100
AcDbEntity
  8
AM_9
100
AcDbLine
 10
-0.5550119999999971
 20
54.50124956436777
 30
0.0
 11
-0.9250199999999986
 21
54.49304155201835
 31
0.0
  0
LINE
  5
1E4
330
12E
100
AcDbEntity
  8
AM_9
100
AcDbLine
 10
-0.9250200000000021
 20
54.49304155201835
 30
0.0
 11
-1.221029999999996
 21
54.47629000943345
 31
0.0
  0
LINE
  5
1E5
330
12E
100
AcDbEntity
  8
AM_9
100
AcDbLine
 10
-1.221029999999995
 20
54.47629000943345
 30
0.0
 11
-1.517030000000004
 21
54.44143804477981
 31
0.0
  0
LINE
  5
1E6
330
12E
100
AcDbEntity
  8
AM_9
100
AcDbLine
 10
-1.517030000000002
 20
54.44143804477981
 30
0.0
 11
-1.665039999999997
 21
54.40478730228066
 31
0.0
  0
LINE
  5
1E7
330
12E
100
AcDbEntity
  8
AM_9
100
AcDbLine
 10
-1.665040000000002
 20
54.40478730228068
 30
0.0
 11
-1.739040000000002
 21
54.35643660391933
 31
0.0
  0
LWPOLYLINE
  5
1E8
330
12E
100
AcDbEntity
  8
AM_9
100
AcDbPolyline
 90
       11
 70
     0
 43
0.0
 10
0.0000000000000025
 20
36.71893820451071
 10
0.4696890595892843
 20
36.74863994240868
 10
0.9261301746947032
 20
36.83591812356132
 10
1.356077560233095
 20
36.9787521503535
 10
1.747837674989746
 20
37.1717864003568
 10
2.089983110841567
 20
37.40977868571319
 10
2.373250405615242
 20
37.68456717650755
 10
2.588824134121405
 20
37.98831074179073
 10
2.731376840560845
 20
38.31135333053025
 10
2.795753039450772
 20
38.64397986909858
 10
2.799999987097524
 20
38.74926153767031
  0
LINE
  5
1E9
330
12E
100
AcDbEntity
  8
AM_9
100
AcDbLine
 10
7.125000000000017
 20
-34.9
 30
0.0
 11
7.125000000000017
 21
-52.40000000000001
 31
0.0
  0
LINE
  5
1EA
330
12E
100
AcDbEntity
  8
AM_9
100
AcDbLine
 10
-7.124999999999991
 20
-34.9
 30
0.0
 11
-7.124999999999991
 21
-52.40000000000001
 31
0.0
  0
LINE
  5
1EB
330
12E
100
AcDbEntity
  8
AM_9
100
AcDbLine
 10
-19.89999999999999
 20
-36.65
 30
0.0
 11
-15.09999999999999
 21
-36.65
 31
0.0
  0
LINE
  5
1EC
330
12E
100
AcDbEntity
  8
AM_9
100
AcDbLine
 10
-19.89999999999999
 20
-34.9
 30
0.0
 11
-19.89999999999999
 21
-36.65
 31
0.0
  0
LINE
  5
1ED
330
12E
100
AcDbEntity
  8
AM_9
100
AcDbLine
 10
-15.09999999999999
 20
-36.65
 30
0.0
 11
-15.09999999999999
 21
-34.9
 31
0.0
  0
ELLIPSE
  5
1EE
330
12E
100
AcDbEntity
  8
AM_9
100
AcDbEllipse
 10
0.0000000000001377
 20
39.10300499961627
 30
0.0
 11
-4.000000000000232
 21
4.898587196589697E-16
 31
0.0
210
0.0
220
0.0
230
1.0
 40
0.7071067811865531
 41
0.0
 42
6.283185307179586
  0
ELLIPSE
  5
1EF
330
12E
100
AcDbEntity
  8
AM_9
100
AcDbEllipse
 10
-0.0000000000000009
 20
39.10300499961608
 30
0.0
 11
-2.79999999999999
 21
3.429011037612576E-16
 31
0.0
210
0.0
220
0.0
230
1.0
 40
0.7071067811865488
 41
0.0
 42
6.283185307179586
  0
LINE
  5
1F0
330
12E
100
AcDbEntity
  8
AM_7
100
AcDbLine
 10
27.94
 20
0.0
 30
0.0
 11
-32.44
 21
0.0
 31
0.0
  0
LINE
  5
1F1
330
12E
100
AcDbEntity
  8
AM_7
100
AcDbLine
 10
-0.0000000000000086
 20
-40.26
 30
0.0
 11
-0.0000000000000086
 21
76.23999633789063
 31
0.0
  0
LINE
  5
1F2
330
12E
100
AcDbEntity
  8
AM_7
100
AcDbLine
 10
-17.50000000000001
 20
-36.825
 30
0.0
 11
-17.50000000000001
 21
-32.975
 31
0.0
  0
LINE
  5
1F3
330
12E
100
AcDbEntity
  8
AM_4
100
AcDbLine
 10
1.29503
 20
54.78112155411731
 30
0.0
 11
1.295029999999999
 21
54.79999999999999
 31
0.0
  0
LINE
  5
1F4
330
12E
100
AcDbEntity
  8
AM_4
100
AcDbLine
 10
-1.29503
 20
54.78112155411731
 30
0.0
 11
-1.295029999999999
 21
54.79999999999999
 31
0.0
  0
LINE
  5
1F5
330
12E
100
AcDbEntity
  8
AM_4
100
AcDbLine
 10
-1.22103
 20
54.77902511360986
 30
0.0
 11
-1.22103
 21
54.79391932993208
 31
0.0
  0
LINE
  5
1F6
330
12E
100
AcDbEntity
  8
AM_4
100
AcDbLine
 10
1.22103
 20
54.77902511360986
 30
0.0
 11
1.22103
 21
54.79391932993205
 31
0.0
  0
LINE
  5
1F7
330
12E
100
AcDbEntity
  8
AM_4
100
AcDbLine
 10
1.07302
 20
54.77681802722245
 30
0.0
 11
1.07302
 21
54.78994800887385
 31
0.0
  0
LINE
  5
1F8
330
12E
100
AcDbEntity
  8
AM_4
100
AcDbLine
 10
-1.07302
 20
54.77681802722243
 30
0.0
 11
-1.07302
 21
54.78994800887385
 31
0.0
  0
LINE
  5
1F9
330
12E
100
AcDbEntity
  8
AM_4
100
AcDbLine
 10
0.8510190000000001
 20
54.77402395993701
 30
0.0
 11
0.8510190000000001
 21
54.78674845521588
 31
0.0
  0
LINE
  5
1FA
330
12E
100
AcDbEntity
  8
AM_4
100
AcDbLine
 10
-0.8510189999999999
 20
54.77402395993701
 30
0.0
 11
-0.8510189999999999
 21
54.78674845521586
 31
0.0
  0
LINE
  5
1FB
330
12E
100
AcDbEntity
  8
AM_4
100
AcDbLine
 10
-0.5550119999999998
 20
54.77207303449359
 30
0.0
 11
-0.5550119999999998
 21
54.78498333032418
 31
0.0
  0
LINE
  5
1FC
330
12E
100
AcDbEntity
  8
AM_4
100
AcDbLine
 10
0.5550119999999998
 20
54.77207303449359
 30
0.0
 11
0.5550119999999998
 21
54.7849833303242
 31
0.0
  0
LINE
  5
1FD
330
12E
100
AcDbEntity
  8
AM_4
100
AcDbLine
 10
-1.221029999999997
 20
54.79391932993207
 30
0.0
 11
-1.295029999999998
 21
54.79766984431727
 31
0.0
  0
LINE
  5
1FE
330
12E
100
AcDbEntity
  8
AM_4
100
AcDbLine
 10
0.5550119999999998
 20
54.7849833303242
 30
0.0
 11
-1.221029999999998
 21
54.79391932993208
 31
0.0
  0
LINE
  5
1FF
330
12E
100
AcDbEntity
  8
AM_4
100
AcDbLine
 10
1.221029999999999
 20
54.79391932993208
 30
0.0
 11
0.555012000000005
 21
54.78498333032418
 31
0.0
  0
LINE
  5
200
330
12E
100
AcDbEntity
  8
AM_4
100
AcDbLine
 10
1.295030000000001
 20
54.79766984431728
 30
0.0
 11
1.221030000000002
 21
54.79391932993208
 31
0.0
  0
LINE
  5
201
330
12E
100
AcDbEntity
  8
AM_4
100
AcDbLine
 10
1.295029999999999
 20
54.79999999999999
 30
0.0
 11
-1.295029999999999
 21
54.79999999999999
 31
0.0
  0
LINE
  5
202
330
12E
100
AcDbEntity
  8
AM_4
100
AcDbLine
 10
-0.5550119999999996
 20
54.72647651450255
 30
0.0
 11
-0.5550119999999996
 21
54.748672367578
 31
0.0
  0
LINE
  5
203
330
12E
100
AcDbEntity
  8
AM_4
100
AcDbLine
 10
0.5550120000000001
 20
54.72647651450255
 30
0.0
 11
0.5550120000000001
 21
54.748672367578
 31
0.0
  0
LINE
  5
204
330
12E
100
AcDbEntity
  8
AM_4
100
AcDbLine
 10
-0.9250199999999998
 20
54.71960351872542
 30
0.0
 11
-0.9250199999999998
 21
54.7452495657833
 31
0.0
  0
LINE
  5
205
330
12E
100
AcDbEntity
  8
AM_4
100
AcDbLine
 10
0.9250200000000001
 20
54.71960351872542
 30
0.0
 11
0.9250200000000001
 21
54.7452495657833
 31
0.0
  0
LINE
  5
206
330
12E
100
AcDbEntity
  8
AM_4
100
AcDbLine
 10
-1.22103
 20
54.7002936938331
 30
0.0
 11
-1.22103
 21
54.73807248844262
 31
0.0
  0
LINE
  5
207
330
12E
100
AcDbEntity
  8
AM_4
100
AcDbLine
 10
1.22103
 20
54.7002936938331
 30
0.0
 11
1.22103
 21
54.7380724884426
 31
0.0
  0
LINE
  5
208
330
12E
100
AcDbEntity
  8
AM_4
100
AcDbLine
 10
-1.51703
 20
54.57007775026896
 30
0.0
 11
-1.51703
 21
54.72238954998127
 31
0.0
  0
LINE
  5
209
330
12E
100
AcDbEntity
  8
AM_4
100
AcDbLine
 10
1.51703
 20
54.57007775026896
 30
0.0
 11
1.51703
 21
54.72238954998127
 31
0.0
  0
LINE
  5
20A
330
12E
100
AcDbEntity
  8
AM_4
100
AcDbLine
 10
1.66504
 20
54.59776256109311
 30
0.0
 11
1.66504
 21
54.70493479878299
 31
0.0
  0
LINE
  5
20B
330
12E
100
AcDbEntity
  8
AM_4
100
AcDbLine
 10
-1.66504
 20
54.59776256109311
 30
0.0
 11
-1.66504
 21
54.70493479878299
 31
0.0
  0
LINE
  5
20C
330
12E
100
AcDbEntity
  8
AM_4
100
AcDbLine
 10
-1.29503
 20
54.5481421130397
 30
0.0
 11
-1.29503
 21
54.68062114643541
 31
0.0
  0
LINE
  5
20D
330
12E
100
AcDbEntity
  8
AM_4
100
AcDbLine
 10
1.29503
 20
54.5481421130397
 30
0.0
 11
1.295029999999999
 21
54.68062114643541
 31
0.0
  0
LINE
  5
20E
330
12E
100
AcDbEntity
  8
AM_4
100
AcDbLine
 10
-1.22103
 20
54.54060663043271
 30
0.0
 11
-1.22103
 21
54.60440503466729
 31
0.0
  0
LINE
  5
20F
330
12E
100
AcDbEntity
  8
AM_4
100
AcDbLine
 10
1.22103
 20
54.54060663043271
 30
0.0
 11
1.22103
 21
54.60440503466729
 31
0.0
  0
LINE
  5
210
330
12E
100
AcDbEntity
  8
AM_4
100
AcDbLine
 10
-1.07302
 20
54.53679656254653
 30
0.0
 11
-1.07302
 21
54.58414383738558
 31
0.0
  0
LINE
  5
211
330
12E
100
AcDbEntity
  8
AM_4
100
AcDbLine
 10
-0.2590059999999997
 20
54.53295877396621
 30
0.0
 11
-0.2590059999999988
 21
54.63594412464287
 31
0.0
  0
LINE
  5
212
330
12E
100
AcDbEntity
  8
AM_4
100
AcDbLine
 10
-0.8510189999999996
 20
54.53295877396621
 30
0.0
 11
-0.8510189999999996
 21
54.57716662788477
 31
0.0
  0
LINE
  5
213
330
12E
100
AcDbEntity
  8
AM_4
100
AcDbLine
 10
1.07302
 20
54.53756080202762
 30
0.0
 11
1.07302
 21
54.58414383738558
 31
0.0
  0
LWPOLYLINE
  5
214
330
12E
100
AcDbEntity
  8
AM_4
100
AcDbPolyline
 90
        3
 70
     0
 43
0.0
 10
2.679794480708619
 20
43.89647689203087
 10
2.884155423673184
 20
43.67115872674311
 10
3.464101615137734
 20
42.99209229614212
  0
LWPOLYLINE
  5
215
330
12E
100
AcDbEntity
  8
AM_4
100
AcDbPolyline
 90
        3
 70
     0
 43
0.0
 10
-3.464101615137709
 20
42.99209229614213
 10
-2.886751345948116
 20
43.66825277729558
 10
-2.67873077210912
 20
43.89763241918176
  0
LWPOLYLINE
  5
216
330
12E
100
AcDbEntity
  8
AM_4
100
AcDbPolyline
 90
        3
 70
     0
 43
0.0
 10
3.464101615137734
 20
42.99209229614212
 10
4.041451884327372
 20
42.25403921492249
 10
4.618802153517009
 20
41.46063509976561
  0
LWPOLYLINE
  5
217
330
12E
100
AcDbEntity
  8
AM_4
100
AcDbPolyline
 90
        3
 70
     0
 43
0.0
 10
-4.618802153517004
 20
41.46063509976561
 10
-4.044047806602304
 20
42.25058647938449
 10
-3.464101615137709
 20
42.99209229614213
  0
LINE
  5
218
330
12E
100
AcDbEntity
  8
AM_4
100
AcDbLine
 10
-2.800000000000003
 20
41.93143212436229
 30
0.0
 11
-2.800000000000003
 21
41.577878733769
 31
0.0
  0
LINE
  5
219
330
12E
100
AcDbEntity
  8
AM_4
100
AcDbLine
 10
2.800000000000009
 20
41.577878733769
 30
0.0
 11
2.800000000000009
 21
41.93143212436229
 31
0.0
  0
ELLIPSE
  5
21A
330
12E
100
AcDbEntity
  8
AM_4
100
AcDbEllipse
 10
-0.0000000000000125
 20
41.57787873376901
 30
0.0
 11
-2.800000000000024
 21
3.429011037612619E-16
 31
0.0
210
0.0
220
0.0
230
1.0
 40
0.7071067811865501
 41
0.0
 42
3.141592653589793
  0
ELLIPSE
  5
21B
330
12E
100
AcDbEntity
  8
AM_4
100
AcDbEllipse
 10
0.0000000000000021
 20
41.93143212436228
 30
0.0
 11
-2.800000000000005
 21
3.429011037612595E-16
 31
0.0
210
0.0
220
0.0
230
1.0
 40
0.7071067811865475
 41
5.690738803543005
 42
10.01897109885688
  0
LWPOLYLINE
  5
21C
330
12E
100
AcDbEntity
  8
AM_4
100
AcDbPolyline
 90
        3
 70
     0
 43
0.0
 10
-3.464101615137776
 20
40.16366517139594
 10
-4.041451884327386
 20
40.83982565254939
 10
-4.618802153517004
 20
41.46063509976561
  0
LINE
  5
21D
330
12E
100
AcDbEntity
  8
AM_4
100
AcDbLine
 10
-4.618802153517004
 20
39.22024863361949
 30
0.0
 11
-4.618802153517004
 21
41.46063509976561
 31
0.0
  0
LWPOLYLINE
  5
21E
330
12E
100
AcDbEntity
  8
AM_4
100
AcDbPolyline
 90
        3
 70
     0
 43
0.0
 10
-4.618802153517004
 20
39.22024863361949
 10
-4.044047806602318
 20
38.43029725400061
 10
-3.464101615137758
 20
37.68879143724299
  0
LWPOLYLINE
  5
21F
330
12E
100
AcDbEntity
  8
AM_4
100
AcDbPolyline
 90
        3
 70
     0
 43
0.0
 10
-3.464101615137758
 20
37.68879143724299
 10
-2.886751345948127
 20
37.01263095608953
 10
-2.309401076758501
 20
36.39182150887329
  0
LWPOLYLINE
  5
220
330
12E
100
AcDbEntity
  8
AM_4
100
AcDbPolyline
 90
        3
 70
     0
 43
0.0
 10
4.618802153517009
 20
41.46063509976561
 10
4.044047806602335
 20
40.84273160199693
 10
3.464101615137781
 20
40.16366517139594
  0
LWPOLYLINE
  5
221
330
12E
100
AcDbEntity
  8
AM_4
100
AcDbPolyline
 90
        3
 70
     0
 43
0.0
 10
2.309401076758506
 20
36.39182150887329
 10
2.884155423673197
 20
37.009725006642
 10
3.464101615137763
 20
37.68879143724299
  0
LWPOLYLINE
  5
222
330
12E
100
AcDbEntity
  8
AM_4
100
AcDbPolyline
 90
        3
 70
     0
 43
0.0
 10
3.464101615137763
 20
37.68879143724299
 10
4.041451884327388
 20
38.42684451846264
 10
4.618802153517009
 20
39.22024863361949
  0
LINE
  5
223
330
12E
100
AcDbEntity
  8
AM_4
100
AcDbLine
 10
4.618802153517009
 20
39.22024863361949
 30
0.0
 11
4.618802153517009
 21
41.46063509976561
 31
0.0
  0
LINE
  5
224
330
12E
100
AcDbEntity
  8
AM_4
100
AcDbLine
 10
-2.309401076758501
 20
36.39182150887329
 30
0.0
 11
-2.309401076758501
 21
38.63220797501941
 31
0.0
  0
LWPOLYLINE
  5
225
330
12E
100
AcDbEntity
  8
AM_4
100
AcDbPolyline
 90
        3
 70
     0
 43
0.0
 10
-2.309401076758501
 20
36.39182150887329
 10
-1.159892382929124
 20
36.30579756794822
 10
0.0000000000000026
 20
36.27457787486988
  0
LWPOLYLINE
  5
226
330
12E
100
AcDbEntity
  8
AM_4
100
AcDbPolyline
 90
        3
 70
     0
 43
0.0
 10
0.0000000000000026
 20
36.27457787486988
 10
1.154700538379254
 20
36.30552417490298
 10
2.309401076758506
 20
36.39182150887329
  0
LINE
  5
227
330
12E
100
AcDbEntity
  8
AM_4
100
AcDbLine
 10
2.309401076758506
 20
36.39182150887329
 30
0.0
 11
2.309401076758506
 21
38.63220797501941
 31
0.0
  0
LWPOLYLINE
  5
228
330
12E
100
AcDbEntity
  8
AM_4
100
AcDbPolyline
 90
        3
 70
     0
 43
0.0
 10
0.0000000000000027
 20
38.74945160902282
 10
-1.154700538379249
 20
38.71850530898973
 10
-2.309401076758501
 20
38.63220797501941
  0
ELLIPSE
  5
229
330
12E
100
AcDbEntity
  8
AM_4
100
AcDbEllipse
 10
0.0000000000000617
 20
41.57787873376908
 30
0.0
 11
-4.000000000000089
 21
4.898587196589521E-16
 31
0.0
210
0.0
220
0.0
230
1.0
 40
0.7071067811865499
 41
5.437654011060828
 42
10.27083873783256
  0
LWPOLYLINE
  5
22A
330
12E
100
AcDbEntity
  8
AM_4
100
AcDbPolyline
 90
        3
 70
     0
 43
0.0
 10
-2.309401076758501
 20
38.63220797501941
 10
-2.884155423673198
 20
39.4221593546383
 10
-3.464101615137776
 20
40.16366517139594
  0
LWPOLYLINE
  5
22B
330
12E
100
AcDbEntity
  8
AM_4
100
AcDbPolyline
 90
        3
 70
     0
 43
0.0
 10
3.464101615137781
 20
40.16366517139594
 10
2.886751345948141
 20
39.42561209017629
 10
2.309401076758506
 20
38.63220797501941
  0
LWPOLYLINE
  5
22C
330
12E
100
AcDbEntity
  8
AM_4
100
AcDbPolyline
 90
        3
 70
     0
 43
0.0
 10
2.309401076758506
 20
38.63220797501941
 10
1.159892382929133
 20
38.71823191594451
 10
0.0000000000000027
 20
38.74945160902282
  0
ELLIPSE
  5
22D
330
12E
100
AcDbEntity
  8
AM_4
100
AcDbEllipse
 10
0.0000000000055316
 20
43.88932703482491
 30
0.0
 11
-2.596022851089937
 21
3.179211075100677E-16
 31
0.0
210
0.0
220
0.0
230
1.0
 40
0.7071067811865469
 41
-4.062436624747226
 42
-3.995959248158281
  0
ELLIPSE
  5
22E
330
12E
100
AcDbEntity
  8
AM_4
100
AcDbEllipse
 10
-0.0000000000000393
 20
43.88932703482956
 30
0.0
 11
-2.596022851098491
 21
3.179211075111153E-16
 31
0.0
210
0.0
220
0.0
230
1.0
 40
0.7071067811865461
 41
0.9331382644468418
 42
2.220748682432537
  0
LWPOLYLINE
  5
22F
330
12E
100
AcDbEntity
  8
AM_4
100
AcDbPolyline
 90
       13
 70
     0
 43
0.0
 10
1.708751610548561
 20
42.50738441590664
 10
1.957170392879589
 20
42.68193493338779
 10
2.175665467374022
 20
42.88042628411704
 10
2.359816055531274
 20
43.0995897805856
 10
2.505906720604643
 20
43.3351544812615
 10
2.611434608480334
 20
43.5821515179273
 10
2.675339820480078
 20
43.83549680092185
 10
2.697799175072352
 20
44.09054137842354
 10
2.679744026695583
 20
44.34334112683842
 10
2.622464846337675
 20
44.59035733225028
 10
2.527391770863633
 20
44.82855632539496
 10
2.395774329742665
 20
45.05551295451072
 10
2.244943238320801
 20
45.25055109358713
  0
LINE
  5
230
330
12E
100
AcDbEntity
  8
AM_4
100
AcDbLine
 10
1.566338999962974
 20
42.42528901987454
 30
0.0
 11
1.708751610548561
 21
42.50738441590664
 31
0.0
  0
LINE
  5
231
330
12E
100
AcDbEntity
  8
AM_4
100
AcDbLine
 10
-1.603678293082921
 20
42.44572014029418
 30
0.0
 11
-1.539981472585036
 21
42.41130785526612
 31
0.0
  0
LWPOLYLINE
  5
232
330
12E
100
AcDbEntity
  8
AM_4
100
AcDbPolyline
 90
       14
 70
     0
 43
0.0
 10
-2.326221603653801
 20
45.15166172773012
 10
-2.44033173053631
 20
44.98663681422681
 10
-2.565660827863306
 20
44.74451554322204
 10
-2.649702077147831
 20
44.49361708502393
 10
-2.692085150734426
 20
44.23885444907336
 10
-2.693443150339727
 20
43.98452491412938
 10
-2.654900283396213
 20
43.73420442979474
 10
-2.577893904486193
 20
43.49144269350418
 10
-2.463757793092793
 20
43.25876022662121
 10
-2.313703889430104
 20
43.0385976113581
 10
-2.12913539198462
 20
42.8336225613474
 10
-1.91206720886816
 20
42.6467959459822
 10
-1.665420753925138
 20
42.48118206865713
 10
-1.603678293082921
 20
42.44572014029418
  0
LWPOLYLINE
  5
233
330
12E
100
AcDbEntity
  8
AM_4
100
AcDbPolyline
 90
        3
 70
     0
 43
0.0
 10
-2.234031560696585
 20
45.26291594290905
 10
-2.2754720500532
 20
45.21487352343728
 10
-2.300634815795304
 20
45.18417956456803
  0
ELLIPSE
  5
234
330
12E
100
AcDbEntity
  8
AM_4
100
AcDbEllipse
 10
-0.0000000000041251
 20
43.8893270348283
 30
0.0
 11
-2.596022851092061
 21
3.179211075103278E-16
 31
0.0
210
0.0
220
0.0
230
1.0
 40
0.7071067811872356
 41
0.8538129691458423
 42
0.93313826444723
  0
ELLIPSE
  5
235
330
12E
100
AcDbEntity
  8
AM_4
100
AcDbEllipse
 10
0.0000000000000075
 20
44.2675135944881
 30
0.0
 11
-2.640547998623294
 21
3.233738654508966E-16
 31
0.0
210
0.0
220
0.0
230
1.0
 40
0.7071067811865497
 41
5.730470194082816
 42
9.97749307386615
  0
LINE
  5
236
330
12E
100
AcDbEntity
  8
AM_4
100
AcDbLine
 10
-1.537254407736893
 20
46.06179684899016
 30
0.0
 11
-2.247376280880915
 21
45.2477670273225
 31
0.0
  0
LINE
  5
237
330
12E
100
AcDbEntity
  8
AM_4
100
AcDbLine
 10
2.247376280880922
 20
45.2477670273225
 30
0.0
 11
1.537254407736901
 21
46.06179684899016
 31
0.0
  0
ELLIPSE
  5
238
330
12E
100
AcDbEntity
  8
AM_4
100
AcDbEllipse
 10
0.000000000201327
 20
44.26751359459458
 30
0.0
 11
-2.640547998860074
 21
3.233738654798939E-16
 31
0.0
210
0.0
220
0.0
230
1.0
 40
0.7071067811474521
 41
-0.5612599247107699
 42
-0.5527151130329138
  0
ELLIPSE
  5
239
330
12E
100
AcDbEntity
  8
AM_4
100
AcDbEllipse
 10
0.0000000000000041
 20
45.39128211447795
 30
0.0
 11
-1.806192440606061
 21
2.691436492577479E-8
 31
0.0
210
0.0
220
0.0
230
1.0
 40
0.7071067811865535
 41
3.42995841872491
 42
5.996196144814159
  0
ELLIPSE
  5
23A
330
12E
100
AcDbEntity
  8
AM_4
100
AcDbEllipse
 10
0.0000000000000028
 20
45.46696603029503
 30
0.0
 11
1.629112860038458
 21
0.0
 31
0.0
210
0.0
220
0.0
230
1.0
 40
0.7071067811865495
 41
0.0
 42
6.283185307179586
  0
ELLIPSE
  5
23B
330
12E
100
AcDbEntity
  8
AM_4
100
AcDbEllipse
 10
0.000000000000002
 20
45.39128211447794
 30
0.0
 11
-1.806192440606055
 21
2.211947791032351E-16
 31
0.0
210
0.0
220
0.0
230
1.0
 40
0.7071067811865478
 41
5.996196124584993
 42
9.71314370568324
  0
LINE
  5
23C
330
12E
100
AcDbEntity
  8
AM_4
100
AcDbLine
 10
-25.4
 20
-34.9
 30
0.0
 11
-16.93333333333333
 21
54.8
 31
0.0
  0
LINE
  5
23D
330
12E
100
AcDbEntity
  8
AM_4
100
AcDbLine
 10
-1.739039999999999
 20
54.08487306410176
 30
0.0
 11
-1.73904
 21
54.46774529833595
 31
0.0
  0
LINE
  5
23E
330
12E
100
AcDbEntity
  8
AM_4
100
AcDbLine
 10
-1.73904
 20
54.46774529833595
 30
0.0
 11
1.739040000000001
 21
54.46774529833595
 31
0.0
  0
LINE
  5
23F
330
12E
100
AcDbEntity
  8
AM_4
100
AcDbLine
 10
1.739040000000001
 20
54.46774529833595
 30
0.0
 11
1.739040000000001
 21
54.08487306410176
 31
0.0
  0
LINE
  5
240
330
12E
100
AcDbEntity
  8
AM_4
100
AcDbLine
 10
1.739040000000001
 20
54.08487306410176
 30
0.0
 11
1.29503
 21
54.08487306410176
 31
0.0
  0
LINE
  5
241
330
12E
100
AcDbEntity
  8
AM_4
100
AcDbLine
 10
1.29503
 20
54.08487306410176
 30
0.0
 11
1.295029999999999
 21
54.41411951804329
 31
0.0
  0
LINE
  5
242
330
12E
100
AcDbEntity
  8
AM_4
100
AcDbLine
 10
1.295029999999999
 20
54.41411951804329
 30
0.0
 11
0.3330070000000004
 21
54.41411951804329
 31
0.0
  0
LINE
  5
243
330
12E
100
AcDbEntity
  8
AM_4
100
AcDbLine
 10
0.3330070000000004
 20
54.41411951804329
 30
0.0
 11
0.3330070000000003
 21
54.1346939146385
 31
0.0
  0
LINE
  5
244
330
12E
100
AcDbEntity
  8
AM_4
100
AcDbLine
 10
0.3330070000000003
 20
54.1346939146385
 30
0.0
 11
-0.1110019999999995
 21
54.1346939146385
 31
0.0
  0
LINE
  5
245
330
12E
100
AcDbEntity
  8
AM_4
100
AcDbLine
 10
-0.1110019999999995
 20
54.1346939146385
 30
0.0
 11
-0.1110019999999984
 21
54.41411951804329
 31
0.0
  0
LINE
  5
246
330
12E
100
AcDbEntity
  8
AM_4
100
AcDbLine
 10
-0.1110019999999984
 20
54.41411951804329
 30
0.0
 11
-1.295029999999999
 21
54.41411951804329
 31
0.0
  0
LINE
  5
247
330
12E
100
AcDbEntity
  8
AM_4
100
AcDbLine
 10
-1.295029999999999
 20
54.41411951804329
 30
0.0
 11
-1.295029999999999
 21
54.08487306410176
 31
0.0
  0
LINE
  5
248
330
12E
100
AcDbEntity
  8
AM_4
100
AcDbLine
 10
-1.295029999999999
 20
54.08487306410176
 30
0.0
 11
-1.739039999999999
 21
54.08487306410176
 31
0.0
  0
LINE
  5
249
330
12E
100
AcDbEntity
  8
AM_4
100
AcDbLine
 10
0.9250199999999995
 20
54.74524956578333
 30
0.0
 11
1.221029999999955
 21
54.73807248844263
 31
0.0
  0
LINE
  5
24A
330
12E
100
AcDbEntity
  8
AM_4
100
AcDbLine
 10
1.221029999999975
 20
54.73807248844262
 30
0.0
 11
1.517029999999984
 21
54.72238954998127
 31
0.0
  0
LINE
  5
24B
330
12E
100
AcDbEntity
  8
AM_4
100
AcDbLine
 10
1.517029999999997
 20
54.72238954998127
 30
0.0
 11
1.665039999999997
 21
54.70493479878299
 31
0.0
  0
LINE
  5
24C
330
12E
100
AcDbEntity
  8
AM_4
100
AcDbLine
 10
1.665040000000001
 20
54.70493479878301
 30
0.0
 11
1.739040000000002
 21
54.68062114643543
 31
0.0
  0
LINE
  5
24D
330
12E
100
AcDbEntity
  8
AM_4
100
AcDbLine
 10
1.73904
 20
54.68062114643541
 30
0.0
 11
1.739040000000001
 21
54.62985873488599
 31
0.0
  0
LINE
  5
24E
330
12E
100
AcDbEntity
  8
AM_4
100
AcDbLine
 10
1.739039999999998
 20
54.629858734886
 30
0.0
 11
1.665039999999997
 21
54.59776256109311
 31
0.0
  0
LINE
  5
24F
330
12E
100
AcDbEntity
  8
AM_4
100
AcDbLine
 10
1.665039999999999
 20
54.5977625610931
 30
0.0
 11
1.51703
 21
54.57007775026895
 31
0.0
  0
LINE
  5
250
330
12E
100
AcDbEntity
  8
AM_4
100
AcDbLine
 10
1.517029999999999
 20
54.57007775026896
 30
0.0
 11
1.221029999999996
 21
54.54060663043271
 31
0.0
  0
LINE
  5
251
330
12E
100
AcDbEntity
  8
AM_4
100
AcDbLine
 10
1.221029999999977
 20
54.5406066304327
 30
0.0
 11
0.8510190000000188
 21
54.53295877396621
 31
0.0
  0
LINE
  5
252
330
12E
100
AcDbEntity
  8
AM_4
100
AcDbLine
 10
0.8510190000000003
 20
54.53295877396621
 30
0.0
 11
0.8510190000000017
 21
54.57716662788477
 31
0.0
  0
LINE
  5
253
330
12E
100
AcDbEntity
  8
AM_4
100
AcDbLine
 10
0.8510190000000136
 20
54.57716662788477
 30
0.0
 11
1.073019999999961
 21
54.58414383738559
 31
0.0
  0
LINE
  5
254
330
12E
100
AcDbEntity
  8
AM_4
100
AcDbLine
 10
1.073019999999991
 20
54.58414383738559
 30
0.0
 11
1.221029999999992
 21
54.60440503466729
 31
0.0
  0
LINE
  5
255
330
12E
100
AcDbEntity
  8
AM_4
100
AcDbLine
 10
1.221029999999995
 20
54.60440503466729
 30
0.0
 11
1.29503
 21
54.62985873488598
 31
0.0
  0
LINE
  5
256
330
12E
100
AcDbEntity
  8
AM_4
100
AcDbLine
 10
1.295030000000004
 20
54.68062114643542
 30
0.0
 11
1.221030000000002
 21
54.70029369383312
 31
0.0
  0
LINE
  5
257
330
12E
100
AcDbEntity
  8
AM_4
100
AcDbLine
 10
1.221029999999998
 20
54.70029369383311
 30
0.0
 11
1.07302
 21
54.71388381242551
 31
0.0
  0
LINE
  5
258
330
12E
100
AcDbEntity
  8
AM_4
100
AcDbLine
 10
1.073019999999999
 20
54.71388381242551
 30
0.0
 11
0.8510189999999997
 21
54.72238954998127
 31
0.0
  0
LINE
  5
259
330
12E
100
AcDbEntity
  8
AM_4
100
AcDbLine
 10
0.8510190000000032
 20
54.72238954998127
 30
0.0
 11
0.5550119999999832
 21
54.72647651450255
 31
0.0
  0
LINE
  5
25A
330
12E
100
AcDbEntity
  8
AM_4
100
AcDbLine
 10
0.555012
 20
54.72647651450255
 30
0.0
 11
-0.8510189999999789
 21
54.72238954998127
 31
0.0
  0
LINE
  5
25B
330
12E
100
AcDbEntity
  8
AM_4
100
AcDbLine
 10
-0.8510190000000075
 20
54.72238954998127
 30
0.0
 11
-1.073020000000007
 21
54.71388381242551
 31
0.0
  0
LINE
  5
25C
330
12E
100
AcDbEntity
  8
AM_4
100
AcDbLine
 10
-1.07302
 20
54.71388381242551
 30
0.0
 11
-1.221030000000005
 21
54.70029369383311
 31
0.0
  0
LINE
  5
25D
330
12E
100
AcDbEntity
  8
AM_4
100
AcDbLine
 10
-1.221030000000003
 20
54.70029369383312
 30
0.0
 11
-1.295030000000002
 21
54.68062114643542
 31
0.0
  0
LINE
  5
25E
330
12E
100
AcDbEntity
  8
AM_4
100
AcDbLine
 10
-1.295030000000005
 20
54.62985873488599
 30
0.0
 11
-1.221029999999999
 21
54.6044050346673
 31
0.0
  0
LINE
  5
25F
330
12E
100
AcDbEntity
  8
AM_4
100
AcDbLine
 10
-1.221030000000005
 20
54.6044050346673
 30
0.0
 11
-1.073020000000004
 21
54.58414383738559
 31
0.0
  0
LINE
  5
260
330
12E
100
AcDbEntity
  8
AM_4
100
AcDbLine
 10
-1.073020000000023
 20
54.58414383738559
 30
0.0
 11
-0.851019000000076
 21
54.57716662788477
 31
0.0
  0
LINE
  5
261
330
12E
100
AcDbEntity
  8
AM_4
100
AcDbLine
 10
-0.8510189999999996
 20
54.57716662788477
 30
0.0
 11
-0.2590059999999997
 21
54.57716662788477
 31
0.0
  0
LINE
  5
262
330
12E
100
AcDbEntity
  8
AM_4
100
AcDbLine
 10
-0.2590059999999988
 20
54.63594412464287
 30
0.0
 11
0.1850040000000003
 21
54.63594412464287
 31
0.0
  0
LINE
  5
263
330
12E
100
AcDbEntity
  8
AM_4
100
AcDbLine
 10
0.1850040000000003
 20
54.63594412464287
 30
0.0
 11
0.1850039999999991
 21
54.53295877396621
 31
0.0
  0
LINE
  5
264
330
12E
100
AcDbEntity
  8
AM_4
100
AcDbLine
 10
0.1850039999999991
 20
54.53295877396621
 30
0.0
 11
-0.9250199999999996
 21
54.53295877396621
 31
0.0
  0
LINE
  5
265
330
12E
100
AcDbEntity
  8
AM_4
100
AcDbLine
 10
-0.9250199999999917
 20
54.53295877396621
 30
0.0
 11
-1.221030000000001
 21
54.5406066304327
 31
0.0
  0
LINE
  5
266
330
12E
100
AcDbEntity
  8
AM_4
100
AcDbLine
 10
-1.221029999999998
 20
54.54060663043271
 30
0.0
 11
-1.51703
 21
54.57007775026896
 31
0.0
  0
LINE
  5
267
330
12E
100
AcDbEntity
  8
AM_4
100
AcDbLine
 10
-1.517029999999999
 20
54.57007775026895
 30
0.0
 11
-1.665039999999997
 21
54.5977625610931
 31
0.0
  0
LINE
  5
268
330
12E
100
AcDbEntity
  8
AM_4
100
AcDbLine
 10
-1.665040000000001
 20
54.59776256109311
 30
0.0
 11
-1.739039999999999
 21
54.62985873488599
 31
0.0
  0
LINE
  5
269
330
12E
100
AcDbEntity
  8
AM_4
100
AcDbLine
 10
-1.73904
 20
54.62985873488599
 30
0.0
 11
-1.739040000000001
 21
54.68062114643541
 31
0.0
  0
LINE
  5
26A
330
12E
100
AcDbEntity
  8
AM_4
100
AcDbLine
 10
-1.739040000000002
 20
54.68062114643542
 30
0.0
 11
-1.665040000000001
 21
54.70493479878301
 31
0.0
  0
LINE
  5
26B
330
12E
100
AcDbEntity
  8
AM_4
100
AcDbLine
 10
-1.665040000000003
 20
54.70493479878299
 30
0.0
 11
-1.517030000000003
 21
54.72238954998127
 31
0.0
  0
LINE
  5
26C
330
12E
100
AcDbEntity
  8
AM_4
100
AcDbLine
 10
-1.51703000000001
 20
54.72238954998127
 30
0.0
 11
-1.221030000000001
 21
54.73807248844262
 31
0.0
  0
LINE
  5
26D
330
12E
100
AcDbEntity
  8
AM_4
100
AcDbLine
 10
-1.221029999999994
 20
54.73807248844263
 30
0.0
 11
-0.9250200000000377
 21
54.74524956578333
 31
0.0
  0
LINE
  5
26E
330
12E
100
AcDbEntity
  8
AM_4
100
AcDbLine
 10
-0.9250200000000992
 20
54.74524956578332
 30
0.0
 11
0.9250200000000021
 21
54.74524956578332
 31
0.0
  0
LINE
  5
26F
330
12E
100
AcDbEntity
  8
AM_4
100
AcDbLine
 10
-1.73904
 20
54.79766984431726
 30
0.0
 11
-1.739040000000001
 21
54.79999999999999
 31
0.0
  0
LINE
  5
270
330
12E
100
AcDbEntity
  8
AM_4
100
AcDbLine
 10
1.29503
 20
54.78310758332717
 30
0.0
 11
1.369029999999182
 21
54.78310758332717
 31
0.0
  0
LINE
  5
271
330
12E
100
AcDbEntity
  8
AM_4
100
AcDbLine
 10
-1.369029999999178
 20
54.78310758332717
 30
0.0
 11
-1.295029999999999
 21
54.78310758332717
 31
0.0
  0
LINE
  5
272
330
12E
100
AcDbEntity
  8
AM_4
100
AcDbLine
 10
1.739039999999997
 20
54.79766984431728
 30
0.0
 11
1.665039999999998
 21
54.79270587749136
 31
0.0
  0
LINE
  5
273
330
12E
100
AcDbEntity
  8
AM_4
100
AcDbLine
 10
1.665039999999996
 20
54.79270587749136
 30
0.0
 11
1.517029999999996
 21
54.78674845521589
 31
0.0
  0
LINE
  5
274
330
12E
100
AcDbEntity
  8
AM_4
100
AcDbLine
 10
1.517029999999999
 20
54.78674845521589
 30
0.0
 11
0.9250200000000052
 21
54.77450064215556
 31
0.0
  0
LINE
  5
275
330
12E
100
AcDbEntity
  8
AM_4
100
AcDbLine
 10
0.9250200000000143
 20
54.77450064215554
 30
0.0
 11
-0.925019999999983
 21
54.77450064215554
 31
0.0
  0
LINE
  5
276
330
12E
100
AcDbEntity
  8
AM_4
100
AcDbLine
 10
-0.9250199999999961
 20
54.77450064215554
 30
0.0
 11
-1.517030000000001
 21
54.78674845521589
 31
0.0
  0
LINE
  5
277
330
12E
100
AcDbEntity
  8
AM_4
100
AcDbLine
 10
-1.517030000000002
 20
54.78674845521589
 30
0.0
 11
-1.665040000000002
 21
54.79270587749136
 31
0.0
  0
LINE
  5
278
330
12E
100
AcDbEntity
  8
AM_4
100
AcDbLine
 10
-1.665040000000002
 20
54.79270587749136
 30
0.0
 11
-1.739040000000002
 21
54.79766984431728
 31
0.0
  0
LINE
  5
279
330
12E
100
AcDbEntity
  8
AM_4
100
AcDbLine
 10
16.93333333333334
 20
54.79999999999999
 30
0.0
 11
1.739040000000001
 21
54.79999999999999
 31
0.0
  0
LINE
  5
27A
330
12E
100
AcDbEntity
  8
AM_4
100
AcDbLine
 10
-1.739040000000001
 20
54.79999999999999
 30
0.0
 11
-16.93333333333333
 21
54.79999999999999
 31
0.0
  0
LINE
  5
27B
330
12E
100
AcDbEntity
  8
AM_4
100
AcDbLine
 10
1.739040000000001
 20
54.79999999999999
 30
0.0
 11
1.739040000000001
 21
54.79766984431728
 31
0.0
  0
LINE
  5
27C
330
12E
100
AcDbEntity
  8
AM_4
100
AcDbLine
 10
16.93333333333334
 20
54.8
 30
0.0
 11
25.4
 21
-34.90000000000001
 31
0.0
  0
LINE
  5
27D
330
12E
100
AcDbEntity
  8
AM_4
100
AcDbLine
 10
25.40000000000001
 20
-52.40000000000001
 30
0.0
 11
25.4
 21
-34.90000000000001
 31
0.0
  0
LINE
  5
27E
330
12E
100
AcDbEntity
  8
AM_4
100
AcDbLine
 10
-20.94600212550058
 20
12.28782787511
 30
0.0
 11
20.94600212550059
 21
12.28782787511
 31
0.0
  0
LWPOLYLINE
  5
27F
330
12E
100
AcDbEntity
  8
AM_4
100
AcDbPolyline
 90
       29
 70
     0
 43
0.0
 10
14.83228761857053
 20
-34.9
 10
14.28881999571789
 20
-29.37408253901025
 10
13.63660582487243
 20
-24.07505338835187
 10
12.88060884969197
 20
-19.04324135950265
 10
12.02658266364109
 20
-14.3169415802933
 10
11.08102692167074
 20
-9.932124045861453
 10
10.05113787391948
 20
-5.922159865269331
 10
8.944753597904716
 20
-2.317567287213829
 10
7.770294346020008
 20
0.8542205622735568
 10
6.53669846233008
 20
3.569064462480342
 10
5.253354356375375
 20
5.806302812058406
 10
3.930029051706567
 20
7.548908876286009
 10
2.576793852937848
 20
8.78362037080005
 10
1.203947697037605
 20
9.501040395588134
 10
-0.1780612278005896
 20
9.695708951071524
 10
-1.558714999178913
 20
9.366144491998906
 10
-2.927506008235635
 20
8.514855202900323
 10
-4.274016928893227
 20
7.148319909288311
 10
-5.58799999999996
 20
5.276938769883833
 10
-6.859455016980041
 20
2.914954125128578
 10
-8.078705439428722
 20
0.0803421043744784
 10
-9.236472035427637
 20
-3.205324183315018
 10
-10.32394350210265
 20
-6.917038833551041
 10
-11.33284352495913
 20
-11.0265534566507
 10
-12.25549376563267
 20
-15.50259216493945
 10
-13.08487229868027
 20
-20.31108960114114
 10
-13.81466705267301
 20
-25.41545019631613
 10
-14.43932384887088
 20
-30.77682668423795
 10
-14.83228761857051
 20
-34.89999999999998
  0
LINE
  5
280
330
12E
100
AcDbEntity
  8
AM_4
100
AcDbLine
 10
17.85000000000002
 20
-34.9
 30
0.0
 11
17.85000000000002
 21
-40.73333333333333
 31
0.0
  0
LINE
  5
281
330
12E
100
AcDbEntity
  8
AM_4
100
AcDbLine
 10
-0.0000000000000116
 20
-40.73333333333333
 30
0.0
 11
25.40000000000001
 21
-40.73333333333333
 31
0.0
  0
LINE
  5
282
330
12E
100
AcDbEntity
  8
AM_4
100
AcDbLine
 10
15.85000000000002
 20
-34.9
 30
0.0
 11
15.85000000000002
 21
-40.73333333333333
 31
0.0
  0
LINE
  5
283
330
12E
100
AcDbEntity
  8
AM_4
100
AcDbLine
 10
-25.39999999999999
 20
-34.9
 30
0.0
 11
25.4
 21
-34.90000000000001
 31
0.0
  0
LINE
  5
284
330
12E
100
AcDbEntity
  8
AM_4
100
AcDbLine
 10
-25.39999999999999
 20
-34.9
 30
0.0
 11
-25.39999999999998
 21
-52.40000000000001
 31
0.0
  0
LINE
  5
285
330
12E
100
AcDbEntity
  8
AM_4
100
AcDbLine
 10
25.40000000000001
 20
-52.40000000000001
 30
0.0
 11
-25.39999999999998
 21
-52.40000000000001
 31
0.0
  0
LINE
  5
286
330
12E
100
AcDbEntity
  8
AM_4
100
AcDbLine
 10
0.0000000000000128
 20
-36.4
 30
0.0
 11
-0.0000000000000116
 21
-40.73333333333333
 31
0.0
  0
LINE
  5
287
330
12E
100
AcDbEntity
  8
AM_4
100
AcDbLine
 10
-19.75555555555554
 20
-36.4
 30
0.0
 11
-19.75555555555554
 21
-52.40000000000001
 31
0.0
  0
LINE
  5
288
330
12E
100
AcDbEntity
  8
AM_4
100
AcDbLine
 10
19.75555555555557
 20
-40.73333333333333
 30
0.0
 11
19.75555555555557
 21
-52.40000000000001
 31
0.0
  0
LINE
  5
289
330
12E
100
AcDbEntity
  8
AM_4
100
AcDbLine
 10
-19.75555555555554
 20
-36.4
 30
0.0
 11
0.0000000000000128
 21
-36.4
 31
0.0
  0
LWPOLYLINE
  5
28A
330
12E
100
AcDbEntity
  8
AM_4
100
AcDbPolyline
 90
       10
 70
     0
 43
0.0
 10
0.0000000000000128
 20
-36.4
 10
0.0240663166267723
 20
-36.39259646003453
 10
0.9910761548484509
 20
-36.09654526513722
 10
1.960352106787851
 20
-35.80815503860753
 10
2.938301061187523
 20
-35.53471095876181
 10
3.916535586602231
 20
-35.28961912269795
 10
4.621547065057296
 20
-35.13831171728414
 10
5.324381305064993
 20
-35.0162297264565
 10
6.030190328918624
 20
-34.93197860636832
 10
6.730527468185535
 20
-34.9
  0
LWPOLYLINE
  5
28B
330
12E
100
AcDbEntity
  8
AM_4
100
AcDbPolyline
 90
       19
 70
     0
 43
0.0
 10
-21.25555555555554
 20
-34.9
 10
-21.12482194143405
 20
-34.90570795286238
 10
-20.99508328905515
 20
-34.92278837048169
 10
-20.86732698790176
 20
-34.95111126056639
 10
-20.74252534056704
 20
-34.99046106882113
 10
-20.62162816294449
 20
-35.04053831944503
 10
-20.50555555555554
 20
-35.10096189432335
 10
-20.39519090102898
 20
-35.17127193356652
 10
-20.29137414102573
 20
-35.25093333532153
 10
-20.19489538377572
 20
-35.33933982822018
 10
-20.10648889087707
 20
-35.43581858547019
 10
-20.02682748912206
 20
-35.53963534547344
 10
-19.95651744987888
 20
-35.65
 10
-19.89609387500057
 20
-35.76607260738896
 10
-19.84601662437668
 20
-35.88696978501149
 10
-19.80666681612194
 20
-36.01177143234622
 10
-19.77834392603723
 20
-36.13952773349961
 10
-19.76126350841792
 20
-36.26926638587851
 10
-19.75555555555554
 20
-36.4
  0
ENDBLK
  5
131
330
12E
100
AcDbEntity
  8
0
100
AcDbBlockEnd
  0
ENDSEC
  0
SECTION
  2
ENTITIES
  0
INSERT
  5
6F
330
1F
100
AcDbEntity
  8
0
100
AcDbBlockReference
  2
1_129044_2
 10
0.0
 20
0.0
 30
0.0
  0
POINT
  5
28D
330
1F
100
AcDbEntity
  8
ConnectionPoints
100
AcDbPoint
 10
0.0
 20
0.0
 30
0.0
  0
POINT
  5
28E
330
1F
100
AcDbEntity
  8
ConnectionPoints
100
AcDbPoint
 10
16.7
 20
0.0
 30
-0.000000000000001
  0
POINT
  5
28F
330
1F
100
AcDbEntity
  8
ConnectionPoints
100
AcDbPoint
 10
0.0
 20
0.0
 30
0.0
  0
POINT
  5
290
330
1F
100
AcDbEntity
  8
ConnectionPoints
100
AcDbPoint
 10
0.0
 20
0.0
 30
0.0
  0
ENDSEC
  0
SECTION
  2
OBJECTS
  0
DICTIONARY
  5
C
330
0
100
AcDbDictionary
281
     1
  3
ACAD_DETAILVIEWSTYLE
350
298
  3
ACAD_GROUP
350
D
  3
ACAD_LAYOUT
350
1A
  3
ACAD_MATERIAL
350
43
  3
ACAD_MLEADERSTYLE
350
6B
  3
ACAD_MLINESTYLE
350
17
  3
ACAD_PLOTSETTINGS
350
19
  3
ACAD_PLOTSTYLENAME
350
E
  3
ACAD_SCALELIST
350
47
  3
ACAD_SECTIONVIEWSTYLE
350
299
  3
ACAD_TABLESTYLE
350
69
  3
ACAD_VISUALSTYLE
350
2A
  3
ACDB_RECOMPOSE_DATA
350
295
  3
AcDbVariableDictionary
350
291
  0
SUN
  5
6D
330
29
100
AcDbSun
 90
        1
290
     0
 63
     7
421
 16777215
 40
1.0
291
     1
 91
  2455826
 92
 54000000
292
     0
 70
     2
 71
   256
280
     1
  0
DICTIONARY
  5
298
102
{ACAD_REACTORS
330
C
102
}
330
C
100
AcDbDictionary
281
     1
  0
DICTIONARY
  5
D
102
{ACAD_REACTORS
330
C
102
}
330
C
100
AcDbDictionary
281
     1
  0
DICTIONARY
  5
1A
102
{ACAD_REACTORS
330
C
102
}
330
C
100
AcDbDictionary
281
     1
  3
Layout1
350
1E
  3
Layout2
350
26
  3
Model
350
22
  0
DICTIONARY
  5
43
102
{ACAD_REACTORS
330
C
102
}
330
C
100
AcDbDictionary
281
     1
  3
ByBlock
350
45
  3
ByLayer
350
44
  3
Global
350
46
  0
DICTIONARY
  5
6B
102
{ACAD_REACTORS
330
C
102
}
330
C
100
AcDbDictionary
281
     1
  3
Standard
350
6C
  0
DICTIONARY
  5
17
102
{ACAD_REACTORS
330
C
102
}
330
C
100
AcDbDictionary
281
     1
  3
Standard
350
18
  0
DICTIONARY
  5
19
102
{ACAD_REACTORS
330
C
102
}
330
C
100
AcDbDictionary
281
     1
  0
ACDBDICTIONARYWDFLT
  5
E
102
{ACAD_REACTORS
330
C
102
}
330
C
100
AcDbDictionary
281
     1
  3
Normal
350
F
100
AcDbDictionaryWithDefault
340
F
  0
DICTIONARY
  5
47
102
{ACAD_REACTORS
330
C
102
}
330
C
100
AcDbDictionary
281
     1
  3
A0
350
48
  3
A1
350
49
  3
A2
350
4A
  3
A3
350
4B
  3
A4
350
4C
  3
A5
350
4D
  3
A6
350
4E
  3
A7
350
4F
  3
A8
350
50
  3
A9
350
51
  3
B0
350
52
  3
B1
350
53
  3
B2
350
54
  3
B3
350
55
  3
B4
350
56
  3
B5
350
57
  3
B6
350
58
  3
B7
350
59
  3
B8
350
5A
  3
B9
350
5B
  3
C0
350
5C
  3
C1
350
5D
  3
C2
350
5E
  3
C3
350
5F
  3
C4
350
60
  3
C5
350
61
  3
C6
350
62
  3
C7
350
63
  3
C8
350
64
  3
C9
350
65
  3
D0
350
66
  3
D1
350
67
  3
D2
350
68
  0
DICTIONARY
  5
299
102
{ACAD_REACTORS
330
C
102
}
330
C
100
AcDbDictionary
281
     1
  0
DICTIONARY
  5
69
102
{ACAD_REACTORS
330
C
102
}
330
C
100
AcDbDictionary
281
     1
  3
Standard
350
6A
  0
DICTIONARY
  5
2A
102
{ACAD_REACTORS
330
C
102
}
330
C
100
AcDbDictionary
281
     1
  3
2dWireframe
350
2F
  3
Basic
350
32
  3
Brighten
350
36
  3
ColorChange
350
3A
  3
Conceptual
350
34
  3
Dim
350
35
  3
EdgeColorOff
350
3D
  3
Facepattern
350
39
  3
Flat
350
2B
  3
FlatWithEdges
350
2C
  3
Gouraud
350
2D
  3
GouraudWithEdges
350
2E
  3
Hidden
350
31
  3
JitterOff
350
3B
  3
Linepattern
350
38
  3
OverhangOff
350
3C
  3
Realistic
350
33
  3
Shaded
350
42
  3
Shaded with edges
350
41
  3
Shades of Gray
350
3E
  3
Sketchy
350
3F
  3
Thicken
350
37
  3
Wireframe
350
30
  3
X-Ray
350
40
  0
XRECORD
  5
295
102
{ACAD_REACTORS
330
C
102
}
330
C
100
AcDbXrecord
280
     1
 90
        1
330
6A
  0
DICTIONARY
  5
291
102
{ACAD_REACTORS
330
C
102
}
330
C
100
AcDbDictionary
281
     1
  3
CANNOSCALE
350
292
  3
CMLEADERSTYLE
350
297
  3
CTABLESTYLE
350
296
  0
LAYOUT
  5
1E
102
{ACAD_REACTORS
330
1A
102
}
330
1A
100
AcDbPlotSettings
  1

  2
none_device
  4

  6

 40
0.0
 41
0.0
 42
0.0
 43
0.0
 44
0.0
 45
0.0
 46
0.0
 47
0.0
 48
0.0
 49
0.0
140
0.0
141
0.0
142
1.0
143
1.0
 70
   688
 72
     1
 73
     0
 74
     5
  7

 75
    16
 76
     0
 77
     2
 78
   300
147
1.0
148
0.0
149
0.0
100
AcDbLayout
  1
Layout1
 70
     1
 71
     1
 10
0.0
 20
0.0
 11
420.0
 21
297.0
 12
0.0
 22
0.0
 32
0.0
 14
1.000000000000000E+20
 24
1.000000000000000E+20
 34
1.000000000000000E+20
 15
-1.000000000000000E+20
 25
-1.000000000000000E+20
 35
-1.000000000000000E+20
146
0.0
 13
0.0
 23
0.0
 33
0.0
 16
1.0
 26
0.0
 36
0.0
 17
0.0
 27
1.0
 37
0.0
 76
     0
330
1B
  0
LAYOUT
  5
26
102
{ACAD_REACTORS
330
1A
102
}
330
1A
100
AcDbPlotSettings
  1

  2
none_device
  4

  6

 40
0.0
 41
0.0
 42
0.0
 43
0.0
 44
0.0
 45
0.0
 46
0.0
 47
0.0
 48
0.0
 49
0.0
140
0.0
141
0.0
142
1.0
143
1.0
 70
   688
 72
     1
 73
     0
 74
     5
  7

 75
    16
 76
     0
 77
     2
 78
   300
147
1.0
148
0.0
149
0.0
100
AcDbLayout
  1
Layout2
 70
     1
 71
     2
 10
0.0
 20
0.0
 11
0.0
 21
0.0
 12
0.0
 22
0.0
 32
0.0
 14
0.0
 24
0.0
 34
0.0
 15
0.0
 25
0.0
 35
0.0
146
0.0
 13
0.0
 23
0.0
 33
0.0
 16
1.0
 26
0.0
 36
0.0
 17
0.0
 27
1.0
 37
0.0
 76
     0
330
23
  0
LAYOUT
  5
22
102
{ACAD_REACTORS
330
1A
102
}
330
1A
100
AcDbPlotSettings
  1

  2
none_device
  4
Letter_(8.50_x_11.00_Inches)
  6

 40
6.35
 41
6.35
 42
6.35000508
 43
6.35000508
 44
215.9
 45
279.4
 46
0.0
 47
0.0
 48
0.0
 49
0.0
140
0.0
141
0.0
142
1.0
143
1.0
 70
  1712
 72
     1
 73
     0
 74
     0
  7

 75
     0
 76
     0
 77
     2
 78
   300
147
1.0
148
0.0
149
0.0
100
AcDbLayout
  1
Model
 70
     1
 71
     0
 10
0.0
 20
0.0
 11
420.0
 21
297.0
 12
0.0
 22
0.0
 32
0.0
 14
1.000000000000000E+20
 24
1.000000000000000E+20
 34
1.000000000000000E+20
 15
-1.000000000000000E+20
 25
-1.000000000000000E+20
 35
-1.000000000000000E+20
146
0.0
 13
0.0
 23
0.0
 33
0.0
 16
1.0
 26
0.0
 36
0.0
 17
0.0
 27
1.0
 37
0.0
 76
     0
330
1F
331
29
  0
MATERIAL
  5
45
102
{ACAD_REACTORS
330
43
102
}
330
43
100
AcDbMaterial
  1
ByBlock
 72
     1
 94
      127
  0
MATERIAL
  5
44
102
{ACAD_REACTORS
330
43
102
}
330
43
100
AcDbMaterial
  1
ByLayer
 72
     1
 94
      127
  0
MATERIAL
  5
46
102
{ACAD_REACTORS
330
43
102
}
330
43
100
AcDbMaterial
  1
Global
 72
     1
 94
      127
  0
MLEADERSTYLE
  5
6C
102
{ACAD_REACTORS
330
6B
102
}
330
6B
100
AcDbMLeaderStyle
179
     2
170
     2
171
     1
172
     0
 90
        2
 40
0.0
 41
0.0
173
     1
 91
-1056964608
340
14
 92
       -2
290
     1
 42
2.0
291
     1
 43
8.0
  3
Standard
341
0
 44
4.0
300

342
11
174
     1
178
     6
175
     1
176
     0
 93
-1056964608
 45
4.0
292
     0
297
     0
 46
4.0
343
0
 94
-1056964608
 47
1.0
 49
1.0
140
1.0
293
     1
141
0.0
294
     1
177
     0
142
1.0
295
     0
296
     0
143
3.75
271
     0
272
     9
273
     9
298
     0
  0
MLINESTYLE
  5
18
102
{ACAD_REACTORS
330
17
102
}
330
17
100
AcDbMlineStyle
  2
Standard
 70
     0
  3

 62
   256
 51
90.0
 52
90.0
 71
     2
 49
0.5
 62
   256
  6
BYLAYER
 49
-0.5
 62
   256
  6
BYLAYER
  0
ACDBPLACEHOLDER
  5
F
102
{ACAD_REACTORS
330
E
102
}
330
E
  0
SCALE
  5
48
102
{ACAD_REACTORS
330
47
102
}
330
47
100
AcDbScale
 70
     0
300
1:1
140
1.0
141
1.0
290
     1
  0
SCALE
  5
49
102
{ACAD_REACTORS
330
47
102
}
330
47
100
AcDbScale
 70
     0
300
1:2
140
1.0
141
2.0
290
     0
  0
SCALE
  5
4A
102
{ACAD_REACTORS
330
47
102
}
330
47
100
AcDbScale
 70
     0
300
1:4
140
1.0
141
4.0
290
     0
  0
SCALE
  5
4B
102
{ACAD_REACTORS
330
47
102
}
330
47
100
AcDbScale
 70
     0
300
1:5
140
1.0
141
5.0
290
     0
  0
SCALE
  5
4C
102
{ACAD_REACTORS
330
47
102
}
330
47
100
AcDbScale
 70
     0
300
1:8
140
1.0
141
8.0
290
     0
  0
SCALE
  5
4D
102
{ACAD_REACTORS
330
47
102
}
330
47
100
AcDbScale
 70
     0
300
1:10
140
1.0
141
10.0
290
     0
  0
SCALE
  5
4E
102
{ACAD_REACTORS
330
47
102
}
330
47
100
AcDbScale
 70
     0
300
1:16
140
1.0
141
16.0
290
     0
  0
SCALE
  5
4F
102
{ACAD_REACTORS
330
47
102
}
330
47
100
AcDbScale
 70
     0
300
1:20
140
1.0
141
20.0
290
     0
  0
SCALE
  5
50
102
{ACAD_REACTORS
330
47
102
}
330
47
100
AcDbScale
 70
     0
300
1:30
140
1.0
141
30.0
290
     0
  0
SCALE
  5
51
102
{ACAD_REACTORS
330
47
102
}
330
47
100
AcDbScale
 70
     0
300
1:40
140
1.0
141
40.0
290
     0
  0
SCALE
  5
52
102
{ACAD_REACTORS
330
47
102
}
330
47
100
AcDbScale
 70
     0
300
1:50
140
1.0
141
50.0
290
     0
  0
SCALE
  5
53
102
{ACAD_REACTORS
330
47
102
}
330
47
100
AcDbScale
 70
     0
300
1:100
140
1.0
141
100.0
290
     0
  0
SCALE
  5
54
102
{ACAD_REACTORS
330
47
102
}
330
47
100
AcDbScale
 70
     0
300
2:1
140
2.0
141
1.0
290
     0
  0
SCALE
  5
55
102
{ACAD_REACTORS
330
47
102
}
330
47
100
AcDbScale
 70
     0
300
4:1
140
4.0
141
1.0
290
     0
  0
SCALE
  5
56
102
{ACAD_REACTORS
330
47
102
}
330
47
100
AcDbScale
 70
     0
300
8:1
140
8.0
141
1.0
290
     0
  0
SCALE
  5
57
102
{ACAD_REACTORS
330
47
102
}
330
47
100
AcDbScale
 70
     0
300
10:1
140
10.0
141
1.0
290
     0
  0
SCALE
  5
58
102
{ACAD_REACTORS
330
47
102
}
330
47
100
AcDbScale
 70
     0
300
100:1
140
100.0
141
1.0
290
     0
  0
SCALE
  5
59
102
{ACAD_REACTORS
330
47
102
}
330
47
100
AcDbScale
 70
     0
300
1/128" = 1'-0"
140
0.0078125
141
12.0
290
     0
  0
SCALE
  5
5A
102
{ACAD_REACTORS
330
47
102
}
330
47
100
AcDbScale
 70
     0
300
1/64" = 1'-0"
140
0.015625
141
12.0
290
     0
  0
SCALE
  5
5B
102
{ACAD_REACTORS
330
47
102
}
330
47
100
AcDbScale
 70
     0
300
1/32" = 1'-0"
140
0.03125
141
12.0
290
     0
  0
SCALE
  5
5C
102
{ACAD_REACTORS
330
47
102
}
330
47
100
AcDbScale
 70
     0
300
1/16" = 1'-0"
140
0.0625
141
12.0
290
     0
  0
SCALE
  5
5D
102
{ACAD_REACTORS
330
47
102
}
330
47
100
AcDbScale
 70
     0
300
3/32" = 1'-0"
140
0.09375
141
12.0
290
     0
  0
SCALE
  5
5E
102
{ACAD_REACTORS
330
47
102
}
330
47
100
AcDbScale
 70
     0
300
1/8" = 1'-0"
140
0.125
141
12.0
290
     0
  0
SCALE
  5
5F
102
{ACAD_REACTORS
330
47
102
}
330
47
100
AcDbScale
 70
     0
300
3/16" = 1'-0"
140
0.1875
141
12.0
290
     0
  0
SCALE
  5
60
102
{ACAD_REACTORS
330
47
102
}
330
47
100
AcDbScale
 70
     0
300
1/4" = 1'-0"
140
0.25
141
12.0
290
     0
  0
SCALE
  5
61
102
{ACAD_REACTORS
330
47
102
}
330
47
100
AcDbScale
 70
     0
300
3/8" = 1'-0"
140
0.375
141
12.0
290
     0
  0
SCALE
  5
62
102
{ACAD_REACTORS
330
47
102
}
330
47
100
AcDbScale
 70
     0
300
1/2" = 1'-0"
140
0.5
141
12.0
290
     0
  0
SCALE
  5
63
102
{ACAD_REACTORS
330
47
102
}
330
47
100
AcDbScale
 70
     0
300
3/4" = 1'-0"
140
0.75
141
12.0
290
     0
  0
SCALE
  5
64
102
{ACAD_REACTORS
330
47
102
}
330
47
100
AcDbScale
 70
     0
300
1" = 1'-0"
140
1.0
141
12.0
290
     0
  0
SCALE
  5
65
102
{ACAD_REACTORS
330
47
102
}
330
47
100
AcDbScale
 70
     0
300
1-1/2" = 1'-0"
140
1.5
141
12.0
290
     0
  0
SCALE
  5
66
102
{ACAD_REACTORS
330
47
102
}
330
47
100
AcDbScale
 70
     0
300
3" = 1'-0"
140
3.0
141
12.0
290
     0
  0
SCALE
  5
67
102
{ACAD_REACTORS
330
47
102
}
330
47
100
AcDbScale
 70
     0
300
6" = 1'-0"
140
6.0
141
12.0
290
     0
  0
SCALE
  5
68
102
{ACAD_REACTORS
330
47
102
}
330
47
100
AcDbScale
 70
     0
300
1'-0" = 1'-0"
140
12.0
141
12.0
290
     0
  0
TABLESTYLE
  5
6A
102
{ACAD_REACTORS
330
69
102
}
102
{ACAD_XDICTIONARY
360
293
102
}
330
69
100
AcDbTableStyle
  3
Standard
 70
     0
 71
     0
 40
0.06
 41
0.06
280
     0
281
     0
  7
Standard
140
4.5
170
     2
 62
     0
 63
   257
283
     0
 90
        4
 91
        0
  1

274
    -2
284
     1
 64
     0
275
    -2
285
     1
 65
     0
276
    -2
286
     1
 66
     0
277
    -2
287
     1
 67
     0
278
    -2
288
     1
 68
     0
279
    -2
289
     1
 69
     0
  7
Standard
140
6.0
170
     5
 62
     0
 63
   257
283
     0
 90
        4
 91
        0
  1

274
    -2
284
     1
 64
     0
275
    -2
285
     1
 65
     0
276
    -2
286
     1
 66
     0
277
    -2
287
     1
 67
     0
278
    -2
288
     1
 68
     0
279
    -2
289
     1
 69
     0
  7
Standard
140
4.5
170
     5
 62
     0
 63
   257
283
     0
 90
        4
 91
        0
  1

274
    -2
284
     1
 64
     0
275
    -2
285
     1
 65
     0
276
    -2
286
     1
 66
     0
277
    -2
287
     1
 67
     0
278
    -2
288
     1
 68
     0
279
    -2
289
     1
 69
     0
  0
VISUALSTYLE
  5
2F
102
{ACAD_REACTORS
330
2A
102
}
330
2A
100
AcDbVisualStyle
  2
2dWireframe
 70
     4
177
     3
291
     0
 70
    58
 90
        0
176
     1
 90
        2
176
     1
 90
        0
176
     1
 90
        0
176
     1
 40
0.6
176
     1
 40
30.0
176
     1
 62
     7
420
 16777215
176
     1
 90
        1
176
     1
 90
        4
176
     1
 62
     7
176
     1
 62
   257
176
     1
 90
        1
176
     1
 90
        1
176
     1
 40
1.0
176
     1
 90
        0
176
     1
 62
   257
176
     1
 40
1.0
176
     1
 90
        1
176
     1
 90
        6
176
     1
 90
        2
176
     1
 62
     7
176
     1
 90
        5
176
     1
 90
        0
176
     1
 90
        0
176
     1
290
     0
176
     1
 90
        1
176
     1
 40
0.0
176
     1
 90
        0
176
     1
290
     1
176
     1
290
     1
176
     1
290
     0
176
     1
290
     0
176
     1
290
     0
176
     1
290
     0
176
     1
290
     0
176
     1
290
     0
176
     1
290
     0
176
     1
 90
       50
176
     1
 40
0.0
176
     1
 40
1.0
176
     1
 90
        0
176
     1
 62
    18
420
        0
176
     1
 90
       50
176
     1
 90
        3
176
     1
 62
     5
420
      255
176
     1
290
     0
176
     1
 90
       50
176
     1
 90
       50
176
     1
 90
       50
176
     1
290
     0
176
     1
 90
       50
176
     1
 62
   256
176
     0
 40
1.0
176
     0
 90
        2
176
     1
  1
strokes_ogs.tif
176
     1
290
     0
176
     1
 40
1.0
176
     1
 40
1.0
176
     1
  0
VISUALSTYLE
  5
32
102
{ACAD_REACTORS
330
2A
102
}
330
2A
100
AcDbVisualStyle
  2
Basic
 70
     7
177
     3
291
     1
 70
    58
 90
        1
176
     1
 90
        0
176
     1
 90
        1
176
     1
 90
        0
176
     1
 40
0.6
176
     1
 40
30.0
176
     1
 62
     7
420
 16777215
176
     1
 90
        0
176
     1
 90
        4
176
     1
 62
     7
176
     1
 62
   257
176
     1
 90
        1
176
     1
 90
        1
176
     1
 40
1.0
176
     1
 90
        8
176
     1
 62
     7
176
     1
 40
1.0
176
     1
 90
        1
176
     1
 90
        6
176
     1
 90
        2
176
     1
 62
     7
176
     1
 90
        5
176
     1
 90
        0
176
     1
 90
        0
176
     1
290
     0
176
     1
 90
        1
176
     1
 40
0.0
176
     1
 90
        0
176
     1
290
     0
176
     1
290
     1
176
     1
290
     1
176
     1
290
     0
176
     1
290
     0
176
     1
290
     0
176
     1
290
     0
176
     1
290
     0
176
     1
290
     0
176
     1
 90
       50
176
     1
 40
0.0
176
     1
 40
1.0
176
     1
 90
        0
176
     1
 62
    18
420
        0
176
     1
 90
       50
176
     1
 90
        3
176
     1
 62
     5
420
      255
176
     1
290
     0
176
     1
 90
       50
176
     1
 90
       50
176
     1
 90
       50
176
     1
290
     0
176
     1
 90
       50
176
     1
 62
   256
176
     0
 40
1.0
176
     0
 90
        2
176
     1
  1
strokes_ogs.tif
176
     1
290
     0
176
     1
 40
1.0
176
     1
 40
1.0
176
     1
  0
VISUALSTYLE
  5
36
102
{ACAD_REACTORS
330
2A
102
}
330
2A
100
AcDbVisualStyle
  2
Brighten
 70
    12
177
     3
291
     1
 70
    58
 90
        2
176
     1
 90
        2
176
     1
 90
        0
176
     1
 90
        0
176
     1
 40
0.6
176
     1
 40
30.0
176
     1
 62
     7
420
 16777215
176
     1
 90
        1
176
     1
 90
        4
176
     1
 62
     7
176
     1
 62
   257
176
     1
 90
        1
176
     1
 90
        1
176
     1
 40
1.0
176
     1
 90
        8
176
     1
 62
     7
176
     1
 40
1.0
176
     1
 90
        1
176
     1
 90
        6
176
     1
 90
        2
176
     1
 62
     7
176
     1
 90
        5
176
     1
 90
        0
176
     1
 90
        0
176
     1
290
     0
176
     1
 90
        1
176
     1
 40
50.0
176
     1
 90
        0
176
     1
290
     0
176
     1
290
     1
176
     1
290
     1
176
     1
290
     0
176
     1
290
     0
176
     1
290
     0
176
     1
290
     0
176
     1
290
     0
176
     1
290
     0
176
     1
 90
       50
176
     1
 40
0.0
176
     1
 40
1.0
176
     1
 90
        0
176
     1
 62
    18
420
        0
176
     1
 90
       50
176
     1
 90
        3
176
     1
 62
     5
420
      255
176
     1
290
     0
176
     1
 90
       50
176
     1
 90
       50
176
     1
 90
       50
176
     1
290
     0
176
     1
 90
       50
176
     1
 62
   256
176
     0
 40
1.0
176
     0
 90
        2
176
     1
  1
strokes_ogs.tif
176
     1
290
     0
176
     1
 40
1.0
176
     1
 40
1.0
176
     1
  0
VISUALSTYLE
  5
3A
102
{ACAD_REACTORS
330
2A
102
}
330
2A
100
AcDbVisualStyle
  2
ColorChange
 70
    16
177
     3
291
     1
 70
    58
 90
        2
176
     1
 90
        2
176
     1
 90
        3
176
     1
 90
        0
176
     1
 40
0.6
176
     1
 40
30.0
176
     1
 62
     8
420
  8421504
176
     1
 90
        1
176
     1
 90
        4
176
     1
 62
     7
176
     1
 62
   257
176
     1
 90
        1
176
     1
 90
        1
176
     1
 40
1.0
176
     1
 90
        8
176
     1
 62
     8
420
  8421504
176
     1
 40
1.0
176
     1
 90
        1
176
     1
 90
        6
176
     1
 90
        2
176
     1
 62
     7
176
     1
 90
        5
176
     1
 90
        0
176
     1
 90
        0
176
     1
290
     0
176
     1
 90
        1
176
     1
 40
0.0
176
     1
 90
        0
176
     1
290
     0
176
     1
290
     1
176
     1
290
     1
176
     1
290
     0
176
     1
290
     0
176
     1
290
     0
176
     1
290
     0
176
     1
290
     0
176
     1
290
     0
176
     1
 90
       50
176
     1
 40
0.0
176
     1
 40
1.0
176
     1
 90
        0
176
     1
 62
    18
420
        0
176
     1
 90
       50
176
     1
 90
        3
176
     1
 62
     5
420
      255
176
     1
290
     0
176
     1
 90
       50
176
     1
 90
       50
176
     1
 90
       50
176
     1
290
     0
176
     1
 90
       50
176
     1
 62
   256
176
     0
 40
1.0
176
     0
 90
        2
176
     1
  1
strokes_ogs.tif
176
     1
290
     0
176
     1
 40
1.0
176
     1
 40
1.0
176
     1
  0
VISUALSTYLE
  5
34
102
{ACAD_REACTORS
330
2A
102
}
330
2A
100
AcDbVisualStyle
  2
Conceptual
 70
     9
177
     3
291
     0
 70
    58
 90
        3
176
     1
 90
        2
176
     1
 90
        0
176
     1
 90
        0
176
     1
 40
0.6
176
     1
 40
30.0
176
     1
 62
     7
420
 16777215
176
     1
 90
        2
176
     1
 90
        2
176
     1
 62
     7
176
     1
 62
   257
176
     1
 90
        1
176
     1
 90
        1
176
     1
 40
179.0
176
     1
 90
        8
176
     1
 62
     7
176
     1
 40
1.0
176
     1
 90
        1
176
     1
 90
        6
176
     1
 90
        2
176
     1
 62
     7
176
     1
 90
        3
176
     1
 90
        0
176
     1
 90
        0
176
     1
290
     0
176
     1
 90
        1
176
     1
 40
0.0
176
     1
 90
        0
176
     1
290
     0
176
     1
290
     1
176
     1
290
     1
176
     1
290
     0
176
     1
290
     0
176
     1
290
     0
176
     1
290
     0
176
     1
290
     0
176
     1
290
     0
176
     1
 90
       50
176
     1
 40
0.0
176
     1
 40
1.0
176
     1
 90
        0
176
     1
 62
    18
420
        0
176
     1
 90
       50
176
     1
 90
        3
176
     1
 62
     5
420
      255
176
     1
290
     0
176
     1
 90
       50
176
     1
 90
       50
176
     1
 90
       50
176
     1
290
     0
176
     1
 90
       50
176
     1
 62
   256
176
     0
 40
1.0
176
     0
 90
        2
176
     1
  1
strokes_ogs.tif
176
     1
290
     0
176
     1
 40
1.0
176
     1
 40
1.0
176
     1
  0
VISUALSTYLE
  5
35
102
{ACAD_REACTORS
330
2A
102
}
330
2A
100
AcDbVisualStyle
  2
Dim
 70
    11
177
     3
291
     1
 70
    58
 90
        2
176
     1
 90
        2
176
     1
 90
        0
176
     1
 90
        0
176
     1
 40
0.6
176
     1
 40
30.0
176
     1
 62
     7
420
 16777215
176
     1
 90
        1
176
     1
 90
        4
176
     1
 62
     7
176
     1
 62
   257
176
     1
 90
        1
176
     1
 90
        1
176
     1
 40
1.0
176
     1
 90
        8
176
     1
 62
     7
176
     1
 40
1.0
176
     1
 90
        1
176
     1
 90
        6
176
     1
 90
        2
176
     1
 62
     7
176
     1
 90
        5
176
     1
 90
        0
176
     1
 90
        0
176
     1
290
     0
176
     1
 90
        1
176
     1
 40
-50.0
176
     1
 90
        0
176
     1
290
     0
176
     1
290
     1
176
     1
290
     1
176
     1
290
     0
176
     1
290
     0
176
     1
290
     0
176
     1
290
     0
176
     1
290
     0
176
     1
290
     0
176
     1
 90
       50
176
     1
 40
0.0
176
     1
 40
1.0
176
     1
 90
        0
176
     1
 62
    18
420
        0
176
     1
 90
       50
176
     1
 90
        3
176
     1
 62
     5
420
      255
176
     1
290
     0
176
     1
 90
       50
176
     1
 90
       50
176
     1
 90
       50
176
     1
290
     0
176
     1
 90
       50
176
     1
 62
   256
176
     0
 40
1.0
176
     0
 90
        2
176
     1
  1
strokes_ogs.tif
176
     1
290
     0
176
     1
 40
1.0
176
     1
 40
1.0
176
     1
  0
VISUALSTYLE
  5
3D
102
{ACAD_REACTORS
330
2A
102
}
330
2A
100
AcDbVisualStyle
  2
EdgeColorOff
 70
    22
177
     3
291
     1
 70
    58
 90
        2
176
     0
 90
        2
176
     0
 90
        0
176
     0
 90
        0
176
     0
 40
0.6
176
     0
 40
30.0
176
     0
 62
     7
420
 16777215
176
     0
 90
        1
176
     0
 90
        4
176
     0
 62
     7
176
     0
 62
   257
176
     0
 90
        1
176
     0
 90
        1
176
     0
 40
1.0
176
     0
 90
        8
176
     2
 62
     7
176
     0
 40
1.0
176
     0
 90
        1
176
     0
 90
        6
176
     0
 90
        2
176
     0
 62
     7
176
     0
 90
        5
176
     0
 90
        0
176
     0
 90
        0
176
     0
290
     0
176
     0
 90
        1
176
     0
 40
0.0
176
     0
 90
        0
176
     0
290
     0
176
     0
290
     1
176
     0
290
     1
176
     0
290
     0
176
     0
290
     0
176
     0
290
     0
176
     0
290
     0
176
     0
290
     0
176
     0
290
     0
176
     0
 90
       50
176
     0
 40
0.0
176
     0
 40
1.0
176
     0
 90
        0
176
     0
 62
    18
420
        0
176
     0
 90
       50
176
     0
 90
        3
176
     0
 62
     5
420
      255
176
     0
290
     0
176
     0
 90
       50
176
     0
 90
       50
176
     0
 90
       50
176
     0
290
     0
176
     0
 90
       50
176
     0
 62
   256
176
     0
 40
1.0
176
     0
 90
        2
176
     0
  1
strokes_ogs.tif
176
     0
290
     0
176
     0
 40
1.0
176
     0
 40
1.0
176
     0
  0
VISUALSTYLE
  5
39
102
{ACAD_REACTORS
330
2A
102
}
330
2A
100
AcDbVisualStyle
  2
Facepattern
 70
    15
177
     3
291
     1
 70
    58
 90
        2
176
     1
 90
        2
176
     1
 90
        0
176
     1
 90
        0
176
     1
 40
0.6
176
     1
 40
30.0
176
     1
 62
     7
420
 16777215
176
     1
 90
        1
176
     1
 90
        4
176
     1
 62
     7
176
     1
 62
   257
176
     1
 90
        1
176
     1
 90
        1
176
     1
 40
1.0
176
     1
 90
        8
176
     1
 62
     7
176
     1
 40
1.0
176
     1
 90
        1
176
     1
 90
        6
176
     1
 90
        2
176
     1
 62
     7
176
     1
 90
        5
176
     1
 90
        0
176
     1
 90
        0
176
     1
290
     0
176
     1
 90
        1
176
     1
 40
0.0
176
     1
 90
        0
176
     1
290
     0
176
     1
290
     1
176
     1
290
     1
176
     1
290
     0
176
     1
290
     0
176
     1
290
     0
176
     1
290
     0
176
     1
290
     0
176
     1
290
     0
176
     1
 90
       50
176
     1
 40
0.0
176
     1
 40
1.0
176
     1
 90
        0
176
     1
 62
    18
420
        0
176
     1
 90
       50
176
     1
 90
        3
176
     1
 62
     5
420
      255
176
     1
290
     0
176
     1
 90
       50
176
     1
 90
       50
176
     1
 90
       50
176
     1
290
     0
176
     1
 90
       50
176
     1
 62
   256
176
     0
 40
1.0
176
     0
 90
        2
176
     1
  1
strokes_ogs.tif
176
     1
290
     0
176
     1
 40
1.0
176
     1
 40
1.0
176
     1
  0
VISUALSTYLE
  5
2B
102
{ACAD_REACTORS
330
2A
102
}
330
2A
100
AcDbVisualStyle
  2
Flat
 70
     0
177
     3
291
     1
 70
    58
 90
        2
176
     1
 90
        1
176
     1
 90
        1
176
     1
 90
        2
176
     1
 40
0.6
176
     1
 40
30.0
176
     1
 62
     7
420
 16777215
176
     1
 90
        0
176
     1
 90
        0
176
     1
 62
     7
176
     1
 62
   257
176
     1
 90
        1
176
     1
 90
        1
176
     1
 40
1.0
176
     1
 90
        8
176
     1
 62
     7
176
     1
 40
1.0
176
     1
 90
        1
176
     1
 90
        6
176
     1
 90
        2
176
     1
 62
     7
176
     1
 90
        5
176
     1
 90
        0
176
     1
 90
        0
176
     1
290
     0
176
     1
 90
       13
176
     1
 40
0.0
176
     1
 90
        0
176
     1
290
     0
176
     1
290
     1
176
     1
290
     1
176
     1
290
     0
176
     1
290
     0
176
     1
290
     0
176
     1
290
     0
176
     1
290
     0
176
     1
290
     0
176
     1
 90
       50
176
     1
 40
0.0
176
     1
 40
1.0
176
     1
 90
        0
176
     1
 62
    18
420
        0
176
     1
 90
       50
176
     1
 90
        3
176
     1
 62
     5
420
      255
176
     1
290
     0
176
     1
 90
       50
176
     1
 90
       50
176
     1
 90
       50
176
     1
290
     0
176
     1
 90
       50
176
     1
 62
   256
176
     0
 40
1.0
176
     0
 90
        2
176
     1
  1
strokes_ogs.tif
176
     1
290
     0
176
     1
 40
1.0
176
     1
 40
1.0
176
     1
  0
VISUALSTYLE
  5
2C
102
{ACAD_REACTORS
330
2A
102
}
330
2A
100
AcDbVisualStyle
  2
FlatWithEdges
 70
     1
177
     3
291
     1
 70
    58
 90
        2
176
     1
 90
        1
176
     1
 90
        1
176
     1
 90
        2
176
     1
 40
0.6
176
     1
 40
30.0
176
     1
 62
     7
420
 16777215
176
     1
 90
        1
176
     1
 90
        0
176
     1
 62
     7
176
     1
 62
   257
176
     1
 90
        1
176
     1
 90
        1
176
     1
 40
1.0
176
     1
 90
        0
176
     1
 62
   257
176
     1
 40
1.0
176
     1
 90
        1
176
     1
 90
        6
176
     1
 90
        2
176
     1
 62
     7
176
     1
 90
        5
176
     1
 90
        0
176
     1
 90
        0
176
     1
290
     0
176
     1
 90
       13
176
     1
 40
0.0
176
     1
 90
        0
176
     1
290
     0
176
     1
290
     1
176
     1
290
     1
176
     1
290
     0
176
     1
290
     0
176
     1
290
     0
176
     1
290
     0
176
     1
290
     0
176
     1
290
     0
176
     1
 90
       50
176
     1
 40
0.0
176
     1
 40
1.0
176
     1
 90
        0
176
     1
 62
    18
420
        0
176
     1
 90
       50
176
     1
 90
        3
176
     1
 62
     5
420
      255
176
     1
290
     0
176
     1
 90
       50
176
     1
 90
       50
176
     1
 90
       50
176
     1
290
     0
176
     1
 90
       50
176
     1
 62
   256
176
     0
 40
1.0
176
     0
 90
        2
176
     1
  1
strokes_ogs.tif
176
     1
290
     0
176
     1
 40
1.0
176
     1
 40
1.0
176
     1
  0
VISUALSTYLE
  5
2D
102
{ACAD_REACTORS
330
2A
102
}
330
2A
100
AcDbVisualStyle
  2
Gouraud
 70
     2
177
     3
291
     1
 70
    58
 90
        2
176
     1
 90
        2
176
     1
 90
        1
176
     1
 90
        2
176
     1
 40
0.6
176
     1
 40
30.0
176
     1
 62
     7
420
 16777215
176
     1
 90
        0
176
     1
 90
        0
176
     1
 62
     7
176
     1
 62
   257
176
     1
 90
        1
176
     1
 90
        1
176
     1
 40
1.0
176
     1
 90
        0
176
     1
 62
     7
176
     1
 40
1.0
176
     1
 90
        1
176
     1
 90
        6
176
     1
 90
        2
176
     1
 62
     7
176
     1
 90
        5
176
     1
 90
        0
176
     1
 90
        0
176
     1
290
     0
176
     1
 90
       13
176
     1
 40
0.0
176
     1
 90
        0
176
     1
290
     0
176
     1
290
     1
176
     1
290
     1
176
     1
290
     0
176
     1
290
     0
176
     1
290
     0
176
     1
290
     0
176
     1
290
     0
176
     1
290
     0
176
     1
 90
       50
176
     1
 40
0.0
176
     1
 40
1.0
176
     1
 90
        0
176
     1
 62
    18
420
        0
176
     1
 90
       50
176
     1
 90
        3
176
     1
 62
     5
420
      255
176
     1
290
     0
176
     1
 90
       50
176
     1
 90
       50
176
     1
 90
       50
176
     1
290
     0
176
     1
 90
       50
176
     1
 62
   256
176
     0
 40
1.0
176
     0
 90
        2
176
     1
  1
strokes_ogs.tif
176
     1
290
     0
176
     1
 40
1.0
176
     1
 40
1.0
176
     1
  0
VISUALSTYLE
  5
2E
102
{ACAD_REACTORS
330
2A
102
}
330
2A
100
AcDbVisualStyle
  2
GouraudWithEdges
 70
     3
177
     3
291
     1
 70
    58
 90
        2
176
     1
 90
        2
176
     1
 90
        1
176
     1
 90
        2
176
     1
 40
0.6
176
     1
 40
30.0
176
     1
 62
     7
420
 16777215
176
     1
 90
        1
176
     1
 90
        0
176
     1
 62
     7
176
     1
 62
   257
176
     1
 90
        1
176
     1
 90
        1
176
     1
 40
1.0
176
     1
 90
        0
176
     1
 62
   257
176
     1
 40
1.0
176
     1
 90
        1
176
     1
 90
        6
176
     1
 90
        2
176
     1
 62
     7
176
     1
 90
        5
176
     1
 90
        0
176
     1
 90
        0
176
     1
290
     0
176
     1
 90
       13
176
     1
 40
0.0
176
     1
 90
        0
176
     1
290
     0
176
     1
290
     1
176
     1
290
     1
176
     1
290
     0
176
     1
290
     0
176
     1
290
     0
176
     1
290
     0
176
     1
290
     0
176
     1
290
     0
176
     1
 90
       50
176
     1
 40
0.0
176
     1
 40
1.0
176
     1
 90
        0
176
     1
 62
    18
420
        0
176
     1
 90
       50
176
     1
 90
        3
176
     1
 62
     5
420
      255
176
     1
290
     0
176
     1
 90
       50
176
     1
 90
       50
176
     1
 90
       50
176
     1
290
     0
176
     1
 90
       50
176
     1
 62
   256
176
     0
 40
1.0
176
     0
 90
        2
176
     1
  1
strokes_ogs.tif
176
     1
290
     0
176
     1
 40
1.0
176
     1
 40
1.0
176
     1
  0
VISUALSTYLE
  5
31
102
{ACAD_REACTORS
330
2A
102
}
330
2A
100
AcDbVisualStyle
  2
Hidden
 70
     6
177
     3
291
     0
 70
    58
 90
        1
176
     1
 90
        2
176
     1
 90
        2
176
     1
 90
        0
176
     1
 40
0.6
176
     1
 40
30.0
176
     1
 62
     7
420
 16777215
176
     1
 90
        2
176
     1
 90
        2
176
     1
 62
     7
176
     1
 62
   257
176
     1
 90
        2
176
     1
 90
        1
176
     1
 40
40.0
176
     1
 90
        0
176
     1
 62
   257
176
     1
 40
1.0
176
     1
 90
        1
176
     1
 90
        6
176
     1
 90
        2
176
     1
 62
     7
176
     1
 90
        3
176
     1
 90
        0
176
     1
 90
        0
176
     1
290
     0
176
     1
 90
        1
176
     1
 40
0.0
176
     1
 90
        0
176
     1
290
     0
176
     1
290
     1
176
     1
290
     1
176
     1
290
     0
176
     1
290
     0
176
     1
290
     0
176
     1
290
     0
176
     1
290
     0
176
     1
290
     0
176
     1
 90
       50
176
     1
 40
0.0
176
     1
 40
1.0
176
     1
 90
        0
176
     1
 62
    18
420
        0
176
     1
 90
       50
176
     1
 90
        3
176
     1
 62
     5
420
      255
176
     1
290
     0
176
     1
 90
       50
176
     1
 90
       50
176
     1
 90
       50
176
     1
290
     0
176
     1
 90
       50
176
     1
 62
   256
176
     0
 40
1.0
176
     0
 90
        2
176
     1
  1
strokes_ogs.tif
176
     1
290
     0
176
     1
 40
1.0
176
     1
 40
1.0
176
     1
  0
VISUALSTYLE
  5
3B
102
{ACAD_REACTORS
330
2A
102
}
330
2A
100
AcDbVisualStyle
  2
JitterOff
 70
    20
177
     3
291
     1
 70
    58
 90
        2
176
     0
 90
        2
176
     0
 90
        0
176
     0
 90
        0
176
     0
 40
0.6
176
     0
 40
30.0
176
     0
 62
     7
420
 16777215
176
     0
 90
        1
176
     0
 90
        4
176
     0
 62
     7
176
     0
 62
   257
176
     0
 90
        1
176
     0
 90
        1
176
     0
 40
1.0
176
     0
 90
       10
176
     2
 62
     7
176
     0
 40
1.0
176
     0
 90
        1
176
     0
 90
        6
176
     0
 90
        2
176
     0
 62
     7
176
     0
 90
        5
176
     0
 90
        0
176
     0
 90
        0
176
     0
290
     0
176
     0
 90
        1
176
     0
 40
0.0
176
     0
 90
        0
176
     0
290
     0
176
     0
290
     1
176
     0
290
     1
176
     0
290
     0
176
     0
290
     0
176
     0
290
     0
176
     0
290
     0
176
     0
290
     0
176
     0
290
     0
176
     0
 90
       50
176
     0
 40
0.0
176
     0
 40
1.0
176
     0
 90
        0
176
     0
 62
    18
420
        0
176
     0
 90
       50
176
     0
 90
        3
176
     0
 62
     5
420
      255
176
     0
290
     0
176
     0
 90
       50
176
     0
 90
       50
176
     0
 90
       50
176
     0
290
     0
176
     0
 90
       50
176
     0
 62
   256
176
     0
 40
1.0
176
     0
 90
        2
176
     0
  1
strokes_ogs.tif
176
     0
290
     0
176
     0
 40
1.0
176
     0
 40
1.0
176
     0
  0
VISUALSTYLE
  5
38
102
{ACAD_REACTORS
330
2A
102
}
330
2A
100
AcDbVisualStyle
  2
Linepattern
 70
    14
177
     3
291
     1
 70
    58
 90
        2
176
     1
 90
        2
176
     1
 90
        0
176
     1
 90
        0
176
     1
 40
0.6
176
     1
 40
30.0
176
     1
 62
     7
420
 16777215
176
     1
 90
        1
176
     1
 90
        4
176
     1
 62
     7
176
     1
 62
   257
176
     1
 90
        7
176
     1
 90
        7
176
     1
 40
1.0
176
     1
 90
        8
176
     1
 62
     7
176
     1
 40
1.0
176
     1
 90
        1
176
     1
 90
        6
176
     1
 90
        2
176
     1
 62
     7
176
     1
 90
        5
176
     1
 90
        0
176
     1
 90
        0
176
     1
290
     0
176
     1
 90
        1
176
     1
 40
0.0
176
     1
 90
        0
176
     1
290
     0
176
     1
290
     1
176
     1
290
     1
176
     1
290
     0
176
     1
290
     0
176
     1
290
     0
176
     1
290
     0
176
     1
290
     0
176
     1
290
     0
176
     1
 90
       50
176
     1
 40
0.0
176
     1
 40
1.0
176
     1
 90
        0
176
     1
 62
    18
420
        0
176
     1
 90
       50
176
     1
 90
        3
176
     1
 62
     5
420
      255
176
     1
290
     0
176
     1
 90
       50
176
     1
 90
       50
176
     1
 90
       50
176
     1
290
     0
176
     1
 90
       50
176
     1
 62
   256
176
     0
 40
1.0
176
     0
 90
        2
176
     1
  1
strokes_ogs.tif
176
     1
290
     0
176
     1
 40
1.0
176
     1
 40
1.0
176
     1
  0
VISUALSTYLE
  5
3C
102
{ACAD_REACTORS
330
2A
102
}
330
2A
100
AcDbVisualStyle
  2
OverhangOff
 70
    21
177
     3
291
     1
 70
    58
 90
        2
176
     0
 90
        2
176
     0
 90
        0
176
     0
 90
        0
176
     0
 40
0.6
176
     0
 40
30.0
176
     0
 62
     7
420
 16777215
176
     0
 90
        1
176
     0
 90
        4
176
     0
 62
     7
176
     0
 62
   257
176
     0
 90
        1
176
     0
 90
        1
176
     0
 40
1.0
176
     0
 90
        9
176
     2
 62
     7
176
     0
 40
1.0
176
     0
 90
        1
176
     0
 90
        6
176
     0
 90
        2
176
     0
 62
     7
176
     0
 90
        5
176
     0
 90
        0
176
     0
 90
        0
176
     0
290
     0
176
     0
 90
        1
176
     0
 40
0.0
176
     0
 90
        0
176
     0
290
     0
176
     0
290
     1
176
     0
290
     1
176
     0
290
     0
176
     0
290
     0
176
     0
290
     0
176
     0
290
     0
176
     0
290
     0
176
     0
290
     0
176
     0
 90
       50
176
     0
 40
0.0
176
     0
 40
1.0
176
     0
 90
        0
176
     0
 62
    18
420
        0
176
     0
 90
       50
176
     0
 90
        3
176
     0
 62
     5
420
      255
176
     0
290
     0
176
     0
 90
       50
176
     0
 90
       50
176
     0
 90
       50
176
     0
290
     0
176
     0
 90
       50
176
     0
 62
   256
176
     0
 40
1.0
176
     0
 90
        2
176
     0
  1
strokes_ogs.tif
176
     0
290
     0
176
     0
 40
1.0
176
     0
 40
1.0
176
     0
  0
VISUALSTYLE
  5
33
102
{ACAD_REACTORS
330
2A
102
}
330
2A
100
AcDbVisualStyle
  2
Realistic
 70
     8
177
     3
291
     0
 70
    58
 90
        2
176
     1
 90
        3
176
     1
 90
        0
176
     1
 90
        2
176
     1
 40
0.6
176
     1
 40
30.0
176
     1
 62
     7
420
 16777215
176
     1
 90
        0
176
     1
 90
        0
176
     1
 62
     7
176
     1
 62
   257
176
     1
 90
        1
176
     1
 90
        1
176
     1
 40
1.0
176
     1
 90
        8
176
     1
 62
   257
176
     1
 40
1.0
176
     1
 90
        1
176
     1
 90
        6
176
     1
 90
        2
176
     1
 62
     7
176
     1
 90
        3
176
     1
 90
        0
176
     1
 90
        0
176
     1
290
     0
176
     1
 90
       13
176
     1
 40
0.0
176
     1
 90
        0
176
     1
290
     0
176
     1
290
     1
176
     1
290
     1
176
     1
290
     0
176
     1
290
     0
176
     1
290
     0
176
     1
290
     0
176
     1
290
     0
176
     1
290
     0
176
     1
 90
       50
176
     1
 40
0.0
176
     1
 40
1.0
176
     1
 90
        0
176
     1
 62
    18
420
        0
176
     1
 90
       50
176
     1
 90
        3
176
     1
 62
     5
420
      255
176
     1
290
     0
176
     1
 90
       50
176
     1
 90
       50
176
     1
 90
       50
176
     1
290
     0
176
     1
 90
       50
176
     1
 62
   256
176
     0
 40
1.0
176
     0
 90
        2
176
     1
  1
strokes_ogs.tif
176
     1
290
     0
176
     1
 40
1.0
176
     1
 40
1.0
176
     1
  0
VISUALSTYLE
  5
42
102
{ACAD_REACTORS
330
2A
102
}
330
2A
100
AcDbVisualStyle
  2
Shaded
 70
    27
177
     3
291
     0
 70
    58
 90
        2
176
     1
 90
        2
176
     1
 90
        1
176
     1
 90
        2
176
     1
 40
0.6
176
     1
 40
30.0
176
     1
 62
     7
420
 16777215
176
     1
 90
        0
176
     1
 90
        4
176
     1
 62
     7
176
     1
 62
   257
176
     1
 90
        1
176
     1
 90
        1
176
     1
 40
1.0
176
     1
 90
        8
176
     1
 62
   257
176
     1
 40
1.0
176
     1
 90
        1
176
     1
 90
        6
176
     1
 90
        2
176
     1
 62
     8
420
  7895160
176
     1
 90
        3
176
     1
 90
        0
176
     1
 90
        0
176
     1
290
     0
176
     1
 90
        5
176
     1
 40
0.0
176
     1
 90
        0
176
     1
290
     0
176
     1
290
     1
176
     1
290
     1
176
     1
290
     0
176
     1
290
     0
176
     1
290
     0
176
     1
290
     0
176
     1
290
     0
176
     1
290
     0
176
     1
 90
       50
176
     1
 40
0.0
176
     1
 40
1.0
176
     1
 90
        0
176
     1
 62
    18
420
        0
176
     1
 90
       50
176
     1
 90
        3
176
     1
 62
     5
420
      255
176
     1
290
     0
176
     1
 90
       50
176
     1
 90
       50
176
     1
 90
       50
176
     1
290
     0
176
     1
 90
       50
176
     1
 62
   256
176
     0
 40
1.0
176
     0
 90
        2
176
     1
  1
strokes_ogs.tif
176
     1
290
     0
176
     1
 40
1.0
176
     1
 40
1.0
176
     1
  0
VISUALSTYLE
  5
41
102
{ACAD_REACTORS
330
2A
102
}
330
2A
100
AcDbVisualStyle
  2
Shaded with edges
 70
    26
177
     3
291
     0
 70
    58
 90
        2
176
     1
 90
        2
176
     1
 90
        1
176
     1
 90
        2
176
     1
 40
0.6
176
     1
 40
30.0
176
     1
 62
     7
420
 16777215
176
     1
 90
        1
176
     1
 90
       10
176
     1
 62
     7
176
     1
 62
   257
176
     1
 90
        2
176
     1
 90
        1
176
     1
 40
1.0
176
     1
 90
        8
176
     1
 62
   257
176
     1
 40
1.0
176
     1
 90
        1
176
     1
 90
        6
176
     1
 90
        2
176
     1
 62
     7
176
     1
 90
        3
176
     1
 90
        0
176
     1
 90
        0
176
     1
290
     0
176
     1
 90
        5
176
     1
 40
0.0
176
     1
 90
        0
176
     1
290
     0
176
     1
290
     1
176
     1
290
     1
176
     1
290
     0
176
     1
290
     0
176
     1
290
     0
176
     1
290
     0
176
     1
290
     0
176
     1
290
     0
176
     1
 90
       50
176
     1
 40
0.0
176
     1
 40
1.0
176
     1
 90
        0
176
     1
 62
    18
420
        0
176
     1
 90
       50
176
     1
 90
        3
176
     1
 62
     5
420
      255
176
     1
290
     0
176
     1
 90
       50
176
     1
 90
       50
176
     1
 90
       50
176
     1
290
     0
176
     1
 90
       50
176
     1
 62
   256
176
     0
 40
1.0
176
     0
 90
        2
176
     1
  1
strokes_ogs.tif
176
     1
290
     0
176
     1
 40
1.0
176
     1
 40
1.0
176
     1
  0
VISUALSTYLE
  5
3E
102
{ACAD_REACTORS
330
2A
102
}
330
2A
100
AcDbVisualStyle
  2
Shades of Gray
 70
    23
177
     3
291
     0
 70
    58
 90
        2
176
     1
 90
        2
176
     1
 90
        3
176
     1
 90
        0
176
     1
 40
0.6
176
     1
 40
30.0
176
     1
 62
     7
420
 16777215
176
     1
 90
        2
176
     1
 90
        2
176
     1
 62
     7
176
     1
 62
     7
176
     1
 90
        1
176
     1
 90
        1
176
     1
 40
40.0
176
     1
 90
        8
176
     1
 62
     7
176
     1
 40
1.0
176
     1
 90
        1
176
     1
 90
        6
176
     1
 90
        2
176
     1
 62
     7
176
     1
 90
        3
176
     1
 90
        0
176
     1
 90
        0
176
     1
290
     0
176
     1
 90
        1
176
     1
 40
0.0
176
     1
 90
        0
176
     1
290
     0
176
     1
290
     1
176
     1
290
     1
176
     1
290
     0
176
     1
290
     0
176
     1
290
     0
176
     1
290
     0
176
     1
290
     0
176
     1
290
     0
176
     1
 90
       50
176
     1
 40
0.0
176
     1
 40
1.0
176
     1
 90
        0
176
     1
 62
    18
420
        0
176
     1
 90
       50
176
     1
 90
        3
176
     1
 62
     5
420
      255
176
     1
290
     0
176
     1
 90
       50
176
     1
 90
       50
176
     1
 90
       50
176
     1
290
     0
176
     1
 90
       50
176
     1
 62
   256
176
     0
 40
1.0
176
     0
 90
        2
176
     1
  1
strokes_ogs.tif
176
     1
290
     0
176
     1
 40
1.0
176
     1
 40
1.0
176
     1
  0
VISUALSTYLE
  5
3F
102
{ACAD_REACTORS
330
2A
102
}
330
2A
100
AcDbVisualStyle
  2
Sketchy
 70
    24
177
     3
291
     0
 70
    58
 90
        1
176
     1
 90
        2
176
     1
 90
        2
176
     1
 90
        0
176
     1
 40
0.6
176
     1
 40
30.0
176
     1
 62
     7
420
 16777215
176
     1
 90
        2
176
     1
 90
        2
176
     1
 62
     7
176
     1
 62
     7
176
     1
 90
        1
176
     1
 90
        1
176
     1
 40
40.0
176
     1
 90
       11
176
     1
 62
     7
176
     1
 40
1.0
176
     1
 90
        1
176
     1
 90
        6
176
     1
 90
        2
176
     1
 62
     7
176
     1
 90
        6
176
     1
 90
        0
176
     1
 90
        0
176
     1
290
     0
176
     1
 90
        1
176
     1
 40
0.0
176
     1
 90
        0
176
     1
290
     0
176
     1
290
     1
176
     1
290
     1
176
     1
290
     0
176
     1
290
     0
176
     1
290
     0
176
     1
290
     0
176
     1
290
     0
176
     1
290
     0
176
     1
 90
       50
176
     1
 40
0.0
176
     1
 40
1.0
176
     1
 90
        0
176
     1
 62
    18
420
        0
176
     1
 90
       50
176
     1
 90
        3
176
     1
 62
     5
420
      255
176
     1
290
     0
176
     1
 90
       50
176
     1
 90
       50
176
     1
 90
       50
176
     1
290
     0
176
     1
 90
       50
176
     1
 62
   256
176
     0
 40
1.0
176
     0
 90
        2
176
     1
  1
strokes_ogs.tif
176
     1
290
     0
176
     1
 40
1.0
176
     1
 40
1.0
176
     1
  0
VISUALSTYLE
  5
37
102
{ACAD_REACTORS
330
2A
102
}
330
2A
100
AcDbVisualStyle
  2
Thicken
 70
    13
177
     3
291
     1
 70
    58
 90
        2
176
     1
 90
        2
176
     1
 90
        0
176
     1
 90
        0
176
     1
 40
0.6
176
     1
 40
30.0
176
     1
 62
     7
420
 16777215
176
     1
 90
        1
176
     1
 90
        4
176
     1
 62
     7
176
     1
 62
   257
176
     1
 90
        1
176
     1
 90
        1
176
     1
 40
1.0
176
     1
 90
       12
176
     1
 62
     7
176
     1
 40
1.0
176
     1
 90
        1
176
     1
 90
        6
176
     1
 90
        2
176
     1
 62
     7
176
     1
 90
        5
176
     1
 90
        0
176
     1
 90
        0
176
     1
290
     0
176
     1
 90
        1
176
     1
 40
0.0
176
     1
 90
        0
176
     1
290
     0
176
     1
290
     1
176
     1
290
     1
176
     1
290
     0
176
     1
290
     0
176
     1
290
     0
176
     1
290
     0
176
     1
290
     0
176
     1
290
     0
176
     1
 90
       50
176
     1
 40
0.0
176
     1
 40
1.0
176
     1
 90
        0
176
     1
 62
    18
420
        0
176
     1
 90
       50
176
     1
 90
        3
176
     1
 62
     5
420
      255
176
     1
290
     0
176
     1
 90
       50
176
     1
 90
       50
176
     1
 90
       50
176
     1
290
     0
176
     1
 90
       50
176
     1
 62
   256
176
     0
 40
1.0
176
     0
 90
        2
176
     1
  1
strokes_ogs.tif
176
     1
290
     0
176
     1
 40
1.0
176
     1
 40
1.0
176
     1
  0
VISUALSTYLE
  5
30
102
{ACAD_REACTORS
330
2A
102
}
330
2A
100
AcDbVisualStyle
  2
Wireframe
 70
     5
177
     3
291
     0
 70
    58
 90
        0
176
     1
 90
        2
176
     1
 90
        0
176
     1
 90
        0
176
     1
 40
0.6
176
     1
 40
30.0
176
     1
 62
     7
420
 16777215
176
     1
 90
        1
176
     1
 90
        4
176
     1
 62
     7
176
     1
 62
   257
176
     1
 90
        1
176
     1
 90
        1
176
     1
 40
1.0
176
     1
 90
        0
176
     1
 62
   257
176
     1
 40
1.0
176
     1
 90
        1
176
     1
 90
        6
176
     1
 90
        2
176
     1
 62
     7
176
     1
 90
        3
176
     1
 90
        0
176
     1
 90
        0
176
     1
290
     0
176
     1
 90
        1
176
     1
 40
0.0
176
     1
 90
        0
176
     1
290
     0
176
     1
290
     1
176
     1
290
     1
176
     1
290
     0
176
     1
290
     0
176
     1
290
     0
176
     1
290
     0
176
     1
290
     0
176
     1
290
     0
176
     1
 90
       50
176
     1
 40
0.0
176
     1
 40
1.0
176
     1
 90
        0
176
     1
 62
    18
420
        0
176
     1
 90
       50
176
     1
 90
        3
176
     1
 62
     5
420
      255
176
     1
290
     0
176
     1
 90
       50
176
     1
 90
       50
176
     1
 90
       50
176
     1
290
     0
176
     1
 90
       50
176
     1
 62
   256
176
     0
 40
1.0
176
     0
 90
        2
176
     1
  1
strokes_ogs.tif
176
     1
290
     0
176
     1
 40
1.0
176
     1
 40
1.0
176
     1
  0
VISUALSTYLE
  5
40
102
{ACAD_REACTORS
330
2A
102
}
330
2A
100
AcDbVisualStyle
  2
X-Ray
 70
    25
177
     3
291
     0
 70
    58
 90
        2
176
     1
 90
        2
176
     1
 90
        1
176
     1
 90
        1
176
     1
 40
0.5
176
     1
 40
30.0
176
     1
 62
     7
420
 16777215
176
     1
 90
        1
176
     1
 90
        0
176
     1
 62
     7
176
     1
 62
   257
176
     1
 90
        1
176
     1
 90
        1
176
     1
 40
1.0
176
     1
 90
        8
176
     1
 62
     7
176
     1
 40
1.0
176
     1
 90
        1
176
     1
 90
        6
176
     1
 90
        2
176
     1
 62
     7
176
     1
 90
        3
176
     1
 90
        0
176
     1
 90
        0
176
     1
290
     0
176
     1
 90
       13
176
     1
 40
0.0
176
     1
 90
        0
176
     1
290
     0
176
     1
290
     1
176
     1
290
     1
176
     1
290
     0
176
     1
290
     0
176
     1
290
     0
176
     1
290
     0
176
     1
290
     0
176
     1
290
     0
176
     1
 90
       50
176
     1
 40
0.0
176
     1
 40
1.0
176
     1
 90
        0
176
     1
 62
    18
420
        0
176
     1
 90
       50
176
     1
 90
        3
176
     1
 62
     5
420
      255
176
     1
290
     0
176
     1
 90
       50
176
     1
 90
       50
176
     1
 90
       50
176
     1
290
     0
176
     1
 90
       50
176
     1
 62
   256
176
     0
 40
1.0
176
     0
 90
        2
176
     1
  1
strokes_ogs.tif
176
     1
290
     0
176
     1
 40
1.0
176
     1
 40
1.0
176
     1
  0
DICTIONARYVAR
  5
292
102
{ACAD_REACTORS
330
291
102
}
330
291
100
DictionaryVariables
280
     0
  1
1:1
  0
DICTIONARYVAR
  5
297
102
{ACAD_REACTORS
330
291
102
}
330
291
100
DictionaryVariables
280
     0
  1
Standard
  0
DICTIONARYVAR
  5
296
102
{ACAD_REACTORS
330
291
102
}
330
291
100
DictionaryVariables
280
     0
  1
Standard
  0
DICTIONARY
  5
293
330
6A
100
AcDbDictionary
280
     1
281
     1
  3
ACAD_ROUNDTRIP_2008_TABLESTYLE_CELLSTYLEMAP
360
294
  0
CELLSTYLEMAP
  5
294
102
{ACAD_REACTORS
330
293
102
}
330
293
100
AcDbCellStyleMap
 90
        3
300
CELLSTYLE
  1
TABLEFORMAT_BEGIN
 90
        5
170
     1
 91
        0
 92
    32768
 62
   257
 93
        1
300
CONTENTFORMAT
  1
CONTENTFORMAT_BEGIN
 90
        0
 91
        0
 92
        4
 93
        0
300

 40
0.0
140
1.0
 94
        5
 62
     0
340
11
144
6.0
309
CONTENTFORMAT_END
171
     1
301
MARGIN
  1
CELLMARGIN_BEGIN
 40
1.5
 40
1.5
 40
1.5
 40
1.5
 40
1.5
 40
1.5
309
CELLMARGIN_END
 94
        6
 95
        1
302
GRIDFORMAT
  1
GRIDFORMAT_BEGIN
 90
        0
 91
        1
 62
     0
 92
       -2
340
14
 93
        0
 40
0.045
309
GRIDFORMAT_END
 95
        2
302
GRIDFORMAT
  1
GRIDFORMAT_BEGIN
 90
        0
 91
        1
 62
     0
 92
       -2
340
14
 93
        0
 40
0.045
309
GRIDFORMAT_END
 95
        4
302
GRIDFORMAT
  1
GRIDFORMAT_BEGIN
 90
        0
 91
        1
 62
     0
 92
       -2
340
14
 93
        0
 40
0.045
309
GRIDFORMAT_END
 95
        8
302
GRIDFORMAT
  1
GRIDFORMAT_BEGIN
 90
        0
 91
        1
 62
     0
 92
       -2
340
14
 93
        0
 40
0.045
309
GRIDFORMAT_END
 95
       16
302
GRIDFORMAT
  1
GRIDFORMAT_BEGIN
 90
        0
 91
        1
 62
     0
 92
       -2
340
14
 93
        0
 40
0.045
309
GRIDFORMAT_END
 95
       32
302
GRIDFORMAT
  1
GRIDFORMAT_BEGIN
 90
        0
 91
        1
 62
     0
 92
       -2
340
14
 93
        0
 40
0.045
309
GRIDFORMAT_END
309
TABLEFORMAT_END
  1
CELLSTYLE_BEGIN
 90
        1
 91
        1
300
_TITLE
309
CELLSTYLE_END
300
CELLSTYLE
  1
TABLEFORMAT_BEGIN
 90
        5
170
     1
 91
        0
 92
        0
 62
   257
 93
        1
300
CONTENTFORMAT
  1
CONTENTFORMAT_BEGIN
 90
        0
 91
        0
 92
        4
 93
        0
300

 40
0.0
140
1.0
 94
        5
 62
     0
340
11
144
4.5
309
CONTENTFORMAT_END
171
     1
301
MARGIN
  1
CELLMARGIN_BEGIN
 40
1.5
 40
1.5
 40
1.5
 40
1.5
 40
1.5
 40
1.5
309
CELLMARGIN_END
 94
        6
 95
        1
302
GRIDFORMAT
  1
GRIDFORMAT_BEGIN
 90
        0
 91
        1
 62
     0
 92
       -2
340
14
 93
        0
 40
0.045
309
GRIDFORMAT_END
 95
        2
302
GRIDFORMAT
  1
GRIDFORMAT_BEGIN
 90
        0
 91
        1
 62
     0
 92
       -2
340
14
 93
        0
 40
0.045
309
GRIDFORMAT_END
 95
        4
302
GRIDFORMAT
  1
GRIDFORMAT_BEGIN
 90
        0
 91
        1
 62
     0
 92
       -2
340
14
 93
        0
 40
0.045
309
GRIDFORMAT_END
 95
        8
302
GRIDFORMAT
  1
GRIDFORMAT_BEGIN
 90
        0
 91
        1
 62
     0
 92
       -2
340
14
 93
        0
 40
0.045
309
GRIDFORMAT_END
 95
       16
302
GRIDFORMAT
  1
GRIDFORMAT_BEGIN
 90
        0
 91
        1
 62
     0
 92
       -2
340
14
 93
        0
 40
0.045
309
GRIDFORMAT_END
 95
       32
302
GRIDFORMAT
  1
GRIDFORMAT_BEGIN
 90
        0
 91
        1
 62
     0
 92
       -2
340
14
 93
        0
 40
0.045
309
GRIDFORMAT_END
309
TABLEFORMAT_END
  1
CELLSTYLE_BEGIN
 90
        2
 91
        1
300
_HEADER
309
CELLSTYLE_END
300
CELLSTYLE
  1
TABLEFORMAT_BEGIN
 90
        5
170
     1
 91
        0
 92
        0
 62
   257
 93
        1
300
CONTENTFORMAT
  1
CONTENTFORMAT_BEGIN
 90
        0
 91
        0
 92
        4
 93
        0
300

 40
0.0
140
1.0
 94
        2
 62
     0
340
11
144
4.5
309
CONTENTFORMAT_END
171
     1
301
MARGIN
  1
CELLMARGIN_BEGIN
 40
1.5
 40
1.5
 40
1.5
 40
1.5
 40
1.5
 40
1.5
309
CELLMARGIN_END
 94
        6
 95
        1
302
GRIDFORMAT
  1
GRIDFORMAT_BEGIN
 90
        0
 91
        1
 62
     0
 92
       -2
340
14
 93
        0
 40
0.045
309
GRIDFORMAT_END
 95
        2
302
GRIDFORMAT
  1
GRIDFORMAT_BEGIN
 90
        0
 91
        1
 62
     0
 92
       -2
340
14
 93
        0
 40
0.045
309
GRIDFORMAT_END
 95
        4
302
GRIDFORMAT
  1
GRIDFORMAT_BEGIN
 90
        0
 91
        1
 62
     0
 92
       -2
340
14
 93
        0
 40
0.045
309
GRIDFORMAT_END
 95
        8
302
GRIDFORMAT
  1
GRIDFORMAT_BEGIN
 90
        0
 91
        1
 62
     0
 92
       -2
340
14
 93
        0
 40
0.045
309
GRIDFORMAT_END
 95
       16
302
GRIDFORMAT
  1
GRIDFORMAT_BEGIN
 90
        0
 91
        1
 62
     0
 92
       -2
340
14
 93
        0
 40
0.045
309
GRIDFORMAT_END
 95
       32
302
GRIDFORMAT
  1
GRIDFORMAT_BEGIN
 90
        0
 91
        1
 62
     0
 92
       -2
340
14
 93
        0
 40
0.045
309
GRIDFORMAT_END
309
TABLEFORMAT_END
  1
CELLSTYLE_BEGIN
 90
        3
 91
        2
300
_DATA
309
CELLSTYLE_END
  0
ENDSEC
  0
EOF