0
SECTION
  2
HEADER
  9
$ACADVER
  1
AC1027
  9
$ACADMAINTVER
 70
     8
  9
$DWGCODEPAGE
  3
ANSI_1252
  9
$REQUIREDVERSIONS
160
                 0
  9
$COMMENTS
  1
File was created by Cadenas
  9
$CUSTOMPROPERTYTAG
  1
NN
  9
$CUSTOMPROPERTY
  1
Grip Tight Low Backing Height Two-Bolt Pillow Block Metric Bore
  9
$CUSTOMPROPERTYTAG
  1
NT
  9
$CUSTOMPROPERTY
  1
GTB Normal Duty Pillow Blocks
  9
$CUSTOMPROPERTYTAG
  1
NB
  9
$CUSTOMPROPERTY
  1
129040
  9
$CUSTOMPROPERTYTAG
  1
NBSYN
  9
$CUSTOMPROPERTY
  1
$PN.$LUBE.
  9
$CUSTOMPROPERTYTAG
  1
LINA
  9
$CUSTOMPROPERTY
  1
129040
  9
$CUSTOMPROPERTYTAG
  1
SERIES
  9
$CUSTOMPROPERTY
  1
204
  9
$CUSTOMPROPERTYTAG
  1
SS
  9
$CUSTOMPROPERTY
  1
20
  9
$CUSTOMPROPERTYTAG
  1
PN
  9
$CUSTOMPROPERTY
  1
129040
  9
$CUSTOMPROPERTYTAG
  1
DESCRIPTION
  9
$CUSTOMPROPERTY
  1
P2B-GTB-20M
  9
$CUSTOMPROPERTYTAG
  1
A
  9
$CUSTOMPROPERTY
  1
37.3
  9
$CUSTOMPROPERTYTAG
  1
B
  9
$CUSTOMPROPERTY
  1
133.4
  9
$CUSTOMPROPERTYTAG
  1
C
  9
$CUSTOMPROPERTY
  1
33.7
  9
$CUSTOMPROPERTYTAG
  1
DMIN
  9
$CUSTOMPROPERTY
  1
85.7
  9
$CUSTOMPROPERTYTAG
  1
DMAX
  9
$CUSTOMPROPERTY
  1
106.4
  9
$CUSTOMPROPERTYTAG
  1
F
  9
$CUSTOMPROPERTY
  1
M10
  9
$CUSTOMPROPERTYTAG
  1
G
  9
$CUSTOMPROPERTY
  1
21.4
  9
$CUSTOMPROPERTYTAG
  1
H
  9
$CUSTOMPROPERTY
  1
11.5
  9
$CUSTOMPROPERTYTAG
  1
J
  9
$CUSTOMPROPERTY
  1
63.1
  9
$CUSTOMPROPERTYTAG
  1
L
  9
$CUSTOMPROPERTY
  1
38.1
  9
$CUSTOMPROPERTYTAG
  1
M
  9
$CUSTOMPROPERTY
  1
31.8
  9
$CUSTOMPROPERTYTAG
  1
R
  9
$CUSTOMPROPERTY
  1
12.3
  9
$CUSTOMPROPERTYTAG
  1
S
  9
$CUSTOMPROPERTY
  1
25.0
  9
$CUSTOMPROPERTYTAG
  1
U
  9
$CUSTOMPROPERTY
  1
57.2
  9
$CUSTOMPROPERTYTAG
  1
V
  9
$CUSTOMPROPERTY
  1
114.3
  9
$CUSTOMPROPERTYTAG
  1
W
  9
$CUSTOMPROPERTY
  1
12.7
  9
$CUSTOMPROPERTYTAG
  1
X
  9
$CUSTOMPROPERTY
  1
3.2
  9
$CUSTOMPROPERTYTAG
  1
Z
  9
$CUSTOMPROPERTY
  1
25.0
  9
$CUSTOMPROPERTYTAG
  1
COMPANY
  9
$CUSTOMPROPERTY
  1
baldor
  9
$INSBASE
 10
0.0
 20
0.0
 30
0.0
  9
$EXTMIN
 10
1.000000000000000E+20
 20
1.000000000000000E+20
 30
1.000000000000000E+20
  9
$EXTMAX
 10
-1.000000000000000E+20
 20
-1.000000000000000E+20
 30
-1.000000000000000E+20
  9
$LIMMIN
 10
0.0
 20
0.0
  9
$LIMMAX
 10
420.0
 20
297.0
  9
$ORTHOMODE
 70
     0
  9
$REGENMODE
 70
     1
  9
$FILLMODE
 70
     1
  9
$QTEXTMODE
 70
     0
  9
$MIRRTEXT
 70
     1
  9
$LTSCALE
 40
1.0
  9
$ATTMODE
 70
     1
  9
$TEXTSIZE
 40
2.5
  9
$TRACEWID
 40
1.0
  9
$TEXTSTYLE
  7
Standard
  9
$CLAYER
  8
0
  9
$CELTYPE
  6
ByLayer
  9
$CECOLOR
 62
   256
  9
$CELTSCALE
 40
1.0
  9
$DISPSILH
 70
     0
  9
$DIMSCALE
 40
1.0
  9
$DIMASZ
 40
2.5
  9
$DIMEXO
 40
0.625
  9
$DIMDLI
 40
3.75
  9
$DIMRND
 40
0.0
  9
$DIMDLE
 40
0.0
  9
$DIMEXE
 40
1.25
  9
$DIMTP
 40
0.0
  9
$DIMTM
 40
0.0
  9
$DIMTXT
 40
2.5
  9
$DIMCEN
 40
2.5
  9
$DIMTSZ
 40
0.0
  9
$DIMTOL
 70
     0
  9
$DIMLIM
 70
     0
  9
$DIMTIH
 70
     0
  9
$DIMTOH
 70
     0
  9
$DIMSE1
 70
     0
  9
$DIMSE2
 70
     0
  9
$DIMTAD
 70
     1
  9
$DIMZIN
 70
     8
  9
$DIMBLK
  1

  9
$DIMASO
 70
     1
  9
$DIMSHO
 70
     1
  9
$DIMPOST
  1

  9
$DIMAPOST
  1

  9
$DIMALT
 70
     0
  9
$DIMALTD
 70
     3
  9
$DIMALTF
 40
0.03937007874016
  9
$DIMLFAC
 40
1.0
  9
$DIMTOFL
 70
     1
  9
$DIMTVP
 40
0.0
  9
$DIMTIX
 70
     0
  9
$DIMSOXD
 70
     0
  9
$DIMSAH
 70
     0
  9
$DIMBLK1
  1

  9
$DIMBLK2
  1

  9
$DIMSTYLE
  2
ISO-25
  9
$DIMCLRD
 70
     0
  9
$DIMCLRE
 70
     0
  9
$DIMCLRT
 70
     0
  9
$DIMTFAC
 40
1.0
  9
$DIMGAP
 40
0.625
  9
$DIMJUST
 70
     0
  9
$DIMSD1
 70
     0
  9
$DIMSD2
 70
     0
  9
$DIMTOLJ
 70
     0
  9
$DIMTZIN
 70
     8
  9
$DIMALTZ
 70
     0
  9
$DIMALTTZ
 70
     0
  9
$DIMUPT
 70
     0
  9
$DIMDEC
 70
     2
  9
$DIMTDEC
 70
     2
  9
$DIMALTU
 70
     2
  9
$DIMALTTD
 70
     3
  9
$DIMTXSTY
  7
Standard
  9
$DIMAUNIT
 70
     0
  9
$DIMADEC
 70
     0
  9
$DIMALTRND
 40
0.0
  9
$DIMAZIN
 70
     0
  9
$DIMDSEP
 70
    44
  9
$DIMATFIT
 70
     3
  9
$DIMFRAC
 70
     0
  9
$DIMLDRBLK
  1

  9
$DIMLUNIT
 70
     2
  9
$DIMLWD
 70
    -2
  9
$DIMLWE
 70
    -2
  9
$DIMTMOVE
 70
     0
  9
$DIMFXL
 40
1.0
  9
$DIMFXLON
 70
     0
  9
$DIMJOGANG
 40
0.7853981633974483
  9
$DIMTFILL
 70
     0
  9
$DIMTFILLCLR
 70
     0
  9
$DIMARCSYM
 70
     0
  9
$DIMLTYPE
  6

  9
$DIMLTEX1
  6

  9
$DIMLTEX2
  6

  9
$DIMTXTDIRECTION
 70
     0
  9
$LUNITS
 70
     2
  9
$LUPREC
 70
     4
  9
$SKETCHINC
 40
1.0
  9
$FILLETRAD
 40
10.0
  9
$AUNITS
 70
     0
  9
$AUPREC
 70
     0
  9
$MENU
  1
.
  9
$ELEVATION
 40
0.0
  9
$PELEVATION
 40
0.0
  9
$THICKNESS
 40
0.0
  9
$LIMCHECK
 70
     0
  9
$CHAMFERA
 40
0.0
  9
$CHAMFERB
 40
0.0
  9
$CHAMFERC
 40
0.0
  9
$CHAMFERD
 40
0.0
  9
$SKPOLY
 70
     0
  9
$TDCREATE
 40
2458168.994465834
  9
$TDUCREATE
 40
2458168.952799167
  9
$TDUPDATE
 40
2458168.994466018
  9
$TDUUPDATE
 40
2458168.952799352
  9
$TDINDWG
 40
0.0000000116
  9
$TDUSRTIMER
 40
0.0000000116
  9
$USRTIMER
 70
     1
  9
$ANGBASE
 50
0.0
  9
$ANGDIR
 70
     0
  9
$PDMODE
 70
     0
  9
$PDSIZE
 40
0.0
  9
$PLINEWID
 40
0.0
  9
$SPLFRAME
 70
     0
  9
$SPLINETYPE
 70
     6
  9
$SPLINESEGS
 70
     8
  9
$HANDSEED
  5
1BD
  9
$SURFTAB1
 70
     6
  9
$SURFTAB2
 70
     6
  9
$SURFTYPE
 70
     6
  9
$SURFU
 70
     6
  9
$SURFV
 70
     6
  9
$UCSBASE
  2

  9
$UCSNAME
  2

  9
$UCSORG
 10
0.0
 20
0.0
 30
0.0
  9
$UCSXDIR
 10
1.0
 20
0.0
 30
0.0
  9
$UCSYDIR
 10
0.0
 20
1.0
 30
0.0
  9
$UCSORTHOREF
  2

  9
$UCSORTHOVIEW
 70
     0
  9
$UCSORGTOP
 10
0.0
 20
0.0
 30
0.0
  9
$UCSORGBOTTOM
 10
0.0
 20
0.0
 30
0.0
  9
$UCSORGLEFT
 10
0.0
 20
0.0
 30
0.0
  9
$UCSORGRIGHT
 10
0.0
 20
0.0
 30
0.0
  9
$UCSORGFRONT
 10
0.0
 20
0.0
 30
0.0
  9
$UCSORGBACK
 10
0.0
 20
0.0
 30
0.0
  9
$PUCSBASE
  2

  9
$PUCSNAME
  2

  9
$PUCSORG
 10
0.0
 20
0.0
 30
0.0
  9
$PUCSXDIR
 10
1.0
 20
0.0
 30
0.0
  9
$PUCSYDIR
 10
0.0
 20
1.0
 30
0.0
  9
$PUCSORTHOREF
  2

  9
$PUCSORTHOVIEW
 70
     0
  9
$PUCSORGTOP
 10
0.0
 20
0.0
 30
0.0
  9
$PUCSORGBOTTOM
 10
0.0
 20
0.0
 30
0.0
  9
$PUCSORGLEFT
 10
0.0
 20
0.0
 30
0.0
  9
$PUCSORGRIGHT
 10
0.0
 20
0.0
 30
0.0
  9
$PUCSORGFRONT
 10
0.0
 20
0.0
 30
0.0
  9
$PUCSORGBACK
 10
0.0
 20
0.0
 30
0.0
  9
$USERI1
 70
     0
  9
$USERI2
 70
     0
  9
$USERI3
 70
     0
  9
$USERI4
 70
     0
  9
$USERI5
 70
     0
  9
$USERR1
 40
0.0
  9
$USERR2
 40
0.0
  9
$USERR3
 40
0.0
  9
$USERR4
 40
0.0
  9
$USERR5
 40
0.0
  9
$WORLDVIEW
 70
     1
  9
$SHADEDGE
 70
     3
  9
$SHADEDIF
 70
    70
  9
$TILEMODE
 70
     1
  9
$MAXACTVP
 70
    64
  9
$PINSBASE
 10
0.0
 20
0.0
 30
0.0
  9
$PLIMCHECK
 70
     0
  9
$PEXTMIN
 10
1.000000000000000E+20
 20
1.000000000000000E+20
 30
1.000000000000000E+20
  9
$PEXTMAX
 10
-1.000000000000000E+20
 20
-1.000000000000000E+20
 30
-1.000000000000000E+20
  9
$PLIMMIN
 10
0.0
 20
0.0
  9
$PLIMMAX
 10
420.0
 20
297.0
  9
$UNITMODE
 70
     0
  9
$VISRETAIN
 70
     1
  9
$PLINEGEN
 70
     0
  9
$PSLTSCALE
 70
     1
  9
$TREEDEPTH
 70
  3020
  9
$CMLSTYLE
  2
Standard
  9
$CMLJUST
 70
     0
  9
$CMLSCALE
 40
20.0
  9
$PROXYGRAPHICS
 70
     1
  9
$MEASUREMENT
 70
     1
  9
$CELWEIGHT
370
    -1
  9
$ENDCAPS
280
     0
  9
$JOINSTYLE
280
     0
  9
$LWDISPLAY
290
     0
  9
$INSUNITS
 70
     4
  9
$HYPERLINKBASE
  1

  9
$STYLESHEET
  1

  9
$XEDIT
290
     1
  9
$CEPSNTYPE
380
     0
  9
$PSTYLEMODE
290
     1
  9
$FINGERPRINTGUID
  2
{E27A823C-63C6-4B55-99FB-741580718ED9}
  9
$VERSIONGUID
  2
{FAEB1C32-E019-11D5-929B-00C0DF256EC4}
  9
$EXTNAMES
290
     1
  9
$PSVPSCALE
 40
0.0
  9
$OLESTARTUP
290
     0
  9
$SORTENTS
280
   127
  9
$INDEXCTL
280
     0
  9
$HIDETEXT
280
     1
  9
$XCLIPFRAME
280
     2
  9
$HALOGAP
280
     0
  9
$OBSCOLOR
 70
   257
  9
$OBSLTYPE
280
     0
  9
$INTERSECTIONDISPLAY
280
     0
  9
$INTERSECTIONCOLOR
 70
   257
  9
$DIMASSOC
280
     2
  9
$PROJECTNAME
  1

  9
$CAMERADISPLAY
290
     0
  9
$LENSLENGTH
 40
50.0
  9
$CAMERAHEIGHT
 40
0.0
  9
$STEPSPERSEC
 40
2.0
  9
$STEPSIZE
 40
6.0
  9
$3DDWFPREC
 40
2.0
  9
$PSOLWIDTH
 40
5.0
  9
$PSOLHEIGHT
 40
80.0
  9
$LOFTANG1
 40
1.570796326794897
  9
$LOFTANG2
 40
1.570796326794897
  9
$LOFTMAG1
 40
0.0
  9
$LOFTMAG2
 40
0.0
  9
$LOFTPARAM
 70
     7
  9
$LOFTNORMALS
280
     1
  9
$LATITUDE
 40
37.795
  9
$LONGITUDE
 40
-122.394
  9
$NORTHDIRECTION
 40
0.0
  9
$TIMEZONE
 70
 -8000
  9
$LIGHTGLYPHDISPLAY
280
     1
  9
$TILEMODELIGHTSYNCH
280
     1
  9
$CMATERIAL
347
44
  9
$SOLIDHIST
280
     0
  9
$SHOWHIST
280
     1
  9
$DWFFRAME
280
     2
  9
$DGNFRAME
280
     2
  9
$REALWORLDSCALE
290
     1
  9
$INTERFERECOLOR
 62
   256
  9
$CSHADOW
280
     0
  9
$SHADOWPLANELOCATION
 40
0.0
  0
ENDSEC
  0
SECTION
  2
CLASSES
  0
CLASS
  1
ACDBDICTIONARYWDFLT
  2
AcDbDictionaryWithDefault
  3
ObjectDBX Classes
 90
        0
 91
        4
280
     0
281
     0
  0
CLASS
  1
VISUALSTYLE
  2
AcDbVisualStyle
  3
ObjectDBX Classes
 90
     4095
 91
        4
280
     0
281
     0
  0
CLASS
  1
MATERIAL
  2
AcDbMaterial
  3
ObjectDBX Classes
 90
     1153
 91
        4
280
     0
281
     0
  0
CLASS
  1
SCALE
  2
AcDbScale
  3
ObjectDBX Classes
 90
     1153
 91
        4
280
     0
281
     0
  0
CLASS
  1
TABLESTYLE
  2
AcDbTableStyle
  3
ObjectDBX Classes
 90
     4095
 91
        4
280
     0
281
     0
  0
CLASS
  1
MLEADERSTYLE
  2
AcDbMLeaderStyle
  3
ACDB_MLEADERSTYLE_CLASS
 90
     4095
 91
        4
280
     0
281
     0
  0
CLASS
  1
SUN
  2
AcDbSun
  3
SCENEOE
 90
     1153
 91
        4
280
     0
281
     0
  0
CLASS
  1
DICTIONARYVAR
  2
AcDbDictionaryVar
  3
ObjectDBX Classes
 90
        0
 91
        4
280
     0
281
     0
  0
CLASS
  1
CELLSTYLEMAP
  2
AcDbCellStyleMap
  3
ObjectDBX Classes
 90
     1152
 91
        4
280
     0
281
     0
  0
ENDSEC
  0
SECTION
  2
TABLES
  0
TABLE
  2
VPORT
  5
8
330
0
100
AcDbSymbolTable
 70
     1
  0
VPORT
  5
29
330
8
100
AcDbSymbolTableRecord
100
AcDbViewportTableRecord
  2
*Active
 70
     0
 10
0.0
 20
0.0
 11
1.0
 21
1.0
 12
0.0
 22
7.277500000000003
 13
0.0
 23
0.0
 14
10.0
 24
10.0
 15
10.0
 25
10.0
 16
0.0
 26
0.0
 36
1.0
 17
0.0
 27
0.0
 37
0.0
 40
79.71810000000004
 41
1.70686456400742
 42
50.0
 43
0.0
 44
0.0
 50
0.0
 51
0.0
 71
     0
 72
   100
 73
     1
 74
     3
 75
     0
 76
     0
 77
     0
 78
     0
281
     0
 65
     1
110
0.0
120
0.0
130
0.0
111
1.0
121
0.0
131
0.0
112
0.0
122
1.0
132
0.0
 79
     0
146
0.0
348
2F
 60
     3
 61
     5
292
     1
282
     1
141
0.0
142
0.0
 63
   250
361
6D
  0
ENDTAB
  0
TABLE
  2
LTYPE
  5
5
330
0
100
AcDbSymbolTable
 70
     3
  0
LTYPE
  5
14
330
5
100
AcDbSymbolTableRecord
100
AcDbLinetypeTableRecord
  2
ByBlock
 70
     0
  3

 72
    65
 73
     0
 40
0.0
  0
LTYPE
  5
15
330
5
100
AcDbSymbolTableRecord
100
AcDbLinetypeTableRecord
  2
ByLayer
 70
     0
  3

 72
    65
 73
     0
 40
0.0
  0
LTYPE
  5
16
330
5
100
AcDbSymbolTableRecord
100
AcDbLinetypeTableRecord
  2
Continuous
 70
     0
  3
Solid line
 72
    65
 73
     0
 40
0.0
  0
LTYPE
  5
A5
330
5
100
AcDbSymbolTableRecord
100
AcDbLinetypeTableRecord
  2
Dashed
 70
     0
  3

 72
    65
 73
     2
 40
2.0
 49
1.0
 74
     0
 49
-1.0
 74
     0
  0
LTYPE
  5
16A
330
5
100
AcDbSymbolTableRecord
100
AcDbLinetypeTableRecord
  2
Center
 70
     0
  3

 72
    65
 73
     4
 40
1.5
 49
0.45
 74
     0
 49
-0.5
 74
     0
 49
0.05
 74
     0
 49
-0.5
 74
     0
  0
ENDTAB
  0
TABLE
  2
LAYER
  5
2
330
0
100
AcDbSymbolTable
 70
     7
  0
LAYER
  5
10
330
2
100
AcDbSymbolTableRecord
100
AcDbLayerTableRecord
  2
0
 70
     0
 62
     7
  6
Continuous
370
    -3
390
F
347
46
348
0
  0
LAYER
  5
72
330
2
100
AcDbSymbolTableRecord
100
AcDbLayerTableRecord
  2
AM_6
 70
     0
 62
    -2
  6
Continuous
370
    35
390
F
347
46
348
0
  0
LAYER
  5
A6
330
2
100
AcDbSymbolTableRecord
100
AcDbLayerTableRecord
  2
AM_9
 70
     0
 62
     6
  6
Dashed
370
    25
390
F
347
46
348
0
  0
LAYER
  5
AF
330
2
100
AcDbSymbolTableRecord
100
AcDbLayerTableRecord
  2
AM_4
 70
     0
 62
     3
  6
Continuous
370
    25
390
F
347
46
348
0
  0
LAYER
  5
DB
330
2
100
AcDbSymbolTableRecord
100
AcDbLayerTableRecord
  2
AM_5
 70
     0
 62
     3
  6
Continuous
370
    25
390
F
347
46
348
0
  0
LAYER
  5
16B
330
2
100
AcDbSymbolTableRecord
100
AcDbLayerTableRecord
  2
AM_7
 70
     0
 62
     7
  6
Center
370
    25
390
F
347
46
348
0
  0
LAYER
  5
1AF
330
2
100
AcDbSymbolTableRecord
100
AcDbLayerTableRecord
  2
ConnectionPoints
 70
     0
 62
     7
  6
Continuous
370
    50
390
F
347
46
348
0
  0
ENDTAB
  0
TABLE
  2
STYLE
  5
3
330
0
100
AcDbSymbolTable
 70
     1
  0
STYLE
  5
11
330
3
100
AcDbSymbolTableRecord
100
AcDbTextStyleTableRecord
  2
Standard
 70
     0
 40
0.0
 41
1.0
 50
0.0
 71
     0
 42
2.5
  3
txt
  4

  0
ENDTAB
  0
TABLE
  2
VIEW
  5
6
330
0
100
AcDbSymbolTable
 70
     0
  0
ENDTAB
  0
TABLE
  2
UCS
  5
7
330
0
100
AcDbSymbolTable
 70
     0
  0
ENDTAB
  0
TABLE
  2
APPID
  5
9
330
0
100
AcDbSymbolTable
 70
     1
  0
APPID
  5
12
330
9
100
AcDbSymbolTableRecord
100
AcDbRegAppTableRecord
  2
ACAD
 70
     0
  0
ENDTAB
  0
TABLE
  2
DIMSTYLE
  5
A
330
0
100
AcDbSymbolTable
 70
     1
100
AcDbDimStyleTable
  0
DIMSTYLE
105
27
330
A
100
AcDbSymbolTableRecord
100
AcDbDimStyleTableRecord
  2
ISO-25
 70
     0
 41
2.5
 42
0.625
 43
3.75
 44
1.25
 73
     0
 74
     0
 77
     1
 78
     8
140
2.5
141
2.5
143
0.03937007874016
147
0.625
171
     3
172
     1
178
     0
271
     2
272
     2
274
     3
278
    44
283
     0
284
     8
340
11
  0
ENDTAB
  0
TABLE
  2
BLOCK_RECORD
  5
1
330
0
100
AcDbSymbolTable
 70
     5
  0
BLOCK_RECORD
  5
1F
330
1
100
AcDbSymbolTableRecord
100
AcDbBlockTableRecord
  2
*Model_Space
340
22
 70
     0
280
     1
281
     0
  0
BLOCK_RECORD
  5
1B
330
1
100
AcDbSymbolTableRecord
100
AcDbBlockTableRecord
  2
*Paper_Space
340
1E
 70
     0
280
     1
281
     0
  0
BLOCK_RECORD
  5
23
330
1
100
AcDbSymbolTableRecord
100
AcDbBlockTableRecord
  2
*Paper_Space0
340
26
 70
     0
280
     1
281
     0
  0
BLOCK_RECORD
  5
6E
330
1
100
AcDbSymbolTableRecord
100
AcDbBlockTableRecord
  2
1_129040_0
340
0
102
{BLKREFS
331
6F
102
}
 70
     0
280
     1
281
     0
  0
BLOCK_RECORD
  5
8F
330
1
100
AcDbSymbolTableRecord
100
AcDbBlockTableRecord
  2
2_129517_0_in_129040_0
340
0
102
{BLKREFS
331
90
102
}
 70
     0
280
     1
281
     0
  0
BLOCK_RECORD
  5
B7
330
1
100
AcDbSymbolTableRecord
100
AcDbBlockTableRecord
  2
3_129943_0_in_129040_0
340
0
102
{BLKREFS
331
B8
102
}
 70
     0
280
     1
281
     0
  0
BLOCK_RECORD
  5
F1
330
1
100
AcDbSymbolTableRecord
100
AcDbBlockTableRecord
  2
4_129433_0_in_129040_0
340
0
102
{BLKREFS
331
F2
102
}
 70
     0
280
     1
281
     0
  0
ENDTAB
  0
ENDSEC
  0
SECTION
  2
BLOCKS
  0
BLOCK
  5
20
330
1F
100
AcDbEntity
  8
0
100
AcDbBlockBegin
  2
*Model_Space
 70
     0
 10
0.0
 20
0.0
 30
0.0
  3
*Model_Space
  1

  0
ENDBLK
  5
21
330
1F
100
AcDbEntity
  8
0
100
AcDbBlockEnd
  0
BLOCK
  5
1C
330
1B
100
AcDbEntity
 67
     1
  8
0
100
AcDbBlockBegin
  2
*Paper_Space
 70
     0
 10
0.0
 20
0.0
 30
0.0
  3
*Paper_Space
  1

  0
ENDBLK
  5
1D
330
1B
100
AcDbEntity
 67
     1
  8
0
100
AcDbBlockEnd
  0
BLOCK
  5
24
330
23
100
AcDbEntity
  8
0
100
AcDbBlockBegin
  2
*Paper_Space0
 70
     0
 10
0.0
 20
0.0
 30
0.0
  3
*Paper_Space0
  1

  0
ENDBLK
  5
25
330
23
100
AcDbEntity
  8
0
100
AcDbBlockEnd
  0
BLOCK
  5
70
330
6E
100
AcDbEntity
  8
0
100
AcDbBlockBegin
  2
1_129040_0
 70
     2
 10
0.0
 20
0.0
 30
0.0
  3
1_129040_0
  1

  0
ATTDEF
  5
73
330
6E
100
AcDbEntity
  8
AM_6
100
AcDbText
 10
71.7
 20
46.35500000000001
 30
0.0
 40
0.5
  1
Grip Tight Low Backing Height Two-Bolt Pillow Block Metric Bore
100
AcDbAttributeDefinition
  3

  2
NN
 70
     8
280
     0
  0
ATTDEF
  5
74
330
6E
100
AcDbEntity
  8
AM_6
100
AcDbText
 10
71.7
 20
45.85500000000001
 30
0.0
 40
0.5
  1
GTB Normal Duty Pillow Blocks
100
AcDbAttributeDefinition
  3

  2
NT
 70
     8
280
     0
  0
ATTDEF
  5
75
330
6E
100
AcDbEntity
  8
AM_6
100
AcDbText
 10
71.7
 20
45.35500000000001
 30
0.0
 40
0.5
  1
129040
100
AcDbAttributeDefinition
  3

  2
NB
 70
     8
280
     0
  0
ATTDEF
  5
76
330
6E
100
AcDbEntity
  8
AM_6
100
AcDbText
 10
71.7
 20
44.85500000000001
 30
0.0
 40
0.5
  1
$PN.$LUBE.
100
AcDbAttributeDefinition
  3

  2
NBSYN
 70
     8
280
     0
  0
ATTDEF
  5
77
330
6E
100
AcDbEntity
  8
AM_6
100
AcDbText
 10
71.7
 20
44.35500000000001
 30
0.0
 40
0.5
  1
129040
100
AcDbAttributeDefinition
  3

  2
LINA
 70
     8
280
     0
  0
ATTDEF
  5
78
330
6E
100
AcDbEntity
  8
AM_6
100
AcDbText
 10
71.7
 20
43.85500000000001
 30
0.0
 40
0.5
  1
204
100
AcDbAttributeDefinition
  3

  2
SERIES
 70
     8
280
     0
  0
ATTDEF
  5
79
330
6E
100
AcDbEntity
  8
AM_6
100
AcDbText
 10
71.7
 20
43.35500000000001
 30
0.0
 40
0.5
  1
20
100
AcDbAttributeDefinition
  3

  2
SS
 70
     8
280
     0
  0
ATTDEF
  5
7A
330
6E
100
AcDbEntity
  8
AM_6
100
AcDbText
 10
71.7
 20
42.85500000000001
 30
0.0
 40
0.5
  1
129040
100
AcDbAttributeDefinition
  3

  2
PN
 70
     8
280
     0
  0
ATTDEF
  5
7B
330
6E
100
AcDbEntity
  8
AM_6
100
AcDbText
 10
71.7
 20
42.35500000000001
 30
0.0
 40
0.5
  1
P2B-GTB-20M
100
AcDbAttributeDefinition
  3

  2
DESCRIPTION
 70
     8
280
     0
  0
ATTDEF
  5
7C
330
6E
100
AcDbEntity
  8
AM_6
100
AcDbText
 10
71.7
 20
41.85500000000001
 30
0.0
 40
0.5
  1
37.3
100
AcDbAttributeDefinition
  3

  2
A
 70
     8
280
     0
  0
ATTDEF
  5
7D
330
6E
100
AcDbEntity
  8
AM_6
100
AcDbText
 10
71.7
 20
41.35500000000001
 30
0.0
 40
0.5
  1
133.4
100
AcDbAttributeDefinition
  3

  2
B
 70
     8
280
     0
  0
ATTDEF
  5
7E
330
6E
100
AcDbEntity
  8
AM_6
100
AcDbText
 10
71.7
 20
40.85500000000001
 30
0.0
 40
0.5
  1
33.7
100
AcDbAttributeDefinition
  3

  2
C
 70
     8
280
     0
  0
ATTDEF
  5
7F
330
6E
100
AcDbEntity
  8
AM_6
100
AcDbText
 10
71.7
 20
40.35500000000001
 30
0.0
 40
0.5
  1
85.7
100
AcDbAttributeDefinition
  3

  2
DMIN
 70
     8
280
     0
  0
ATTDEF
  5
80
330
6E
100
AcDbEntity
  8
AM_6
100
AcDbText
 10
71.7
 20
39.85500000000001
 30
0.0
 40
0.5
  1
106.4
100
AcDbAttributeDefinition
  3

  2
DMAX
 70
     8
280
     0
  0
ATTDEF
  5
81
330
6E
100
AcDbEntity
  8
AM_6
100
AcDbText
 10
71.7
 20
39.35500000000001
 30
0.0
 40
0.5
  1
M10
100
AcDbAttributeDefinition
  3

  2
F
 70
     8
280
     0
  0
ATTDEF
  5
82
330
6E
100
AcDbEntity
  8
AM_6
100
AcDbText
 10
71.7
 20
38.85500000000001
 30
0.0
 40
0.5
  1
21.4
100
AcDbAttributeDefinition
  3

  2
G
 70
     8
280
     0
  0
ATTDEF
  5
83
330
6E
100
AcDbEntity
  8
AM_6
100
AcDbText
 10
71.7
 20
38.35500000000001
 30
0.0
 40
0.5
  1
11.5
100
AcDbAttributeDefinition
  3

  2
H
 70
     8
280
     0
  0
ATTDEF
  5
84
330
6E
100
AcDbEntity
  8
AM_6
100
AcDbText
 10
71.7
 20
37.85500000000001
 30
0.0
 40
0.5
  1
63.1
100
AcDbAttributeDefinition
  3

  2
J
 70
     8
280
     0
  0
ATTDEF
  5
85
330
6E
100
AcDbEntity
  8
AM_6
100
AcDbText
 10
71.7
 20
37.35500000000001
 30
0.0
 40
0.5
  1
38.1
100
AcDbAttributeDefinition
  3

  2
L
 70
     8
280
     0
  0
ATTDEF
  5
86
330
6E
100
AcDbEntity
  8
AM_6
100
AcDbText
 10
71.7
 20
36.85500000000001
 30
0.0
 40
0.5
  1
31.8
100
AcDbAttributeDefinition
  3

  2
M
 70
     8
280
     0
  0
ATTDEF
  5
87
330
6E
100
AcDbEntity
  8
AM_6
100
AcDbText
 10
71.7
 20
36.35500000000001
 30
0.0
 40
0.5
  1
12.3
100
AcDbAttributeDefinition
  3

  2
R
 70
     8
280
     0
  0
ATTDEF
  5
88
330
6E
100
AcDbEntity
  8
AM_6
100
AcDbText
 10
71.7
 20
35.85500000000001
 30
0.0
 40
0.5
  1
25.0
100
AcDbAttributeDefinition
  3

  2
S
 70
     8
280
     0
  0
ATTDEF
  5
89
330
6E
100
AcDbEntity
  8
AM_6
100
AcDbText
 10
71.7
 20
35.35500000000001
 30
0.0
 40
0.5
  1
57.2
100
AcDbAttributeDefinition
  3

  2
U
 70
     8
280
     0
  0
ATTDEF
  5
8A
330
6E
100
AcDbEntity
  8
AM_6
100
AcDbText
 10
71.7
 20
34.85500000000001
 30
0.0
 40
0.5
  1
114.3
100
AcDbAttributeDefinition
  3

  2
V
 70
     8
280
     0
  0
ATTDEF
  5
8B
330
6E
100
AcDbEntity
  8
AM_6
100
AcDbText
 10
71.7
 20
34.35500000000001
 30
0.0
 40
0.5
  1
12.7
100
AcDbAttributeDefinition
  3

  2
W
 70
     8
280
     0
  0
ATTDEF
  5
8C
330
6E
100
AcDbEntity
  8
AM_6
100
AcDbText
 10
71.7
 20
33.85500000000001
 30
0.0
 40
0.5
  1
3.2
100
AcDbAttributeDefinition
  3

  2
X
 70
     8
280
     0
  0
ATTDEF
  5
8D
330
6E
100
AcDbEntity
  8
AM_6
100
AcDbText
 10
71.7
 20
33.35500000000001
 30
0.0
 40
0.5
  1
25.0
100
AcDbAttributeDefinition
  3

  2
Z
 70
     8
280
     0
  0
ATTDEF
  5
8E
330
6E
100
AcDbEntity
  8
AM_6
100
AcDbText
 10
71.7
 20
32.85500000000001
 30
0.0
 40
0.5
  1
baldor
100
AcDbAttributeDefinition
  3

  2
COMPANY
 70
     8
280
     0
  0
INSERT
  5
90
330
6E
100
AcDbEntity
  8
0
100
AcDbBlockReference
  2
2_129517_0_in_129040_0
 10
0.0
 20
0.0
 30
0.0
  0
INSERT
  5
B8
330
6E
100
AcDbEntity
  8
0
100
AcDbBlockReference
  2
3_129943_0_in_129040_0
 10
0.0
 20
0.0
 30
0.0
  0
INSERT
  5
F2
330
6E
100
AcDbEntity
  8
0
100
AcDbBlockReference
  2
4_129433_0_in_129040_0
 10
0.0
 20
0.0
 30
0.0
  0
ENDBLK
  5
71
330
6E
100
AcDbEntity
  8
0
100
AcDbBlockEnd
  0
BLOCK
  5
91
330
8F
100
AcDbEntity
  8
0
100
AcDbBlockBegin
  2
2_129517_0_in_129040_0
 70
     2
 10
0.0
 20
0.0
 30
0.0
  3
2_129517_0_in_129040_0
  1

  0
ATTDEF
  5
93
330
8F
100
AcDbEntity
  8
AM_6
100
AcDbText
 10
28.49756280283128
 20
23.27630162735165
 30
0.0
 40
0.5
  1
INS-GT-M B
100
AcDbAttributeDefinition
  3

  2
NN
 70
     8
280
     0
  0
ATTDEF
  5
94
330
8F
100
AcDbEntity
  8
AM_6
100
AcDbText
 10
28.49756280283128
 20
22.77630162735165
 30
0.0
 40
0.5
  1
GT Normal Duty Bearing Inserts
100
AcDbAttributeDefinition
  3

  2
NT
 70
     8
280
     0
  0
ATTDEF
  5
95
330
8F
100
AcDbEntity
  8
AM_6
100
AcDbText
 10
28.49756280283128
 20
22.27630162735165
 30
0.0
 40
0.5
  1
129517
100
AcDbAttributeDefinition
  3

  2
NB
 70
     8
280
     0
  0
ATTDEF
  5
96
330
8F
100
AcDbEntity
  8
AM_6
100
AcDbText
 10
28.49756280283128
 20
21.77630162735165
 30
0.0
 40
0.5
  1
$PN.
100
AcDbAttributeDefinition
  3

  2
NBSYN
 70
     8
280
     0
  0
ATTDEF
  5
97
330
8F
100
AcDbEntity
  8
AM_6
100
AcDbText
 10
28.49756280283128
 20
21.27630162735165
 30
0.0
 40
0.5
  1
129517
100
AcDbAttributeDefinition
  3

  2
LINA
 70
     8
280
     0
  0
ATTDEF
  5
98
330
8F
100
AcDbEntity
  8
AM_6
100
AcDbText
 10
28.49756280283128
 20
20.77630162735165
 30
0.0
 40
0.5
  1
204
100
AcDbAttributeDefinition
  3

  2
SERIES
 70
     8
280
     0
  0
ATTDEF
  5
99
330
8F
100
AcDbEntity
  8
AM_6
100
AcDbText
 10
28.49756280283128
 20
20.27630162735165
 30
0.0
 40
0.5
  1
129517
100
AcDbAttributeDefinition
  3

  2
PN
 70
     8
280
     0
  0
ATTDEF
  5
9A
330
8F
100
AcDbEntity
  8
AM_6
100
AcDbText
 10
28.49756280283128
 20
19.77630162735165
 30
0.0
 40
0.5
  1
INS-GT-04
100
AcDbAttributeDefinition
  3

  2
DESCRIPTION
 70
     8
280
     0
  0
ATTDEF
  5
9B
330
8F
100
AcDbEntity
  8
AM_6
100
AcDbText
 10
28.49756280283128
 20
19.27630162735165
 30
0.0
 40
0.5
  1
37.6
100
AcDbAttributeDefinition
  3

  2
A
 70
     8
280
     0
  0
ATTDEF
  5
9C
330
8F
100
AcDbEntity
  8
AM_6
100
AcDbText
 10
28.49756280283128
 20
18.77630162735165
 30
0.0
 40
0.5
  1
14.7
100
AcDbAttributeDefinition
  3

  2
C
 70
     8
280
     0
  0
ATTDEF
  5
9D
330
8F
100
AcDbEntity
  8
AM_6
100
AcDbText
 10
28.49756280283128
 20
18.27630162735165
 30
0.0
 40
0.5
  1
47.0
100
AcDbAttributeDefinition
  3

  2
D
 70
     8
280
     0
  0
ATTDEF
  5
9E
330
8F
100
AcDbEntity
  8
AM_6
100
AcDbText
 10
28.49756280283128
 20
17.77630162735165
 30
0.0
 40
0.5
  1
3.8
100
AcDbAttributeDefinition
  3

  2
J
 70
     8
280
     0
  0
ATTDEF
  5
9F
330
8F
100
AcDbEntity
  8
AM_6
100
AcDbText
 10
28.49756280283128
 20
17.27630162735165
 30
0.0
 40
0.5
  1
38.1
100
AcDbAttributeDefinition
  3

  2
L
 70
     8
280
     0
  0
ATTDEF
  5
A0
330
8F
100
AcDbEntity
  8
AM_6
100
AcDbText
 10
28.49756280283128
 20
16.77630162735165
 30
0.0
 40
0.5
  1
#10 - 32 x 1/4
100
AcDbAttributeDefinition
  3

  2
N
 70
     8
280
     0
  0
ATTDEF
  5
A1
330
8F
100
AcDbEntity
  8
AM_6
100
AcDbText
 10
28.49756280283128
 20
16.27630162735165
 30
0.0
 40
0.5
  1
11.7
100
AcDbAttributeDefinition
  3

  2
W
 70
     8
280
     0
  0
ATTDEF
  5
A2
330
8F
100
AcDbEntity
  8
AM_6
100
AcDbText
 10
28.49756280283128
 20
15.77630162735165
 30
0.0
 40
0.5
  1
26.2
100
AcDbAttributeDefinition
  3

  2
X
 70
     8
280
     0
  0
ATTDEF
  5
A3
330
8F
100
AcDbEntity
  8
AM_6
100
AcDbText
 10
28.49756280283128
 20
15.27630162735165
 30
0.0
 40
0.5
  1
25.9
100
AcDbAttributeDefinition
  3

  2
Y
 70
     8
280
     0
  0
ATTDEF
  5
A4
330
8F
100
AcDbEntity
  8
AM_6
100
AcDbText
 10
28.49756280283128
 20
14.77630162735165
 30
0.0
 40
0.5
  1
baldor
100
AcDbAttributeDefinition
  3

  2
COMPANY
 70
     8
280
     0
  0
CIRCLE
  5
A7
330
8F
100
AcDbEntity
  8
AM_9
100
AcDbCircle
 10
0.0
 20
0.0
 30
0.0
 40
14.92271702490929
  0
ARC
  5
A8
330
8F
100
AcDbEntity
  8
AM_9
100
AcDbCircle
 10
0.0
 20
-0.0000000000000071
 30
0.0
 40
23.5
100
AcDbArc
 50
165.9627190701568
 51
14.03728092984329
  0
CIRCLE
  5
A9
330
8F
100
AcDbEntity
  8
AM_9
100
AcDbCircle
 10
0.0
 20
0.0
 30
0.0
 40
22.03
  0
CIRCLE
  5
AA
330
8F
100
AcDbEntity
  8
AM_9
100
AcDbCircle
 10
0.0
 20
0.0
 30
0.0
 40
22.75952694001672
  0
CIRCLE
  5
AB
330
8F
100
AcDbEntity
  8
AM_9
100
AcDbCircle
 10
0.0
 20
0.0
 30
0.0
 40
15.57261904761905
  0
ARC
  5
AC
330
8F
100
AcDbEntity
  8
AM_9
100
AcDbCircle
 10
0.0000000000000012
 20
-0.0000000000000002
 30
0.0
 40
14.21190476190476
100
AcDbArc
 50
95.04036569223008
 51
84.98808758665484
  0
CIRCLE
  5
AD
330
8F
100
AcDbEntity
  8
AM_9
100
AcDbCircle
 10
0.0
 20
0.0
 30
0.0
 40
16.34533333333333
  0
CIRCLE
  5
AE
330
8F
100
AcDbEntity
  8
AM_9
100
AcDbCircle
 10
0.0
 20
0.0
 30
0.0
 40
16.93333333333333
  0
CIRCLE
  5
B0
330
8F
100
AcDbEntity
  8
AM_4
100
AcDbCircle
 10
0.0
 20
0.0
 30
0.0
 40
23.13102238406432
  0
CIRCLE
  5
B1
330
8F
100
AcDbEntity
  8
AM_4
100
AcDbCircle
 10
0.0
 20
0.0
 30
0.0
 40
23.27630162735165
  0
CIRCLE
  5
B2
330
8F
100
AcDbEntity
  8
AM_4
100
AcDbCircle
 10
0.0
 20
0.0
 30
0.0
 40
22.90652694001673
  0
CIRCLE
  5
B3
330
8F
100
AcDbEntity
  8
AM_4
100
AcDbCircle
 10
0.0
 20
0.0
 30
0.0
 40
22.90192636365818
  0
CIRCLE
  5
B4
330
8F
100
AcDbEntity
  8
AM_4
100
AcDbCircle
 10
0.0
 20
0.0
 30
0.0
 40
21.63354487917145
  0
CIRCLE
  5
B5
330
8F
100
AcDbEntity
  8
AM_4
100
AcDbCircle
 10
0.0
 20
0.0
 30
0.0
 40
22.18095900231976
  0
ARC
  5
B6
330
8F
100
AcDbEntity
  8
AM_4
100
AcDbCircle
 10
0.0000000000000016
 20
-0.0000000000003642
 30
0.0
 40
14.21190476190513
100
AcDbArc
 50
84.98808758665497
 51
95.04036569222994
  0
ENDBLK
  5
92
330
8F
100
AcDbEntity
  8
0
100
AcDbBlockEnd
  0
BLOCK
  5
B9
330
B7
100
AcDbEntity
  8
0
100
AcDbBlockBegin
  2
3_129943_0_in_129040_0
 70
     2
 10
0.0
 20
0.0
 30
0.0
  3
3_129943_0_in_129040_0
  1

  0
ATTDEF
  5
BB
330
B7
100
AcDbEntity
  8
AM_6
100
AcDbText
 10
23.94993403682451
 20
19.04933875577034
 30
0.0
 40
0.5
  1
Grip Tight Normal Duty Adapter and Nut Metric Bore
100
AcDbAttributeDefinition
  3

  2
NN
 70
     8
280
     0
  0
ATTDEF
  5
BC
330
B7
100
AcDbEntity
  8
AM_6
100
AcDbText
 10
23.94993403682451
 20
18.54933875577034
 30
0.0
 40
0.5
  1
GT and GTM Adapter & Lock Nut Assemblies
100
AcDbAttributeDefinition
  3

  2
NT
 70
     8
280
     0
  0
ATTDEF
  5
BD
330
B7
100
AcDbEntity
  8
AM_6
100
AcDbText
 10
23.94993403682451
 20
18.04933875577034
 30
0.0
 40
0.5
  1
129943
100
AcDbAttributeDefinition
  3

  2
NB
 70
     8
280
     0
  0
ATTDEF
  5
BE
330
B7
100
AcDbEntity
  8
AM_6
100
AcDbText
 10
23.94993403682451
 20
17.54933875577034
 30
0.0
 40
0.5
  1
$PN.
100
AcDbAttributeDefinition
  3

  2
NBSYN
 70
     8
280
     0
  0
ATTDEF
  5
BF
330
B7
100
AcDbEntity
  8
AM_6
100
AcDbText
 10
23.94993403682451
 20
17.04933875577034
 30
0.0
 40
0.5
  1
129943
100
AcDbAttributeDefinition
  3

  2
LINA
 70
     8
280
     0
  0
ATTDEF
  5
C0
330
B7
100
AcDbEntity
  8
AM_6
100
AcDbText
 10
23.94993403682451
 20
16.54933875577034
 30
0.0
 40
0.5
  1
204
100
AcDbAttributeDefinition
  3

  2
SERIES
 70
     8
280
     0
  0
ATTDEF
  5
C1
330
B7
100
AcDbEntity
  8
AM_6
100
AcDbText
 10
23.94993403682451
 20
16.04933875577034
 30
0.0
 40
0.5
  1
20
100
AcDbAttributeDefinition
  3

  2
SS
 70
     8
280
     0
  0
ATTDEF
  5
C2
330
B7
100
AcDbEntity
  8
AM_6
100
AcDbText
 10
23.94993403682451
 20
15.54933875577034
 30
0.0
 40
0.5
  1
129943
100
AcDbAttributeDefinition
  3

  2
PN
 70
     8
280
     0
  0
ATTDEF
  5
C3
330
B7
100
AcDbEntity
  8
AM_6
100
AcDbText
 10
23.94993403682451
 20
15.04933875577034
 30
0.0
 40
0.5
  1
AN-GT-04-20M
100
AcDbAttributeDefinition
  3

  2
DESCRIPTION
 70
     8
280
     0
  0
ATTDEF
  5
C4
330
B7
100
AcDbEntity
  8
AM_6
100
AcDbText
 10
23.94993403682451
 20
14.54933875577034
 30
0.0
 40
0.5
  1
37.3
100
AcDbAttributeDefinition
  3

  2
A
 70
     8
280
     0
  0
ATTDEF
  5
C5
330
B7
100
AcDbEntity
  8
AM_6
100
AcDbText
 10
23.94993403682451
 20
14.04933875577034
 30
0.0
 40
0.5
  1
15.0
100
AcDbAttributeDefinition
  3

  2
C
 70
     8
280
     0
  0
ATTDEF
  5
C6
330
B7
100
AcDbEntity
  8
AM_6
100
AcDbText
 10
23.94993403682451
 20
13.54933875577034
 30
0.0
 40
0.5
  1
47.0
100
AcDbAttributeDefinition
  3

  2
D
 70
     8
280
     0
  0
ATTDEF
  5
C7
330
B7
100
AcDbEntity
  8
AM_6
100
AcDbText
 10
23.94993403682451
 20
13.04933875577034
 30
0.0
 40
0.5
  1
3.9
100
AcDbAttributeDefinition
  3

  2
J
 70
     8
280
     0
  0
ATTDEF
  5
C8
330
B7
100
AcDbEntity
  8
AM_6
100
AcDbText
 10
23.94993403682451
 20
12.54933875577034
 30
0.0
 40
0.5
  1
38.1
100
AcDbAttributeDefinition
  3

  2
L
 70
     8
280
     0
  0
ATTDEF
  5
C9
330
B7
100
AcDbEntity
  8
AM_6
100
AcDbText
 10
23.94993403682451
 20
12.04933875577034
 30
0.0
 40
0.5
  1
10 - 32 x 1/4
100
AcDbAttributeDefinition
  3

  2
N
 70
     8
280
     0
  0
ATTDEF
  5
CA
330
B7
100
AcDbEntity
  8
AM_6
100
AcDbText
 10
23.94993403682451
 20
11.54933875577034
 30
0.0
 40
0.5
  1
12.3
100
AcDbAttributeDefinition
  3

  2
W
 70
     8
280
     0
  0
ATTDEF
  5
CB
330
B7
100
AcDbEntity
  8
AM_6
100
AcDbText
 10
23.94993403682451
 20
11.04933875577034
 30
0.0
 40
0.5
  1
25.0
100
AcDbAttributeDefinition
  3

  2
X
 70
     8
280
     0
  0
ATTDEF
  5
CC
330
B7
100
AcDbEntity
  8
AM_6
100
AcDbText
 10
23.94993403682451
 20
10.54933875577034
 30
0.0
 40
0.5
  1
25.0
100
AcDbAttributeDefinition
  3

  2
Y
 70
     8
280
     0
  0
ATTDEF
  5
CD
330
B7
100
AcDbEntity
  8
AM_6
100
AcDbText
 10
23.94993403682451
 20
10.04933875577034
 30
0.0
 40
0.5
  1
baldor
100
AcDbAttributeDefinition
  3

  2
COMPANY
 70
     8
280
     0
  0
LINE
  5
CE
330
B7
100
AcDbEntity
  8
AM_9
100
AcDbLine
 10
-1.25
 20
14.21253562576836
 30
0.0
 11
-1.25
 21
14.91652928408652
 31
0.0
  0
LINE
  5
CF
330
B7
100
AcDbEntity
  8
AM_9
100
AcDbLine
 10
1.25
 20
14.21253562576836
 30
0.0
 11
1.25
 21
14.91652928408652
 31
0.0
  0
ARC
  5
D0
330
B7
100
AcDbEntity
  8
AM_9
100
AcDbCircle
 10
0.0
 20
0.0000000000000016
 30
0.0
 40
14.96881244063839
100
AcDbArc
 50
94.79017463460902
 51
85.209825365391
  0
CIRCLE
  5
D1
330
B7
100
AcDbEntity
  8
AM_9
100
AcDbCircle
 10
0.0
 20
0.0
 30
0.0
 40
17.12383333333334
  0
LINE
  5
D2
330
B7
100
AcDbEntity
  8
AM_9
100
AcDbLine
 10
-18.6182
 20
-1.981199999999999
 30
0.0
 11
-14.7193
 21
-1.981199999999999
 31
0.0
  0
LINE
  5
D3
330
B7
100
AcDbEntity
  8
AM_9
100
AcDbLine
 10
-14.7193
 20
1.981199999999999
 30
0.0
 11
-18.6182
 21
1.981199999999999
 31
0.0
  0
LINE
  5
D4
330
B7
100
AcDbEntity
  8
AM_9
100
AcDbLine
 10
-14.7193
 20
-1.981199999999999
 30
0.0
 11
-14.2875
 21
-2.412999999999998
 31
0.0
  0
LINE
  5
D5
330
B7
100
AcDbEntity
  8
AM_9
100
AcDbLine
 10
-14.2875
 20
2.412999999999998
 30
0.0
 11
-14.7193
 21
1.981199999999999
 31
0.0
  0
LINE
  5
D6
330
B7
100
AcDbEntity
  8
AM_9
100
AcDbLine
 10
-14.2875
 20
2.412999999999998
 30
0.0
 11
-14.2875
 21
-2.412999999999998
 31
0.0
  0
LINE
  5
D7
330
B7
100
AcDbEntity
  8
AM_9
100
AcDbLine
 10
-14.7193
 20
1.981199999999999
 30
0.0
 11
-14.7193
 21
-1.981199999999999
 31
0.0
  0
LINE
  5
D8
330
B7
100
AcDbEntity
  8
AM_9
100
AcDbLine
 10
-18.6182
 20
1.981199999999999
 30
0.0
 11
-18.90985989624251
 21
2.272859896242507
 31
0.0
  0
LINE
  5
D9
330
B7
100
AcDbEntity
  8
AM_9
100
AcDbLine
 10
-18.91048163257259
 20
-2.273481632572589
 30
0.0
 11
-18.6182
 21
-1.981199999999999
 31
0.0
  0
LINE
  5
DA
330
B7
100
AcDbEntity
  8
AM_9
100
AcDbLine
 10
-18.6182
 20
1.981199999999999
 30
0.0
 11
-18.6182
 21
-1.981199999999999
 31
0.0
  0
LINE
  5
DC
330
B7
100
AcDbEntity
  8
AM_5
100
AcDbLine
 10
-18.89655870787059
 20
-2.412999999999998
 30
0.0
 11
-14.2875
 21
-2.412999999999998
 31
0.0
  0
LINE
  5
DD
330
B7
100
AcDbEntity
  8
AM_5
100
AcDbLine
 10
-18.89655870787059
 20
2.413000000000002
 30
0.0
 11
-14.2875
 21
2.413000000000002
 31
0.0
  0
LINE
  5
DE
330
B7
100
AcDbEntity
  8
AM_4
100
AcDbLine
 10
17.77999576665255
 20
-1.95
 30
0.0
 11
18.94993403682451
 21
-1.95
 31
0.0
  0
LINE
  5
DF
330
B7
100
AcDbEntity
  8
AM_4
100
AcDbLine
 10
-7.786217481032596
 20
-17.38612427592942
 30
0.0
 11
-7.20124834594662
 21
-16.37292801310089
 31
0.0
  0
ARC
  5
E0
330
B7
100
AcDbEntity
  8
AM_4
100
AcDbCircle
 10
0.0000000000000063
 20
-0.0000000000000071
 30
0.0
 40
19.04999999999999
100
AcDbArc
 50
245.8752130383039
 51
354.1247869616961
  0
LINE
  5
E1
330
B7
100
AcDbEntity
  8
AM_4
100
AcDbLine
 10
-11.16371655579191
 20
15.43612427592942
 30
0.0
 11
-10.57874742070594
 21
14.42292801310088
 31
0.0
  0
LINE
  5
E2
330
B7
100
AcDbEntity
  8
AM_4
100
AcDbLine
 10
-10.57874742070593
 20
-14.42292801310089
 30
0.0
 11
-11.16371655579191
 21
-15.43612427592943
 31
0.0
  0
ARC
  5
E3
330
B7
100
AcDbEntity
  8
AM_4
100
AcDbCircle
 10
-0.0000000000000018
 20
-0.0000000000000027
 30
0.0
 40
19.05
100
AcDbArc
 50
125.8752130383039
 51
234.1247869616961
  0
LINE
  5
E4
330
B7
100
AcDbEntity
  8
AM_4
100
AcDbLine
 10
-7.201248345946629
 20
16.37292801310088
 30
0.0
 11
-7.786217481032606
 21
17.38612427592942
 31
0.0
  0
LINE
  5
E5
330
B7
100
AcDbEntity
  8
AM_4
100
AcDbLine
 10
18.94993403682451
 20
1.95
 30
0.0
 11
17.77999576665255
 21
1.95
 31
0.0
  0
ARC
  5
E6
330
B7
100
AcDbEntity
  8
AM_4
100
AcDbCircle
 10
0.0000000000000036
 20
0.0000000000000053
 30
0.0
 40
19.05
100
AcDbArc
 50
5.87521303830387
 51
114.1247869616962
  0
LINE
  5
E7
330
B7
100
AcDbEntity
  8
AM_4
100
AcDbLine
 10
-10.57874742070594
 20
14.42292801310088
 30
0.0
 11
-7.201248345946629
 21
16.37292801310088
 31
0.0
  0
LINE
  5
E8
330
B7
100
AcDbEntity
  8
AM_4
100
AcDbLine
 10
17.77999576665255
 20
1.95
 30
0.0
 11
17.77999576665255
 21
-1.95
 31
0.0
  0
LINE
  5
E9
330
B7
100
AcDbEntity
  8
AM_4
100
AcDbLine
 10
-7.20124834594662
 20
-16.37292801310089
 30
0.0
 11
-10.57874742070593
 21
-14.42292801310089
 31
0.0
  0
LINE
  5
EA
330
B7
100
AcDbEntity
  8
AM_4
100
AcDbLine
 10
1.25
 20
14.21190476190476
 30
0.0
 11
1.25
 21
9.921567416492216
 31
0.0
  0
ARC
  5
EB
330
B7
100
AcDbEntity
  8
AM_4
100
AcDbCircle
 10
0.0
 20
0.0000000000000008
 30
0.0
 40
10.0
100
AcDbArc
 50
97.18075578145829
 51
82.81924421854173
  0
LINE
  5
EC
330
B7
100
AcDbEntity
  8
AM_4
100
AcDbLine
 10
-1.25
 20
14.21190476190476
 30
0.0
 11
-1.25
 21
9.921567416492216
 31
0.0
  0
LINE
  5
ED
330
B7
100
AcDbEntity
  8
AM_4
100
AcDbLine
 10
1.25
 20
14.21190476190476
 30
0.0
 11
-1.25
 21
14.21190476190476
 31
0.0
  0
ARC
  5
EE
330
B7
100
AcDbEntity
  8
AM_4
100
AcDbCircle
 10
-0.0000000000000018
 20
-0.0000000000000018
 30
0.0
 40
18.45000000000001
100
AcDbArc
 50
6.066982755425895
 51
113.9330172445741
  0
ARC
  5
EF
330
B7
100
AcDbEntity
  8
AM_4
100
AcDbCircle
 10
0.0
 20
0.0000000000000009
 30
0.0
 40
18.45
100
AcDbArc
 50
126.0669827554259
 51
233.9330172445741
  0
ARC
  5
F0
330
B7
100
AcDbEntity
  8
AM_4
100
AcDbCircle
 10
0.0000000000000026
 20
-0.0000000000000071
 30
0.0
 40
18.45
100
AcDbArc
 50
246.0669827554258
 51
353.9330172445742
  0
ENDBLK
  5
BA
330
B7
100
AcDbEntity
  8
0
100
AcDbBlockEnd
  0
BLOCK
  5
F3
330
F1
100
AcDbEntity
  8
0
100
AcDbBlockBegin
  2
4_129433_0_in_129040_0
 70
     2
 10
0.0
 20
0.0
 30
0.0
  3
4_129433_0_in_129040_0
  1

  0
ATTDEF
  5
F5
330
F1
100
AcDbEntity
  8
AM_6
100
AcDbText
 10
71.7
 20
46.35500000000001
 30
0.0
 40
0.5
  1
GTB-M
100
AcDbAttributeDefinition
  3

  2
NN
 70
     8
280
     0
  0
ATTDEF
  5
F6
330
F1
100
AcDbEntity
  8
AM_6
100
AcDbText
 10
71.7
 20
45.85500000000001
 30
0.0
 40
0.5
  1
GTB Normal Duty Pillow Blocks
100
AcDbAttributeDefinition
  3

  2
NT
 70
     8
280
     0
  0
ATTDEF
  5
F7
330
F1
100
AcDbEntity
  8
AM_6
100
AcDbText
 10
71.7
 20
45.35500000000001
 30
0.0
 40
0.5
  1
129433
100
AcDbAttributeDefinition
  3

  2
NB
 70
     8
280
     0
  0
ATTDEF
  5
F8
330
F1
100
AcDbEntity
  8
AM_6
100
AcDbText
 10
71.7
 20
44.85500000000001
 30
0.0
 40
0.5
  1
$PN.$LUBE.
100
AcDbAttributeDefinition
  3

  2
NBSYN
 70
     8
280
     0
  0
ATTDEF
  5
F9
330
F1
100
AcDbEntity
  8
AM_6
100
AcDbText
 10
71.7
 20
44.35500000000001
 30
0.0
 40
0.5
  1
129433
100
AcDbAttributeDefinition
  3

  2
LINA
 70
     8
280
     0
  0
ATTDEF
  5
FA
330
F1
100
AcDbEntity
  8
AM_6
100
AcDbText
 10
71.7
 20
43.85500000000001
 30
0.0
 40
0.5
  1
204
100
AcDbAttributeDefinition
  3

  2
SERIES
 70
     8
280
     0
  0
ATTDEF
  5
FB
330
F1
100
AcDbEntity
  8
AM_6
100
AcDbText
 10
71.7
 20
43.35500000000001
 30
0.0
 40
0.5
  1
129433
100
AcDbAttributeDefinition
  3

  2
PN
 70
     8
280
     0
  0
ATTDEF
  5
FC
330
F1
100
AcDbEntity
  8
AM_6
100
AcDbText
 10
71.7
 20
42.85500000000001
 30
0.0
 40
0.5
  1
P2B-GTB-04
100
AcDbAttributeDefinition
  3

  2
DESCRIPTION
 70
     8
280
     0
  0
ATTDEF
  5
FD
330
F1
100
AcDbEntity
  8
AM_6
100
AcDbText
 10
71.7
 20
42.35500000000001
 30
0.0
 40
0.5
  1
37.3
100
AcDbAttributeDefinition
  3

  2
A
 70
     8
280
     0
  0
ATTDEF
  5
FE
330
F1
100
AcDbEntity
  8
AM_6
100
AcDbText
 10
71.7
 20
41.85500000000001
 30
0.0
 40
0.5
  1
133.4
100
AcDbAttributeDefinition
  3

  2
B
 70
     8
280
     0
  0
ATTDEF
  5
FF
330
F1
100
AcDbEntity
  8
AM_6
100
AcDbText
 10
71.7
 20
41.35500000000001
 30
0.0
 40
0.5
  1
33.7
100
AcDbAttributeDefinition
  3

  2
C
 70
     8
280
     0
  0
ATTDEF
  5
100
330
F1
100
AcDbEntity
  8
AM_6
100
AcDbText
 10
71.7
 20
40.85500000000001
 30
0.0
 40
0.5
  1
85.7
100
AcDbAttributeDefinition
  3

  2
DMIN
 70
     8
280
     0
  0
ATTDEF
  5
101
330
F1
100
AcDbEntity
  8
AM_6
100
AcDbText
 10
71.7
 20
40.35500000000001
 30
0.0
 40
0.5
  1
106.4
100
AcDbAttributeDefinition
  3

  2
DMAX
 70
     8
280
     0
  0
ATTDEF
  5
102
330
F1
100
AcDbEntity
  8
AM_6
100
AcDbText
 10
71.7
 20
39.85500000000001
 30
0.0
 40
0.5
  1
M10
100
AcDbAttributeDefinition
  3

  2
F
 70
     8
280
     0
  0
ATTDEF
  5
103
330
F1
100
AcDbEntity
  8
AM_6
100
AcDbText
 10
71.7
 20
39.35500000000001
 30
0.0
 40
0.5
  1
21.4
100
AcDbAttributeDefinition
  3

  2
G
 70
     8
280
     0
  0
ATTDEF
  5
104
330
F1
100
AcDbEntity
  8
AM_6
100
AcDbText
 10
71.7
 20
38.85500000000001
 30
0.0
 40
0.5
  1
11.9
100
AcDbAttributeDefinition
  3

  2
H
 70
     8
280
     0
  0
ATTDEF
  5
105
330
F1
100
AcDbEntity
  8
AM_6
100
AcDbText
 10
71.7
 20
38.35500000000001
 30
0.0
 40
0.5
  1
63.1
100
AcDbAttributeDefinition
  3

  2
J
 70
     8
280
     0
  0
ATTDEF
  5
106
330
F1
100
AcDbEntity
  8
AM_6
100
AcDbText
 10
71.7
 20
37.85500000000001
 30
0.0
 40
0.5
  1
38.1
100
AcDbAttributeDefinition
  3

  2
L
 70
     8
280
     0
  0
ATTDEF
  5
107
330
F1
100
AcDbEntity
  8
AM_6
100
AcDbText
 10
71.7
 20
37.35500000000001
 30
0.0
 40
0.5
  1
31.8
100
AcDbAttributeDefinition
  3

  2
M
 70
     8
280
     0
  0
ATTDEF
  5
108
330
F1
100
AcDbEntity
  8
AM_6
100
AcDbText
 10
71.7
 20
36.85500000000001
 30
0.0
 40
0.5
  1
12.3
100
AcDbAttributeDefinition
  3

  2
R
 70
     8
280
     0
  0
ATTDEF
  5
109
330
F1
100
AcDbEntity
  8
AM_6
100
AcDbText
 10
71.7
 20
36.35500000000001
 30
0.0
 40
0.5
  1
25.0
100
AcDbAttributeDefinition
  3

  2
S
 70
     8
280
     0
  0
ATTDEF
  5
10A
330
F1
100
AcDbEntity
  8
AM_6
100
AcDbText
 10
71.7
 20
35.85500000000001
 30
0.0
 40
0.5
  1
57.2
100
AcDbAttributeDefinition
  3

  2
U
 70
     8
280
     0
  0
ATTDEF
  5
10B
330
F1
100
AcDbEntity
  8
AM_6
100
AcDbText
 10
71.7
 20
35.35500000000001
 30
0.0
 40
0.5
  1
114.3
100
AcDbAttributeDefinition
  3

  2
V
 70
     8
280
     0
  0
ATTDEF
  5
10C
330
F1
100
AcDbEntity
  8
AM_6
100
AcDbText
 10
71.7
 20
34.85500000000001
 30
0.0
 40
0.5
  1
12.7
100
AcDbAttributeDefinition
  3

  2
W
 70
     8
280
     0
  0
ATTDEF
  5
10D
330
F1
100
AcDbEntity
  8
AM_6
100
AcDbText
 10
71.7
 20
34.35500000000001
 30
0.0
 40
0.5
  1
3.2
100
AcDbAttributeDefinition
  3

  2
X
 70
     8
280
     0
  0
ATTDEF
  5
10E
330
F1
100
AcDbEntity
  8
AM_6
100
AcDbText
 10
71.7
 20
33.85500000000001
 30
0.0
 40
0.5
  1
25.0
100
AcDbAttributeDefinition
  3

  2
Z
 70
     8
280
     0
  0
ATTDEF
  5
10F
330
F1
100
AcDbEntity
  8
AM_6
100
AcDbText
 10
71.7
 20
33.35500000000001
 30
0.0
 40
0.5
  1
baldor
100
AcDbAttributeDefinition
  3

  2
COMPANY
 70
     8
280
     0
  0
LINE
  5
110
330
F1
100
AcDbEntity
  8
AM_9
100
AcDbLine
 10
41.422
 20
-19.9
 30
0.0
 11
41.422
 21
-23.86666666666667
 31
0.0
  0
LINE
  5
111
330
F1
100
AcDbEntity
  8
AM_9
100
AcDbLine
 10
39.422
 20
-19.9
 30
0.0
 11
39.422
 21
-23.86666666666667
 31
0.0
  0
LINE
  5
112
330
F1
100
AcDbEntity
  8
AM_9
100
AcDbLine
 10
-66.7
 20
-23.86666666666667
 30
0.0
 11
-39.42199999999999
 21
-23.86666666666667
 31
0.0
  0
LINE
  5
113
330
F1
100
AcDbEntity
  8
AM_9
100
AcDbLine
 10
-39.42199999999999
 20
-19.9
 30
0.0
 11
-39.42199999999999
 21
-23.86666666666667
 31
0.0
  0
LINE
  5
114
330
F1
100
AcDbEntity
  8
AM_9
100
AcDbLine
 10
-41.422
 20
-19.9
 30
0.0
 11
-41.422
 21
-23.86666666666667
 31
0.0
  0
LINE
  5
115
330
F1
100
AcDbEntity
  8
AM_9
100
AcDbLine
 10
66.7
 20
-23.86666666666667
 30
0.0
 11
39.422
 21
-23.86666666666667
 31
0.0
  0
LINE
  5
116
330
F1
100
AcDbEntity
  8
AM_9
100
AcDbLine
 10
8.51322
 20
29.29999999999999
 30
0.0
 11
8.51322
 21
30.1200113750244
 31
0.0
  0
LINE
  5
117
330
F1
100
AcDbEntity
  8
AM_9
100
AcDbLine
 10
4.23717
 20
29.29999999999999
 30
0.0
 11
4.23717
 21
31.01187498993086
 31
0.0
  0
LINE
  5
118
330
F1
100
AcDbEntity
  8
AM_9
100
AcDbLine
 10
2.37126
 20
29.29999999999999
 30
0.0
 11
2.37126
 21
31.2100484782129
 31
0.0
  0
LINE
  5
119
330
F1
100
AcDbEntity
  8
AM_9
100
AcDbLine
 10
-5.09238
 20
29.29999999999999
 30
0.0
 11
-5.09238
 21
30.88296724629288
 31
0.0
  0
LINE
  5
11A
330
F1
100
AcDbEntity
  8
AM_9
100
AcDbLine
 10
-5.71435
 20
29.29999999999999
 30
0.0
 11
-5.71435
 21
30.77395333845653
 31
0.0
  0
LINE
  5
11B
330
F1
100
AcDbEntity
  8
AM_9
100
AcDbLine
 10
1.74929
 20
29.29999999999999
 30
0.0
 11
1.74929
 21
31.25107973328119
 31
0.0
  0
LINE
  5
11C
330
F1
100
AcDbEntity
  8
AM_9
100
AcDbLine
 10
-1.98253
 20
29.29999999999999
 30
0.0
 11
-1.98253
 21
31.23715055505382
 31
0.0
  0
LINE
  5
11D
330
F1
100
AcDbEntity
  8
AM_9
100
AcDbLine
 10
-2.44901
 20
29.29999999999999
 30
0.0
 11
-2.44901
 21
31.20404380877419
 31
0.0
  0
LINE
  5
11E
330
F1
100
AcDbEntity
  8
AM_9
100
AcDbLine
 10
1.28281
 20
29.29999999999999
 30
0.0
 11
1.28281
 21
31.27370138796972
 31
0.0
  0
LINE
  5
11F
330
F1
100
AcDbEntity
  8
AM_9
100
AcDbLine
 10
-6.18083
 20
29.29999999999999
 30
0.0
 11
-6.18083
 21
30.68366569546571
 31
0.0
  0
LINE
  5
120
330
F1
100
AcDbEntity
  8
AM_9
100
AcDbLine
 10
-4.6259
 20
29.29999999999999
 30
0.0
 11
-4.6259
 21
30.95627641028551
 31
0.0
  0
LINE
  5
121
330
F1
100
AcDbEntity
  8
AM_9
100
AcDbLine
 10
2.83774
 20
29.29999999999999
 30
0.0
 11
2.83774
 21
31.17109609385591
 31
0.0
  0
LINE
  5
122
330
F1
100
AcDbEntity
  8
AM_9
100
AcDbLine
 10
1.67155
 20
29.29999999999999
 30
0.0
 11
1.67155
 21
31.25533427428828
 31
0.0
  0
LINE
  5
123
330
F1
100
AcDbEntity
  8
AM_9
100
AcDbLine
 10
2.44901
 20
29.29999999999999
 30
0.0
 11
2.44901
 21
31.20404380877419
 31
0.0
  0
LINE
  5
124
330
F1
100
AcDbEntity
  8
AM_9
100
AcDbLine
 10
-5.7921
 20
29.29999999999999
 30
0.0
 11
-5.7921
 21
30.75941445460233
 31
0.0
  0
LINE
  5
125
330
F1
100
AcDbEntity
  8
AM_9
100
AcDbLine
 10
-2.06028
 20
29.29999999999999
 30
0.0
 11
-2.06028
 21
31.23211882536308
 31
0.0
  0
LINE
  5
126
330
F1
100
AcDbEntity
  8
AM_9
100
AcDbLine
 10
5.40337
 20
29.29999999999999
 30
0.0
 11
5.40337
 21
30.83007610504877
 31
0.0
  0
LINE
  5
127
330
F1
100
AcDbEntity
  8
AM_9
100
AcDbLine
 10
-5.01464
 20
29.29999999999999
 30
0.0
 11
-5.01464
 21
30.89568555106683
 31
0.0
  0
LINE
  5
128
330
F1
100
AcDbEntity
  8
AM_9
100
AcDbLine
 10
4.93689
 20
29.29999999999999
 30
0.0
 11
4.93689
 21
30.90820468949789
 31
0.0
  0
LINE
  5
129
330
F1
100
AcDbEntity
  8
AM_9
100
AcDbLine
 10
1.04957
 20
29.29999999999999
 30
0.0
 11
1.04957
 21
31.28239765131662
 31
0.0
  0
LINE
  5
12A
330
F1
100
AcDbEntity
  8
AM_9
100
AcDbLine
 10
-4.859140000000001
 20
29.29999999999999
 30
0.0
 11
-4.859140000000001
 21
30.92052325657507
 31
0.0
  0
LINE
  5
12B
330
F1
100
AcDbEntity
  8
AM_9
100
AcDbLine
 10
-2.21577
 20
29.29999999999999
 30
0.0
 11
-2.21577
 21
31.22147279208813
 31
0.0
  0
LINE
  5
12C
330
F1
100
AcDbEntity
  8
AM_9
100
AcDbLine
 10
-2.68225
 20
29.29999999999999
 30
0.0
 11
-2.68225
 21
31.18486066888065
 31
0.0
  0
LINE
  5
12D
330
F1
100
AcDbEntity
  8
AM_9
100
AcDbLine
 10
-6.41407
 20
29.29999999999999
 30
0.0
 11
-6.41407
 21
30.63575861693488
 31
0.0
  0
LINE
  5
12E
330
F1
100
AcDbEntity
  8
AM_9
100
AcDbLine
 10
-5.94759
 20
29.29999999999999
 30
0.0
 11
-5.94759
 21
30.7297278411622
 31
0.0
  0
LINE
  5
12F
330
F1
100
AcDbEntity
  8
AM_9
100
AcDbLine
 10
5.32562
 20
29.29999999999999
 30
0.0
 11
5.32562
 21
30.84360179381778
 31
0.0
  0
LINE
  5
130
330
F1
100
AcDbEntity
  8
AM_9
100
AcDbLine
 10
2.6045
 20
29.29999999999999
 30
0.0
 11
2.6045
 21
31.19145042716031
 31
0.0
  0
LINE
  5
131
330
F1
100
AcDbEntity
  8
AM_9
100
AcDbLine
 10
-4.39266
 20
29.29999999999999
 30
0.0
 11
-4.39266
 21
30.99023294724321
 31
0.0
  0
LINE
  5
132
330
F1
100
AcDbEntity
  8
AM_9
100
AcDbLine
 10
4.859140000000001
 20
29.29999999999999
 30
0.0
 11
4.859140000000001
 21
30.92052325657507
 31
0.0
  0
LINE
  5
133
330
F1
100
AcDbEntity
  8
AM_9
100
AcDbLine
 10
3.07098
 20
29.29999999999999
 30
0.0
 11
3.07098
 21
31.14898203536672
 31
0.0
  0
LINE
  5
134
330
F1
100
AcDbEntity
  8
AM_9
100
AcDbLine
 10
1.51605
 20
29.29999999999999
 30
0.0
 11
1.51605
 21
31.2632626639879
 31
0.0
  0
LINE
  5
135
330
F1
100
AcDbEntity
  8
AM_9
100
AcDbLine
 10
6.491810000000001
 20
29.29999999999999
 30
0.0
 11
6.491810000000001
 21
30.61937953198757
 31
0.0
  0
LINE
  5
136
330
F1
100
AcDbEntity
  8
AM_9
100
AcDbLine
 10
-8.35773
 20
29.29999999999999
 30
0.0
 11
-8.35773
 21
30.16352680385865
 31
0.0
  0
LINE
  5
137
330
F1
100
AcDbEntity
  8
AM_9
100
AcDbLine
 10
0.816336
 20
29.29999999999999
 30
0.0
 11
0.816336
 21
31.28935275033831
 31
0.0
  0
LINE
  5
138
330
F1
100
AcDbEntity
  8
AM_9
100
AcDbLine
 10
-6.64731
 20
29.29999999999999
 30
0.0
 11
-6.64731
 21
30.5859979363744
 31
0.0
  0
LINE
  5
139
330
F1
100
AcDbEntity
  8
AM_9
100
AcDbLine
 10
-4.15943
 20
29.29999999999999
 30
0.0
 11
-4.15943
 21
31.02239742629669
 31
0.0
  0
LINE
  5
13A
330
F1
100
AcDbEntity
  8
AM_9
100
AcDbLine
 10
-2.91549
 20
29.29999999999999
 30
0.0
 11
-2.91549
 21
31.16392013306253
 31
0.0
  0
LINE
  5
13B
330
F1
100
AcDbEntity
  8
AM_9
100
AcDbLine
 10
4.6259
 20
29.29999999999999
 30
0.0
 11
4.6259
 21
30.95627641028551
 31
0.0
  0
LINE
  5
13C
330
F1
100
AcDbEntity
  8
AM_9
100
AcDbLine
 10
-0.894082
 20
29.29999999999999
 30
0.0
 11
-0.894082
 21
31.28722770360575
 31
0.0
  0
LINE
  5
13D
330
F1
100
AcDbEntity
  8
AM_9
100
AcDbLine
 10
3.30422
 20
29.29999999999999
 30
0.0
 11
3.30422
 21
31.12510450089444
 31
0.0
  0
LINE
  5
13E
330
F1
100
AcDbEntity
  8
AM_9
100
AcDbLine
 10
1.20507
 20
29.29999999999999
 30
0.0
 11
1.20507
 21
31.2767934145286
 31
0.0
  0
LINE
  5
13F
330
F1
100
AcDbEntity
  8
AM_9
100
AcDbLine
 10
5.01464
 20
29.29999999999999
 30
0.0
 11
5.01464
 21
30.89568555106683
 31
0.0
  0
LINE
  5
140
330
F1
100
AcDbEntity
  8
AM_9
100
AcDbLine
 10
-2.52675
 20
29.29999999999999
 30
0.0
 11
-2.52675
 21
31.19784502874356
 31
0.0
  0
LINE
  5
141
330
F1
100
AcDbEntity
  8
AM_9
100
AcDbLine
 10
-4.54816
 20
29.29999999999999
 30
0.0
 11
-4.54816
 21
30.96779360261883
 31
0.0
  0
LINE
  5
142
330
F1
100
AcDbEntity
  8
AM_9
100
AcDbLine
 10
-6.25858
 20
29.29999999999999
 30
0.0
 11
-6.25858
 21
30.66790140168706
 31
0.0
  0
LINE
  5
143
330
F1
100
AcDbEntity
  8
AM_9
100
AcDbLine
 10
2.91549
 20
29.29999999999999
 30
0.0
 11
2.91549
 21
31.16392013306251
 31
0.0
  0
LINE
  5
144
330
F1
100
AcDbEntity
  8
AM_9
100
AcDbLine
 10
3.22647
 20
29.29999999999999
 30
0.0
 11
3.22647
 21
31.1332602105706
 31
0.0
  0
LINE
  5
145
330
F1
100
AcDbEntity
  8
AM_9
100
AcDbLine
 10
-4.23717
 20
29.29999999999999
 30
0.0
 11
-4.23717
 21
31.01187498993085
 31
0.0
  0
LINE
  5
146
330
F1
100
AcDbEntity
  8
AM_9
100
AcDbLine
 10
4.703650000000001
 20
29.29999999999999
 30
0.0
 11
4.703650000000001
 21
30.94455811087789
 31
0.0
  0
LINE
  5
147
330
F1
100
AcDbEntity
  8
AM_9
100
AcDbLine
 10
-2.83774
 20
29.29999999999999
 30
0.0
 11
-2.83774
 21
31.17109609385593
 31
0.0
  0
LINE
  5
148
330
F1
100
AcDbEntity
  8
AM_9
100
AcDbLine
 10
-6.56956
 20
29.29999999999999
 30
0.0
 11
-6.56956
 21
30.60279205246474
 31
0.0
  0
LINE
  5
149
330
F1
100
AcDbEntity
  8
AM_9
100
AcDbLine
 10
0.894082
 20
29.29999999999999
 30
0.0
 11
0.894082
 21
31.28722770360575
 31
0.0
  0
LINE
  5
14A
330
F1
100
AcDbEntity
  8
AM_9
100
AcDbLine
 10
4.31492
 20
29.29999999999999
 30
0.0
 11
4.31492
 21
31.00115264620978
 31
0.0
  0
LINE
  5
14B
330
F1
100
AcDbEntity
  8
AM_9
100
AcDbLine
 10
3.6152
 20
29.29999999999999
 30
0.0
 11
3.6152
 21
31.09051831282327
 31
0.0
  0
LINE
  5
14C
330
F1
100
AcDbEntity
  8
AM_9
100
AcDbLine
 10
8.8242
 20
29.29999999999999
 30
0.0
 11
8.8242
 21
30.03037619411384
 31
0.0
  0
LINE
  5
14D
330
F1
100
AcDbEntity
  8
AM_9
100
AcDbLine
 10
-5.09238
 20
29.29999999999999
 30
0.0
 11
-1.98253
 21
29.29999999999999
 31
0.0
  0
LINE
  5
14E
330
F1
100
AcDbEntity
  8
AM_9
100
AcDbLine
 10
-6.95829
 20
29.29999999999999
 30
0.0
 11
-6.95829
 21
30.51675278065966
 31
0.0
  0
LINE
  5
14F
330
F1
100
AcDbEntity
  8
AM_9
100
AcDbLine
 10
6.02534
 20
29.29999999999999
 30
0.0
 11
8.8242
 21
29.29999999999999
 31
0.0
  0
LINE
  5
150
330
F1
100
AcDbEntity
  8
AM_9
100
AcDbLine
 10
-1.36056
 20
29.29999999999999
 30
0.0
 11
1.74929
 21
29.29999999999999
 31
0.0
  0
LINE
  5
151
330
F1
100
AcDbEntity
  8
AM_9
100
AcDbLine
 10
6.02534
 20
29.29999999999999
 30
0.0
 11
6.02534
 21
30.71457761201348
 31
0.0
  0
LINE
  5
152
330
F1
100
AcDbEntity
  8
AM_9
100
AcDbLine
 10
-1.36056
 20
29.29999999999999
 30
0.0
 11
-1.36056
 21
31.27041535519475
 31
0.0
  0
LINE
  5
153
330
F1
100
AcDbEntity
  8
AM_9
100
AcDbLine
 10
-3.22647
 20
29.29999999999999
 30
0.0
 11
-3.22647
 21
31.1332602105706
 31
0.0
  0
LINE
  5
154
330
F1
100
AcDbEntity
  8
AM_9
100
AcDbLine
 10
-3.84844
 20
29.29999999999999
 30
0.0
 11
-3.84844
 21
31.06250971132885
 31
0.0
  0
LINE
  5
155
330
F1
100
AcDbEntity
  8
AM_9
100
AcDbLine
 10
2.37126
 20
29.29999999999999
 30
0.0
 11
5.40337
 21
29.29999999999999
 31
0.0
  0
LINE
  5
156
330
F1
100
AcDbEntity
  8
AM_9
100
AcDbLine
 10
0.505351
 20
29.29999999999999
 30
0.0
 11
0.505351
 21
31.29592018725121
 31
0.0
  0
LINE
  5
157
330
F1
100
AcDbEntity
  8
AM_9
100
AcDbLine
 10
-8.8242
 20
29.29999999999999
 30
0.0
 11
-5.71435
 21
29.29999999999999
 31
0.0
  0
LINE
  5
158
330
F1
100
AcDbEntity
  8
AM_9
100
AcDbLine
 10
-8.8242
 20
29.29999999999999
 30
0.0
 11
-8.8242
 21
30.03037619411384
 31
0.0
  0
LINE
  5
159
330
F1
100
AcDbEntity
  8
AM_9
100
AcDbLine
 10
-53.2
 20
-19.9
 30
0.0
 11
-53.2
 21
-31.8
 31
0.0
  0
LINE
  5
15A
330
F1
100
AcDbEntity
  8
AM_9
100
AcDbLine
 10
-58.725
 20
-19.9
 30
0.0
 11
-58.725
 21
-31.8
 31
0.0
  0
LINE
  5
15B
330
F1
100
AcDbEntity
  8
AM_9
100
AcDbLine
 10
42.85
 20
-19.9
 30
0.0
 11
42.85
 21
-31.8
 31
0.0
  0
LINE
  5
15C
330
F1
100
AcDbEntity
  8
AM_9
100
AcDbLine
 10
37.325
 20
-19.9
 30
0.0
 11
37.325
 21
-31.8
 31
0.0
  0
LINE
  5
15D
330
F1
100
AcDbEntity
  8
AM_9
100
AcDbLine
 10
53.2
 20
-19.9
 30
0.0
 11
53.2
 21
-31.8
 31
0.0
  0
LINE
  5
15E
330
F1
100
AcDbEntity
  8
AM_9
100
AcDbLine
 10
58.725
 20
-31.8
 30
0.0
 11
58.725
 21
-19.9
 31
0.0
  0
LINE
  5
15F
330
F1
100
AcDbEntity
  8
AM_9
100
AcDbLine
 10
-42.85
 20
-19.9
 30
0.0
 11
-42.85
 21
-31.8
 31
0.0
  0
LINE
  5
160
330
F1
100
AcDbEntity
  8
AM_9
100
AcDbLine
 10
-37.325
 20
-31.8
 30
0.0
 11
-37.325
 21
-19.9
 31
0.0
  0
LWPOLYLINE
  5
161
330
F1
100
AcDbEntity
  8
AM_9
100
AcDbPolyline
 90
        6
 70
     0
 43
0.0
 10
29.75464529476307
 20
9.713448583424627
 10
29.5935951307215
 20
10.19353570231888
 10
29.46466597481831
 20
10.56046679803429
 10
29.38032658665308
 20
10.79314169536299
 10
29.35000355058151
 20
10.87507662413718
 10
29.35000000000289
 20
10.87508620654706
  0
LINE
  5
162
330
F1
100
AcDbEntity
  8
AM_9
100
AcDbLine
 10
29.35
 20
10.87428774515224
 30
0.0
 11
29.35
 21
-19.9
 31
0.0
  0
LINE
  5
163
330
F1
100
AcDbEntity
  8
AM_9
100
AcDbLine
 10
-29.35
 20
-19.9
 30
0.0
 11
-29.35
 21
10.87428774515224
 31
0.0
  0
LINE
  5
164
330
F1
100
AcDbEntity
  8
AM_9
100
AcDbLine
 10
55.55
 20
-19.9
 30
0.0
 11
55.55
 21
-21.09
 31
0.0
  0
LINE
  5
165
330
F1
100
AcDbEntity
  8
AM_9
100
AcDbLine
 10
58.75
 20
-21.09
 30
0.0
 11
58.75
 21
-19.9
 31
0.0
  0
LINE
  5
166
330
F1
100
AcDbEntity
  8
AM_9
100
AcDbLine
 10
55.55
 20
-21.09
 30
0.0
 11
58.75
 21
-21.09
 31
0.0
  0
LINE
  5
167
330
F1
100
AcDbEntity
  8
AM_9
100
AcDbLine
 10
-58.75
 20
-19.9
 30
0.0
 11
-58.75
 21
-21.09
 31
0.0
  0
LINE
  5
168
330
F1
100
AcDbEntity
  8
AM_9
100
AcDbLine
 10
-55.55
 20
-21.09
 30
0.0
 11
-55.55
 21
-19.9
 31
0.0
  0
LINE
  5
169
330
F1
100
AcDbEntity
  8
AM_9
100
AcDbLine
 10
-58.75
 20
-21.09
 30
0.0
 11
-55.55
 21
-21.09
 31
0.0
  0
LINE
  5
16C
330
F1
100
AcDbEntity
  8
AM_7
100
AcDbLine
 10
42.85
 20
-23.055
 30
0.0
 11
42.85
 21
46.35500000000001
 31
0.0
  0
LINE
  5
16D
330
F1
100
AcDbEntity
  8
AM_7
100
AcDbLine
 10
-42.85
 20
-23.055
 30
0.0
 11
-42.85
 21
46.35500000000001
 31
0.0
  0
LINE
  5
16E
330
F1
100
AcDbEntity
  8
AM_7
100
AcDbLine
 10
17.3857792953407
 20
17.38577929534069
 30
0.0
 11
30.0299041248882
 21
30.0299041248882
 31
0.0
  0
LINE
  5
16F
330
F1
100
AcDbEntity
  8
AM_7
100
AcDbLine
 10
-57.15
 20
-21.209
 30
0.0
 11
-57.15
 21
-18.591
 31
0.0
  0
LINE
  5
170
330
F1
100
AcDbEntity
  8
AM_7
100
AcDbLine
 10
57.15
 20
-21.209
 30
0.0
 11
57.15
 21
-18.591
 31
0.0
  0
LINE
  5
171
330
F1
100
AcDbEntity
  8
AM_7
100
AcDbLine
 10
-24.67500000000001
 20
0.0000000000000018
 30
0.0
 11
24.67499999999999
 21
0.0000000000000018
 31
0.0
  0
LINE
  5
172
330
F1
100
AcDbEntity
  8
AM_7
100
AcDbLine
 10
-0.0000000000000142
 20
-24.675
 30
0.0
 11
-0.0000000000000142
 21
24.675
 31
0.0
  0
LINE
  5
173
330
F1
100
AcDbEntity
  8
AM_4
100
AcDbLine
 10
30.00191342306256
 20
27.69799992175972
 30
0.0
 11
27.69799995551917
 21
30.00191338930311
 31
0.0
  0
ARC
  5
174
330
F1
100
AcDbEntity
  8
AM_4
100
AcDbCircle
 10
27.55657856552244
 20
29.86049206682531
 30
0.0
 40
0.1999999999999343
100
AcDbArc
 50
44.99999999999136
 51
107.3005271919548
  0
ARC
  5
175
330
F1
100
AcDbEntity
  8
AM_4
100
AcDbCircle
 10
29.86049206682531
 20
27.55657856552243
 30
0.0
 40
0.1999999999999447
100
AcDbArc
 50
342.6994728080483
 51
45.00000000000647
  0
LINE
  5
176
330
F1
100
AcDbEntity
  8
AM_4
100
AcDbLine
 10
30.05144367947449
 20
27.49710183371364
 30
0.0
 11
27.49710183371365
 21
30.05144367947448
 31
0.0
  0
LINE
  5
177
330
F1
100
AcDbEntity
  8
AM_4
100
AcDbLine
 10
27.49710183371365
 20
30.05144367947448
 30
0.0
 11
25.78335484072912
 21
29.51765363247932
 31
0.0
  0
LINE
  5
178
330
F1
100
AcDbEntity
  8
AM_4
100
AcDbLine
 10
29.51765363247932
 20
25.78335484072911
 30
0.0
 11
30.05144367947449
 21
27.49710183371364
 31
0.0
  0
LINE
  5
179
330
F1
100
AcDbEntity
  8
AM_4
100
AcDbLine
 10
29.51765363247932
 20
25.78335484072911
 30
0.0
 11
25.78335484072912
 21
29.51765363247932
 31
0.0
  0
ARC
  5
17A
330
F1
100
AcDbEntity
  8
AM_4
100
AcDbCircle
 10
25.93204667025103
 20
29.04027460085623
 30
0.0
 40
0.4999999999999654
100
AcDbArc
 50
107.3005271919411
 51
172.2172747954422
  0
ARC
  5
17B
330
F1
100
AcDbEntity
  8
AM_4
100
AcDbCircle
 10
29.04027460085623
 20
25.93204667025103
 30
0.0
 40
0.4999999999999728
100
AcDbArc
 50
277.7827252045586
 51
342.6994728080582
  0
LINE
  5
17C
330
F1
100
AcDbEntity
  8
AM_4
100
AcDbLine
 10
23.33452377915606
 20
27.29432175380073
 30
0.0
 11
22.98097038856279
 21
26.94076836320747
 31
0.0
  0
LINE
  5
17D
330
F1
100
AcDbEntity
  8
AM_4
100
AcDbLine
 10
26.94076836320748
 20
22.98097038856278
 30
0.0
 11
27.29432175380074
 21
23.33452377915605
 31
0.0
  0
LINE
  5
17E
330
F1
100
AcDbEntity
  8
AM_4
100
AcDbLine
 10
27.29432175380075
 20
23.33452377915605
 30
0.0
 11
23.33452377915606
 21
27.29432175380073
 31
0.0
  0
LINE
  5
17F
330
F1
100
AcDbEntity
  8
AM_4
100
AcDbLine
 10
29.10798302773492
 20
25.43665231326905
 30
0.0
 11
25.43665231326906
 21
29.10798302773492
 31
0.0
  0
ARC
  5
180
330
F1
100
AcDbEntity
  8
AM_4
100
AcDbCircle
 10
23.3580940051956
 20
29.39207187132084
 30
0.0
 40
2.097882530341291
100
AcDbArc
 50
269.3562542858249
 51
352.2172695091482
  0
ARC
  5
181
330
F1
100
AcDbEntity
  8
AM_4
100
AcDbCircle
 10
29.39207187132084
 20
23.35809400519561
 30
0.0
 40
2.09788253034128
100
AcDbArc
 50
97.78273049085185
 51
180.6437457141753
  0
LINE
  5
182
330
F1
100
AcDbEntity
  8
AM_4
100
AcDbLine
 10
20.50609665440988
 20
24.46589462905455
 30
0.0
 11
20.06440290916981
 21
24.02420088381448
 31
0.0
  0
LINE
  5
183
330
F1
100
AcDbEntity
  8
AM_4
100
AcDbLine
 10
24.02360557219594
 20
20.06380759755126
 30
0.0
 11
24.46589462905455
 21
20.50609665440987
 31
0.0
  0
LINE
  5
184
330
F1
100
AcDbEntity
  8
AM_4
100
AcDbLine
 10
19.65756851698603
 20
25.3144227664784
 30
0.0
 11
22.13244225113895
 21
27.78929650063132
 31
0.0
  0
LINE
  5
185
330
F1
100
AcDbEntity
  8
AM_4
100
AcDbLine
 10
27.78929650063133
 20
22.13244225113894
 30
0.0
 11
22.13244225113895
 21
27.78929650063132
 31
0.0
  0
LINE
  5
186
330
F1
100
AcDbEntity
  8
AM_4
100
AcDbLine
 10
25.3144227664784
 20
19.65756851698603
 30
0.0
 11
19.65756851698603
 21
25.3144227664784
 31
0.0
  0
LINE
  5
187
330
F1
100
AcDbEntity
  8
AM_4
100
AcDbLine
 10
27.78929650063133
 20
22.13244225113894
 30
0.0
 11
25.3144227664784
 21
19.65756851698603
 31
0.0
  0
LWPOLYLINE
  5
188
330
F1
100
AcDbEntity
  8
AM_4
100
AcDbPolyline
 90
        3
 70
     0
 43
0.0
 10
27.67205286662792
 20
22.01519861713554
 10
27.05414936885922
 20
22.80514999675441
 10
26.37508293825823
 20
23.54665581351204
  0
LWPOLYLINE
  5
189
330
F1
100
AcDbEntity
  8
AM_4
100
AcDbPolyline
 90
        3
 70
     0
 43
0.0
 10
26.37508293825823
 20
23.54665581351204
 10
25.63702985703859
 20
24.22281629466549
 10
24.84362574188173
 20
24.84362574188172
  0
LWPOLYLINE
  5
18A
330
F1
100
AcDbEntity
  8
AM_4
100
AcDbPolyline
 90
        3
 70
     0
 43
0.0
 10
22.60323927573562
 20
22.60323927573561
 10
23.22114277350432
 20
21.81328789611674
 10
23.90020920410531
 20
21.07178207935911
  0
LWPOLYLINE
  5
18B
330
F1
100
AcDbEntity
  8
AM_4
100
AcDbPolyline
 90
        3
 70
     0
 43
0.0
 10
23.90020920410531
 20
21.07178207935911
 10
24.63826228532495
 20
20.39562159820566
 10
25.43166640048181
 20
19.77481215098943
  0
LWPOLYLINE
  5
18C
330
F1
100
AcDbEntity
  8
AM_4
100
AcDbPolyline
 90
        3
 70
     0
 43
0.0
 10
24.84362574188173
 20
24.84362574188172
 10
24.22572224411303
 20
25.6335771215006
 10
23.54665581351204
 20
26.37508293825822
  0
LWPOLYLINE
  5
18D
330
F1
100
AcDbEntity
  8
AM_4
100
AcDbPolyline
 90
        3
 70
     0
 43
0.0
 10
23.54665581351204
 20
26.37508293825822
 10
22.8086027322924
 20
27.05124341941168
 10
22.01519861713554
 20
27.67205286662791
  0
LWPOLYLINE
  5
18E
330
F1
100
AcDbEntity
  8
AM_4
100
AcDbPolyline
 90
        3
 70
     0
 43
0.0
 10
19.77481215098943
 20
25.43166640048181
 10
20.39271564875813
 20
24.64171502086293
 10
21.07178207935912
 20
23.90020920410531
  0
LWPOLYLINE
  5
18F
330
F1
100
AcDbEntity
  8
AM_4
100
AcDbPolyline
 90
        3
 70
     0
 43
0.0
 10
21.07178207935912
 20
23.90020920410531
 10
21.80983516057876
 20
23.22404872295185
 10
22.60323927573562
 20
22.60323927573561
  0
LINE
  5
190
330
F1
100
AcDbEntity
  8
AM_4
100
AcDbLine
 10
22.60323927573562
 20
22.60323927573561
 30
0.0
 11
24.84362574188173
 21
24.84362574188172
 31
0.0
  0
ARC
  5
191
330
F1
100
AcDbEntity
  8
AM_4
100
AcDbCircle
 10
0.0000000000000018
 20
0.0000000000000018
 30
0.0
 40
23.5
100
AcDbArc
 50
165.9627190701568
 51
14.03728092984324
  0
LINE
  5
192
330
F1
100
AcDbEntity
  8
AM_4
100
AcDbLine
 10
25.17999999999999
 20
-27.83333333333334
 30
0.0
 11
-25.18
 21
-27.83333333333334
 31
0.0
  0
LINE
  5
193
330
F1
100
AcDbEntity
  8
AM_4
100
AcDbLine
 10
25.17999999999999
 20
5.700000000000011
 30
0.0
 11
25.17999999999999
 21
-27.83333333333334
 31
0.0
  0
LWPOLYLINE
  5
194
330
F1
100
AcDbEntity
  8
AM_4
100
AcDbPolyline
 90
       19
 70
     0
 43
0.0
 10
26.68
 20
-29.33333333333334
 10
26.67429204713762
 20
-29.20259971921185
 10
26.65721162951831
 20
-29.07286106683294
 10
26.6288887394336
 20
-28.94510476567956
 10
26.58953893117886
 20
-28.82030311834483
 10
26.53946168055498
 20
-28.69940594072229
 10
26.47903810567665
 20
-28.58333333333334
 10
26.40872806643349
 20
-28.47296867880677
 10
26.32906666467847
 20
-28.36915191880353
 10
26.24066017177982
 20
-28.27267316155352
 10
26.14418141452981
 20
-28.18426666865487
 10
26.04036465452657
 20
-28.10460526689985
 10
25.93
 20
-28.03429522765668
 10
25.81392739261105
 20
-27.97387165277836
 10
25.6930302149885
 20
-27.92379440215447
 10
25.56822856765378
 20
-27.88444459389974
 10
25.4404722665004
 20
-27.85612170381502
 10
25.31073361412149
 20
-27.83904128619572
 10
25.18
 20
-27.83333333333334
  0
LWPOLYLINE
  5
195
330
F1
100
AcDbEntity
  8
AM_4
100
AcDbPolyline
 90
       19
 70
     0
 43
0.0
 10
-25.18
 20
-27.83333333333334
 10
-25.31073361412149
 20
-27.83904128619572
 10
-25.4404722665004
 20
-27.85612170381502
 10
-25.56822856765378
 20
-27.88444459389973
 10
-25.6930302149885
 20
-27.92379440215447
 10
-25.81392739261105
 20
-27.97387165277836
 10
-25.93
 20
-28.03429522765668
 10
-26.04036465452657
 20
-28.10460526689985
 10
-26.14418141452981
 20
-28.18426666865487
 10
-26.24066017177982
 20
-28.27267316155352
 10
-26.32906666467847
 20
-28.36915191880352
 10
-26.40872806643349
 20
-28.47296867880677
 10
-26.47903810567666
 20
-28.58333333333334
 10
-26.53946168055498
 20
-28.69940594072229
 10
-26.58953893117886
 20
-28.82030311834483
 10
-26.62888873943361
 20
-28.94510476567955
 10
-26.65721162951831
 20
-29.07286106683294
 10
-26.67429204713762
 20
-29.20259971921185
 10
-26.68
 20
-29.33333333333334
  0
LINE
  5
196
330
F1
100
AcDbEntity
  8
AM_4
100
AcDbLine
 10
-25.18
 20
5.699999999999976
 30
0.0
 11
-25.18
 21
-27.83333333333334
 31
0.0
  0
LINE
  5
197
330
F1
100
AcDbEntity
  8
AM_4
100
AcDbLine
 10
28.17999999999999
 20
-19.90000000000002
 30
0.0
 11
65.20000000000002
 21
-19.9
 31
0.0
  0
LINE
  5
198
330
F1
100
AcDbEntity
  8
AM_4
100
AcDbLine
 10
66.7
 20
-21.39999999999999
 30
0.0
 11
66.7
 21
-31.8
 31
0.0
  0
LWPOLYLINE
  5
199
330
F1
100
AcDbEntity
  8
AM_4
100
AcDbPolyline
 90
       19
 70
     0
 43
0.0
 10
65.20000000000002
 20
-19.9
 10
65.3307336141215
 20
-19.90570795286238
 10
65.46047226650042
 20
-19.92278837048169
 10
65.5882285676538
 20
-19.9511112605664
 10
65.71303021498852
 20
-19.99046106882114
 10
65.83392739261106
 20
-20.04053831944502
 10
65.95
 20
-20.10096189432334
 10
66.06036465452658
 20
-20.1712719335665
 10
66.16418141452982
 20
-20.25093333532153
 10
66.26066017177982
 20
-20.33933982822017
 10
66.34906666467847
 20
-20.43581858547018
 10
66.4287280664335
 20
-20.53963534547342
 10
66.49903810567668
 20
-20.64999999999999
 10
66.55946168055499
 20
-20.76607260738894
 10
66.60953893117886
 20
-20.88696978501148
 10
66.64888873943362
 20
-21.0117714323462
 10
66.67721162951833
 20
-21.13952773349959
 10
66.69429204713762
 20
-21.2692663858785
 10
66.7
 20
-21.39999999999998
  0
LINE
  5
19A
330
F1
100
AcDbEntity
  8
AM_4
100
AcDbLine
 10
-29.75464529476307
 20
9.713448583424627
 30
0.0
 11
-39.42200000000001
 21
-19.90000000000001
 31
0.0
  0
LWPOLYLINE
  5
19B
330
F1
100
AcDbEntity
  8
AM_4
100
AcDbPolyline
 90
       19
 70
     0
 43
0.0
 10
-25.17999995001999
 20
5.699999999999978
 10
-25.31073356433167
 20
5.647967899669218
 10
-25.44047221727969
 20
5.492267514961265
 10
-25.5682285193768
 20
5.234083819818202
 10
-25.69303016802266
 20
4.875381748055649
 10
-25.81392734731378
 20
4.418891239029952
 10
-25.92999995671604
 20
3.868086461151301
 10
-26.04036461358534
 20
3.227159371364372
 10
-26.1441813762429
 20
2.5009878118248
 10
-26.24066013643862
 20
1.695098386575054
 10
-26.32906663255194
 20
0.8156244007506263
 10
-26.40872803776614
 20
-0.1307408175754438
 10
-26.47903808068666
 20
-1.136794857660753
 10
-26.53946165943251
 20
-2.194881040788218
 10
-26.5895389140847
 20
-3.296946692214332
 10
-26.62888872649783
 20
-4.434604426886308
 10
-26.65721162083938
 20
-5.59919598250677
 10
-26.67429204278158
 20
-6.781858114137838
 10
-26.68000000000001
 20
-7.973590048846883
  0
LINE
  5
19C
330
F1
100
AcDbEntity
  8
AM_4
100
AcDbLine
 10
-25.18
 20
5.699999999999976
 30
0.0
 11
-22.79824554653274
 21
5.699999999999997
 31
0.0
  0
LWPOLYLINE
  5
19D
330
F1
100
AcDbEntity
  8
AM_4
100
AcDbPolyline
 90
       32
 70
     0
 43
0.0
 10
22.79824554653274
 20
5.700000000000009
 10
22.21470360558802
 20
7.665307803074509
 10
21.46209435659999
 20
9.572277985328212
 10
20.54614561039134
 20
11.40639735221409
 10
19.47382828998571
 20
13.1537071478786
 10
18.25330337767427
 20
14.80090928972221
 10
16.8938598050128
 20
16.33546757483767
 10
15.40584375844374
 20
17.74570308808361
 10
13.80057993857013
 20
19.02088308568074
 10
12.090285372346
 20
20.15130267787262
 10
10.28797643412441
 20
21.12835868899667
 10
8.407369783189122
 20
21.94461513284566
 10
6.46277797169509
 20
22.59385980501279
 10
4.469000517504427
 20
23.07115156151823
 10
2.441211270919264
 20
23.37285792389833
 10
0.3948429325187383
 20
23.49668272456008
 10
-1.654530399010936
 20
23.44168358200299
 10
-3.691311755171368
 20
23.20827907291132
 10
-5.699999999999968
 20
22.79824554653275
 10
-7.665307803074468
 20
22.21470360558803
 10
-9.572277985328174
 20
21.46209435660001
 10
-11.40639735221406
 20
20.54614561039136
 10
-13.15370714787856
 20
19.47382828998573
 10
-14.80090928972218
 20
18.25330337767429
 10
-16.33546757483764
 20
16.89385980501283
 10
-17.74570308808358
 20
15.40584375844378
 10
-19.02088308568072
 20
13.80057993857016
 10
-20.1513026778726
 20
12.09028537234603
 10
-21.12835868899665
 20
10.28797643412445
 10
-21.94461513284564
 20
8.40736978318916
 10
-22.59385980501278
 20
6.462777971695131
 10
-22.79824554653275
 20
5.699999999999999
  0
LINE
  5
19E
330
F1
100
AcDbEntity
  8
AM_4
100
AcDbLine
 10
22.79824554653274
 20
5.700000000000024
 30
0.0
 11
25.17999999999999
 21
5.700000000000011
 31
0.0
  0
LWPOLYLINE
  5
19F
330
F1
100
AcDbEntity
  8
AM_4
100
AcDbPolyline
 90
       19
 70
     0
 43
0.0
 10
26.67999999999999
 20
-7.973590504451032
 10
26.67429204713761
 20
-6.781858568008278
 10
26.6572116295183
 20
-5.599196431189271
 10
26.6288887394336
 20
-4.434604866966125
 10
26.58953893117885
 20
-3.296947120342192
 10
26.53946168055497
 20
-2.194881453705808
 10
26.47903810567665
 20
-1.136795252225523
 10
26.40872806643348
 20
-0.1307411907845116
 10
26.32906666467846
 20
0.8156240517376012
 10
26.24066017177981
 20
1.695098064414271
 10
26.1441814145298
 20
2.500987518968097
 10
26.04036465452656
 20
3.227159110040571
 10
25.92999999999999
 20
3.868086233349234
 10
25.81392739261104
 20
4.418891046483329
 10
25.69303021498849
 20
4.875381592229866
 10
25.56822856765377
 20
5.234083701899187
 10
25.44047226650039
 20
5.492267435846453
 10
25.31073361412148
 20
5.647967859960723
 10
25.17999999999999
 20
5.700000000000004
  0
LINE
  5
1A0
330
F1
100
AcDbEntity
  8
AM_4
100
AcDbLine
 10
39.42200000000001
 20
-19.90000000000001
 30
0.0
 11
29.75464529476307
 21
9.71344858342462
 31
0.0
  0
LWPOLYLINE
  5
1A1
330
F1
100
AcDbEntity
  8
AM_4
100
AcDbPolyline
 90
       30
 70
     0
 43
0.0
 10
29.75464529476307
 20
9.71344858342463
 10
28.79483706031391
 20
12.26977418985258
 10
27.61588272903778
 20
14.73271940600353
 10
26.22675485526776
 20
17.08353973161559
 10
24.63802554090161
 20
19.30434400454674
 10
22.86178597532262
 20
21.37823056332169
 10
20.91155441414762
 20
23.28941587898122
 10
18.80217329713919
 20
25.0233546772679
 10
16.54969628827689
 20
26.56685063694592
 10
14.17126609768096
 20
27.90815682177376
 10
11.68498401523726
 20
29.03706508178209
 10
9.109772148851347
 20
29.9449837434588
 10
6.46522941578186
 20
30.62500299757223
 10
3.771482383046019
 20
31.07194748699175
 10
1.04903209209187
 20
31.2824156942804
 10
-1.681401966505993
 20
31.25480582929654
 10
-4.39903954088048
 20
30.98932801978399
 10
-7.083197768136169
 20
30.48800271217303
 10
-9.713448583424594
 20
29.75464529476307
 10
-12.26977418985254
 20
28.79483706031392
 10
-14.7327194060035
 20
27.61588272903779
 10
-17.08353973161557
 20
26.22675485526777
 10
-19.30434400454672
 20
24.63802554090162
 10
-21.37823056332167
 20
22.86178597532264
 10
-23.2894158789812
 20
20.91155441414765
 10
-25.02335467726789
 20
18.80217329713922
 10
-26.56685063694591
 20
16.54969628827692
 10
-27.90815682177376
 20
14.17126609768099
 10
-29.0370650817821
 20
11.6849840152373
 10
-29.75464529476307
 20
9.713448583424643
  0
LINE
  5
1A2
330
F1
100
AcDbEntity
  8
AM_4
100
AcDbLine
 10
66.7
 20
-31.8
 30
0.0
 11
26.67999999999999
 21
-31.8
 31
0.0
  0
LWPOLYLINE
  5
1A3
330
F1
100
AcDbEntity
  8
AM_4
100
AcDbPolyline
 90
       19
 70
     0
 43
0.0
 10
26.67999999999999
 20
-6.226409495548964
 10
26.68570795286237
 20
-7.418141431991715
 10
26.70278837048168
 20
-8.60080356881072
 10
26.73111126056639
 20
-9.765395133033863
 10
26.77046106882112
 20
-10.90305287965779
 10
26.82053831944501
 20
-12.00511854629417
 10
26.88096189432333
 20
-13.06320474777446
 10
26.9512719335665
 20
-14.06925880921547
 10
27.03093333532152
 20
-15.01562405173758
 10
27.11933982822016
 20
-15.89509806441425
 10
27.21581858547017
 20
-16.70098751896808
 10
27.31963534547341
 20
-17.42715911004056
 10
27.42999999999998
 20
-18.06808623334922
 10
27.54607260738893
 20
-18.61889104648332
 10
27.66696978501147
 20
-19.07538159222986
 10
27.7917714323462
 20
-19.43408370189918
 10
27.91952773349959
 20
-19.69226743584646
 10
28.04926638587849
 20
-19.84796785996073
 10
28.17999999999997
 20
-19.90000000000002
  0
LINE
  5
1A4
330
F1
100
AcDbEntity
  8
AM_4
100
AcDbLine
 10
26.67999999999999
 20
-6.226409495548965
 30
0.0
 11
26.67999999999999
 21
-31.8
 31
0.0
  0
LINE
  5
1A5
330
F1
100
AcDbEntity
  8
AM_4
100
AcDbLine
 10
28.17999999999999
 20
-31.8
 30
0.0
 11
28.17999999999999
 21
-19.90000000000002
 31
0.0
  0
LINE
  5
1A6
330
F1
100
AcDbEntity
  8
AM_4
100
AcDbLine
 10
62.95555555555556
 20
-19.9
 30
0.0
 11
62.95555555555556
 21
-31.8
 31
0.0
  0
LWPOLYLINE
  5
1A7
330
F1
100
AcDbEntity
  8
AM_4
100
AcDbPolyline
 90
       19
 70
     0
 43
0.0
 10
-28.18
 20
-19.90000000000002
 10
-28.04926638587852
 20
-19.84796785996074
 10
-27.91952773349961
 20
-19.69226743584647
 10
-27.79177143234622
 20
-19.4340837018992
 10
-27.6669697850115
 20
-19.07538159222988
 10
-27.54607260738895
 20
-18.61889104648335
 10
-27.43
 20
-18.06808623334925
 10
-27.31963534547343
 20
-17.42715911004059
 10
-27.2158185854702
 20
-16.70098751896812
 10
-27.11933982822018
 20
-15.89509806441429
 10
-27.03093333532154
 20
-15.01562405173762
 10
-26.95127193356651
 20
-14.06925880921551
 10
-26.88096189432335
 20
-13.0632047477745
 10
-26.82053831944503
 20
-12.00511854629421
 10
-26.77046106882114
 20
-10.90305287965783
 10
-26.7311112605664
 20
-9.765395133033898
 10
-26.70278837048169
 20
-8.60080356881075
 10
-26.68570795286239
 20
-7.418141431991743
 10
-26.68
 20
-6.226409495548989
  0
LINE
  5
1A8
330
F1
100
AcDbEntity
  8
AM_4
100
AcDbLine
 10
-28.18000000000001
 20
-31.8
 30
0.0
 11
-28.18
 21
-19.90000000000002
 31
0.0
  0
LINE
  5
1A9
330
F1
100
AcDbEntity
  8
AM_4
100
AcDbLine
 10
-26.68
 20
-31.8
 30
0.0
 11
-66.7
 21
-31.8
 31
0.0
  0
LINE
  5
1AA
330
F1
100
AcDbEntity
  8
AM_4
100
AcDbLine
 10
-26.68000000000001
 20
-6.226409495548972
 30
0.0
 11
-26.68
 21
-31.8
 31
0.0
  0
LINE
  5
1AB
330
F1
100
AcDbEntity
  8
AM_4
100
AcDbLine
 10
-65.19999999999997
 20
-19.9
 30
0.0
 11
-28.18
 21
-19.90000000000002
 31
0.0
  0
LINE
  5
1AC
330
F1
100
AcDbEntity
  8
AM_4
100
AcDbLine
 10
-62.95555555555556
 20
-31.8
 30
0.0
 11
-62.95555555555556
 21
-19.9
 31
0.0
  0
LWPOLYLINE
  5
1AD
330
F1
100
AcDbEntity
  8
AM_4
100
AcDbPolyline
 90
       19
 70
     0
 43
0.0
 10
-66.7
 20
-21.40000000000002
 10
-66.69429204713762
 20
-21.26926638587853
 10
-66.67721162951831
 20
-21.13952773349962
 10
-66.64888873943362
 20
-21.01177143234623
 10
-66.60953893117886
 20
-20.88696978501151
 10
-66.55946168055499
 20
-20.76607260738896
 10
-66.49903810567666
 20
-20.65000000000001
 10
-66.4287280664335
 20
-20.53963534547344
 10
-66.34906666467847
 20
-20.4358185854702
 10
-66.26066017177982
 20
-20.33933982822019
 10
-66.16418141452982
 20
-20.25093333532154
 10
-66.06036465452657
 20
-20.17127193356652
 10
-65.94999999999999
 20
-20.10096189432334
 10
-65.83392739261106
 20
-20.04053831944503
 10
-65.7130302149885
 20
-19.99046106882114
 10
-65.58822856765379
 20
-19.9511112605664
 10
-65.4604722665004
 20
-19.92278837048169
 10
-65.33073361412148
 20
-19.90570795286239
 10
-65.19999999999999
 20
-19.9
  0
LINE
  5
1AE
330
F1
100
AcDbEntity
  8
AM_4
100
AcDbLine
 10
-66.7
 20
-21.4
 30
0.0
 11
-66.7
 21
-31.8
 31
0.0
  0
ENDBLK
  5
F4
330
F1
100
AcDbEntity
  8
0
100
AcDbBlockEnd
  0
ENDSEC
  0
SECTION
  2
ENTITIES
  0
INSERT
  5
6F
330
1F
100
AcDbEntity
  8
0
100
AcDbBlockReference
  2
1_129040_0
 10
0.0
 20
0.0
 30
0.0
  0
POINT
  5
1B0
330
1F
100
AcDbEntity
  8
ConnectionPoints
100
AcDbPoint
 10
0.0
 20
0.0
 30
0.0
  0
POINT
  5
1B1
330
1F
100
AcDbEntity
  8
ConnectionPoints
100
AcDbPoint
 10
0.0
 20
0.0
 30
-12.3
  0
POINT
  5
1B2
330
1F
100
AcDbEntity
  8
ConnectionPoints
100
AcDbPoint
 10
0.0
 20
0.0
 30
0.0
  0
POINT
  5
1B3
330
1F
100
AcDbEntity
  8
ConnectionPoints
100
AcDbPoint
 10
0.0
 20
0.0
 30
0.0
  0
ENDSEC
  0
SECTION
  2
OBJECTS
  0
DICTIONARY
  5
C
330
0
100
AcDbDictionary
281
     1
  3
ACAD_DETAILVIEWSTYLE
350
1BB
  3
ACAD_GROUP
350
D
  3
ACAD_LAYOUT
350
1A
  3
ACAD_MATERIAL
350
43
  3
ACAD_MLEADERSTYLE
350
6B
  3
ACAD_MLINESTYLE
350
17
  3
ACAD_PLOTSETTINGS
350
19
  3
ACAD_PLOTSTYLENAME
350
E
  3
ACAD_SCALELIST
350
47
  3
ACAD_SECTIONVIEWSTYLE
350
1BC
  3
ACAD_TABLESTYLE
350
69
  3
ACAD_VISUALSTYLE
350
2A
  3
ACDB_RECOMPOSE_DATA
350
1B8
  3
AcDbVariableDictionary
350
1B4
  0
SUN
  5
6D
330
29
100
AcDbSun
 90
        1
290
     0
 63
     7
421
 16777215
 40
1.0
291
     1
 91
  2455826
 92
 54000000
292
     0
 70
     2
 71
   256
280
     1
  0
DICTIONARY
  5
1BB
102
{ACAD_REACTORS
330
C
102
}
330
C
100
AcDbDictionary
281
     1
  0
DICTIONARY
  5
D
102
{ACAD_REACTORS
330
C
102
}
330
C
100
AcDbDictionary
281
     1
  0
DICTIONARY
  5
1A
102
{ACAD_REACTORS
330
C
102
}
330
C
100
AcDbDictionary
281
     1
  3
Layout1
350
1E
  3
Layout2
350
26
  3
Model
350
22
  0
DICTIONARY
  5
43
102
{ACAD_REACTORS
330
C
102
}
330
C
100
AcDbDictionary
281
     1
  3
ByBlock
350
45
  3
ByLayer
350
44
  3
Global
350
46
  0
DICTIONARY
  5
6B
102
{ACAD_REACTORS
330
C
102
}
330
C
100
AcDbDictionary
281
     1
  3
Standard
350
6C
  0
DICTIONARY
  5
17
102
{ACAD_REACTORS
330
C
102
}
330
C
100
AcDbDictionary
281
     1
  3
Standard
350
18
  0
DICTIONARY
  5
19
102
{ACAD_REACTORS
330
C
102
}
330
C
100
AcDbDictionary
281
     1
  0
ACDBDICTIONARYWDFLT
  5
E
102
{ACAD_REACTORS
330
C
102
}
330
C
100
AcDbDictionary
281
     1
  3
Normal
350
F
100
AcDbDictionaryWithDefault
340
F
  0
DICTIONARY
  5
47
102
{ACAD_REACTORS
330
C
102
}
330
C
100
AcDbDictionary
281
     1
  3
A0
350
48
  3
A1
350
49
  3
A2
350
4A
  3
A3
350
4B
  3
A4
350
4C
  3
A5
350
4D
  3
A6
350
4E
  3
A7
350
4F
  3
A8
350
50
  3
A9
350
51
  3
B0
350
52
  3
B1
350
53
  3
B2
350
54
  3
B3
350
55
  3
B4
350
56
  3
B5
350
57
  3
B6
350
58
  3
B7
350
59
  3
B8
350
5A
  3
B9
350
5B
  3
C0
350
5C
  3
C1
350
5D
  3
C2
350
5E
  3
C3
350
5F
  3
C4
350
60
  3
C5
350
61
  3
C6
350
62
  3
C7
350
63
  3
C8
350
64
  3
C9
350
65
  3
D0
350
66
  3
D1
350
67
  3
D2
350
68
  0
DICTIONARY
  5
1BC
102
{ACAD_REACTORS
330
C
102
}
330
C
100
AcDbDictionary
281
     1
  0
DICTIONARY
  5
69
102
{ACAD_REACTORS
330
C
102
}
330
C
100
AcDbDictionary
281
     1
  3
Standard
350
6A
  0
DICTIONARY
  5
2A
102
{ACAD_REACTORS
330
C
102
}
330
C
100
AcDbDictionary
281
     1
  3
2dWireframe
350
2F
  3
Basic
350
32
  3
Brighten
350
36
  3
ColorChange
350
3A
  3
Conceptual
350
34
  3
Dim
350
35
  3
EdgeColorOff
350
3D
  3
Facepattern
350
39
  3
Flat
350
2B
  3
FlatWithEdges
350
2C
  3
Gouraud
350
2D
  3
GouraudWithEdges
350
2E
  3
Hidden
350
31
  3
JitterOff
350
3B
  3
Linepattern
350
38
  3
OverhangOff
350
3C
  3
Realistic
350
33
  3
Shaded
350
42
  3
Shaded with edges
350
41
  3
Shades of Gray
350
3E
  3
Sketchy
350
3F
  3
Thicken
350
37
  3
Wireframe
350
30
  3
X-Ray
350
40
  0
XRECORD
  5
1B8
102
{ACAD_REACTORS
330
C
102
}
330
C
100
AcDbXrecord
280
     1
 90
        1
330
6A
  0
DICTIONARY
  5
1B4
102
{ACAD_REACTORS
330
C
102
}
330
C
100
AcDbDictionary
281
     1
  3
CANNOSCALE
350
1B5
  3
CMLEADERSTYLE
350
1BA
  3
CTABLESTYLE
350
1B9
  0
LAYOUT
  5
1E
102
{ACAD_REACTORS
330
1A
102
}
330
1A
100
AcDbPlotSettings
  1

  2
none_device
  4

  6

 40
0.0
 41
0.0
 42
0.0
 43
0.0
 44
0.0
 45
0.0
 46
0.0
 47
0.0
 48
0.0
 49
0.0
140
0.0
141
0.0
142
1.0
143
1.0
 70
   688
 72
     1
 73
     0
 74
     5
  7

 75
    16
 76
     0
 77
     2
 78
   300
147
1.0
148
0.0
149
0.0
100
AcDbLayout
  1
Layout1
 70
     1
 71
     1
 10
0.0
 20
0.0
 11
420.0
 21
297.0
 12
0.0
 22
0.0
 32
0.0
 14
1.000000000000000E+20
 24
1.000000000000000E+20
 34
1.000000000000000E+20
 15
-1.000000000000000E+20
 25
-1.000000000000000E+20
 35
-1.000000000000000E+20
146
0.0
 13
0.0
 23
0.0
 33
0.0
 16
1.0
 26
0.0
 36
0.0
 17
0.0
 27
1.0
 37
0.0
 76
     0
330
1B
  0
LAYOUT
  5
26
102
{ACAD_REACTORS
330
1A
102
}
330
1A
100
AcDbPlotSettings
  1

  2
none_device
  4

  6

 40
0.0
 41
0.0
 42
0.0
 43
0.0
 44
0.0
 45
0.0
 46
0.0
 47
0.0
 48
0.0
 49
0.0
140
0.0
141
0.0
142
1.0
143
1.0
 70
   688
 72
     1
 73
     0
 74
     5
  7

 75
    16
 76
     0
 77
     2
 78
   300
147
1.0
148
0.0
149
0.0
100
AcDbLayout
  1
Layout2
 70
     1
 71
     2
 10
0.0
 20
0.0
 11
0.0
 21
0.0
 12
0.0
 22
0.0
 32
0.0
 14
0.0
 24
0.0
 34
0.0
 15
0.0
 25
0.0
 35
0.0
146
0.0
 13
0.0
 23
0.0
 33
0.0
 16
1.0
 26
0.0
 36
0.0
 17
0.0
 27
1.0
 37
0.0
 76
     0
330
23
  0
LAYOUT
  5
22
102
{ACAD_REACTORS
330
1A
102
}
330
1A
100
AcDbPlotSettings
  1

  2
none_device
  4
Letter_(8.50_x_11.00_Inches)
  6

 40
6.35
 41
6.35
 42
6.35000508
 43
6.35000508
 44
215.9
 45
279.4
 46
0.0
 47
0.0
 48
0.0
 49
0.0
140
0.0
141
0.0
142
1.0
143
1.0
 70
  1712
 72
     1
 73
     0
 74
     0
  7

 75
     0
 76
     0
 77
     2
 78
   300
147
1.0
148
0.0
149
0.0
100
AcDbLayout
  1
Model
 70
     1
 71
     0
 10
0.0
 20
0.0
 11
420.0
 21
297.0
 12
0.0
 22
0.0
 32
0.0
 14
1.000000000000000E+20
 24
1.000000000000000E+20
 34
1.000000000000000E+20
 15
-1.000000000000000E+20
 25
-1.000000000000000E+20
 35
-1.000000000000000E+20
146
0.0
 13
0.0
 23
0.0
 33
0.0
 16
1.0
 26
0.0
 36
0.0
 17
0.0
 27
1.0
 37
0.0
 76
     0
330
1F
331
29
  0
MATERIAL
  5
45
102
{ACAD_REACTORS
330
43
102
}
330
43
100
AcDbMaterial
  1
ByBlock
 72
     1
 94
      127
  0
MATERIAL
  5
44
102
{ACAD_REACTORS
330
43
102
}
330
43
100
AcDbMaterial
  1
ByLayer
 72
     1
 94
      127
  0
MATERIAL
  5
46
102
{ACAD_REACTORS
330
43
102
}
330
43
100
AcDbMaterial
  1
Global
 72
     1
 94
      127
  0
MLEADERSTYLE
  5
6C
102
{ACAD_REACTORS
330
6B
102
}
330
6B
100
AcDbMLeaderStyle
179
     2
170
     2
171
     1
172
     0
 90
        2
 40
0.0
 41
0.0
173
     1
 91
-1056964608
340
14
 92
       -2
290
     1
 42
2.0
291
     1
 43
8.0
  3
Standard
341
0
 44
4.0
300

342
11
174
     1
178
     6
175
     1
176
     0
 93
-1056964608
 45
4.0
292
     0
297
     0
 46
4.0
343
0
 94
-1056964608
 47
1.0
 49
1.0
140
1.0
293
     1
141
0.0
294
     1
177
     0
142
1.0
295
     0
296
     0
143
3.75
271
     0
272
     9
273
     9
298
     0
  0
MLINESTYLE
  5
18
102
{ACAD_REACTORS
330
17
102
}
330
17
100
AcDbMlineStyle
  2
Standard
 70
     0
  3

 62
   256
 51
90.0
 52
90.0
 71
     2
 49
0.5
 62
   256
  6
BYLAYER
 49
-0.5
 62
   256
  6
BYLAYER
  0
ACDBPLACEHOLDER
  5
F
102
{ACAD_REACTORS
330
E
102
}
330
E
  0
SCALE
  5
48
102
{ACAD_REACTORS
330
47
102
}
330
47
100
AcDbScale
 70
     0
300
1:1
140
1.0
141
1.0
290
     1
  0
SCALE
  5
49
102
{ACAD_REACTORS
330
47
102
}
330
47
100
AcDbScale
 70
     0
300
1:2
140
1.0
141
2.0
290
     0
  0
SCALE
  5
4A
102
{ACAD_REACTORS
330
47
102
}
330
47
100
AcDbScale
 70
     0
300
1:4
140
1.0
141
4.0
290
     0
  0
SCALE
  5
4B
102
{ACAD_REACTORS
330
47
102
}
330
47
100
AcDbScale
 70
     0
300
1:5
140
1.0
141
5.0
290
     0
  0
SCALE
  5
4C
102
{ACAD_REACTORS
330
47
102
}
330
47
100
AcDbScale
 70
     0
300
1:8
140
1.0
141
8.0
290
     0
  0
SCALE
  5
4D
102
{ACAD_REACTORS
330
47
102
}
330
47
100
AcDbScale
 70
     0
300
1:10
140
1.0
141
10.0
290
     0
  0
SCALE
  5
4E
102
{ACAD_REACTORS
330
47
102
}
330
47
100
AcDbScale
 70
     0
300
1:16
140
1.0
141
16.0
290
     0
  0
SCALE
  5
4F
102
{ACAD_REACTORS
330
47
102
}
330
47
100
AcDbScale
 70
     0
300
1:20
140
1.0
141
20.0
290
     0
  0
SCALE
  5
50
102
{ACAD_REACTORS
330
47
102
}
330
47
100
AcDbScale
 70
     0
300
1:30
140
1.0
141
30.0
290
     0
  0
SCALE
  5
51
102
{ACAD_REACTORS
330
47
102
}
330
47
100
AcDbScale
 70
     0
300
1:40
140
1.0
141
40.0
290
     0
  0
SCALE
  5
52
102
{ACAD_REACTORS
330
47
102
}
330
47
100
AcDbScale
 70
     0
300
1:50
140
1.0
141
50.0
290
     0
  0
SCALE
  5
53
102
{ACAD_REACTORS
330
47
102
}
330
47
100
AcDbScale
 70
     0
300
1:100
140
1.0
141
100.0
290
     0
  0
SCALE
  5
54
102
{ACAD_REACTORS
330
47
102
}
330
47
100
AcDbScale
 70
     0
300
2:1
140
2.0
141
1.0
290
     0
  0
SCALE
  5
55
102
{ACAD_REACTORS
330
47
102
}
330
47
100
AcDbScale
 70
     0
300
4:1
140
4.0
141
1.0
290
     0
  0
SCALE
  5
56
102
{ACAD_REACTORS
330
47
102
}
330
47
100
AcDbScale
 70
     0
300
8:1
140
8.0
141
1.0
290
     0
  0
SCALE
  5
57
102
{ACAD_REACTORS
330
47
102
}
330
47
100
AcDbScale
 70
     0
300
10:1
140
10.0
141
1.0
290
     0
  0
SCALE
  5
58
102
{ACAD_REACTORS
330
47
102
}
330
47
100
AcDbScale
 70
     0
300
100:1
140
100.0
141
1.0
290
     0
  0
SCALE
  5
59
102
{ACAD_REACTORS
330
47
102
}
330
47
100
AcDbScale
 70
     0
300
1/128" = 1'-0"
140
0.0078125
141
12.0
290
     0
  0
SCALE
  5
5A
102
{ACAD_REACTORS
330
47
102
}
330
47
100
AcDbScale
 70
     0
300
1/64" = 1'-0"
140
0.015625
141
12.0
290
     0
  0
SCALE
  5
5B
102
{ACAD_REACTORS
330
47
102
}
330
47
100
AcDbScale
 70
     0
300
1/32" = 1'-0"
140
0.03125
141
12.0
290
     0
  0
SCALE
  5
5C
102
{ACAD_REACTORS
330
47
102
}
330
47
100
AcDbScale
 70
     0
300
1/16" = 1'-0"
140
0.0625
141
12.0
290
     0
  0
SCALE
  5
5D
102
{ACAD_REACTORS
330
47
102
}
330
47
100
AcDbScale
 70
     0
300
3/32" = 1'-0"
140
0.09375
141
12.0
290
     0
  0
SCALE
  5
5E
102
{ACAD_REACTORS
330
47
102
}
330
47
100
AcDbScale
 70
     0
300
1/8" = 1'-0"
140
0.125
141
12.0
290
     0
  0
SCALE
  5
5F
102
{ACAD_REACTORS
330
47
102
}
330
47
100
AcDbScale
 70
     0
300
3/16" = 1'-0"
140
0.1875
141
12.0
290
     0
  0
SCALE
  5
60
102
{ACAD_REACTORS
330
47
102
}
330
47
100
AcDbScale
 70
     0
300
1/4" = 1'-0"
140
0.25
141
12.0
290
     0
  0
SCALE
  5
61
102
{ACAD_REACTORS
330
47
102
}
330
47
100
AcDbScale
 70
     0
300
3/8" = 1'-0"
140
0.375
141
12.0
290
     0
  0
SCALE
  5
62
102
{ACAD_REACTORS
330
47
102
}
330
47
100
AcDbScale
 70
     0
300
1/2" = 1'-0"
140
0.5
141
12.0
290
     0
  0
SCALE
  5
63
102
{ACAD_REACTORS
330
47
102
}
330
47
100
AcDbScale
 70
     0
300
3/4" = 1'-0"
140
0.75
141
12.0
290
     0
  0
SCALE
  5
64
102
{ACAD_REACTORS
330
47
102
}
330
47
100
AcDbScale
 70
     0
300
1" = 1'-0"
140
1.0
141
12.0
290
     0
  0
SCALE
  5
65
102
{ACAD_REACTORS
330
47
102
}
330
47
100
AcDbScale
 70
     0
300
1-1/2" = 1'-0"
140
1.5
141
12.0
290
     0
  0
SCALE
  5
66
102
{ACAD_REACTORS
330
47
102
}
330
47
100
AcDbScale
 70
     0
300
3" = 1'-0"
140
3.0
141
12.0
290
     0
  0
SCALE
  5
67
102
{ACAD_REACTORS
330
47
102
}
330
47
100
AcDbScale
 70
     0
300
6" = 1'-0"
140
6.0
141
12.0
290
     0
  0
SCALE
  5
68
102
{ACAD_REACTORS
330
47
102
}
330
47
100
AcDbScale
 70
     0
300
1'-0" = 1'-0"
140
12.0
141
12.0
290
     0
  0
TABLESTYLE
  5
6A
102
{ACAD_REACTORS
330
69
102
}
102
{ACAD_XDICTIONARY
360
1B6
102
}
330
69
100
AcDbTableStyle
  3
Standard
 70
     0
 71
     0
 40
0.06
 41
0.06
280
     0
281
     0
  7
Standard
140
4.5
170
     2
 62
     0
 63
   257
283
     0
 90
        4
 91
        0
  1

274
    -2
284
     1
 64
     0
275
    -2
285
     1
 65
     0
276
    -2
286
     1
 66
     0
277
    -2
287
     1
 67
     0
278
    -2
288
     1
 68
     0
279
    -2
289
     1
 69
     0
  7
Standard
140
6.0
170
     5
 62
     0
 63
   257
283
     0
 90
        4
 91
        0
  1

274
    -2
284
     1
 64
     0
275
    -2
285
     1
 65
     0
276
    -2
286
     1
 66
     0
277
    -2
287
     1
 67
     0
278
    -2
288
     1
 68
     0
279
    -2
289
     1
 69
     0
  7
Standard
140
4.5
170
     5
 62
     0
 63
   257
283
     0
 90
        4
 91
        0
  1

274
    -2
284
     1
 64
     0
275
    -2
285
     1
 65
     0
276
    -2
286
     1
 66
     0
277
    -2
287
     1
 67
     0
278
    -2
288
     1
 68
     0
279
    -2
289
     1
 69
     0
  0
VISUALSTYLE
  5
2F
102
{ACAD_REACTORS
330
2A
102
}
330
2A
100
AcDbVisualStyle
  2
2dWireframe
 70
     4
177
     3
291
     0
 70
    58
 90
        0
176
     1
 90
        2
176
     1
 90
        0
176
     1
 90
        0
176
     1
 40
0.6
176
     1
 40
30.0
176
     1
 62
     7
420
 16777215
176
     1
 90
        1
176
     1
 90
        4
176
     1
 62
     7
176
     1
 62
   257
176
     1
 90
        1
176
     1
 90
        1
176
     1
 40
1.0
176
     1
 90
        0
176
     1
 62
   257
176
     1
 40
1.0
176
     1
 90
        1
176
     1
 90
        6
176
     1
 90
        2
176
     1
 62
     7
176
     1
 90
        5
176
     1
 90
        0
176
     1
 90
        0
176
     1
290
     0
176
     1
 90
        1
176
     1
 40
0.0
176
     1
 90
        0
176
     1
290
     1
176
     1
290
     1
176
     1
290
     0
176
     1
290
     0
176
     1
290
     0
176
     1
290
     0
176
     1
290
     0
176
     1
290
     0
176
     1
290
     0
176
     1
 90
       50
176
     1
 40
0.0
176
     1
 40
1.0
176
     1
 90
        0
176
     1
 62
    18
420
        0
176
     1
 90
       50
176
     1
 90
        3
176
     1
 62
     5
420
      255
176
     1
290
     0
176
     1
 90
       50
176
     1
 90
       50
176
     1
 90
       50
176
     1
290
     0
176
     1
 90
       50
176
     1
 62
   256
176
     0
 40
1.0
176
     0
 90
        2
176
     1
  1
strokes_ogs.tif
176
     1
290
     0
176
     1
 40
1.0
176
     1
 40
1.0
176
     1
  0
VISUALSTYLE
  5
32
102
{ACAD_REACTORS
330
2A
102
}
330
2A
100
AcDbVisualStyle
  2
Basic
 70
     7
177
     3
291
     1
 70
    58
 90
        1
176
     1
 90
        0
176
     1
 90
        1
176
     1
 90
        0
176
     1
 40
0.6
176
     1
 40
30.0
176
     1
 62
     7
420
 16777215
176
     1
 90
        0
176
     1
 90
        4
176
     1
 62
     7
176
     1
 62
   257
176
     1
 90
        1
176
     1
 90
        1
176
     1
 40
1.0
176
     1
 90
        8
176
     1
 62
     7
176
     1
 40
1.0
176
     1
 90
        1
176
     1
 90
        6
176
     1
 90
        2
176
     1
 62
     7
176
     1
 90
        5
176
     1
 90
        0
176
     1
 90
        0
176
     1
290
     0
176
     1
 90
        1
176
     1
 40
0.0
176
     1
 90
        0
176
     1
290
     0
176
     1
290
     1
176
     1
290
     1
176
     1
290
     0
176
     1
290
     0
176
     1
290
     0
176
     1
290
     0
176
     1
290
     0
176
     1
290
     0
176
     1
 90
       50
176
     1
 40
0.0
176
     1
 40
1.0
176
     1
 90
        0
176
     1
 62
    18
420
        0
176
     1
 90
       50
176
     1
 90
        3
176
     1
 62
     5
420
      255
176
     1
290
     0
176
     1
 90
       50
176
     1
 90
       50
176
     1
 90
       50
176
     1
290
     0
176
     1
 90
       50
176
     1
 62
   256
176
     0
 40
1.0
176
     0
 90
        2
176
     1
  1
strokes_ogs.tif
176
     1
290
     0
176
     1
 40
1.0
176
     1
 40
1.0
176
     1
  0
VISUALSTYLE
  5
36
102
{ACAD_REACTORS
330
2A
102
}
330
2A
100
AcDbVisualStyle
  2
Brighten
 70
    12
177
     3
291
     1
 70
    58
 90
        2
176
     1
 90
        2
176
     1
 90
        0
176
     1
 90
        0
176
     1
 40
0.6
176
     1
 40
30.0
176
     1
 62
     7
420
 16777215
176
     1
 90
        1
176
     1
 90
        4
176
     1
 62
     7
176
     1
 62
   257
176
     1
 90
        1
176
     1
 90
        1
176
     1
 40
1.0
176
     1
 90
        8
176
     1
 62
     7
176
     1
 40
1.0
176
     1
 90
        1
176
     1
 90
        6
176
     1
 90
        2
176
     1
 62
     7
176
     1
 90
        5
176
     1
 90
        0
176
     1
 90
        0
176
     1
290
     0
176
     1
 90
        1
176
     1
 40
50.0
176
     1
 90
        0
176
     1
290
     0
176
     1
290
     1
176
     1
290
     1
176
     1
290
     0
176
     1
290
     0
176
     1
290
     0
176
     1
290
     0
176
     1
290
     0
176
     1
290
     0
176
     1
 90
       50
176
     1
 40
0.0
176
     1
 40
1.0
176
     1
 90
        0
176
     1
 62
    18
420
        0
176
     1
 90
       50
176
     1
 90
        3
176
     1
 62
     5
420
      255
176
     1
290
     0
176
     1
 90
       50
176
     1
 90
       50
176
     1
 90
       50
176
     1
290
     0
176
     1
 90
       50
176
     1
 62
   256
176
     0
 40
1.0
176
     0
 90
        2
176
     1
  1
strokes_ogs.tif
176
     1
290
     0
176
     1
 40
1.0
176
     1
 40
1.0
176
     1
  0
VISUALSTYLE
  5
3A
102
{ACAD_REACTORS
330
2A
102
}
330
2A
100
AcDbVisualStyle
  2
ColorChange
 70
    16
177
     3
291
     1
 70
    58
 90
        2
176
     1
 90
        2
176
     1
 90
        3
176
     1
 90
        0
176
     1
 40
0.6
176
     1
 40
30.0
176
     1
 62
     8
420
  8421504
176
     1
 90
        1
176
     1
 90
        4
176
     1
 62
     7
176
     1
 62
   257
176
     1
 90
        1
176
     1
 90
        1
176
     1
 40
1.0
176
     1
 90
        8
176
     1
 62
     8
420
  8421504
176
     1
 40
1.0
176
     1
 90
        1
176
     1
 90
        6
176
     1
 90
        2
176
     1
 62
     7
176
     1
 90
        5
176
     1
 90
        0
176
     1
 90
        0
176
     1
290
     0
176
     1
 90
        1
176
     1
 40
0.0
176
     1
 90
        0
176
     1
290
     0
176
     1
290
     1
176
     1
290
     1
176
     1
290
     0
176
     1
290
     0
176
     1
290
     0
176
     1
290
     0
176
     1
290
     0
176
     1
290
     0
176
     1
 90
       50
176
     1
 40
0.0
176
     1
 40
1.0
176
     1
 90
        0
176
     1
 62
    18
420
        0
176
     1
 90
       50
176
     1
 90
        3
176
     1
 62
     5
420
      255
176
     1
290
     0
176
     1
 90
       50
176
     1
 90
       50
176
     1
 90
       50
176
     1
290
     0
176
     1
 90
       50
176
     1
 62
   256
176
     0
 40
1.0
176
     0
 90
        2
176
     1
  1
strokes_ogs.tif
176
     1
290
     0
176
     1
 40
1.0
176
     1
 40
1.0
176
     1
  0
VISUALSTYLE
  5
34
102
{ACAD_REACTORS
330
2A
102
}
330
2A
100
AcDbVisualStyle
  2
Conceptual
 70
     9
177
     3
291
     0
 70
    58
 90
        3
176
     1
 90
        2
176
     1
 90
        0
176
     1
 90
        0
176
     1
 40
0.6
176
     1
 40
30.0
176
     1
 62
     7
420
 16777215
176
     1
 90
        2
176
     1
 90
        2
176
     1
 62
     7
176
     1
 62
   257
176
     1
 90
        1
176
     1
 90
        1
176
     1
 40
179.0
176
     1
 90
        8
176
     1
 62
     7
176
     1
 40
1.0
176
     1
 90
        1
176
     1
 90
        6
176
     1
 90
        2
176
     1
 62
     7
176
     1
 90
        3
176
     1
 90
        0
176
     1
 90
        0
176
     1
290
     0
176
     1
 90
        1
176
     1
 40
0.0
176
     1
 90
        0
176
     1
290
     0
176
     1
290
     1
176
     1
290
     1
176
     1
290
     0
176
     1
290
     0
176
     1
290
     0
176
     1
290
     0
176
     1
290
     0
176
     1
290
     0
176
     1
 90
       50
176
     1
 40
0.0
176
     1
 40
1.0
176
     1
 90
        0
176
     1
 62
    18
420
        0
176
     1
 90
       50
176
     1
 90
        3
176
     1
 62
     5
420
      255
176
     1
290
     0
176
     1
 90
       50
176
     1
 90
       50
176
     1
 90
       50
176
     1
290
     0
176
     1
 90
       50
176
     1
 62
   256
176
     0
 40
1.0
176
     0
 90
        2
176
     1
  1
strokes_ogs.tif
176
     1
290
     0
176
     1
 40
1.0
176
     1
 40
1.0
176
     1
  0
VISUALSTYLE
  5
35
102
{ACAD_REACTORS
330
2A
102
}
330
2A
100
AcDbVisualStyle
  2
Dim
 70
    11
177
     3
291
     1
 70
    58
 90
        2
176
     1
 90
        2
176
     1
 90
        0
176
     1
 90
        0
176
     1
 40
0.6
176
     1
 40
30.0
176
     1
 62
     7
420
 16777215
176
     1
 90
        1
176
     1
 90
        4
176
     1
 62
     7
176
     1
 62
   257
176
     1
 90
        1
176
     1
 90
        1
176
     1
 40
1.0
176
     1
 90
        8
176
     1
 62
     7
176
     1
 40
1.0
176
     1
 90
        1
176
     1
 90
        6
176
     1
 90
        2
176
     1
 62
     7
176
     1
 90
        5
176
     1
 90
        0
176
     1
 90
        0
176
     1
290
     0
176
     1
 90
        1
176
     1
 40
-50.0
176
     1
 90
        0
176
     1
290
     0
176
     1
290
     1
176
     1
290
     1
176
     1
290
     0
176
     1
290
     0
176
     1
290
     0
176
     1
290
     0
176
     1
290
     0
176
     1
290
     0
176
     1
 90
       50
176
     1
 40
0.0
176
     1
 40
1.0
176
     1
 90
        0
176
     1
 62
    18
420
        0
176
     1
 90
       50
176
     1
 90
        3
176
     1
 62
     5
420
      255
176
     1
290
     0
176
     1
 90
       50
176
     1
 90
       50
176
     1
 90
       50
176
     1
290
     0
176
     1
 90
       50
176
     1
 62
   256
176
     0
 40
1.0
176
     0
 90
        2
176
     1
  1
strokes_ogs.tif
176
     1
290
     0
176
     1
 40
1.0
176
     1
 40
1.0
176
     1
  0
VISUALSTYLE
  5
3D
102
{ACAD_REACTORS
330
2A
102
}
330
2A
100
AcDbVisualStyle
  2
EdgeColorOff
 70
    22
177
     3
291
     1
 70
    58
 90
        2
176
     0
 90
        2
176
     0
 90
        0
176
     0
 90
        0
176
     0
 40
0.6
176
     0
 40
30.0
176
     0
 62
     7
420
 16777215
176
     0
 90
        1
176
     0
 90
        4
176
     0
 62
     7
176
     0
 62
   257
176
     0
 90
        1
176
     0
 90
        1
176
     0
 40
1.0
176
     0
 90
        8
176
     2
 62
     7
176
     0
 40
1.0
176
     0
 90
        1
176
     0
 90
        6
176
     0
 90
        2
176
     0
 62
     7
176
     0
 90
        5
176
     0
 90
        0
176
     0
 90
        0
176
     0
290
     0
176
     0
 90
        1
176
     0
 40
0.0
176
     0
 90
        0
176
     0
290
     0
176
     0
290
     1
176
     0
290
     1
176
     0
290
     0
176
     0
290
     0
176
     0
290
     0
176
     0
290
     0
176
     0
290
     0
176
     0
290
     0
176
     0
 90
       50
176
     0
 40
0.0
176
     0
 40
1.0
176
     0
 90
        0
176
     0
 62
    18
420
        0
176
     0
 90
       50
176
     0
 90
        3
176
     0
 62
     5
420
      255
176
     0
290
     0
176
     0
 90
       50
176
     0
 90
       50
176
     0
 90
       50
176
     0
290
     0
176
     0
 90
       50
176
     0
 62
   256
176
     0
 40
1.0
176
     0
 90
        2
176
     0
  1
strokes_ogs.tif
176
     0
290
     0
176
     0
 40
1.0
176
     0
 40
1.0
176
     0
  0
VISUALSTYLE
  5
39
102
{ACAD_REACTORS
330
2A
102
}
330
2A
100
AcDbVisualStyle
  2
Facepattern
 70
    15
177
     3
291
     1
 70
    58
 90
        2
176
     1
 90
        2
176
     1
 90
        0
176
     1
 90
        0
176
     1
 40
0.6
176
     1
 40
30.0
176
     1
 62
     7
420
 16777215
176
     1
 90
        1
176
     1
 90
        4
176
     1
 62
     7
176
     1
 62
   257
176
     1
 90
        1
176
     1
 90
        1
176
     1
 40
1.0
176
     1
 90
        8
176
     1
 62
     7
176
     1
 40
1.0
176
     1
 90
        1
176
     1
 90
        6
176
     1
 90
        2
176
     1
 62
     7
176
     1
 90
        5
176
     1
 90
        0
176
     1
 90
        0
176
     1
290
     0
176
     1
 90
        1
176
     1
 40
0.0
176
     1
 90
        0
176
     1
290
     0
176
     1
290
     1
176
     1
290
     1
176
     1
290
     0
176
     1
290
     0
176
     1
290
     0
176
     1
290
     0
176
     1
290
     0
176
     1
290
     0
176
     1
 90
       50
176
     1
 40
0.0
176
     1
 40
1.0
176
     1
 90
        0
176
     1
 62
    18
420
        0
176
     1
 90
       50
176
     1
 90
        3
176
     1
 62
     5
420
      255
176
     1
290
     0
176
     1
 90
       50
176
     1
 90
       50
176
     1
 90
       50
176
     1
290
     0
176
     1
 90
       50
176
     1
 62
   256
176
     0
 40
1.0
176
     0
 90
        2
176
     1
  1
strokes_ogs.tif
176
     1
290
     0
176
     1
 40
1.0
176
     1
 40
1.0
176
     1
  0
VISUALSTYLE
  5
2B
102
{ACAD_REACTORS
330
2A
102
}
330
2A
100
AcDbVisualStyle
  2
Flat
 70
     0
177
     3
291
     1
 70
    58
 90
        2
176
     1
 90
        1
176
     1
 90
        1
176
     1
 90
        2
176
     1
 40
0.6
176
     1
 40
30.0
176
     1
 62
     7
420
 16777215
176
     1
 90
        0
176
     1
 90
        0
176
     1
 62
     7
176
     1
 62
   257
176
     1
 90
        1
176
     1
 90
        1
176
     1
 40
1.0
176
     1
 90
        8
176
     1
 62
     7
176
     1
 40
1.0
176
     1
 90
        1
176
     1
 90
        6
176
     1
 90
        2
176
     1
 62
     7
176
     1
 90
        5
176
     1
 90
        0
176
     1
 90
        0
176
     1
290
     0
176
     1
 90
       13
176
     1
 40
0.0
176
     1
 90
        0
176
     1
290
     0
176
     1
290
     1
176
     1
290
     1
176
     1
290
     0
176
     1
290
     0
176
     1
290
     0
176
     1
290
     0
176
     1
290
     0
176
     1
290
     0
176
     1
 90
       50
176
     1
 40
0.0
176
     1
 40
1.0
176
     1
 90
        0
176
     1
 62
    18
420
        0
176
     1
 90
       50
176
     1
 90
        3
176
     1
 62
     5
420
      255
176
     1
290
     0
176
     1
 90
       50
176
     1
 90
       50
176
     1
 90
       50
176
     1
290
     0
176
     1
 90
       50
176
     1
 62
   256
176
     0
 40
1.0
176
     0
 90
        2
176
     1
  1
strokes_ogs.tif
176
     1
290
     0
176
     1
 40
1.0
176
     1
 40
1.0
176
     1
  0
VISUALSTYLE
  5
2C
102
{ACAD_REACTORS
330
2A
102
}
330
2A
100
AcDbVisualStyle
  2
FlatWithEdges
 70
     1
177
     3
291
     1
 70
    58
 90
        2
176
     1
 90
        1
176
     1
 90
        1
176
     1
 90
        2
176
     1
 40
0.6
176
     1
 40
30.0
176
     1
 62
     7
420
 16777215
176
     1
 90
        1
176
     1
 90
        0
176
     1
 62
     7
176
     1
 62
   257
176
     1
 90
        1
176
     1
 90
        1
176
     1
 40
1.0
176
     1
 90
        0
176
     1
 62
   257
176
     1
 40
1.0
176
     1
 90
        1
176
     1
 90
        6
176
     1
 90
        2
176
     1
 62
     7
176
     1
 90
        5
176
     1
 90
        0
176
     1
 90
        0
176
     1
290
     0
176
     1
 90
       13
176
     1
 40
0.0
176
     1
 90
        0
176
     1
290
     0
176
     1
290
     1
176
     1
290
     1
176
     1
290
     0
176
     1
290
     0
176
     1
290
     0
176
     1
290
     0
176
     1
290
     0
176
     1
290
     0
176
     1
 90
       50
176
     1
 40
0.0
176
     1
 40
1.0
176
     1
 90
        0
176
     1
 62
    18
420
        0
176
     1
 90
       50
176
     1
 90
        3
176
     1
 62
     5
420
      255
176
     1
290
     0
176
     1
 90
       50
176
     1
 90
       50
176
     1
 90
       50
176
     1
290
     0
176
     1
 90
       50
176
     1
 62
   256
176
     0
 40
1.0
176
     0
 90
        2
176
     1
  1
strokes_ogs.tif
176
     1
290
     0
176
     1
 40
1.0
176
     1
 40
1.0
176
     1
  0
VISUALSTYLE
  5
2D
102
{ACAD_REACTORS
330
2A
102
}
330
2A
100
AcDbVisualStyle
  2
Gouraud
 70
     2
177
     3
291
     1
 70
    58
 90
        2
176
     1
 90
        2
176
     1
 90
        1
176
     1
 90
        2
176
     1
 40
0.6
176
     1
 40
30.0
176
     1
 62
     7
420
 16777215
176
     1
 90
        0
176
     1
 90
        0
176
     1
 62
     7
176
     1
 62
   257
176
     1
 90
        1
176
     1
 90
        1
176
     1
 40
1.0
176
     1
 90
        0
176
     1
 62
     7
176
     1
 40
1.0
176
     1
 90
        1
176
     1
 90
        6
176
     1
 90
        2
176
     1
 62
     7
176
     1
 90
        5
176
     1
 90
        0
176
     1
 90
        0
176
     1
290
     0
176
     1
 90
       13
176
     1
 40
0.0
176
     1
 90
        0
176
     1
290
     0
176
     1
290
     1
176
     1
290
     1
176
     1
290
     0
176
     1
290
     0
176
     1
290
     0
176
     1
290
     0
176
     1
290
     0
176
     1
290
     0
176
     1
 90
       50
176
     1
 40
0.0
176
     1
 40
1.0
176
     1
 90
        0
176
     1
 62
    18
420
        0
176
     1
 90
       50
176
     1
 90
        3
176
     1
 62
     5
420
      255
176
     1
290
     0
176
     1
 90
       50
176
     1
 90
       50
176
     1
 90
       50
176
     1
290
     0
176
     1
 90
       50
176
     1
 62
   256
176
     0
 40
1.0
176
     0
 90
        2
176
     1
  1
strokes_ogs.tif
176
     1
290
     0
176
     1
 40
1.0
176
     1
 40
1.0
176
     1
  0
VISUALSTYLE
  5
2E
102
{ACAD_REACTORS
330
2A
102
}
330
2A
100
AcDbVisualStyle
  2
GouraudWithEdges
 70
     3
177
     3
291
     1
 70
    58
 90
        2
176
     1
 90
        2
176
     1
 90
        1
176
     1
 90
        2
176
     1
 40
0.6
176
     1
 40
30.0
176
     1
 62
     7
420
 16777215
176
     1
 90
        1
176
     1
 90
        0
176
     1
 62
     7
176
     1
 62
   257
176
     1
 90
        1
176
     1
 90
        1
176
     1
 40
1.0
176
     1
 90
        0
176
     1
 62
   257
176
     1
 40
1.0
176
     1
 90
        1
176
     1
 90
        6
176
     1
 90
        2
176
     1
 62
     7
176
     1
 90
        5
176
     1
 90
        0
176
     1
 90
        0
176
     1
290
     0
176
     1
 90
       13
176
     1
 40
0.0
176
     1
 90
        0
176
     1
290
     0
176
     1
290
     1
176
     1
290
     1
176
     1
290
     0
176
     1
290
     0
176
     1
290
     0
176
     1
290
     0
176
     1
290
     0
176
     1
290
     0
176
     1
 90
       50
176
     1
 40
0.0
176
     1
 40
1.0
176
     1
 90
        0
176
     1
 62
    18
420
        0
176
     1
 90
       50
176
     1
 90
        3
176
     1
 62
     5
420
      255
176
     1
290
     0
176
     1
 90
       50
176
     1
 90
       50
176
     1
 90
       50
176
     1
290
     0
176
     1
 90
       50
176
     1
 62
   256
176
     0
 40
1.0
176
     0
 90
        2
176
     1
  1
strokes_ogs.tif
176
     1
290
     0
176
     1
 40
1.0
176
     1
 40
1.0
176
     1
  0
VISUALSTYLE
  5
31
102
{ACAD_REACTORS
330
2A
102
}
330
2A
100
AcDbVisualStyle
  2
Hidden
 70
     6
177
     3
291
     0
 70
    58
 90
        1
176
     1
 90
        2
176
     1
 90
        2
176
     1
 90
        0
176
     1
 40
0.6
176
     1
 40
30.0
176
     1
 62
     7
420
 16777215
176
     1
 90
        2
176
     1
 90
        2
176
     1
 62
     7
176
     1
 62
   257
176
     1
 90
        2
176
     1
 90
        1
176
     1
 40
40.0
176
     1
 90
        0
176
     1
 62
   257
176
     1
 40
1.0
176
     1
 90
        1
176
     1
 90
        6
176
     1
 90
        2
176
     1
 62
     7
176
     1
 90
        3
176
     1
 90
        0
176
     1
 90
        0
176
     1
290
     0
176
     1
 90
        1
176
     1
 40
0.0
176
     1
 90
        0
176
     1
290
     0
176
     1
290
     1
176
     1
290
     1
176
     1
290
     0
176
     1
290
     0
176
     1
290
     0
176
     1
290
     0
176
     1
290
     0
176
     1
290
     0
176
     1
 90
       50
176
     1
 40
0.0
176
     1
 40
1.0
176
     1
 90
        0
176
     1
 62
    18
420
        0
176
     1
 90
       50
176
     1
 90
        3
176
     1
 62
     5
420
      255
176
     1
290
     0
176
     1
 90
       50
176
     1
 90
       50
176
     1
 90
       50
176
     1
290
     0
176
     1
 90
       50
176
     1
 62
   256
176
     0
 40
1.0
176
     0
 90
        2
176
     1
  1
strokes_ogs.tif
176
     1
290
     0
176
     1
 40
1.0
176
     1
 40
1.0
176
     1
  0
VISUALSTYLE
  5
3B
102
{ACAD_REACTORS
330
2A
102
}
330
2A
100
AcDbVisualStyle
  2
JitterOff
 70
    20
177
     3
291
     1
 70
    58
 90
        2
176
     0
 90
        2
176
     0
 90
        0
176
     0
 90
        0
176
     0
 40
0.6
176
     0
 40
30.0
176
     0
 62
     7
420
 16777215
176
     0
 90
        1
176
     0
 90
        4
176
     0
 62
     7
176
     0
 62
   257
176
     0
 90
        1
176
     0
 90
        1
176
     0
 40
1.0
176
     0
 90
       10
176
     2
 62
     7
176
     0
 40
1.0
176
     0
 90
        1
176
     0
 90
        6
176
     0
 90
        2
176
     0
 62
     7
176
     0
 90
        5
176
     0
 90
        0
176
     0
 90
        0
176
     0
290
     0
176
     0
 90
        1
176
     0
 40
0.0
176
     0
 90
        0
176
     0
290
     0
176
     0
290
     1
176
     0
290
     1
176
     0
290
     0
176
     0
290
     0
176
     0
290
     0
176
     0
290
     0
176
     0
290
     0
176
     0
290
     0
176
     0
 90
       50
176
     0
 40
0.0
176
     0
 40
1.0
176
     0
 90
        0
176
     0
 62
    18
420
        0
176
     0
 90
       50
176
     0
 90
        3
176
     0
 62
     5
420
      255
176
     0
290
     0
176
     0
 90
       50
176
     0
 90
       50
176
     0
 90
       50
176
     0
290
     0
176
     0
 90
       50
176
     0
 62
   256
176
     0
 40
1.0
176
     0
 90
        2
176
     0
  1
strokes_ogs.tif
176
     0
290
     0
176
     0
 40
1.0
176
     0
 40
1.0
176
     0
  0
VISUALSTYLE
  5
38
102
{ACAD_REACTORS
330
2A
102
}
330
2A
100
AcDbVisualStyle
  2
Linepattern
 70
    14
177
     3
291
     1
 70
    58
 90
        2
176
     1
 90
        2
176
     1
 90
        0
176
     1
 90
        0
176
     1
 40
0.6
176
     1
 40
30.0
176
     1
 62
     7
420
 16777215
176
     1
 90
        1
176
     1
 90
        4
176
     1
 62
     7
176
     1
 62
   257
176
     1
 90
        7
176
     1
 90
        7
176
     1
 40
1.0
176
     1
 90
        8
176
     1
 62
     7
176
     1
 40
1.0
176
     1
 90
        1
176
     1
 90
        6
176
     1
 90
        2
176
     1
 62
     7
176
     1
 90
        5
176
     1
 90
        0
176
     1
 90
        0
176
     1
290
     0
176
     1
 90
        1
176
     1
 40
0.0
176
     1
 90
        0
176
     1
290
     0
176
     1
290
     1
176
     1
290
     1
176
     1
290
     0
176
     1
290
     0
176
     1
290
     0
176
     1
290
     0
176
     1
290
     0
176
     1
290
     0
176
     1
 90
       50
176
     1
 40
0.0
176
     1
 40
1.0
176
     1
 90
        0
176
     1
 62
    18
420
        0
176
     1
 90
       50
176
     1
 90
        3
176
     1
 62
     5
420
      255
176
     1
290
     0
176
     1
 90
       50
176
     1
 90
       50
176
     1
 90
       50
176
     1
290
     0
176
     1
 90
       50
176
     1
 62
   256
176
     0
 40
1.0
176
     0
 90
        2
176
     1
  1
strokes_ogs.tif
176
     1
290
     0
176
     1
 40
1.0
176
     1
 40
1.0
176
     1
  0
VISUALSTYLE
  5
3C
102
{ACAD_REACTORS
330
2A
102
}
330
2A
100
AcDbVisualStyle
  2
OverhangOff
 70
    21
177
     3
291
     1
 70
    58
 90
        2
176
     0
 90
        2
176
     0
 90
        0
176
     0
 90
        0
176
     0
 40
0.6
176
     0
 40
30.0
176
     0
 62
     7
420
 16777215
176
     0
 90
        1
176
     0
 90
        4
176
     0
 62
     7
176
     0
 62
   257
176
     0
 90
        1
176
     0
 90
        1
176
     0
 40
1.0
176
     0
 90
        9
176
     2
 62
     7
176
     0
 40
1.0
176
     0
 90
        1
176
     0
 90
        6
176
     0
 90
        2
176
     0
 62
     7
176
     0
 90
        5
176
     0
 90
        0
176
     0
 90
        0
176
     0
290
     0
176
     0
 90
        1
176
     0
 40
0.0
176
     0
 90
        0
176
     0
290
     0
176
     0
290
     1
176
     0
290
     1
176
     0
290
     0
176
     0
290
     0
176
     0
290
     0
176
     0
290
     0
176
     0
290
     0
176
     0
290
     0
176
     0
 90
       50
176
     0
 40
0.0
176
     0
 40
1.0
176
     0
 90
        0
176
     0
 62
    18
420
        0
176
     0
 90
       50
176
     0
 90
        3
176
     0
 62
     5
420
      255
176
     0
290
     0
176
     0
 90
       50
176
     0
 90
       50
176
     0
 90
       50
176
     0
290
     0
176
     0
 90
       50
176
     0
 62
   256
176
     0
 40
1.0
176
     0
 90
        2
176
     0
  1
strokes_ogs.tif
176
     0
290
     0
176
     0
 40
1.0
176
     0
 40
1.0
176
     0
  0
VISUALSTYLE
  5
33
102
{ACAD_REACTORS
330
2A
102
}
330
2A
100
AcDbVisualStyle
  2
Realistic
 70
     8
177
     3
291
     0
 70
    58
 90
        2
176
     1
 90
        3
176
     1
 90
        0
176
     1
 90
        2
176
     1
 40
0.6
176
     1
 40
30.0
176
     1
 62
     7
420
 16777215
176
     1
 90
        0
176
     1
 90
        0
176
     1
 62
     7
176
     1
 62
   257
176
     1
 90
        1
176
     1
 90
        1
176
     1
 40
1.0
176
     1
 90
        8
176
     1
 62
   257
176
     1
 40
1.0
176
     1
 90
        1
176
     1
 90
        6
176
     1
 90
        2
176
     1
 62
     7
176
     1
 90
        3
176
     1
 90
        0
176
     1
 90
        0
176
     1
290
     0
176
     1
 90
       13
176
     1
 40
0.0
176
     1
 90
        0
176
     1
290
     0
176
     1
290
     1
176
     1
290
     1
176
     1
290
     0
176
     1
290
     0
176
     1
290
     0
176
     1
290
     0
176
     1
290
     0
176
     1
290
     0
176
     1
 90
       50
176
     1
 40
0.0
176
     1
 40
1.0
176
     1
 90
        0
176
     1
 62
    18
420
        0
176
     1
 90
       50
176
     1
 90
        3
176
     1
 62
     5
420
      255
176
     1
290
     0
176
     1
 90
       50
176
     1
 90
       50
176
     1
 90
       50
176
     1
290
     0
176
     1
 90
       50
176
     1
 62
   256
176
     0
 40
1.0
176
     0
 90
        2
176
     1
  1
strokes_ogs.tif
176
     1
290
     0
176
     1
 40
1.0
176
     1
 40
1.0
176
     1
  0
VISUALSTYLE
  5
42
102
{ACAD_REACTORS
330
2A
102
}
330
2A
100
AcDbVisualStyle
  2
Shaded
 70
    27
177
     3
291
     0
 70
    58
 90
        2
176
     1
 90
        2
176
     1
 90
        1
176
     1
 90
        2
176
     1
 40
0.6
176
     1
 40
30.0
176
     1
 62
     7
420
 16777215
176
     1
 90
        0
176
     1
 90
        4
176
     1
 62
     7
176
     1
 62
   257
176
     1
 90
        1
176
     1
 90
        1
176
     1
 40
1.0
176
     1
 90
        8
176
     1
 62
   257
176
     1
 40
1.0
176
     1
 90
        1
176
     1
 90
        6
176
     1
 90
        2
176
     1
 62
     8
420
  7895160
176
     1
 90
        3
176
     1
 90
        0
176
     1
 90
        0
176
     1
290
     0
176
     1
 90
        5
176
     1
 40
0.0
176
     1
 90
        0
176
     1
290
     0
176
     1
290
     1
176
     1
290
     1
176
     1
290
     0
176
     1
290
     0
176
     1
290
     0
176
     1
290
     0
176
     1
290
     0
176
     1
290
     0
176
     1
 90
       50
176
     1
 40
0.0
176
     1
 40
1.0
176
     1
 90
        0
176
     1
 62
    18
420
        0
176
     1
 90
       50
176
     1
 90
        3
176
     1
 62
     5
420
      255
176
     1
290
     0
176
     1
 90
       50
176
     1
 90
       50
176
     1
 90
       50
176
     1
290
     0
176
     1
 90
       50
176
     1
 62
   256
176
     0
 40
1.0
176
     0
 90
        2
176
     1
  1
strokes_ogs.tif
176
     1
290
     0
176
     1
 40
1.0
176
     1
 40
1.0
176
     1
  0
VISUALSTYLE
  5
41
102
{ACAD_REACTORS
330
2A
102
}
330
2A
100
AcDbVisualStyle
  2
Shaded with edges
 70
    26
177
     3
291
     0
 70
    58
 90
        2
176
     1
 90
        2
176
     1
 90
        1
176
     1
 90
        2
176
     1
 40
0.6
176
     1
 40
30.0
176
     1
 62
     7
420
 16777215
176
     1
 90
        1
176
     1
 90
       10
176
     1
 62
     7
176
     1
 62
   257
176
     1
 90
        2
176
     1
 90
        1
176
     1
 40
1.0
176
     1
 90
        8
176
     1
 62
   257
176
     1
 40
1.0
176
     1
 90
        1
176
     1
 90
        6
176
     1
 90
        2
176
     1
 62
     7
176
     1
 90
        3
176
     1
 90
        0
176
     1
 90
        0
176
     1
290
     0
176
     1
 90
        5
176
     1
 40
0.0
176
     1
 90
        0
176
     1
290
     0
176
     1
290
     1
176
     1
290
     1
176
     1
290
     0
176
     1
290
     0
176
     1
290
     0
176
     1
290
     0
176
     1
290
     0
176
     1
290
     0
176
     1
 90
       50
176
     1
 40
0.0
176
     1
 40
1.0
176
     1
 90
        0
176
     1
 62
    18
420
        0
176
     1
 90
       50
176
     1
 90
        3
176
     1
 62
     5
420
      255
176
     1
290
     0
176
     1
 90
       50
176
     1
 90
       50
176
     1
 90
       50
176
     1
290
     0
176
     1
 90
       50
176
     1
 62
   256
176
     0
 40
1.0
176
     0
 90
        2
176
     1
  1
strokes_ogs.tif
176
     1
290
     0
176
     1
 40
1.0
176
     1
 40
1.0
176
     1
  0
VISUALSTYLE
  5
3E
102
{ACAD_REACTORS
330
2A
102
}
330
2A
100
AcDbVisualStyle
  2
Shades of Gray
 70
    23
177
     3
291
     0
 70
    58
 90
        2
176
     1
 90
        2
176
     1
 90
        3
176
     1
 90
        0
176
     1
 40
0.6
176
     1
 40
30.0
176
     1
 62
     7
420
 16777215
176
     1
 90
        2
176
     1
 90
        2
176
     1
 62
     7
176
     1
 62
     7
176
     1
 90
        1
176
     1
 90
        1
176
     1
 40
40.0
176
     1
 90
        8
176
     1
 62
     7
176
     1
 40
1.0
176
     1
 90
        1
176
     1
 90
        6
176
     1
 90
        2
176
     1
 62
     7
176
     1
 90
        3
176
     1
 90
        0
176
     1
 90
        0
176
     1
290
     0
176
     1
 90
        1
176
     1
 40
0.0
176
     1
 90
        0
176
     1
290
     0
176
     1
290
     1
176
     1
290
     1
176
     1
290
     0
176
     1
290
     0
176
     1
290
     0
176
     1
290
     0
176
     1
290
     0
176
     1
290
     0
176
     1
 90
       50
176
     1
 40
0.0
176
     1
 40
1.0
176
     1
 90
        0
176
     1
 62
    18
420
        0
176
     1
 90
       50
176
     1
 90
        3
176
     1
 62
     5
420
      255
176
     1
290
     0
176
     1
 90
       50
176
     1
 90
       50
176
     1
 90
       50
176
     1
290
     0
176
     1
 90
       50
176
     1
 62
   256
176
     0
 40
1.0
176
     0
 90
        2
176
     1
  1
strokes_ogs.tif
176
     1
290
     0
176
     1
 40
1.0
176
     1
 40
1.0
176
     1
  0
VISUALSTYLE
  5
3F
102
{ACAD_REACTORS
330
2A
102
}
330
2A
100
AcDbVisualStyle
  2
Sketchy
 70
    24
177
     3
291
     0
 70
    58
 90
        1
176
     1
 90
        2
176
     1
 90
        2
176
     1
 90
        0
176
     1
 40
0.6
176
     1
 40
30.0
176
     1
 62
     7
420
 16777215
176
     1
 90
        2
176
     1
 90
        2
176
     1
 62
     7
176
     1
 62
     7
176
     1
 90
        1
176
     1
 90
        1
176
     1
 40
40.0
176
     1
 90
       11
176
     1
 62
     7
176
     1
 40
1.0
176
     1
 90
        1
176
     1
 90
        6
176
     1
 90
        2
176
     1
 62
     7
176
     1
 90
        6
176
     1
 90
        0
176
     1
 90
        0
176
     1
290
     0
176
     1
 90
        1
176
     1
 40
0.0
176
     1
 90
        0
176
     1
290
     0
176
     1
290
     1
176
     1
290
     1
176
     1
290
     0
176
     1
290
     0
176
     1
290
     0
176
     1
290
     0
176
     1
290
     0
176
     1
290
     0
176
     1
 90
       50
176
     1
 40
0.0
176
     1
 40
1.0
176
     1
 90
        0
176
     1
 62
    18
420
        0
176
     1
 90
       50
176
     1
 90
        3
176
     1
 62
     5
420
      255
176
     1
290
     0
176
     1
 90
       50
176
     1
 90
       50
176
     1
 90
       50
176
     1
290
     0
176
     1
 90
       50
176
     1
 62
   256
176
     0
 40
1.0
176
     0
 90
        2
176
     1
  1
strokes_ogs.tif
176
     1
290
     0
176
     1
 40
1.0
176
     1
 40
1.0
176
     1
  0
VISUALSTYLE
  5
37
102
{ACAD_REACTORS
330
2A
102
}
330
2A
100
AcDbVisualStyle
  2
Thicken
 70
    13
177
     3
291
     1
 70
    58
 90
        2
176
     1
 90
        2
176
     1
 90
        0
176
     1
 90
        0
176
     1
 40
0.6
176
     1
 40
30.0
176
     1
 62
     7
420
 16777215
176
     1
 90
        1
176
     1
 90
        4
176
     1
 62
     7
176
     1
 62
   257
176
     1
 90
        1
176
     1
 90
        1
176
     1
 40
1.0
176
     1
 90
       12
176
     1
 62
     7
176
     1
 40
1.0
176
     1
 90
        1
176
     1
 90
        6
176
     1
 90
        2
176
     1
 62
     7
176
     1
 90
        5
176
     1
 90
        0
176
     1
 90
        0
176
     1
290
     0
176
     1
 90
        1
176
     1
 40
0.0
176
     1
 90
        0
176
     1
290
     0
176
     1
290
     1
176
     1
290
     1
176
     1
290
     0
176
     1
290
     0
176
     1
290
     0
176
     1
290
     0
176
     1
290
     0
176
     1
290
     0
176
     1
 90
       50
176
     1
 40
0.0
176
     1
 40
1.0
176
     1
 90
        0
176
     1
 62
    18
420
        0
176
     1
 90
       50
176
     1
 90
        3
176
     1
 62
     5
420
      255
176
     1
290
     0
176
     1
 90
       50
176
     1
 90
       50
176
     1
 90
       50
176
     1
290
     0
176
     1
 90
       50
176
     1
 62
   256
176
     0
 40
1.0
176
     0
 90
        2
176
     1
  1
strokes_ogs.tif
176
     1
290
     0
176
     1
 40
1.0
176
     1
 40
1.0
176
     1
  0
VISUALSTYLE
  5
30
102
{ACAD_REACTORS
330
2A
102
}
330
2A
100
AcDbVisualStyle
  2
Wireframe
 70
     5
177
     3
291
     0
 70
    58
 90
        0
176
     1
 90
        2
176
     1
 90
        0
176
     1
 90
        0
176
     1
 40
0.6
176
     1
 40
30.0
176
     1
 62
     7
420
 16777215
176
     1
 90
        1
176
     1
 90
        4
176
     1
 62
     7
176
     1
 62
   257
176
     1
 90
        1
176
     1
 90
        1
176
     1
 40
1.0
176
     1
 90
        0
176
     1
 62
   257
176
     1
 40
1.0
176
     1
 90
        1
176
     1
 90
        6
176
     1
 90
        2
176
     1
 62
     7
176
     1
 90
        3
176
     1
 90
        0
176
     1
 90
        0
176
     1
290
     0
176
     1
 90
        1
176
     1
 40
0.0
176
     1
 90
        0
176
     1
290
     0
176
     1
290
     1
176
     1
290
     1
176
     1
290
     0
176
     1
290
     0
176
     1
290
     0
176
     1
290
     0
176
     1
290
     0
176
     1
290
     0
176
     1
 90
       50
176
     1
 40
0.0
176
     1
 40
1.0
176
     1
 90
        0
176
     1
 62
    18
420
        0
176
     1
 90
       50
176
     1
 90
        3
176
     1
 62
     5
420
      255
176
     1
290
     0
176
     1
 90
       50
176
     1
 90
       50
176
     1
 90
       50
176
     1
290
     0
176
     1
 90
       50
176
     1
 62
   256
176
     0
 40
1.0
176
     0
 90
        2
176
     1
  1
strokes_ogs.tif
176
     1
290
     0
176
     1
 40
1.0
176
     1
 40
1.0
176
     1
  0
VISUALSTYLE
  5
40
102
{ACAD_REACTORS
330
2A
102
}
330
2A
100
AcDbVisualStyle
  2
X-Ray
 70
    25
177
     3
291
     0
 70
    58
 90
        2
176
     1
 90
        2
176
     1
 90
        1
176
     1
 90
        1
176
     1
 40
0.5
176
     1
 40
30.0
176
     1
 62
     7
420
 16777215
176
     1
 90
        1
176
     1
 90
        0
176
     1
 62
     7
176
     1
 62
   257
176
     1
 90
        1
176
     1
 90
        1
176
     1
 40
1.0
176
     1
 90
        8
176
     1
 62
     7
176
     1
 40
1.0
176
     1
 90
        1
176
     1
 90
        6
176
     1
 90
        2
176
     1
 62
     7
176
     1
 90
        3
176
     1
 90
        0
176
     1
 90
        0
176
     1
290
     0
176
     1
 90
       13
176
     1
 40
0.0
176
     1
 90
        0
176
     1
290
     0
176
     1
290
     1
176
     1
290
     1
176
     1
290
     0
176
     1
290
     0
176
     1
290
     0
176
     1
290
     0
176
     1
290
     0
176
     1
290
     0
176
     1
 90
       50
176
     1
 40
0.0
176
     1
 40
1.0
176
     1
 90
        0
176
     1
 62
    18
420
        0
176
     1
 90
       50
176
     1
 90
        3
176
     1
 62
     5
420
      255
176
     1
290
     0
176
     1
 90
       50
176
     1
 90
       50
176
     1
 90
       50
176
     1
290
     0
176
     1
 90
       50
176
     1
 62
   256
176
     0
 40
1.0
176
     0
 90
        2
176
     1
  1
strokes_ogs.tif
176
     1
290
     0
176
     1
 40
1.0
176
     1
 40
1.0
176
     1
  0
DICTIONARYVAR
  5
1B5
102
{ACAD_REACTORS
330
1B4
102
}
330
1B4
100
DictionaryVariables
280
     0
  1
1:1
  0
DICTIONARYVAR
  5
1BA
102
{ACAD_REACTORS
330
1B4
102
}
330
1B4
100
DictionaryVariables
280
     0
  1
Standard
  0
DICTIONARYVAR
  5
1B9
102
{ACAD_REACTORS
330
1B4
102
}
330
1B4
100
DictionaryVariables
280
     0
  1
Standard
  0
DICTIONARY
  5
1B6
330
6A
100
AcDbDictionary
280
     1
281
     1
  3
ACAD_ROUNDTRIP_2008_TABLESTYLE_CELLSTYLEMAP
360
1B7
  0
CELLSTYLEMAP
  5
1B7
102
{ACAD_REACTORS
330
1B6
102
}
330
1B6
100
AcDbCellStyleMap
 90
        3
300
CELLSTYLE
  1
TABLEFORMAT_BEGIN
 90
        5
170
     1
 91
        0
 92
    32768
 62
   257
 93
        1
300
CONTENTFORMAT
  1
CONTENTFORMAT_BEGIN
 90
        0
 91
        0
 92
        4
 93
        0
300

 40
0.0
140
1.0
 94
        5
 62
     0
340
11
144
6.0
309
CONTENTFORMAT_END
171
     1
301
MARGIN
  1
CELLMARGIN_BEGIN
 40
1.5
 40
1.5
 40
1.5
 40
1.5
 40
1.5
 40
1.5
309
CELLMARGIN_END
 94
        6
 95
        1
302
GRIDFORMAT
  1
GRIDFORMAT_BEGIN
 90
        0
 91
        1
 62
     0
 92
       -2
340
14
 93
        0
 40
0.045
309
GRIDFORMAT_END
 95
        2
302
GRIDFORMAT
  1
GRIDFORMAT_BEGIN
 90
        0
 91
        1
 62
     0
 92
       -2
340
14
 93
        0
 40
0.045
309
GRIDFORMAT_END
 95
        4
302
GRIDFORMAT
  1
GRIDFORMAT_BEGIN
 90
        0
 91
        1
 62
     0
 92
       -2
340
14
 93
        0
 40
0.045
309
GRIDFORMAT_END
 95
        8
302
GRIDFORMAT
  1
GRIDFORMAT_BEGIN
 90
        0
 91
        1
 62
     0
 92
       -2
340
14
 93
        0
 40
0.045
309
GRIDFORMAT_END
 95
       16
302
GRIDFORMAT
  1
GRIDFORMAT_BEGIN
 90
        0
 91
        1
 62
     0
 92
       -2
340
14
 93
        0
 40
0.045
309
GRIDFORMAT_END
 95
       32
302
GRIDFORMAT
  1
GRIDFORMAT_BEGIN
 90
        0
 91
        1
 62
     0
 92
       -2
340
14
 93
        0
 40
0.045
309
GRIDFORMAT_END
309
TABLEFORMAT_END
  1
CELLSTYLE_BEGIN
 90
        1
 91
        1
300
_TITLE
309
CELLSTYLE_END
300
CELLSTYLE
  1
TABLEFORMAT_BEGIN
 90
        5
170
     1
 91
        0
 92
        0
 62
   257
 93
        1
300
CONTENTFORMAT
  1
CONTENTFORMAT_BEGIN
 90
        0
 91
        0
 92
        4
 93
        0
300

 40
0.0
140
1.0
 94
        5
 62
     0
340
11
144
4.5
309
CONTENTFORMAT_END
171
     1
301
MARGIN
  1
CELLMARGIN_BEGIN
 40
1.5
 40
1.5
 40
1.5
 40
1.5
 40
1.5
 40
1.5
309
CELLMARGIN_END
 94
        6
 95
        1
302
GRIDFORMAT
  1
GRIDFORMAT_BEGIN
 90
        0
 91
        1
 62
     0
 92
       -2
340
14
 93
        0
 40
0.045
309
GRIDFORMAT_END
 95
        2
302
GRIDFORMAT
  1
GRIDFORMAT_BEGIN
 90
        0
 91
        1
 62
     0
 92
       -2
340
14
 93
        0
 40
0.045
309
GRIDFORMAT_END
 95
        4
302
GRIDFORMAT
  1
GRIDFORMAT_BEGIN
 90
        0
 91
        1
 62
     0
 92
       -2
340
14
 93
        0
 40
0.045
309
GRIDFORMAT_END
 95
        8
302
GRIDFORMAT
  1
GRIDFORMAT_BEGIN
 90
        0
 91
        1
 62
     0
 92
       -2
340
14
 93
        0
 40
0.045
309
GRIDFORMAT_END
 95
       16
302
GRIDFORMAT
  1
GRIDFORMAT_BEGIN
 90
        0
 91
        1
 62
     0
 92
       -2
340
14
 93
        0
 40
0.045
309
GRIDFORMAT_END
 95
       32
302
GRIDFORMAT
  1
GRIDFORMAT_BEGIN
 90
        0
 91
        1
 62
     0
 92
       -2
340
14
 93
        0
 40
0.045
309
GRIDFORMAT_END
309
TABLEFORMAT_END
  1
CELLSTYLE_BEGIN
 90
        2
 91
        1
300
_HEADER
309
CELLSTYLE_END
300
CELLSTYLE
  1
TABLEFORMAT_BEGIN
 90
        5
170
     1
 91
        0
 92
        0
 62
   257
 93
        1
300
CONTENTFORMAT
  1
CONTENTFORMAT_BEGIN
 90
        0
 91
        0
 92
        4
 93
        0
300

 40
0.0
140
1.0
 94
        2
 62
     0
340
11
144
4.5
309
CONTENTFORMAT_END
171
     1
301
MARGIN
  1
CELLMARGIN_BEGIN
 40
1.5
 40
1.5
 40
1.5
 40
1.5
 40
1.5
 40
1.5
309
CELLMARGIN_END
 94
        6
 95
        1
302
GRIDFORMAT
  1
GRIDFORMAT_BEGIN
 90
        0
 91
        1
 62
     0
 92
       -2
340
14
 93
        0
 40
0.045
309
GRIDFORMAT_END
 95
        2
302
GRIDFORMAT
  1
GRIDFORMAT_BEGIN
 90
        0
 91
        1
 62
     0
 92
       -2
340
14
 93
        0
 40
0.045
309
GRIDFORMAT_END
 95
        4
302
GRIDFORMAT
  1
GRIDFORMAT_BEGIN
 90
        0
 91
        1
 62
     0
 92
       -2
340
14
 93
        0
 40
0.045
309
GRIDFORMAT_END
 95
        8
302
GRIDFORMAT
  1
GRIDFORMAT_BEGIN
 90
        0
 91
        1
 62
     0
 92
       -2
340
14
 93
        0
 40
0.045
309
GRIDFORMAT_END
 95
       16
302
GRIDFORMAT
  1
GRIDFORMAT_BEGIN
 90
        0
 91
        1
 62
     0
 92
       -2
340
14
 93
        0
 40
0.045
309
GRIDFORMAT_END
 95
       32
302
GRIDFORMAT
  1
GRIDFORMAT_BEGIN
 90
        0
 91
        1
 62
     0
 92
       -2
340
14
 93
        0
 40
0.045
309
GRIDFORMAT_END
309
TABLEFORMAT_END
  1
CELLSTYLE_BEGIN
 90
        3
 91
        2
300
_DATA
309
CELLSTYLE_END
  0
ENDSEC
  0
EOF