0
SECTION
  2
HEADER
  9
$ACADVER
  1
AC1027
  9
$ACADMAINTVER
 70
     8
  9
$DWGCODEPAGE
  3
ANSI_1252
  9
$REQUIREDVERSIONS
160
                 0
  9
$COMMENTS
  1
File was created by Cadenas
  9
$CUSTOMPROPERTYTAG
  1
NN
  9
$CUSTOMPROPERTY
  1
D-Lok Medium Duty Two-Bolt Flange Inch Dimension
  9
$CUSTOMPROPERTYTAG
  1
NT
  9
$CUSTOMPROPERTY
  1
D-LOK
  9
$CUSTOMPROPERTYTAG
  1
NB
  9
$CUSTOMPROPERTY
  1
128835
  9
$CUSTOMPROPERTYTAG
  1
NBSYN
  9
$CUSTOMPROPERTY
  1
$PN.
  9
$CUSTOMPROPERTYTAG
  1
LINA
  9
$CUSTOMPROPERTY
  1
128835
  9
$CUSTOMPROPERTYTAG
  1
SERIES
  9
$CUSTOMPROPERTY
  1
206
  9
$CUSTOMPROPERTYTAG
  1
SS
  9
$CUSTOMPROPERTY
  1
1
  9
$CUSTOMPROPERTYTAG
  1
PN
  9
$CUSTOMPROPERTY
  1
128835
  9
$CUSTOMPROPERTYTAG
  1
DESCRIPTION
  9
$CUSTOMPROPERTY
  1
F2B-DLM-100
  9
$CUSTOMPROPERTYTAG
  1
W
  9
$CUSTOMPROPERTY
  1
2.6
  9
$CUSTOMPROPERTYTAG
  1
A
  9
$CUSTOMPROPERTY
  1
1.56
  9
$CUSTOMPROPERTYTAG
  1
B
  9
$CUSTOMPROPERTY
  1
5.56
  9
$CUSTOMPROPERTYTAG
  1
C
  9
$CUSTOMPROPERTY
  1
1.60
  9
$CUSTOMPROPERTYTAG
  1
D
  9
$CUSTOMPROPERTY
  1
4.59
  9
$CUSTOMPROPERTYTAG
  1
F
  9
$CUSTOMPROPERTY
  1
7/16
  9
$CUSTOMPROPERTYTAG
  1
H
  9
$CUSTOMPROPERTY
  1
0.50
  9
$CUSTOMPROPERTYTAG
  1
J
  9
$CUSTOMPROPERTY
  1
0.53
  9
$CUSTOMPROPERTYTAG
  1
L
  9
$CUSTOMPROPERTY
  1
2.22
  9
$CUSTOMPROPERTYTAG
  1
M
  9
$CUSTOMPROPERTY
  1
3.13
  9
$CUSTOMPROPERTYTAG
  1
N
  9
$CUSTOMPROPERTY
  1
1.84
  9
$CUSTOMPROPERTYTAG
  1
CS
  9
$CUSTOMPROPERTY
  1
2250
  9
$CUSTOMPROPERTYTAG
  1
CD
  9
$CUSTOMPROPERTY
  1
4368
  9
$CUSTOMPROPERTYTAG
  1
BN
  9
$CUSTOMPROPERTY
  1
9
  9
$CUSTOMPROPERTYTAG
  1
BD
  9
$CUSTOMPROPERTY
  1
3/8
  9
$CUSTOMPROPERTYTAG
  1
PDI
  9
$CUSTOMPROPERTY
  1
1.8230
  9
$CUSTOMPROPERTYTAG
  1
IC
  9
$CUSTOMPROPERTY
  1
5-11
  9
$CUSTOMPROPERTYTAG
  1
SC
  9
$CUSTOMPROPERTY
  1
10-32
  9
$CUSTOMPROPERTYTAG
  1
TC
  9
$CUSTOMPROPERTY
  1
90
  9
$CUSTOMPROPERTYTAG
  1
MH
  9
$CUSTOMPROPERTY
  1
C.I.
  9
$CUSTOMPROPERTYTAG
  1
IR
  9
$CUSTOMPROPERTY
  1
4118
  9
$CUSTOMPROPERTYTAG
  1
OR
  9
$CUSTOMPROPERTY
  1
52100
  9
$CUSTOMPROPERTYTAG
  1
R
  9
$CUSTOMPROPERTY
  1
NYLON 6-6
  9
$CUSTOMPROPERTYTAG
  1
MB
  9
$CUSTOMPROPERTY
  1
52100
  9
$CUSTOMPROPERTYTAG
  1
SM
  9
$CUSTOMPROPERTY
  1
±2
  9
$CUSTOMPROPERTYTAG
  1
COMPANY
  9
$CUSTOMPROPERTY
  1
baldor
  9
$INSBASE
 10
0.0
 20
0.0
 30
0.0
  9
$EXTMIN
 10
1.000000000000000E+20
 20
1.000000000000000E+20
 30
1.000000000000000E+20
  9
$EXTMAX
 10
-1.000000000000000E+20
 20
-1.000000000000000E+20
 30
-1.000000000000000E+20
  9
$LIMMIN
 10
0.0
 20
0.0
  9
$LIMMAX
 10
12.0
 20
9.0
  9
$ORTHOMODE
 70
     0
  9
$REGENMODE
 70
     1
  9
$FILLMODE
 70
     1
  9
$QTEXTMODE
 70
     0
  9
$MIRRTEXT
 70
     1
  9
$LTSCALE
 40
1.0
  9
$ATTMODE
 70
     1
  9
$TEXTSIZE
 40
0.2
  9
$TRACEWID
 40
0.05
  9
$TEXTSTYLE
  7
Standard
  9
$CLAYER
  8
0
  9
$CELTYPE
  6
ByLayer
  9
$CECOLOR
 62
   256
  9
$CELTSCALE
 40
1.0
  9
$DISPSILH
 70
     0
  9
$DIMSCALE
 40
1.0
  9
$DIMASZ
 40
0.18
  9
$DIMEXO
 40
0.0625
  9
$DIMDLI
 40
0.38
  9
$DIMRND
 40
0.0
  9
$DIMDLE
 40
0.0
  9
$DIMEXE
 40
0.18
  9
$DIMTP
 40
0.0
  9
$DIMTM
 40
0.0
  9
$DIMTXT
 40
0.18
  9
$DIMCEN
 40
0.09
  9
$DIMTSZ
 40
0.0
  9
$DIMTOL
 70
     0
  9
$DIMLIM
 70
     0
  9
$DIMTIH
 70
     1
  9
$DIMTOH
 70
     1
  9
$DIMSE1
 70
     0
  9
$DIMSE2
 70
     0
  9
$DIMTAD
 70
     0
  9
$DIMZIN
 70
     0
  9
$DIMBLK
  1

  9
$DIMASO
 70
     1
  9
$DIMSHO
 70
     1
  9
$DIMPOST
  1

  9
$DIMAPOST
  1

  9
$DIMALT
 70
     0
  9
$DIMALTD
 70
     2
  9
$DIMALTF
 40
25.4
  9
$DIMLFAC
 40
1.0
  9
$DIMTOFL
 70
     0
  9
$DIMTVP
 40
0.0
  9
$DIMTIX
 70
     0
  9
$DIMSOXD
 70
     0
  9
$DIMSAH
 70
     0
  9
$DIMBLK1
  1

  9
$DIMBLK2
  1

  9
$DIMSTYLE
  2
Standard
  9
$DIMCLRD
 70
     0
  9
$DIMCLRE
 70
     0
  9
$DIMCLRT
 70
     0
  9
$DIMTFAC
 40
1.0
  9
$DIMGAP
 40
0.09
  9
$DIMJUST
 70
     0
  9
$DIMSD1
 70
     0
  9
$DIMSD2
 70
     0
  9
$DIMTOLJ
 70
     1
  9
$DIMTZIN
 70
     0
  9
$DIMALTZ
 70
     0
  9
$DIMALTTZ
 70
     0
  9
$DIMUPT
 70
     0
  9
$DIMDEC
 70
     4
  9
$DIMTDEC
 70
     4
  9
$DIMALTU
 70
     2
  9
$DIMALTTD
 70
     2
  9
$DIMTXSTY
  7
Standard
  9
$DIMAUNIT
 70
     0
  9
$DIMADEC
 70
     0
  9
$DIMALTRND
 40
0.0
  9
$DIMAZIN
 70
     0
  9
$DIMDSEP
 70
    46
  9
$DIMATFIT
 70
     3
  9
$DIMFRAC
 70
     0
  9
$DIMLDRBLK
  1

  9
$DIMLUNIT
 70
     2
  9
$DIMLWD
 70
    -2
  9
$DIMLWE
 70
    -2
  9
$DIMTMOVE
 70
     0
  9
$DIMFXL
 40
1.0
  9
$DIMFXLON
 70
     0
  9
$DIMJOGANG
 40
0.7853981633974483
  9
$DIMTFILL
 70
     0
  9
$DIMTFILLCLR
 70
     0
  9
$DIMARCSYM
 70
     0
  9
$DIMLTYPE
  6

  9
$DIMLTEX1
  6

  9
$DIMLTEX2
  6

  9
$DIMTXTDIRECTION
 70
     0
  9
$LUNITS
 70
     2
  9
$LUPREC
 70
     4
  9
$SKETCHINC
 40
0.1
  9
$FILLETRAD
 40
0.5
  9
$AUNITS
 70
     0
  9
$AUPREC
 70
     0
  9
$MENU
  1
.
  9
$ELEVATION
 40
0.0
  9
$PELEVATION
 40
0.0
  9
$THICKNESS
 40
0.0
  9
$LIMCHECK
 70
     0
  9
$CHAMFERA
 40
0.0
  9
$CHAMFERB
 40
0.0
  9
$CHAMFERC
 40
0.0
  9
$CHAMFERD
 40
0.0
  9
$SKPOLY
 70
     0
  9
$TDCREATE
 40
2458169.000865984
  9
$TDUCREATE
 40
2458168.959199317
  9
$TDUPDATE
 40
2458169.000865984
  9
$TDUUPDATE
 40
2458168.959199317
  9
$TDINDWG
 40
0.0000000116
  9
$TDUSRTIMER
 40
0.0000000116
  9
$USRTIMER
 70
     1
  9
$ANGBASE
 50
0.0
  9
$ANGDIR
 70
     0
  9
$PDMODE
 70
     0
  9
$PDSIZE
 40
0.0
  9
$PLINEWID
 40
0.0
  9
$SPLFRAME
 70
     0
  9
$SPLINETYPE
 70
     6
  9
$SPLINESEGS
 70
     8
  9
$HANDSEED
  5
199
  9
$SURFTAB1
 70
     6
  9
$SURFTAB2
 70
     6
  9
$SURFTYPE
 70
     6
  9
$SURFU
 70
     6
  9
$SURFV
 70
     6
  9
$UCSBASE
  2

  9
$UCSNAME
  2

  9
$UCSORG
 10
0.0
 20
0.0
 30
0.0
  9
$UCSXDIR
 10
1.0
 20
0.0
 30
0.0
  9
$UCSYDIR
 10
0.0
 20
1.0
 30
0.0
  9
$UCSORTHOREF
  2

  9
$UCSORTHOVIEW
 70
     0
  9
$UCSORGTOP
 10
0.0
 20
0.0
 30
0.0
  9
$UCSORGBOTTOM
 10
0.0
 20
0.0
 30
0.0
  9
$UCSORGLEFT
 10
0.0
 20
0.0
 30
0.0
  9
$UCSORGRIGHT
 10
0.0
 20
0.0
 30
0.0
  9
$UCSORGFRONT
 10
0.0
 20
0.0
 30
0.0
  9
$UCSORGBACK
 10
0.0
 20
0.0
 30
0.0
  9
$PUCSBASE
  2

  9
$PUCSNAME
  2

  9
$PUCSORG
 10
0.0
 20
0.0
 30
0.0
  9
$PUCSXDIR
 10
1.0
 20
0.0
 30
0.0
  9
$PUCSYDIR
 10
0.0
 20
1.0
 30
0.0
  9
$PUCSORTHOREF
  2

  9
$PUCSORTHOVIEW
 70
     0
  9
$PUCSORGTOP
 10
0.0
 20
0.0
 30
0.0
  9
$PUCSORGBOTTOM
 10
0.0
 20
0.0
 30
0.0
  9
$PUCSORGLEFT
 10
0.0
 20
0.0
 30
0.0
  9
$PUCSORGRIGHT
 10
0.0
 20
0.0
 30
0.0
  9
$PUCSORGFRONT
 10
0.0
 20
0.0
 30
0.0
  9
$PUCSORGBACK
 10
0.0
 20
0.0
 30
0.0
  9
$USERI1
 70
     0
  9
$USERI2
 70
     0
  9
$USERI3
 70
     0
  9
$USERI4
 70
     0
  9
$USERI5
 70
     0
  9
$USERR1
 40
0.0
  9
$USERR2
 40
0.0
  9
$USERR3
 40
0.0
  9
$USERR4
 40
0.0
  9
$USERR5
 40
0.0
  9
$WORLDVIEW
 70
     1
  9
$SHADEDGE
 70
     3
  9
$SHADEDIF
 70
    70
  9
$TILEMODE
 70
     1
  9
$MAXACTVP
 70
    64
  9
$PINSBASE
 10
0.0
 20
0.0
 30
0.0
  9
$PLIMCHECK
 70
     0
  9
$PEXTMIN
 10
1.000000000000000E+20
 20
1.000000000000000E+20
 30
1.000000000000000E+20
  9
$PEXTMAX
 10
-1.000000000000000E+20
 20
-1.000000000000000E+20
 30
-1.000000000000000E+20
  9
$PLIMMIN
 10
0.0
 20
0.0
  9
$PLIMMAX
 10
12.0
 20
9.0
  9
$UNITMODE
 70
     0
  9
$VISRETAIN
 70
     1
  9
$PLINEGEN
 70
     0
  9
$PSLTSCALE
 70
     1
  9
$TREEDEPTH
 70
  3020
  9
$CMLSTYLE
  2
Standard
  9
$CMLJUST
 70
     0
  9
$CMLSCALE
 40
1.0
  9
$PROXYGRAPHICS
 70
     1
  9
$MEASUREMENT
 70
     0
  9
$CELWEIGHT
370
    -1
  9
$ENDCAPS
280
     0
  9
$JOINSTYLE
280
     0
  9
$LWDISPLAY
290
     0
  9
$INSUNITS
 70
     1
  9
$HYPERLINKBASE
  1

  9
$STYLESHEET
  1

  9
$XEDIT
290
     1
  9
$CEPSNTYPE
380
     0
  9
$PSTYLEMODE
290
     1
  9
$FINGERPRINTGUID
  2
{FCA9DD3B-1751-46DA-A8E6-505A59CFD450}
  9
$VERSIONGUID
  2
{FAEB1C32-E019-11D5-929B-00C0DF256EC4}
  9
$EXTNAMES
290
     1
  9
$PSVPSCALE
 40
0.0
  9
$OLESTARTUP
290
     0
  9
$SORTENTS
280
   127
  9
$INDEXCTL
280
     0
  9
$HIDETEXT
280
     1
  9
$XCLIPFRAME
280
     2
  9
$HALOGAP
280
     0
  9
$OBSCOLOR
 70
   257
  9
$OBSLTYPE
280
     0
  9
$INTERSECTIONDISPLAY
280
     0
  9
$INTERSECTIONCOLOR
 70
   257
  9
$DIMASSOC
280
     2
  9
$PROJECTNAME
  1

  9
$CAMERADISPLAY
290
     0
  9
$LENSLENGTH
 40
50.0
  9
$CAMERAHEIGHT
 40
0.0
  9
$STEPSPERSEC
 40
2.0
  9
$STEPSIZE
 40
6.0
  9
$3DDWFPREC
 40
2.0
  9
$PSOLWIDTH
 40
0.25
  9
$PSOLHEIGHT
 40
4.0
  9
$LOFTANG1
 40
1.570796326794897
  9
$LOFTANG2
 40
1.570796326794897
  9
$LOFTMAG1
 40
0.0
  9
$LOFTMAG2
 40
0.0
  9
$LOFTPARAM
 70
     7
  9
$LOFTNORMALS
280
     1
  9
$LATITUDE
 40
37.795
  9
$LONGITUDE
 40
-122.394
  9
$NORTHDIRECTION
 40
0.0
  9
$TIMEZONE
 70
 -8000
  9
$LIGHTGLYPHDISPLAY
280
     1
  9
$TILEMODELIGHTSYNCH
280
     1
  9
$CMATERIAL
347
44
  9
$SOLIDHIST
280
     0
  9
$SHOWHIST
280
     1
  9
$DWFFRAME
280
     2
  9
$DGNFRAME
280
     2
  9
$REALWORLDSCALE
290
     1
  9
$INTERFERECOLOR
 62
   256
  9
$CSHADOW
280
     0
  9
$SHADOWPLANELOCATION
 40
0.0
  0
ENDSEC
  0
SECTION
  2
CLASSES
  0
CLASS
  1
ACDBDICTIONARYWDFLT
  2
AcDbDictionaryWithDefault
  3
ObjectDBX Classes
 90
        0
 91
        4
280
     0
281
     0
  0
CLASS
  1
VISUALSTYLE
  2
AcDbVisualStyle
  3
ObjectDBX Classes
 90
     4095
 91
        4
280
     0
281
     0
  0
CLASS
  1
MATERIAL
  2
AcDbMaterial
  3
ObjectDBX Classes
 90
     1153
 91
        4
280
     0
281
     0
  0
CLASS
  1
SCALE
  2
AcDbScale
  3
ObjectDBX Classes
 90
     1153
 91
        4
280
     0
281
     0
  0
CLASS
  1
TABLESTYLE
  2
AcDbTableStyle
  3
ObjectDBX Classes
 90
     4095
 91
        4
280
     0
281
     0
  0
CLASS
  1
MLEADERSTYLE
  2
AcDbMLeaderStyle
  3
ACDB_MLEADERSTYLE_CLASS
 90
     4095
 91
        4
280
     0
281
     0
  0
CLASS
  1
SUN
  2
AcDbSun
  3
SCENEOE
 90
     1153
 91
        4
280
     0
281
     0
  0
CLASS
  1
DICTIONARYVAR
  2
AcDbDictionaryVar
  3
ObjectDBX Classes
 90
        0
 91
        4
280
     0
281
     0
  0
CLASS
  1
CELLSTYLEMAP
  2
AcDbCellStyleMap
  3
ObjectDBX Classes
 90
     1152
 91
        4
280
     0
281
     0
  0
ENDSEC
  0
SECTION
  2
TABLES
  0
TABLE
  2
VPORT
  5
8
330
0
100
AcDbSymbolTable
 70
     1
  0
VPORT
  5
29
330
8
100
AcDbSymbolTableRecord
100
AcDbViewportTableRecord
  2
*Active
 70
     0
 10
0.0
 20
0.0
 11
1.0
 21
1.0
 12
0.1362826360222051
 22
-0.7999999999999998
 13
0.0
 23
0.0
 14
0.5
 24
0.5
 15
0.5
 25
0.5
 16
0.0
 26
0.0
 36
1.0
 17
0.0
 27
0.0
 37
0.0
 40
1.7952
 41
1.933275722752499
 42
50.0
 43
0.0
 44
0.0
 50
0.0
 51
0.0
 71
     0
 72
   100
 73
     1
 74
     3
 75
     0
 76
     0
 77
     0
 78
     0
281
     0
 65
     1
110
0.0
120
0.0
130
0.0
111
1.0
121
0.0
131
0.0
112
0.0
122
1.0
132
0.0
 79
     0
146
0.0
348
2F
 60
     3
 61
     5
292
     1
282
     1
141
0.0
142
0.0
 63
   250
361
6D
  0
ENDTAB
  0
TABLE
  2
LTYPE
  5
5
330
0
100
AcDbSymbolTable
 70
     3
  0
LTYPE
  5
14
330
5
100
AcDbSymbolTableRecord
100
AcDbLinetypeTableRecord
  2
ByBlock
 70
     0
  3

 72
    65
 73
     0
 40
0.0
  0
LTYPE
  5
15
330
5
100
AcDbSymbolTableRecord
100
AcDbLinetypeTableRecord
  2
ByLayer
 70
     0
  3

 72
    65
 73
     0
 40
0.0
  0
LTYPE
  5
16
330
5
100
AcDbSymbolTableRecord
100
AcDbLinetypeTableRecord
  2
Continuous
 70
     0
  3
Solid line
 72
    65
 73
     0
 40
0.0
  0
LTYPE
  5
A8
330
5
100
AcDbSymbolTableRecord
100
AcDbLinetypeTableRecord
  2
Dashed
 70
     0
  3

 72
    65
 73
     2
 40
2.0
 49
1.0
 74
     0
 49
-1.0
 74
     0
  0
LTYPE
  5
172
330
5
100
AcDbSymbolTableRecord
100
AcDbLinetypeTableRecord
  2
Center
 70
     0
  3

 72
    65
 73
     4
 40
1.5
 49
0.45
 74
     0
 49
-0.5
 74
     0
 49
0.05
 74
     0
 49
-0.5
 74
     0
  0
ENDTAB
  0
TABLE
  2
LAYER
  5
2
330
0
100
AcDbSymbolTable
 70
     6
  0
LAYER
  5
10
330
2
100
AcDbSymbolTableRecord
100
AcDbLayerTableRecord
  2
0
 70
     0
 62
     7
  6
Continuous
370
    -3
390
F
347
46
348
0
  0
LAYER
  5
72
330
2
100
AcDbSymbolTableRecord
100
AcDbLayerTableRecord
  2
AM_6
 70
     0
 62
    -2
  6
Continuous
370
    35
390
F
347
46
348
0
  0
LAYER
  5
A9
330
2
100
AcDbSymbolTableRecord
100
AcDbLayerTableRecord
  2
AM_9
 70
     0
 62
     6
  6
Dashed
370
    25
390
F
347
46
348
0
  0
LAYER
  5
CB
330
2
100
AcDbSymbolTableRecord
100
AcDbLayerTableRecord
  2
AM_4
 70
     0
 62
     7
  6
Continuous
370
    50
390
F
347
46
348
0
  0
LAYER
  5
173
330
2
100
AcDbSymbolTableRecord
100
AcDbLayerTableRecord
  2
AM_7
 70
     0
 62
     7
  6
Center
370
    25
390
F
347
46
348
0
  0
LAYER
  5
18A
330
2
100
AcDbSymbolTableRecord
100
AcDbLayerTableRecord
  2
ConnectionPoints
 70
     0
 62
     7
  6
Continuous
370
    50
390
F
347
46
348
0
  0
ENDTAB
  0
TABLE
  2
STYLE
  5
3
330
0
100
AcDbSymbolTable
 70
     1
  0
STYLE
  5
11
330
3
100
AcDbSymbolTableRecord
100
AcDbTextStyleTableRecord
  2
Standard
 70
     0
 40
0.0
 41
1.0
 50
0.0
 71
     0
 42
0.2
  3
txt
  4

  0
ENDTAB
  0
TABLE
  2
VIEW
  5
6
330
0
100
AcDbSymbolTable
 70
     0
  0
ENDTAB
  0
TABLE
  2
UCS
  5
7
330
0
100
AcDbSymbolTable
 70
     0
  0
ENDTAB
  0
TABLE
  2
APPID
  5
9
330
0
100
AcDbSymbolTable
 70
     1
  0
APPID
  5
12
330
9
100
AcDbSymbolTableRecord
100
AcDbRegAppTableRecord
  2
ACAD
 70
     0
  0
ENDTAB
  0
TABLE
  2
DIMSTYLE
  5
A
330
0
100
AcDbSymbolTable
 70
     1
100
AcDbDimStyleTable
  0
DIMSTYLE
105
27
330
A
100
AcDbSymbolTableRecord
100
AcDbDimStyleTableRecord
  2
Standard
 70
     0
178
     0
340
11
  0
ENDTAB
  0
TABLE
  2
BLOCK_RECORD
  5
1
330
0
100
AcDbSymbolTable
 70
     5
  0
BLOCK_RECORD
  5
1F
330
1
100
AcDbSymbolTableRecord
100
AcDbBlockTableRecord
  2
*Model_Space
340
22
 70
     0
280
     1
281
     0
  0
BLOCK_RECORD
  5
1B
330
1
100
AcDbSymbolTableRecord
100
AcDbBlockTableRecord
  2
*Paper_Space
340
1E
 70
     0
280
     1
281
     0
  0
BLOCK_RECORD
  5
23
330
1
100
AcDbSymbolTableRecord
100
AcDbBlockTableRecord
  2
*Paper_Space0
340
26
 70
     0
280
     1
281
     0
  0
BLOCK_RECORD
  5
6E
330
1
100
AcDbSymbolTableRecord
100
AcDbBlockTableRecord
  2
1_128835_4
340
0
102
{BLKREFS
331
6F
102
}
 70
     0
280
     1
281
     0
  0
BLOCK_RECORD
  5
96
330
1
100
AcDbSymbolTableRecord
100
AcDbBlockTableRecord
  2
2_405020c_Inch_0_in_128835_4
340
0
102
{BLKREFS
331
97
102
}
 70
     0
280
     1
281
     0
  0
BLOCK_RECORD
  5
F1
330
1
100
AcDbSymbolTableRecord
100
AcDbBlockTableRecord
  2
3_128668_0_in_128835_4
340
0
102
{BLKREFS
331
F2
102
}
 70
     0
280
     1
281
     0
  0
BLOCK_RECORD
  5
133
330
1
100
AcDbSymbolTableRecord
100
AcDbBlockTableRecord
  2
4_DLM_FLANGE_BODI_1_0_in_128835_4
340
0
102
{BLKREFS
331
134
102
}
 70
     0
280
     1
281
     0
  0
ENDTAB
  0
ENDSEC
  0
SECTION
  2
BLOCKS
  0
BLOCK
  5
20
330
1F
100
AcDbEntity
  8
0
100
AcDbBlockBegin
  2
*Model_Space
 70
     0
 10
0.0
 20
0.0
 30
0.0
  3
*Model_Space
  1

  0
ENDBLK
  5
21
330
1F
100
AcDbEntity
  8
0
100
AcDbBlockEnd
  0
BLOCK
  5
1C
330
1B
100
AcDbEntity
 67
     1
  8
0
100
AcDbBlockBegin
  2
*Paper_Space
 70
     0
 10
0.0
 20
0.0
 30
0.0
  3
*Paper_Space
  1

  0
ENDBLK
  5
1D
330
1B
100
AcDbEntity
 67
     1
  8
0
100
AcDbBlockEnd
  0
BLOCK
  5
24
330
23
100
AcDbEntity
  8
0
100
AcDbBlockBegin
  2
*Paper_Space0
 70
     0
 10
0.0
 20
0.0
 30
0.0
  3
*Paper_Space0
  1

  0
ENDBLK
  5
25
330
23
100
AcDbEntity
  8
0
100
AcDbBlockEnd
  0
BLOCK
  5
70
330
6E
100
AcDbEntity
  8
0
100
AcDbBlockBegin
  2
1_128835_4
 70
     2
 10
0.0
 20
0.0
 30
0.0
  3
1_128835_4
  1

  0
ATTDEF
  5
73
330
6E
100
AcDbEntity
  8
AM_6
100
AcDbText
 10
6.837565272044405
 20
0.08
 30
0.0
 40
0.5
  1
D-Lok Medium Duty Two-Bolt Flange Inch Dimension
100
AcDbAttributeDefinition
  3

  2
NN
 70
     8
280
     0
  0
ATTDEF
  5
74
330
6E
100
AcDbEntity
  8
AM_6
100
AcDbText
 10
6.837565272044405
 20
-0.42
 30
0.0
 40
0.5
  1
D-LOK
100
AcDbAttributeDefinition
  3

  2
NT
 70
     8
280
     0
  0
ATTDEF
  5
75
330
6E
100
AcDbEntity
  8
AM_6
100
AcDbText
 10
6.837565272044405
 20
-0.9199999999999999
 30
0.0
 40
0.5
  1
128835
100
AcDbAttributeDefinition
  3

  2
NB
 70
     8
280
     0
  0
ATTDEF
  5
76
330
6E
100
AcDbEntity
  8
AM_6
100
AcDbText
 10
6.837565272044405
 20
-1.42
 30
0.0
 40
0.5
  1
$PN.
100
AcDbAttributeDefinition
  3

  2
NBSYN
 70
     8
280
     0
  0
ATTDEF
  5
77
330
6E
100
AcDbEntity
  8
AM_6
100
AcDbText
 10
6.837565272044405
 20
-1.92
 30
0.0
 40
0.5
  1
128835
100
AcDbAttributeDefinition
  3

  2
LINA
 70
     8
280
     0
  0
ATTDEF
  5
78
330
6E
100
AcDbEntity
  8
AM_6
100
AcDbText
 10
6.837565272044405
 20
-2.42
 30
0.0
 40
0.5
  1
206
100
AcDbAttributeDefinition
  3

  2
SERIES
 70
     8
280
     0
  0
ATTDEF
  5
79
330
6E
100
AcDbEntity
  8
AM_6
100
AcDbText
 10
6.837565272044405
 20
-2.92
 30
0.0
 40
0.5
  1
1
100
AcDbAttributeDefinition
  3

  2
SS
 70
     8
280
     0
  0
ATTDEF
  5
7A
330
6E
100
AcDbEntity
  8
AM_6
100
AcDbText
 10
6.837565272044405
 20
-3.42
 30
0.0
 40
0.5
  1
128835
100
AcDbAttributeDefinition
  3

  2
PN
 70
     8
280
     0
  0
ATTDEF
  5
7B
330
6E
100
AcDbEntity
  8
AM_6
100
AcDbText
 10
6.837565272044405
 20
-3.92
 30
0.0
 40
0.5
  1
F2B-DLM-100
100
AcDbAttributeDefinition
  3

  2
DESCRIPTION
 70
     8
280
     0
  0
ATTDEF
  5
7C
330
6E
100
AcDbEntity
  8
AM_6
100
AcDbText
 10
6.837565272044405
 20
-4.42
 30
0.0
 40
0.5
  1
2.6
100
AcDbAttributeDefinition
  3

  2
W
 70
     8
280
     0
  0
ATTDEF
  5
7D
330
6E
100
AcDbEntity
  8
AM_6
100
AcDbText
 10
6.837565272044405
 20
-4.92
 30
0.0
 40
0.5
  1
1.56
100
AcDbAttributeDefinition
  3

  2
A
 70
     8
280
     0
  0
ATTDEF
  5
7E
330
6E
100
AcDbEntity
  8
AM_6
100
AcDbText
 10
6.837565272044405
 20
-5.42
 30
0.0
 40
0.5
  1
5.56
100
AcDbAttributeDefinition
  3

  2
B
 70
     8
280
     0
  0
ATTDEF
  5
7F
330
6E
100
AcDbEntity
  8
AM_6
100
AcDbText
 10
6.837565272044405
 20
-5.92
 30
0.0
 40
0.5
  1
1.60
100
AcDbAttributeDefinition
  3

  2
C
 70
     8
280
     0
  0
ATTDEF
  5
80
330
6E
100
AcDbEntity
  8
AM_6
100
AcDbText
 10
6.837565272044405
 20
-6.42
 30
0.0
 40
0.5
  1
4.59
100
AcDbAttributeDefinition
  3

  2
D
 70
     8
280
     0
  0
ATTDEF
  5
81
330
6E
100
AcDbEntity
  8
AM_6
100
AcDbText
 10
6.837565272044405
 20
-6.92
 30
0.0
 40
0.5
  1
7/16
100
AcDbAttributeDefinition
  3

  2
F
 70
     8
280
     0
  0
ATTDEF
  5
82
330
6E
100
AcDbEntity
  8
AM_6
100
AcDbText
 10
6.837565272044405
 20
-7.42
 30
0.0
 40
0.5
  1
0.50
100
AcDbAttributeDefinition
  3

  2
H
 70
     8
280
     0
  0
ATTDEF
  5
83
330
6E
100
AcDbEntity
  8
AM_6
100
AcDbText
 10
6.837565272044405
 20
-7.92
 30
0.0
 40
0.5
  1
0.53
100
AcDbAttributeDefinition
  3

  2
J
 70
     8
280
     0
  0
ATTDEF
  5
84
330
6E
100
AcDbEntity
  8
AM_6
100
AcDbText
 10
6.837565272044405
 20
-8.42
 30
0.0
 40
0.5
  1
2.22
100
AcDbAttributeDefinition
  3

  2
L
 70
     8
280
     0
  0
ATTDEF
  5
85
330
6E
100
AcDbEntity
  8
AM_6
100
AcDbText
 10
6.837565272044405
 20
-8.92
 30
0.0
 40
0.5
  1
3.13
100
AcDbAttributeDefinition
  3

  2
M
 70
     8
280
     0
  0
ATTDEF
  5
86
330
6E
100
AcDbEntity
  8
AM_6
100
AcDbText
 10
6.837565272044405
 20
-9.42
 30
0.0
 40
0.5
  1
1.84
100
AcDbAttributeDefinition
  3

  2
N
 70
     8
280
     0
  0
ATTDEF
  5
87
330
6E
100
AcDbEntity
  8
AM_6
100
AcDbText
 10
6.837565272044405
 20
-9.92
 30
0.0
 40
0.5
  1
2250
100
AcDbAttributeDefinition
  3

  2
CS
 70
     8
280
     0
  0
ATTDEF
  5
88
330
6E
100
AcDbEntity
  8
AM_6
100
AcDbText
 10
6.837565272044405
 20
-10.42
 30
0.0
 40
0.5
  1
4368
100
AcDbAttributeDefinition
  3

  2
CD
 70
     8
280
     0
  0
ATTDEF
  5
89
330
6E
100
AcDbEntity
  8
AM_6
100
AcDbText
 10
6.837565272044405
 20
-10.92
 30
0.0
 40
0.5
  1
9
100
AcDbAttributeDefinition
  3

  2
BN
 70
     8
280
     0
  0
ATTDEF
  5
8A
330
6E
100
AcDbEntity
  8
AM_6
100
AcDbText
 10
6.837565272044405
 20
-11.42
 30
0.0
 40
0.5
  1
3/8
100
AcDbAttributeDefinition
  3

  2
BD
 70
     8
280
     0
  0
ATTDEF
  5
8B
330
6E
100
AcDbEntity
  8
AM_6
100
AcDbText
 10
6.837565272044405
 20
-11.92
 30
0.0
 40
0.5
  1
1.8230
100
AcDbAttributeDefinition
  3

  2
PDI
 70
     8
280
     0
  0
ATTDEF
  5
8C
330
6E
100
AcDbEntity
  8
AM_6
100
AcDbText
 10
6.837565272044405
 20
-12.42
 30
0.0
 40
0.5
  1
5-11
100
AcDbAttributeDefinition
  3

  2
IC
 70
     8
280
     0
  0
ATTDEF
  5
8D
330
6E
100
AcDbEntity
  8
AM_6
100
AcDbText
 10
6.837565272044405
 20
-12.92
 30
0.0
 40
0.5
  1
10-32
100
AcDbAttributeDefinition
  3

  2
SC
 70
     8
280
     0
  0
ATTDEF
  5
8E
330
6E
100
AcDbEntity
  8
AM_6
100
AcDbText
 10
6.837565272044405
 20
-13.42
 30
0.0
 40
0.5
  1
90
100
AcDbAttributeDefinition
  3

  2
TC
 70
     8
280
     0
  0
ATTDEF
  5
8F
330
6E
100
AcDbEntity
  8
AM_6
100
AcDbText
 10
6.837565272044405
 20
-13.92
 30
0.0
 40
0.5
  1
C.I.
100
AcDbAttributeDefinition
  3

  2
MH
 70
     8
280
     0
  0
ATTDEF
  5
90
330
6E
100
AcDbEntity
  8
AM_6
100
AcDbText
 10
6.837565272044405
 20
-14.42
 30
0.0
 40
0.5
  1
4118
100
AcDbAttributeDefinition
  3

  2
IR
 70
     8
280
     0
  0
ATTDEF
  5
91
330
6E
100
AcDbEntity
  8
AM_6
100
AcDbText
 10
6.837565272044405
 20
-14.92
 30
0.0
 40
0.5
  1
52100
100
AcDbAttributeDefinition
  3

  2
OR
 70
     8
280
     0
  0
ATTDEF
  5
92
330
6E
100
AcDbEntity
  8
AM_6
100
AcDbText
 10
6.837565272044405
 20
-15.42
 30
0.0
 40
0.5
  1
NYLON 6-6
100
AcDbAttributeDefinition
  3

  2
R
 70
     8
280
     0
  0
ATTDEF
  5
93
330
6E
100
AcDbEntity
  8
AM_6
100
AcDbText
 10
6.837565272044405
 20
-15.92
 30
0.0
 40
0.5
  1
52100
100
AcDbAttributeDefinition
  3

  2
MB
 70
     8
280
     0
  0
ATTDEF
  5
94
330
6E
100
AcDbEntity
  8
AM_6
100
AcDbText
 10
6.837565272044405
 20
-16.42
 30
0.0
 40
0.5
  1
±2
100
AcDbAttributeDefinition
  3

  2
SM
 70
     8
280
     0
  0
ATTDEF
  5
95
330
6E
100
AcDbEntity
  8
AM_6
100
AcDbText
 10
6.837565272044405
 20
-16.92
 30
0.0
 40
0.5
  1
baldor
100
AcDbAttributeDefinition
  3

  2
COMPANY
 70
     8
280
     0
  0
INSERT
  5
97
330
6E
100
AcDbEntity
  8
0
100
AcDbBlockReference
  2
2_405020c_Inch_0_in_128835_4
 10
0.0
 20
0.0
 30
0.0
  0
INSERT
  5
F2
330
6E
100
AcDbEntity
  8
0
100
AcDbBlockReference
  2
3_128668_0_in_128835_4
 10
0.0
 20
0.0
 30
0.0
  0
INSERT
  5
134
330
6E
100
AcDbEntity
  8
0
100
AcDbBlockReference
  2
4_DLM_FLANGE_BODI_1_0_in_128835_4
 10
0.0
 20
0.0
 30
0.0
  0
ENDBLK
  5
71
330
6E
100
AcDbEntity
  8
0
100
AcDbBlockEnd
  0
BLOCK
  5
98
330
96
100
AcDbEntity
  8
0
100
AcDbBlockBegin
  2
2_405020c_Inch_0_in_128835_4
 70
     2
 10
0.0
 20
0.0
 30
0.0
  3
2_405020c_Inch_0_in_128835_4
  1

  0
ATTDEF
  5
9A
330
96
100
AcDbEntity
  8
AM_6
100
AcDbText
 10
6.837565272044405
 20
-0.587591369276958
 30
0.0
 40
0.5
  1
405020C -Inch
100
AcDbAttributeDefinition
  3

  2
NN
 70
     8
280
     0
  0
ATTDEF
  5
9B
330
96
100
AcDbEntity
  8
AM_6
100
AcDbText
 10
6.837565272044405
 20
-1.087591369276958
 30
0.0
 40
0.5
  1
Grease fitting
100
AcDbAttributeDefinition
  3

  2
NT
 70
     8
280
     0
  0
ATTDEF
  5
9C
330
96
100
AcDbEntity
  8
AM_6
100
AcDbText
 10
6.837565272044405
 20
-1.587591369276958
 30
0.0
 40
0.5
  1
405020c-Inch
100
AcDbAttributeDefinition
  3

  2
NB
 70
     8
280
     0
  0
ATTDEF
  5
9D
330
96
100
AcDbEntity
  8
AM_6
100
AcDbText
 10
6.837565272044405
 20
-2.087591369276958
 30
0.0
 40
0.5
  1
$MN.-Inch
100
AcDbAttributeDefinition
  3

  2
NBSYN
 70
     8
280
     0
  0
ATTDEF
  5
9E
330
96
100
AcDbEntity
  8
AM_6
100
AcDbText
 10
6.837565272044405
 20
-2.587591369276958
 30
0.0
 40
0.5
  1
405020c
100
AcDbAttributeDefinition
  3

  2
LINA
 70
     8
280
     0
  0
ATTDEF
  5
9F
330
96
100
AcDbEntity
  8
AM_6
100
AcDbText
 10
6.837565272044405
 20
-3.087591369276958
 30
0.0
 40
0.5
  1
405020c
100
AcDbAttributeDefinition
  3

  2
MN
 70
     8
280
     0
  0
ATTDEF
  5
A0
330
96
100
AcDbEntity
  8
AM_6
100
AcDbText
 10
6.837565272044405
 20
-3.587591369276958
 30
0.0
 40
0.5
  1
0.230
100
AcDbAttributeDefinition
  3

  2
NDR
 70
     8
280
     0
  0
ATTDEF
  5
A1
330
96
100
AcDbEntity
  8
AM_6
100
AcDbText
 10
6.837565272044405
 20
-4.087591369276958
 30
0.0
 40
0.5
  1
0.210
100
AcDbAttributeDefinition
  3

  2
KDR
 70
     8
280
     0
  0
ATTDEF
  5
A2
330
96
100
AcDbEntity
  8
AM_6
100
AcDbText
 10
6.837565272044405
 20
-4.587591369276958
 30
0.0
 40
0.5
  1
0.157
100
AcDbAttributeDefinition
  3

  2
BZE
 70
     8
280
     0
  0
ATTDEF
  5
A3
330
96
100
AcDbEntity
  8
AM_6
100
AcDbText
 10
6.837565272044405
 20
-5.087591369276958
 30
0.0
 40
0.5
  1
9/32
100
AcDbAttributeDefinition
  3

  2
WAF
 70
     8
280
     0
  0
ATTDEF
  5
A4
330
96
100
AcDbEntity
  8
AM_6
100
AcDbText
 10
6.837565272044405
 20
-5.587591369276958
 30
0.0
 40
0.5
  1
0.2813
100
AcDbAttributeDefinition
  3

  2
WAF1
 70
     8
280
     0
  0
ATTDEF
  5
A5
330
96
100
AcDbEntity
  8
AM_6
100
AcDbText
 10
6.837565272044405
 20
-6.087591369276958
 30
0.0
 40
0.5
  1
0.545
100
AcDbAttributeDefinition
  3

  2
BL
 70
     8
280
     0
  0
ATTDEF
  5
A6
330
96
100
AcDbEntity
  8
AM_6
100
AcDbText
 10
6.837565272044405
 20
-6.587591369276958
 30
0.0
 40
0.5
  1
0.200
100
AcDbAttributeDefinition
  3

  2
TL
 70
     8
280
     0
  0
ATTDEF
  5
A7
330
96
100
AcDbEntity
  8
AM_6
100
AcDbText
 10
6.837565272044405
 20
-7.087591369276958
 30
0.0
 40
0.5
  1
baldor
100
AcDbAttributeDefinition
  3

  2
COMPANY
 70
     8
280
     0
  0
ELLIPSE
  5
AA
330
96
100
AcDbEntity
  8
AM_9
100
AcDbEllipse
 10
1.387731069749661
 20
-0.7499999999999998
 30
0.0
 11
-1.838598171376523E-17
 21
-0.1000886227036577
 31
0.0
210
0.0
220
0.0
230
1.0
 40
0.7071067811865451
 41
0.0
 42
6.283185307179586
  0
LINE
  5
AB
330
96
100
AcDbEntity
  8
AM_9
100
AcDbLine
 10
1.671624867559318
 20
-0.8312043153615206
 30
0.0
 11
1.632729574041504
 21
-0.8312043153615206
 31
0.0
  0
LINE
  5
AC
330
96
100
AcDbEntity
  8
AM_9
100
AcDbLine
 10
1.671624867559318
 20
-0.6687956846384789
 30
0.0
 11
1.632729574041504
 21
-0.6687956846384789
 31
0.0
  0
LWPOLYLINE
  5
AD
330
96
100
AcDbEntity
  8
AM_9
100
AcDbPolyline
 90
        3
 70
     0
 43
0.0
 10
1.628606994760859
 20
-0.7499999999999998
 10
1.629695144035773
 20
-0.7906021576807603
 10
1.632729574041504
 20
-0.8312043153615206
  0
LWPOLYLINE
  5
AE
330
96
100
AcDbEntity
  8
AM_9
100
AcDbPolyline
 90
        4
 70
     0
 43
0.0
 10
1.632729574041504
 20
-0.6687956846384789
 10
1.631104353384917
 20
-0.6876982481560967
 10
1.629256537203891
 20
-0.7187571743791793
 10
1.628606994760859
 20
-0.7499999999999998
  0
LWPOLYLINE
  5
AF
330
96
100
AcDbEntity
  8
AM_9
100
AcDbPolyline
 90
        3
 70
     0
 43
0.0
 10
1.578879710373915
 20
-0.6281935269577185
 10
1.604831501842301
 20
-0.6484946057980987
 10
1.632729574041504
 20
-0.6687956846384789
  0
LWPOLYLINE
  5
B0
330
96
100
AcDbEntity
  8
AM_9
100
AcDbPolyline
 90
        3
 70
     0
 43
0.0
 10
1.632729574041504
 20
-0.8312043153615206
 10
1.604952908655655
 20
-0.8514141150849084
 10
1.578879710373915
 20
-0.8718064730422811
  0
LWPOLYLINE
  5
B1
330
96
100
AcDbEntity
  8
AM_9
100
AcDbPolyline
 90
        3
 70
     0
 43
0.0
 10
1.671624867559318
 20
-0.6687956846384789
 10
1.649897835819026
 20
-0.6485858849150912
 10
1.637984874905501
 20
-0.6381810073183183
  0
LWPOLYLINE
  5
B2
330
96
100
AcDbEntity
  8
AM_9
100
AcDbPolyline
 90
        4
 70
     0
 43
0.0
 10
1.675723917463608
 20
-0.7440882346155343
 10
1.675101676904881
 20
-0.7188491240780482
 10
1.673250088215905
 20
-0.6876982481560966
 10
1.671624867559318
 20
-0.6687956846384789
  0
LINE
  5
B3
330
96
100
AcDbEntity
  8
AM_9
100
AcDbLine
 10
1.675747446839962
 20
-0.7499999999999998
 30
0.0
 11
1.675723917463608
 21
-0.7440882346155343
 31
0.0
  0
LWPOLYLINE
  5
B4
330
96
100
AcDbEntity
  8
AM_9
100
AcDbPolyline
 90
        3
 70
     0
 43
0.0
 10
1.637983724934514
 20
-0.8618199743330272
 10
1.649795655371577
 20
-0.8515053942019009
 10
1.671624867559318
 20
-0.8312043153615206
  0
LWPOLYLINE
  5
B5
330
96
100
AcDbEntity
  8
AM_9
100
AcDbPolyline
 90
        3
 70
     0
 43
0.0
 10
1.671624867559318
 20
-0.8312043153615206
 10
1.674649684382096
 20
-0.7907847159147453
 10
1.675747446839962
 20
-0.7499999999999998
  0
LWPOLYLINE
  5
B6
330
96
100
AcDbEntity
  8
AM_9
100
AcDbPolyline
 90
        3
 70
     0
 43
0.0
 10
1.533275005267616
 20
-0.587591369276958
 10
1.555002037007908
 20
-0.6078011690003458
 10
1.578879710373915
 20
-0.6281935269577185
  0
LWPOLYLINE
  5
B7
330
96
100
AcDbEntity
  8
AM_9
100
AcDbPolyline
 90
        3
 70
     0
 43
0.0
 10
1.578879710373915
 20
-0.8718064730422811
 10
1.555104217455357
 20
-0.8921075518826613
 10
1.533275005267616
 20
-0.9124086307230416
  0
LINE
  5
B8
330
96
100
AcDbEntity
  8
AM_9
100
AcDbLine
 10
1.392593812211947
 20
-0.8603623268442184
 30
0.0
 11
1.526581438070155
 21
-0.866286989091894
 31
0.0
  0
LINE
  5
B9
330
96
100
AcDbEntity
  8
AM_9
100
AcDbLine
 10
1.526581438070155
 20
-0.6337130109081055
 30
0.0
 11
1.392593812211947
 21
-0.6396376731557811
 31
0.0
  0
ELLIPSE
  5
BA
330
96
100
AcDbEntity
  8
AM_9
100
AcDbEllipse
 10
1.576292878066075
 20
-0.7500000000000002
 30
0.0
 11
8.612328615003716E-18
 21
0.1406499999999993
 31
0.0
210
0.0
220
0.0
230
1.0
 40
0.7071067811865434
 41
3.798906696793621
 42
5.625871263975762
  0
ELLIPSE
  5
BB
330
96
100
AcDbEntity
  8
AM_9
100
AcDbEllipse
 10
1.598439850951604
 20
-0.7499999999999998
 30
0.0
 11
6.694498085252782E-18
 21
0.1093294505797713
 31
0.0
210
0.0
220
0.0
230
1.0
 40
0.7071067811865637
 41
5.363595016668596
 42
5.928986666165851
  0
ELLIPSE
  5
BC
330
96
100
AcDbEntity
  8
AM_9
100
AcDbEllipse
 10
1.598439850951609
 20
-0.7500000000000022
 30
0.0
 11
6.694498085252619E-18
 21
0.1093294505797686
 31
0.0
210
0.0
220
0.0
230
1.0
 40
0.7071067811865343
 41
3.495791294603492
 42
4.006987430065962
  0
ELLIPSE
  5
BD
330
96
100
AcDbEntity
  8
AM_9
100
AcDbEllipse
 10
1.598439850951443
 20
-0.750000000000386
 30
0.0
 11
6.694498085185412E-18
 21
0.1093294505786711
 31
0.0
210
0.0
220
0.0
230
1.0
 40
0.7071067811941812
 41
4.343769754931042
 42
5.184915962537042
  0
LWPOLYLINE
  5
BE
330
96
100
AcDbEntity
  8
AM_9
100
AcDbPolyline
 90
       14
 70
     0
 43
0.0
 10
1.623439850951607
 20
-0.655315210360901
 10
1.624927280377092
 20
-0.6553646889596777
 10
1.62918451887626
 20
-0.6560469708320866
 10
1.633217741842437
 20
-0.6574071261330086
 10
1.637293744630787
 20
-0.6594568303627931
 10
1.64146176303404
 20
-0.662244534128551
 10
1.646116997388359
 20
-0.6662103197177596
 10
1.650702757444201
 20
-0.6710727124292168
 10
1.655145607275909
 20
-0.6768271728254639
 10
1.65936154569969
 20
-0.6834514855756982
 10
1.663260388323222
 20
-0.6908986526401124
 10
1.666751553168842
 20
-0.6990924890171416
 10
1.669756095924771
 20
-0.7079443794445611
 10
1.671237424812036
 20
-0.7132969739672377
  0
LWPOLYLINE
  5
BF
330
96
100
AcDbEntity
  8
AM_9
100
AcDbPolyline
 90
        5
 70
     0
 43
0.0
 10
1.614953561331049
 20
-0.8431019161770313
 10
1.61452480168566
 20
-0.842940520985824
 10
1.610465560774048
 20
-0.8410420292125209
 10
1.606317093399538
 20
-0.8384165067468105
 10
1.605566716119249
 20
-0.8378671361152865
  0
LWPOLYLINE
  5
C0
330
96
100
AcDbEntity
  8
AM_9
100
AcDbPolyline
 90
       16
 70
     0
 43
0.0
 10
1.671441614484722
 20
-0.785891332135482
 10
1.670911169988231
 20
-0.7879585621726841
 10
1.668142021811692
 20
-0.7970757292564271
 10
1.664859656822615
 20
-0.8055645516178814
 10
1.661145984326756
 20
-0.8133231608927425
 10
1.657095009188394
 20
-0.8202680473650058
 10
1.652809758286642
 20
-0.8263379164828719
 10
1.648402921992333
 20
-0.8314917126631274
 10
1.643984441461741
 20
-0.8357215440508782
 10
1.639650704385279
 20
-0.8390532024196313
 10
1.635469953248355
 20
-0.8415429720553123
 10
1.631457523154369
 20
-0.8432696396099449
 10
1.627531575434499
 20
-0.8443119522828582
 10
1.623423728920886
 20
-0.8446847838223575
 10
1.618565528309332
 20
-0.844156701369564
 10
1.614953561331049
 20
-0.8431019161770313
  0
LWPOLYLINE
  5
C1
330
96
100
AcDbEntity
  8
AM_9
100
AcDbPolyline
 90
        4
 70
     0
 43
0.0
 10
1.611165477577302
 20
-0.6585831943860655
 10
1.61466429850069
 20
-0.6570061389507373
 10
1.618593562584114
 20
-0.6558372794727122
 10
1.623439850951607
 20
-0.655315210360901
  0
LWPOLYLINE
  5
C2
330
96
100
AcDbEntity
  8
AM_9
100
AcDbPolyline
 90
        4
 70
     0
 43
0.0
 10
1.605854346274965
 20
-0.661919554046567
 10
1.606408762096469
 20
-0.6615179594649473
 10
1.610622098005922
 20
-0.658872444815041
 10
1.611165477577302
 20
-0.6585831943860655
  0
ELLIPSE
  5
C3
330
96
100
AcDbEntity
  8
AM_9
100
AcDbEllipse
 10
1.638381662888113
 20
-0.75
 30
0.0
 11
6.084620899749628E-18
 21
0.09936940028726615
 31
0.0
210
0.0
220
0.0
230
1.0
 40
0.7071067811865459
 41
2.656480407116016
 42
6.283185307179586
  0
ELLIPSE
  5
C4
330
96
100
AcDbEntity
  8
AM_9
100
AcDbEllipse
 10
1.686712991592589
 20
-0.7500000000000017
 30
0.0
 11
8.036249332247627E-18
 21
0.1312419113468924
 31
0.0
210
0.0
220
0.0
230
1.0
 40
0.7071067811865437
 41
2.732736106056535
 42
6.768297553653356
  0
ELLIPSE
  5
C5
330
96
100
AcDbEntity
  8
AM_9
100
AcDbEllipse
 10
1.686712991592739
 20
-0.7499999999999275
 30
0.0
 11
8.036249332252522E-18
 21
0.1312419113469724
 31
0.0
210
0.0
220
0.0
230
1.0
 40
0.7071067811869454
 41
-3.62670490006451
 42
-3.566582622745724
  0
ELLIPSE
  5
C6
330
96
100
AcDbEntity
  8
AM_9
100
AcDbEllipse
 10
1.715469235057867
 20
-0.7499999999999998
 30
0.0
 11
8.079715312105943E-18
 21
0.1319517646676798
 31
0.0
210
0.0
220
0.0
230
1.0
 40
0.707106781186545
 41
3.584867469732323
 42
5.844803532225585
  0
ELLIPSE
  5
C7
330
96
100
AcDbEntity
  8
AM_9
100
AcDbEllipse
 10
1.762333811731514
 20
-0.750000000001318
 30
0.0
 11
6.357083428040952E-18
 21
0.1038190510515685
 31
0.0
210
0.0
220
0.0
230
1.0
 40
0.7071067811865486
 41
3.587013939677583
 42
5.833242174547464
  0
ELLIPSE
  5
C8
330
96
100
AcDbEntity
  8
AM_9
100
AcDbEllipse
 10
1.529152425986972
 20
-0.7499999999999996
 30
0.0
 11
8.612328615003778E-18
 21
0.1406500000000003
 31
0.0
210
0.0
220
0.0
230
1.0
 40
0.7071067811865493
 41
0.0
 42
6.283185307179586
  0
ELLIPSE
  5
C9
330
96
100
AcDbEntity
  8
AM_9
100
AcDbEllipse
 10
1.529152425986972
 20
-0.7499999999999998
 30
0.0
 11
7.124004163867288E-18
 21
0.1163438171532771
 31
0.0
210
0.0
220
0.0
230
1.0
 40
0.7071067811865471
 41
0.0
 42
6.283185307179586
  0
ELLIPSE
  5
CA
330
96
100
AcDbEntity
  8
AM_9
100
AcDbEllipse
 10
1.395033811828447
 20
-0.75
 30
0.0
 11
6.761045944280102E-18
 21
0.1104162595939892
 31
0.0
210
0.0
220
0.0
230
1.0
 40
0.707106781186547
 41
0.0
 42
6.283185307179586
  0
LINE
  5
CC
330
96
100
AcDbEntity
  8
AM_4
100
AcDbLine
 10
1.637984874905501
 20
-0.6381810073183183
 30
0.0
 11
1.626020162453018
 21
-0.6281935269577185
 31
0.0
  0
LINE
  5
CD
330
96
100
AcDbEntity
  8
AM_4
100
AcDbLine
 10
1.626020162453018
 20
-0.8718064730422811
 30
0.0
 11
1.637983724934514
 21
-0.8618199743330272
 31
0.0
  0
LWPOLYLINE
  5
CE
330
96
100
AcDbEntity
  8
AM_4
100
AcDbPolyline
 90
        3
 70
     0
 43
0.0
 10
1.57217029878543
 20
-0.9124086307230416
 10
1.599946964171279
 20
-0.8921988309996538
 10
1.626020162453018
 20
-0.8718064730422811
  0
LWPOLYLINE
  5
CF
330
96
100
AcDbEntity
  8
AM_4
100
AcDbPolyline
 90
        3
 70
     0
 43
0.0
 10
1.626020162453018
 20
-0.6281935269577185
 10
1.600068370984633
 20
-0.6078924481173382
 10
1.57217029878543
 20
-0.587591369276958
  0
LWPOLYLINE
  5
D0
330
96
100
AcDbEntity
  8
AM_4
100
AcDbPolyline
 90
        3
 70
     0
 43
0.0
 10
1.479425141600028
 20
-0.871806473042281
 10
1.455649648681469
 20
-0.8515053942019009
 10
1.433820436493729
 20
-0.8312043153615206
  0
LWPOLYLINE
  5
D1
330
96
100
AcDbEntity
  8
AM_4
100
AcDbPolyline
 90
        3
 70
     0
 43
0.0
 10
1.533275005267616
 20
-0.9124086307230416
 10
1.505498339881768
 20
-0.8921988309996538
 10
1.479425141600028
 20
-0.871806473042281
  0
LINE
  5
D2
330
96
100
AcDbEntity
  8
AM_4
100
AcDbLine
 10
1.57217029878543
 20
-0.9124086307230416
 30
0.0
 11
1.533275005267616
 21
-0.9124086307230416
 31
0.0
  0
LWPOLYLINE
  5
D3
330
96
100
AcDbEntity
  8
AM_4
100
AcDbPolyline
 90
        3
 70
     0
 43
0.0
 10
1.526565593679131
 20
-0.8718064730422811
 10
1.550341086597689
 20
-0.8921075518826613
 10
1.57217029878543
 20
-0.9124086307230416
  0
LWPOLYLINE
  5
D4
330
96
100
AcDbEntity
  8
AM_4
100
AcDbPolyline
 90
        3
 70
     0
 43
0.0
 10
1.472715730011542
 20
-0.8312043153615206
 10
1.500492395397391
 20
-0.8514141150849084
 10
1.526565593679131
 20
-0.8718064730422811
  0
LWPOLYLINE
  5
D5
330
96
100
AcDbEntity
  8
AM_4
100
AcDbPolyline
 90
        4
 70
     0
 43
0.0
 10
1.429697857213084
 20
-0.7499999999999998
 10
1.430343627148166
 20
-0.7188491240780482
 10
1.432195215837142
 20
-0.6876982481560966
 10
1.433820436493729
 20
-0.6687956846384789
  0
LWPOLYLINE
  5
D6
330
96
100
AcDbEntity
  8
AM_4
100
AcDbPolyline
 90
        3
 70
     0
 43
0.0
 10
1.433820436493729
 20
-0.8312043153615206
 10
1.43079561967095
 20
-0.7907847159147453
 10
1.429697857213084
 20
-0.7499999999999998
  0
LINE
  5
D7
330
96
100
AcDbEntity
  8
AM_4
100
AcDbLine
 10
1.472715730011542
 20
-0.8312043153615206
 30
0.0
 11
1.433820436493729
 21
-0.8312043153615206
 31
0.0
  0
LWPOLYLINE
  5
D8
330
96
100
AcDbEntity
  8
AM_4
100
AcDbPolyline
 90
        3
 70
     0
 43
0.0
 10
1.476838309292187
 20
-0.7499999999999998
 10
1.475750160017274
 20
-0.7906021576807603
 10
1.472715730011542
 20
-0.8312043153615206
  0
LWPOLYLINE
  5
D9
330
96
100
AcDbEntity
  8
AM_4
100
AcDbPolyline
 90
        4
 70
     0
 43
0.0
 10
1.472715730011542
 20
-0.6687956846384789
 10
1.47434095066813
 20
-0.6876982481560966
 10
1.476188766849155
 20
-0.7187571743791793
 10
1.476838309292187
 20
-0.7499999999999998
  0
LINE
  5
DA
330
96
100
AcDbEntity
  8
AM_4
100
AcDbLine
 10
1.57217029878543
 20
-0.587591369276958
 30
0.0
 11
1.533275005267616
 21
-0.587591369276958
 31
0.0
  0
LWPOLYLINE
  5
DB
330
96
100
AcDbEntity
  8
AM_4
100
AcDbPolyline
 90
        3
 70
     0
 43
0.0
 10
1.479425141600028
 20
-0.6281935269577185
 10
1.505376933068413
 20
-0.6078924481173382
 10
1.533275005267616
 20
-0.587591369276958
  0
LWPOLYLINE
  5
DC
330
96
100
AcDbEntity
  8
AM_4
100
AcDbPolyline
 90
        3
 70
     0
 43
0.0
 10
1.433820436493729
 20
-0.6687956846384789
 10
1.45554746823402
 20
-0.6485858849150912
 10
1.479425141600028
 20
-0.6281935269577185
  0
LINE
  5
DD
330
96
100
AcDbEntity
  8
AM_4
100
AcDbLine
 10
1.472715730011542
 20
-0.6687956846384789
 30
0.0
 11
1.433820436493729
 21
-0.6687956846384789
 31
0.0
  0
LWPOLYLINE
  5
DE
330
96
100
AcDbEntity
  8
AM_4
100
AcDbPolyline
 90
        3
 70
     0
 43
0.0
 10
1.526565593679131
 20
-0.6281935269577185
 10
1.500613802210746
 20
-0.6484946057980987
 10
1.472715730011542
 20
-0.6687956846384789
  0
LWPOLYLINE
  5
DF
330
96
100
AcDbEntity
  8
AM_4
100
AcDbPolyline
 90
        3
 70
     0
 43
0.0
 10
1.57217029878543
 20
-0.587591369276958
 10
1.550443267045138
 20
-0.6078011690003458
 10
1.526565593679131
 20
-0.6281935269577185
  0
ELLIPSE
  5
E0
330
96
100
AcDbEntity
  8
AM_4
100
AcDbEllipse
 10
1.576292878066074
 20
-0.7499999999999989
 30
0.0
 11
8.612328615003663E-18
 21
0.1406499999999984
 31
0.0
210
0.0
220
0.0
230
1.0
 40
0.7071067811865493
 41
5.625871263975753
 42
10.08209200397321
  0
ELLIPSE
  5
E1
330
96
100
AcDbEntity
  8
AM_4
100
AcDbEllipse
 10
1.5984398509516
 20
-0.7499999999999971
 30
0.0
 11
6.694498085252626E-18
 21
0.1093294505797687
 31
0.0
210
0.0
220
0.0
230
1.0
 40
0.7071067811865538
 41
5.92898666616579
 42
9.778976601783164
  0
LINE
  5
E2
330
96
100
AcDbEntity
  8
AM_4
100
AcDbLine
 10
1.605616659374452
 20
-0.8379044185632923
 30
0.0
 11
1.643438687088494
 21
-0.866099562589007
 31
0.0
  0
LINE
  5
E3
330
96
100
AcDbEntity
  8
AM_4
100
AcDbLine
 10
1.643438687088494
 20
-0.6339004374109924
 30
0.0
 11
1.605616659374452
 21
-0.6620955814367072
 31
0.0
  0
ELLIPSE
  5
E4
330
96
100
AcDbEntity
  8
AM_4
100
AcDbEllipse
 10
1.638381662888113
 20
-0.7499999999999998
 30
0.0
 11
6.084620899749642E-18
 21
0.09936940028726637
 31
0.0
210
0.0
220
0.0
230
1.0
 40
0.707106781186542
 41
0.485112246473772
 42
2.656480407116022
  0
LWPOLYLINE
  5
E5
330
96
100
AcDbEntity
  8
AM_4
100
AcDbPolyline
 90
        8
 70
     0
 43
0.0
 10
1.701654803529095
 20
-0.6140734780049418
 10
1.693659642046544
 20
-0.6144177738432876
 10
1.683428786780315
 20
-0.6158735182502425
 10
1.67342577882923
 20
-0.6184379415227087
 10
1.663716828465369
 20
-0.6220778011331473
 10
1.654361853243361
 20
-0.6267616983982036
 10
1.645417452296696
 20
-0.6324601335964644
 10
1.642641314927579
 20
-0.6345006119621187
  0
LWPOLYLINE
  5
E6
330
96
100
AcDbEntity
  8
AM_4
100
AcDbPolyline
 90
        3
 70
     0
 43
0.0
 10
1.750927953048786
 20
-0.8720854690539869
 10
1.753365264966215
 20
-0.870583762722387
 10
1.755604484942022
 20
-0.8691206329801058
  0
LWPOLYLINE
  5
E7
330
96
100
AcDbEntity
  8
AM_4
100
AcDbPolyline
 90
       13
 70
     0
 43
0.0
 10
1.643163478931679
 20
-0.8658937199706233
 10
1.643687969821785
 20
-0.8662848363132555
 10
1.65313755656614
 20
-0.8725325341478661
 10
1.662999448933748
 20
-0.877605513178446
 10
1.673158013487165
 20
-0.8814772916198762
 10
1.683502993562993
 20
-0.8841412188342531
 10
1.693931227009811
 20
-0.8856052500409539
 10
1.704347349127674
 20
-0.8858875228723779
 10
1.714664100750534
 20
-0.8850128102033648
 10
1.724792683389315
 20
-0.8830120570531079
 10
1.734660066720783
 20
-0.8799190175098521
 10
1.744203571115055
 20
-0.8757661258145327
 10
1.749767067462366
 20
-0.87276848635935
  0
LWPOLYLINE
  5
E8
330
96
100
AcDbEntity
  8
AM_4
100
AcDbPolyline
 90
        7
 70
     0
 43
0.0
 10
1.750487503497789
 20
-0.6276529765741805
 10
1.745406022185824
 20
-0.6248441273520903
 10
1.735385252146645
 20
-0.6203550989616063
 10
1.725122402660158
 20
-0.6170726562605718
 10
1.714724399716504
 20
-0.6149957122336479
 10
1.704290658338772
 20
-0.6141108519336778
 10
1.701654803529095
 20
-0.6140734780049418
  0
LWPOLYLINE
  5
E9
330
96
100
AcDbEntity
  8
AM_4
100
AcDbPolyline
 90
        3
 70
     0
 43
0.0
 10
1.755587854361315
 20
-0.6308681978148473
 10
1.755071382432266
 20
-0.630523608817469
 10
1.752203098157465
 20
-0.6286886000973333
  0
ELLIPSE
  5
EA
330
96
100
AcDbEntity
  8
AM_4
100
AcDbEllipse
 10
1.686712991592589
 20
-0.7499999999999999
 30
0.0
 11
8.036249332247504E-18
 21
0.1312419113468904
 31
0.0
210
0.0
220
0.0
230
1.0
 40
0.707106781186546
 41
0.4928777972976652
 42
2.648482263981723
  0
ELLIPSE
  5
EB
330
96
100
AcDbEntity
  8
AM_4
100
AcDbEllipse
 10
1.773104265496331
 20
-0.7499999999999998
 30
0.0
 11
-1.484390032546748E-17
 21
-0.08080642971672802
 31
0.0
210
0.0
220
0.0
230
1.0
 40
0.7071067811865462
 41
0.0
 42
6.283185307179586
  0
LWPOLYLINE
  5
EC
330
96
100
AcDbEntity
  8
AM_4
100
AcDbPolyline
 90
       23
 70
     0
 43
0.0
 10
1.794048572705148
 20
-0.8436314200929116
 10
1.796498060766981
 20
-0.8419070920781918
 10
1.803670162435261
 20
-0.8359865301247982
 10
1.810336744846902
 20
-0.8291036982426615
 10
1.81642078146521
 20
-0.8213191768645738
 10
1.821845713290325
 20
-0.8127150542894409
 10
1.826542177539593
 20
-0.8033929557638169
 10
1.830453141242447
 20
-0.7934677644297338
 10
1.833535520897883
 20
-0.7830611646041392
 10
1.835759252660711
 20
-0.7722973309217788
 10
1.83710610447131
 20
-0.7612936696260342
 10
1.837565272044405
 20
-0.7501655072647497
 10
1.837131844896758
 20
-0.7390264560304459
 10
1.835806070419404
 20
-0.7279901600821337
 10
1.833593085430016
 20
-0.7171695058681485
 10
1.830502435850145
 20
-0.706675880327738
 10
1.826548714550196
 20
-0.6966216664199506
 10
1.821753372016828
 20
-0.6871217410713565
 10
1.816151403659967
 20
-0.6782992431753851
 10
1.809794323419051
 20
-0.6702782321799317
 10
1.802755193376879
 20
-0.6631797151388326
 10
1.795130970280789
 20
-0.6571132127507224
 10
1.793493116568498
 20
-0.6559968574631649
  0
ELLIPSE
  5
ED
330
96
100
AcDbEntity
  8
AM_4
100
AcDbEllipse
 10
1.715469235057869
 20
-0.7499999999999983
 30
0.0
 11
8.079715312105867E-18
 21
0.1319517646676786
 31
0.0
210
0.0
220
0.0
230
1.0
 40
0.7071067811865448
 41
5.844803532225601
 42
9.863159735723357
  0
ELLIPSE
  5
EE
330
96
100
AcDbEntity
  8
AM_4
100
AcDbEllipse
 10
1.762333811731048
 20
-0.7500000000000033
 30
0.0
 11
6.357083428131218E-18
 21
0.1038190510530427
 31
0.0
210
0.0
220
0.0
230
1.0
 40
0.7071067811865582
 41
5.844803532225544
 42
9.86315973572345
  0
LINE
  5
EF
330
96
100
AcDbEntity
  8
AM_4
100
AcDbLine
 10
1.793494998264186
 20
-0.6559981049699092
 30
0.0
 11
1.755074428040078
 21
-0.6305256279505996
 31
0.0
  0
LINE
  5
F0
330
96
100
AcDbEntity
  8
AM_4
100
AcDbLine
 10
1.755074428040078
 20
-0.8694743720493999
 30
0.0
 11
1.793494998264186
 21
-0.8440018950300903
 31
0.0
  0
ENDBLK
  5
99
330
96
100
AcDbEntity
  8
0
100
AcDbBlockEnd
  0
BLOCK
  5
F3
330
F1
100
AcDbEntity
  8
0
100
AcDbBlockBegin
  2
3_128668_0_in_128835_4
 70
     2
 10
0.0
 20
0.0
 30
0.0
  3
3_128668_0_in_128835_4
  1

  0
ATTDEF
  5
F5
330
F1
100
AcDbEntity
  8
AM_6
100
AcDbText
 10
6.219872827573636
 20
-0.04
 30
0.0
 40
0.5
  1
D-Lok Medium Duty Insert Inch Bore
100
AcDbAttributeDefinition
  3

  2
NN
 70
     8
280
     0
  0
ATTDEF
  5
F6
330
F1
100
AcDbEntity
  8
AM_6
100
AcDbText
 10
6.219872827573636
 20
-0.54
 30
0.0
 40
0.5
  1
D-LOK
100
AcDbAttributeDefinition
  3

  2
NT
 70
     8
280
     0
  0
ATTDEF
  5
F7
330
F1
100
AcDbEntity
  8
AM_6
100
AcDbText
 10
6.219872827573636
 20
-1.04
 30
0.0
 40
0.5
  1
128668
100
AcDbAttributeDefinition
  3

  2
NB
 70
     8
280
     0
  0
ATTDEF
  5
F8
330
F1
100
AcDbEntity
  8
AM_6
100
AcDbText
 10
6.219872827573636
 20
-1.54
 30
0.0
 40
0.5
  1
$PN.
100
AcDbAttributeDefinition
  3

  2
NBSYN
 70
     8
280
     0
  0
ATTDEF
  5
F9
330
F1
100
AcDbEntity
  8
AM_6
100
AcDbText
 10
6.219872827573636
 20
-2.04
 30
0.0
 40
0.5
  1
128668
100
AcDbAttributeDefinition
  3

  2
LINA
 70
     8
280
     0
  0
ATTDEF
  5
FA
330
F1
100
AcDbEntity
  8
AM_6
100
AcDbText
 10
6.219872827573636
 20
-2.54
 30
0.0
 40
0.5
  1
206
100
AcDbAttributeDefinition
  3

  2
SERIES
 70
     8
280
     0
  0
ATTDEF
  5
FB
330
F1
100
AcDbEntity
  8
AM_6
100
AcDbText
 10
6.219872827573636
 20
-3.04
 30
0.0
 40
0.5
  1
1
100
AcDbAttributeDefinition
  3

  2
SS
 70
     8
280
     0
  0
ATTDEF
  5
FC
330
F1
100
AcDbEntity
  8
AM_6
100
AcDbText
 10
6.219872827573636
 20
-3.54
 30
0.0
 40
0.5
  1
128668
100
AcDbAttributeDefinition
  3

  2
PN
 70
     8
280
     0
  0
ATTDEF
  5
FD
330
F1
100
AcDbEntity
  8
AM_6
100
AcDbText
 10
6.219872827573636
 20
-4.04
 30
0.0
 40
0.5
  1
INS-DLM-100
100
AcDbAttributeDefinition
  3

  2
DESCRIPTION
 70
     8
280
     0
  0
ATTDEF
  5
FE
330
F1
100
AcDbEntity
  8
AM_6
100
AcDbText
 10
6.219872827573636
 20
-4.54
 30
0.0
 40
0.5
  1
1.8
100
AcDbAttributeDefinition
  3

  2
WEIGHT
 70
     8
280
     0
  0
ATTDEF
  5
FF
330
F1
100
AcDbEntity
  8
AM_6
100
AcDbText
 10
6.219872827573636
 20
-5.04
 30
0.0
 40
0.5
  1
1.56
100
AcDbAttributeDefinition
  3

  2
A
 70
     8
280
     0
  0
ATTDEF
  5
100
330
F1
100
AcDbEntity
  8
AM_6
100
AcDbText
 10
6.219872827573636
 20
-5.54
 30
0.0
 40
0.5
  1
0.69
100
AcDbAttributeDefinition
  3

  2
C
 70
     8
280
     0
  0
ATTDEF
  5
101
330
F1
100
AcDbEntity
  8
AM_6
100
AcDbText
 10
6.219872827573636
 20
-6.04
 30
0.0
 40
0.5
  1
2.4409
100
AcDbAttributeDefinition
  3

  2
D
 70
     8
280
     0
  0
ATTDEF
  5
102
330
F1
100
AcDbEntity
  8
AM_6
100
AcDbText
 10
6.219872827573636
 20
-6.54
 30
0.0
 40
0.5
  1
0.16
100
AcDbAttributeDefinition
  3

  2
J
 70
     8
280
     0
  0
ATTDEF
  5
103
330
F1
100
AcDbEntity
  8
AM_6
100
AcDbText
 10
6.219872827573636
 20
-7.04
 30
0.0
 40
0.5
  1
2.22
100
AcDbAttributeDefinition
  3

  2
L
 70
     8
280
     0
  0
ATTDEF
  5
104
330
F1
100
AcDbEntity
  8
AM_6
100
AcDbText
 10
6.219872827573636
 20
-7.54
 30
0.0
 40
0.5
  1
#10-32
100
AcDbAttributeDefinition
  3

  2
N
 70
     8
280
     0
  0
ATTDEF
  5
105
330
F1
100
AcDbEntity
  8
AM_6
100
AcDbText
 10
6.219872827573636
 20
-8.04
 30
0.0
 40
0.5
  1
0.58
100
AcDbAttributeDefinition
  3

  2
W
 70
     8
280
     0
  0
ATTDEF
  5
106
330
F1
100
AcDbEntity
  8
AM_6
100
AcDbText
 10
6.219872827573636
 20
-8.54
 30
0.0
 40
0.5
  1
0.98
100
AcDbAttributeDefinition
  3

  2
Y
 70
     8
280
     0
  0
ATTDEF
  5
107
330
F1
100
AcDbEntity
  8
AM_6
100
AcDbText
 10
6.219872827573636
 20
-9.04
 30
0.0
 40
0.5
  1
1.57
100
AcDbAttributeDefinition
  3

  2
Z
 70
     8
280
     0
  0
ATTDEF
  5
108
330
F1
100
AcDbEntity
  8
AM_6
100
AcDbText
 10
6.219872827573636
 20
-9.54
 30
0.0
 40
0.5
  1
baldor
100
AcDbAttributeDefinition
  3

  2
COMPANY
 70
     8
280
     0
  0
LINE
  5
109
330
F1
100
AcDbEntity
  8
AM_9
100
AcDbLine
 10
0.5
 20
-1.5556
 30
0.0
 11
0.5
 21
-0.0843999999999999
 31
0.0
  0
LINE
  5
10A
330
F1
100
AcDbEntity
  8
AM_9
100
AcDbLine
 10
-0.5
 20
-0.0843999999999999
 30
0.0
 11
-0.5
 21
-1.5556
 31
0.0
  0
LINE
  5
10B
330
F1
100
AcDbEntity
  8
AM_9
100
AcDbLine
 10
0.5
 20
-0.0843999999999999
 30
0.0
 11
0.5444
 21
-0.04
 31
0.0
  0
LINE
  5
10C
330
F1
100
AcDbEntity
  8
AM_9
100
AcDbLine
 10
-0.5444
 20
-0.04
 30
0.0
 11
-0.5
 21
-0.0843999999999999
 31
0.0
  0
LINE
  5
10D
330
F1
100
AcDbEntity
  8
AM_9
100
AcDbLine
 10
-0.5
 20
-1.5556
 30
0.0
 11
-0.5444
 21
-1.6
 31
0.0
  0
LINE
  5
10E
330
F1
100
AcDbEntity
  8
AM_9
100
AcDbLine
 10
0.5444
 20
-1.6
 30
0.0
 11
0.5
 21
-1.5556
 31
0.0
  0
LINE
  5
10F
330
F1
100
AcDbEntity
  8
AM_9
100
AcDbLine
 10
-0.7406
 20
-0.04
 30
0.0
 11
0.7406
 21
-0.04
 31
0.0
  0
LINE
  5
110
330
F1
100
AcDbEntity
  8
AM_9
100
AcDbLine
 10
-0.7406
 20
-0.04
 30
0.0
 11
-0.7849999999999999
 21
-0.0844
 31
0.0
  0
LINE
  5
111
330
F1
100
AcDbEntity
  8
AM_9
100
AcDbLine
 10
0.7849999999999999
 20
-0.0844
 30
0.0
 11
0.7406
 21
-0.04
 31
0.0
  0
LINE
  5
112
330
F1
100
AcDbEntity
  8
AM_9
100
AcDbLine
 10
-0.7849999999999999
 20
-0.0844
 30
0.0
 11
0.7849999999999999
 21
-0.0844
 31
0.0
  0
LINE
  5
113
330
F1
100
AcDbEntity
  8
AM_9
100
AcDbLine
 10
0.7849999999999999
 20
-0.275
 30
0.0
 11
0.7849999999999999
 21
-0.0844
 31
0.0
  0
LINE
  5
114
330
F1
100
AcDbEntity
  8
AM_9
100
AcDbLine
 10
-0.7849999999999999
 20
-0.0844
 30
0.0
 11
-0.7849999999999999
 21
-0.275
 31
0.0
  0
LINE
  5
115
330
F1
100
AcDbEntity
  8
AM_9
100
AcDbLine
 10
0.7850000000000005
 20
-1.07
 30
0.0
 11
0.7850000000000005
 21
-0.9649999999999999
 31
0.0
  0
LINE
  5
116
330
F1
100
AcDbEntity
  8
AM_9
100
AcDbLine
 10
-0.7850000000000005
 20
-0.9649999999999999
 30
0.0
 11
-0.7850000000000005
 21
-1.07
 31
0.0
  0
LINE
  5
117
330
F1
100
AcDbEntity
  8
AM_9
100
AcDbLine
 10
1.167116666666667
 20
-0.8119999999999999
 30
0.0
 11
1.167116666666667
 21
-0.7479999999999999
 31
0.0
  0
LINE
  5
118
330
F1
100
AcDbEntity
  8
AM_9
100
AcDbLine
 10
-1.167116666666667
 20
-0.7479999999999999
 30
0.0
 11
-1.167116666666667
 21
-0.8119999999999999
 31
0.0
  0
LINE
  5
119
330
F1
100
AcDbEntity
  8
AM_9
100
AcDbLine
 10
-1.146492216502145
 20
-0.275
 30
0.0
 11
1.146492013474227
 21
-0.275
 31
0.0
  0
ARC
  5
11A
330
F1
100
AcDbEntity
  8
AM_9
100
AcDbCircle
 10
1.146492216502145
 20
-0.3069999999999997
 30
0.0
 40
0.0319999999999998
100
AcDbArc
 50
15.27001663184324
 51
90.0
  0
ARC
  5
11B
330
F1
100
AcDbEntity
  8
AM_9
100
AcDbCircle
 10
-1.146492216502145
 20
-0.3069999999999997
 30
0.0
 40
0.0319999999999996
100
AcDbArc
 50
90.0
 51
164.7299833681568
  0
LINE
  5
11C
330
F1
100
AcDbEntity
  8
AM_9
100
AcDbLine
 10
-1.146492216502144
 20
-0.965
 30
0.0
 11
1.146492013474227
 21
-0.965
 31
0.0
  0
ARC
  5
11D
330
F1
100
AcDbEntity
  8
AM_9
100
AcDbCircle
 10
1.146492216502144
 20
-0.9329999999999998
 30
0.0
 40
0.0320000000000001
100
AcDbArc
 50
270.0
 51
344.7299833681562
  0
ARC
  5
11E
330
F1
100
AcDbEntity
  8
AM_9
100
AcDbCircle
 10
-1.146492216502144
 20
-0.9329999999999998
 30
0.0
 40
0.0320000000000003
100
AcDbArc
 50
195.2700166318438
 51
270.0
  0
LINE
  5
11F
330
F1
100
AcDbEntity
  8
AM_9
100
AcDbLine
 10
-1.205252754612077
 20
-0.8119999999999999
 30
0.0
 11
1.205252754612002
 21
-0.8119999999999999
 31
0.0
  0
LINE
  5
120
330
F1
100
AcDbEntity
  8
AM_9
100
AcDbLine
 10
-1.177362468450538
 20
-0.9414277840885186
 30
0.0
 11
1.177362468450462
 21
-0.9414277840885186
 31
0.0
  0
ARC
  5
121
330
F1
100
AcDbEntity
  8
AM_9
100
AcDbCircle
 10
-0.0000000000490914
 20
-0.6199999999894366
 30
0.0
 40
1.220450000050067
100
AcDbArc
 50
344.7299833682839
 51
350.9486832418958
  0
ARC
  5
122
330
F1
100
AcDbEntity
  8
AM_9
100
AcDbCircle
 10
0.0000000000491136
 20
-0.6199999999894314
 30
0.0
 40
1.22045000005009
100
AcDbArc
 50
189.0513167581044
 51
195.2700166317162
  0
LINE
  5
123
330
F1
100
AcDbEntity
  8
AM_9
100
AcDbLine
 10
-1.213719161297209
 20
-0.7479999999999997
 30
0.0
 11
1.213719161297201
 21
-0.7479999999999997
 31
0.0
  0
LINE
  5
124
330
F1
100
AcDbEntity
  8
AM_9
100
AcDbLine
 10
-1.177362468450538
 20
-0.2985722159114814
 30
0.0
 11
1.17736246845053
 21
-0.2985722159114813
 31
0.0
  0
ARC
  5
125
330
F1
100
AcDbEntity
  8
AM_9
100
AcDbCircle
 10
-0.000000000000473
 20
-0.6200000000000373
 30
0.0
 40
1.220450000000458
100
AcDbArc
 50
353.9797846834528
 51
15.27001663183976
  0
ARC
  5
126
330
F1
100
AcDbEntity
  8
AM_9
100
AcDbCircle
 10
0.0000000000000735
 20
-0.620000000000005
 30
0.0
 40
1.220450000000064
100
AcDbArc
 50
164.7299833681568
 51
186.0202153165506
  0
LINE
  5
127
330
F1
100
AcDbEntity
  8
AM_4
100
AcDbLine
 10
0.7850000000000005
 20
-1.11
 30
0.0
 11
0.7850000000000005
 21
-1.07
 31
0.0
  0
LINE
  5
128
330
F1
100
AcDbEntity
  8
AM_4
100
AcDbLine
 10
-0.7850000000000005
 20
-1.07
 30
0.0
 11
-0.7850000000000005
 21
-1.11
 31
0.0
  0
LINE
  5
129
330
F1
100
AcDbEntity
  8
AM_4
100
AcDbLine
 10
-1.0656
 20
-1.11
 30
0.0
 11
1.0656
 21
-1.11
 31
0.0
  0
LINE
  5
12A
330
F1
100
AcDbEntity
  8
AM_4
100
AcDbLine
 10
-1.0656
 20
-1.11
 30
0.0
 11
-1.11
 21
-1.1544
 31
0.0
  0
LINE
  5
12B
330
F1
100
AcDbEntity
  8
AM_4
100
AcDbLine
 10
1.11
 20
-1.1544
 30
0.0
 11
1.0656
 21
-1.11
 31
0.0
  0
LINE
  5
12C
330
F1
100
AcDbEntity
  8
AM_4
100
AcDbLine
 10
-1.0656
 20
-1.6
 30
0.0
 11
1.0656
 21
-1.6
 31
0.0
  0
LINE
  5
12D
330
F1
100
AcDbEntity
  8
AM_4
100
AcDbLine
 10
1.0656
 20
-1.6
 30
0.0
 11
1.11
 21
-1.5556
 31
0.0
  0
LINE
  5
12E
330
F1
100
AcDbEntity
  8
AM_4
100
AcDbLine
 10
-1.11
 20
-1.5556
 30
0.0
 11
-1.0656
 21
-1.6
 31
0.0
  0
LINE
  5
12F
330
F1
100
AcDbEntity
  8
AM_4
100
AcDbLine
 10
-1.11
 20
-1.5556
 30
0.0
 11
1.11
 21
-1.5556
 31
0.0
  0
LINE
  5
130
330
F1
100
AcDbEntity
  8
AM_4
100
AcDbLine
 10
-1.11
 20
-1.1544
 30
0.0
 11
1.11
 21
-1.1544
 31
0.0
  0
LINE
  5
131
330
F1
100
AcDbEntity
  8
AM_4
100
AcDbLine
 10
1.11
 20
-1.5556
 30
0.0
 11
1.11
 21
-1.1544
 31
0.0
  0
LINE
  5
132
330
F1
100
AcDbEntity
  8
AM_4
100
AcDbLine
 10
-1.11
 20
-1.1544
 30
0.0
 11
-1.11
 21
-1.5556
 31
0.0
  0
ENDBLK
  5
F4
330
F1
100
AcDbEntity
  8
0
100
AcDbBlockEnd
  0
BLOCK
  5
135
330
133
100
AcDbEntity
  8
0
100
AcDbBlockBegin
  2
4_DLM_FLANGE_BODI_1_0_in_128835_4
 70
     2
 10
0.0
 20
0.0
 30
0.0
  3
4_DLM_FLANGE_BODI_1_0_in_128835_4
  1

  0
ATTDEF
  5
137
330
133
100
AcDbEntity
  8
AM_6
100
AcDbText
 10
6.685218443164953
 20
0.08
 30
0.0
 40
0.5
  1
DLM FLANGE BEARING 2B - Body - Inch
100
AcDbAttributeDefinition
  3

  2
NN
 70
     8
280
     0
  0
ATTDEF
  5
138
330
133
100
AcDbEntity
  8
AM_6
100
AcDbText
 10
6.685218443164953
 20
-0.42
 30
0.0
 40
0.5
  1
D-LOK
100
AcDbAttributeDefinition
  3

  2
NT
 70
     8
280
     0
  0
ATTDEF
  5
139
330
133
100
AcDbEntity
  8
AM_6
100
AcDbText
 10
6.685218443164953
 20
-0.9199999999999999
 30
0.0
 40
0.5
  1
DLM-FLANGE-BODI-1
100
AcDbAttributeDefinition
  3

  2
NB
 70
     8
280
     0
  0
ATTDEF
  5
13A
330
133
100
AcDbEntity
  8
AM_6
100
AcDbText
 10
6.685218443164953
 20
-1.42
 30
0.0
 40
0.5
  1
$PN.
100
AcDbAttributeDefinition
  3

  2
NBSYN
 70
     8
280
     0
  0
ATTDEF
  5
13B
330
133
100
AcDbEntity
  8
AM_6
100
AcDbText
 10
6.685218443164953
 20
-1.92
 30
0.0
 40
0.5
  1
DLM-FLANGE-BODI-1
100
AcDbAttributeDefinition
  3

  2
LINA
 70
     8
280
     0
  0
ATTDEF
  5
13C
330
133
100
AcDbEntity
  8
AM_6
100
AcDbText
 10
6.685218443164953
 20
-2.42
 30
0.0
 40
0.5
  1
206
100
AcDbAttributeDefinition
  3

  2
SERIES
 70
     8
280
     0
  0
ATTDEF
  5
13D
330
133
100
AcDbEntity
  8
AM_6
100
AcDbText
 10
6.685218443164953
 20
-2.92
 30
0.0
 40
0.5
  1
1
100
AcDbAttributeDefinition
  3

  2
SS
 70
     8
280
     0
  0
ATTDEF
  5
13E
330
133
100
AcDbEntity
  8
AM_6
100
AcDbText
 10
6.685218443164953
 20
-3.42
 30
0.0
 40
0.5
  1
DLM-FLANGE-BODI-1
100
AcDbAttributeDefinition
  3

  2
PN
 70
     8
280
     0
  0
ATTDEF
  5
13F
330
133
100
AcDbEntity
  8
AM_6
100
AcDbText
 10
6.685218443164953
 20
-3.92
 30
0.0
 40
0.5
  1
2.440900
100
AcDbAttributeDefinition
  3

  2
BOD
 70
     8
280
     0
  0
ATTDEF
  5
140
330
133
100
AcDbEntity
  8
AM_6
100
AcDbText
 10
6.685218443164953
 20
-4.42
 30
0.0
 40
0.5
  1
1.56
100
AcDbAttributeDefinition
  3

  2
A
 70
     8
280
     0
  0
ATTDEF
  5
141
330
133
100
AcDbEntity
  8
AM_6
100
AcDbText
 10
6.685218443164953
 20
-4.92
 30
0.0
 40
0.5
  1
1.560
100
AcDbAttributeDefinition
  3

  2
A1
 70
     8
280
     0
  0
ATTDEF
  5
142
330
133
100
AcDbEntity
  8
AM_6
100
AcDbText
 10
6.685218443164953
 20
-5.42
 30
0.0
 40
0.5
  1
5.56
100
AcDbAttributeDefinition
  3

  2
B
 70
     8
280
     0
  0
ATTDEF
  5
143
330
133
100
AcDbEntity
  8
AM_6
100
AcDbText
 10
6.685218443164953
 20
-5.92
 30
0.0
 40
0.5
  1
5.560
100
AcDbAttributeDefinition
  3

  2
B1
 70
     8
280
     0
  0
ATTDEF
  5
144
330
133
100
AcDbEntity
  8
AM_6
100
AcDbText
 10
6.685218443164953
 20
-6.42
 30
0.0
 40
0.5
  1
1.60
100
AcDbAttributeDefinition
  3

  2
C
 70
     8
280
     0
  0
ATTDEF
  5
145
330
133
100
AcDbEntity
  8
AM_6
100
AcDbText
 10
6.685218443164953
 20
-6.92
 30
0.0
 40
0.5
  1
1.600
100
AcDbAttributeDefinition
  3

  2
C1
 70
     8
280
     0
  0
ATTDEF
  5
146
330
133
100
AcDbEntity
  8
AM_6
100
AcDbText
 10
6.685218443164953
 20
-7.42
 30
0.0
 40
0.5
  1
4.59
100
AcDbAttributeDefinition
  3

  2
D
 70
     8
280
     0
  0
ATTDEF
  5
147
330
133
100
AcDbEntity
  8
AM_6
100
AcDbText
 10
6.685218443164953
 20
-7.92
 30
0.0
 40
0.5
  1
4.590
100
AcDbAttributeDefinition
  3

  2
D1
 70
     8
280
     0
  0
ATTDEF
  5
148
330
133
100
AcDbEntity
  8
AM_6
100
AcDbText
 10
6.685218443164953
 20
-8.42
 30
0.0
 40
0.5
  1
7/16
100
AcDbAttributeDefinition
  3

  2
F
 70
     8
280
     0
  0
ATTDEF
  5
149
330
133
100
AcDbEntity
  8
AM_6
100
AcDbText
 10
6.685218443164953
 20
-8.92
 30
0.0
 40
0.5
  1
0.4375
100
AcDbAttributeDefinition
  3

  2
F1
 70
     8
280
     0
  0
ATTDEF
  5
14A
330
133
100
AcDbEntity
  8
AM_6
100
AcDbText
 10
6.685218443164953
 20
-9.42
 30
0.0
 40
0.5
  1
0.50
100
AcDbAttributeDefinition
  3

  2
H
 70
     8
280
     0
  0
ATTDEF
  5
14B
330
133
100
AcDbEntity
  8
AM_6
100
AcDbText
 10
6.685218443164953
 20
-9.92
 30
0.0
 40
0.5
  1
0.500
100
AcDbAttributeDefinition
  3

  2
H1
 70
     8
280
     0
  0
ATTDEF
  5
14C
330
133
100
AcDbEntity
  8
AM_6
100
AcDbText
 10
6.685218443164953
 20
-10.42
 30
0.0
 40
0.5
  1
0.53
100
AcDbAttributeDefinition
  3

  2
J
 70
     8
280
     0
  0
ATTDEF
  5
14D
330
133
100
AcDbEntity
  8
AM_6
100
AcDbText
 10
6.685218443164953
 20
-10.92
 30
0.0
 40
0.5
  1
0.530
100
AcDbAttributeDefinition
  3

  2
J1
 70
     8
280
     0
  0
ATTDEF
  5
14E
330
133
100
AcDbEntity
  8
AM_6
100
AcDbText
 10
6.685218443164953
 20
-11.42
 30
0.0
 40
0.5
  1
2.22
100
AcDbAttributeDefinition
  3

  2
L
 70
     8
280
     0
  0
ATTDEF
  5
14F
330
133
100
AcDbEntity
  8
AM_6
100
AcDbText
 10
6.685218443164953
 20
-11.92
 30
0.0
 40
0.5
  1
2.220
100
AcDbAttributeDefinition
  3

  2
L1
 70
     8
280
     0
  0
ATTDEF
  5
150
330
133
100
AcDbEntity
  8
AM_6
100
AcDbText
 10
6.685218443164953
 20
-12.42
 30
0.0
 40
0.5
  1
3.13
100
AcDbAttributeDefinition
  3

  2
M
 70
     8
280
     0
  0
ATTDEF
  5
151
330
133
100
AcDbEntity
  8
AM_6
100
AcDbText
 10
6.685218443164953
 20
-12.92
 30
0.0
 40
0.5
  1
3.130
100
AcDbAttributeDefinition
  3

  2
M1
 70
     8
280
     0
  0
ATTDEF
  5
152
330
133
100
AcDbEntity
  8
AM_6
100
AcDbText
 10
6.685218443164953
 20
-13.42
 30
0.0
 40
0.5
  1
1.84
100
AcDbAttributeDefinition
  3

  2
N
 70
     8
280
     0
  0
ATTDEF
  5
153
330
133
100
AcDbEntity
  8
AM_6
100
AcDbText
 10
6.685218443164953
 20
-13.92
 30
0.0
 40
0.5
  1
1.840
100
AcDbAttributeDefinition
  3

  2
N1
 70
     8
280
     0
  0
ATTDEF
  5
154
330
133
100
AcDbEntity
  8
AM_6
100
AcDbText
 10
6.685218443164953
 20
-14.42
 30
0.0
 40
0.5
  1
2250
100
AcDbAttributeDefinition
  3

  2
CS
 70
     8
280
     0
  0
ATTDEF
  5
155
330
133
100
AcDbEntity
  8
AM_6
100
AcDbText
 10
6.685218443164953
 20
-14.92
 30
0.0
 40
0.5
  1
4368
100
AcDbAttributeDefinition
  3

  2
CD
 70
     8
280
     0
  0
ATTDEF
  5
156
330
133
100
AcDbEntity
  8
AM_6
100
AcDbText
 10
6.685218443164953
 20
-15.42
 30
0.0
 40
0.5
  1
9
100
AcDbAttributeDefinition
  3

  2
BN
 70
     8
280
     0
  0
ATTDEF
  5
157
330
133
100
AcDbEntity
  8
AM_6
100
AcDbText
 10
6.685218443164953
 20
-15.92
 30
0.0
 40
0.5
  1
3/8
100
AcDbAttributeDefinition
  3

  2
BD
 70
     8
280
     0
  0
ATTDEF
  5
158
330
133
100
AcDbEntity
  8
AM_6
100
AcDbText
 10
6.685218443164953
 20
-16.42
 30
0.0
 40
0.5
  1
1.8230
100
AcDbAttributeDefinition
  3

  2
PDI
 70
     8
280
     0
  0
ATTDEF
  5
159
330
133
100
AcDbEntity
  8
AM_6
100
AcDbText
 10
6.685218443164953
 20
-16.92
 30
0.0
 40
0.5
  1
5-11
100
AcDbAttributeDefinition
  3

  2
IC
 70
     8
280
     0
  0
ATTDEF
  5
15A
330
133
100
AcDbEntity
  8
AM_6
100
AcDbText
 10
6.685218443164953
 20
-17.42
 30
0.0
 40
0.5
  1
10-32
100
AcDbAttributeDefinition
  3

  2
SC
 70
     8
280
     0
  0
ATTDEF
  5
15B
330
133
100
AcDbEntity
  8
AM_6
100
AcDbText
 10
6.685218443164953
 20
-17.92
 30
0.0
 40
0.5
  1
90
100
AcDbAttributeDefinition
  3

  2
TC
 70
     8
280
     0
  0
ATTDEF
  5
15C
330
133
100
AcDbEntity
  8
AM_6
100
AcDbText
 10
6.685218443164953
 20
-18.42
 30
0.0
 40
0.5
  1
C.I.
100
AcDbAttributeDefinition
  3

  2
MH
 70
     8
280
     0
  0
ATTDEF
  5
15D
330
133
100
AcDbEntity
  8
AM_6
100
AcDbText
 10
6.685218443164953
 20
-18.92
 30
0.0
 40
0.5
  1
4118
100
AcDbAttributeDefinition
  3

  2
IR
 70
     8
280
     0
  0
ATTDEF
  5
15E
330
133
100
AcDbEntity
  8
AM_6
100
AcDbText
 10
6.685218443164953
 20
-19.42
 30
0.0
 40
0.5
  1
52100
100
AcDbAttributeDefinition
  3

  2
OR
 70
     8
280
     0
  0
ATTDEF
  5
15F
330
133
100
AcDbEntity
  8
AM_6
100
AcDbText
 10
6.685218443164953
 20
-19.92
 30
0.0
 40
0.5
  1
NYLON 6-6
100
AcDbAttributeDefinition
  3

  2
R
 70
     8
280
     0
  0
ATTDEF
  5
160
330
133
100
AcDbEntity
  8
AM_6
100
AcDbText
 10
6.685218443164953
 20
-20.42
 30
0.0
 40
0.5
  1
52100
100
AcDbAttributeDefinition
  3

  2
MB
 70
     8
280
     0
  0
ATTDEF
  5
161
330
133
100
AcDbEntity
  8
AM_6
100
AcDbText
 10
6.685218443164953
 20
-20.92
 30
0.0
 40
0.5
  1
±2
100
AcDbAttributeDefinition
  3

  2
SM
 70
     8
280
     0
  0
ATTDEF
  5
162
330
133
100
AcDbEntity
  8
AM_6
100
AcDbText
 10
6.685218443164953
 20
-21.42
 30
0.0
 40
0.5
  1
baldor
100
AcDbAttributeDefinition
  3

  2
COMPANY
 70
     8
280
     0
  0
LINE
  5
163
330
133
100
AcDbEntity
  8
AM_9
100
AcDbLine
 10
1.279714222815052
 20
-0.4499999999999999
 30
0.0
 11
1.279714222815051
 21
0.0000000000000001
 31
0.0
  0
LINE
  5
164
330
133
100
AcDbEntity
  8
AM_9
100
AcDbLine
 10
1.22045
 20
-1.07
 30
0.0
 11
1.22045
 21
0.0
 31
0.0
  0
LINE
  5
165
330
133
100
AcDbEntity
  8
AM_9
100
AcDbLine
 10
-1.22045
 20
0.0
 30
0.0
 11
-1.22045
 21
-1.07
 31
0.0
  0
LINE
  5
166
330
133
100
AcDbEntity
  8
AM_9
100
AcDbLine
 10
1.685218443164953
 20
-0.8843820526977834
 30
0.0
 11
1.685218443164953
 21
-0.6156188687410361
 31
0.0
  0
LINE
  5
167
330
133
100
AcDbEntity
  8
AM_9
100
AcDbLine
 10
1.529152425986971
 20
-0.6999999999999997
 30
0.0
 11
1.493797086927644
 21
-0.6999999999999997
 31
0.0
  0
LINE
  5
168
330
133
100
AcDbEntity
  8
AM_9
100
AcDbLine
 10
1.493797086927644
 20
-0.7999999999999998
 30
0.0
 11
1.529152425986971
 21
-0.7999999999999998
 31
0.0
  0
LINE
  5
169
330
133
100
AcDbEntity
  8
AM_9
100
AcDbLine
 10
1.033764038054513
 20
-0.45
 30
0.0
 11
1.380882352941176
 21
-0.4499999999999999
 31
0.0
  0
LINE
  5
16A
330
133
100
AcDbEntity
  8
AM_9
100
AcDbLine
 10
1.380882352941176
 20
-0.4499999999999999
 30
0.0
 11
1.380882352941176
 21
0.0
 31
0.0
  0
LINE
  5
16B
330
133
100
AcDbEntity
  8
AM_9
100
AcDbLine
 10
1.269188018928903
 20
-1.07
 30
0.0
 11
1.269188018928903
 21
-0.4499999999999999
 31
0.0
  0
LINE
  5
16C
330
133
100
AcDbEntity
  8
AM_9
100
AcDbLine
 10
1.565000000000002
 20
-1.07
 30
0.0
 11
1.565000000000002
 21
0.0
 31
0.0
  0
LINE
  5
16D
330
133
100
AcDbEntity
  8
AM_9
100
AcDbLine
 10
1.670573782224281
 20
-0.8804923521790041
 30
0.0
 11
1.670573782224281
 21
-0.6195071474473887
 31
0.0
  0
LINE
  5
16E
330
133
100
AcDbEntity
  8
AM_9
100
AcDbLine
 10
0.21875
 20
-0.4999999999999998
 30
0.0
 11
0.21875
 21
0.0000000000000001
 31
0.0
  0
LINE
  5
16F
330
133
100
AcDbEntity
  8
AM_9
100
AcDbLine
 10
-0.21875
 20
0.0000000000000001
 30
0.0
 11
-0.21875
 21
-0.4999999999999998
 31
0.0
  0
ELLIPSE
  5
170
330
133
100
AcDbEntity
  8
AM_9
100
AcDbEllipse
 10
1.493797086927643
 20
-0.7500000000000004
 30
0.0
 11
3.061616997868427E-18
 21
0.05000000000000071
 31
0.0
210
0.0
220
0.0
230
1.0
 40
0.7071067811865493
 41
0.0
 42
6.283185307179586
  0
ELLIPSE
  5
171
330
133
100
AcDbEntity
  8
AM_9
100
AcDbEllipse
 10
1.529152425986971
 20
-0.7499999999999998
 30
0.0
 11
3.061616997868386E-18
 21
0.05000000000000004
 31
0.0
210
0.0
220
0.0
230
1.0
 40
0.7071067811865455
 41
0.0
 42
6.283185307179586
  0
LINE
  5
174
330
133
100
AcDbEntity
  8
AM_7
100
AcDbLine
 10
0.0
 20
0.08
 30
0.0
 11
0.0
 21
-1.68
 31
0.0
  0
LINE
  5
175
330
133
100
AcDbEntity
  8
AM_4
100
AcDbLine
 10
1.685218443164953
 20
-0.6156188687410361
 30
0.0
 11
1.685218443164953
 21
0.0000000000000001
 31
0.0
  0
LINE
  5
176
330
133
100
AcDbEntity
  8
AM_4
100
AcDbLine
 10
1.685218443164953
 20
-1.07
 30
0.0
 11
1.685218443164953
 21
-0.8843820526977834
 31
0.0
  0
LINE
  5
177
330
133
100
AcDbEntity
  8
AM_4
100
AcDbLine
 10
1.685218443164953
 20
0.0000000000000001
 30
0.0
 11
-1.564999999999995
 21
0.0
 31
0.0
  0
LINE
  5
178
330
133
100
AcDbEntity
  8
AM_4
100
AcDbLine
 10
1.685218443164953
 20
-1.07
 30
0.0
 11
-1.564999999999995
 21
-1.07
 31
0.0
  0
LINE
  5
179
330
133
100
AcDbEntity
  8
AM_4
100
AcDbLine
 10
-1.564999999999995
 20
0.0
 30
0.0
 11
-1.564999999999995
 21
-1.07
 31
0.0
  0
LINE
  5
17A
330
133
100
AcDbEntity
  8
AM_4
100
AcDbLine
 10
0.915634628335629
 20
-0.4499999999999999
 30
0.0
 11
0.9156346283356294
 21
-1.07
 31
0.0
  0
LINE
  5
17B
330
133
100
AcDbEntity
  8
AM_4
100
AcDbLine
 10
1.670573782224281
 20
-0.6195071474473887
 30
0.0
 11
1.670573782224281
 21
0.0000000000000001
 31
0.0
  0
LINE
  5
17C
330
133
100
AcDbEntity
  8
AM_4
100
AcDbLine
 10
1.670573782224281
 20
-1.07
 30
0.0
 11
1.670573782224281
 21
-0.8804923521790041
 31
0.0
  0
LINE
  5
17D
330
133
100
AcDbEntity
  8
AM_4
100
AcDbLine
 10
1.317020391631007
 20
-1.07
 30
0.0
 11
1.317020391631007
 21
0.0000000000000001
 31
0.0
  0
LINE
  5
17E
330
133
100
AcDbEntity
  8
AM_4
100
AcDbLine
 10
1.387731069749662
 20
-1.07
 30
0.0
 11
1.387731069749662
 21
0.0000000000000001
 31
0.0
  0
LINE
  5
17F
330
133
100
AcDbEntity
  8
AM_4
100
AcDbLine
 10
-0.7282021940609381
 20
-0.4499999999999999
 30
0.0
 11
-0.7282021940609381
 21
-0.4999999999999999
 31
0.0
  0
LINE
  5
180
330
133
100
AcDbEntity
  8
AM_4
100
AcDbLine
 10
0.7282021940609381
 20
-0.4999999999999999
 30
0.0
 11
-0.7282021940609381
 21
-0.4999999999999999
 31
0.0
  0
LINE
  5
181
330
133
100
AcDbEntity
  8
AM_4
100
AcDbLine
 10
0.7282021940609381
 20
-0.4999999999999999
 30
0.0
 11
0.7282021940609382
 21
-0.4499999999999999
 31
0.0
  0
LINE
  5
182
330
133
100
AcDbEntity
  8
AM_4
100
AcDbLine
 10
-0.4279411764705884
 20
-0.4499999999999998
 30
0.0
 11
-1.380882352941176
 21
-0.4499999999999999
 31
0.0
  0
LINE
  5
183
330
133
100
AcDbEntity
  8
AM_4
100
AcDbLine
 10
-1.380882352941176
 20
-0.4499999999999999
 30
0.0
 11
-1.380882352941176
 21
0.0
 31
0.0
  0
LINE
  5
184
330
133
100
AcDbEntity
  8
AM_4
100
AcDbLine
 10
1.033764038054513
 20
-0.4499999999999999
 30
0.0
 11
0.4279411764705884
 21
-0.4499999999999998
 31
0.0
  0
LINE
  5
185
330
133
100
AcDbEntity
  8
AM_4
100
AcDbLine
 10
1.033764038054513
 20
0.0000000000000001
 30
0.0
 11
1.033764038054513
 21
-0.4499999999999999
 31
0.0
  0
LINE
  5
186
330
133
100
AcDbEntity
  8
AM_4
100
AcDbLine
 10
0.470428406023693
 20
-0.4499999999999998
 30
0.0
 11
0.470428406023693
 21
-0.4999999999999998
 31
0.0
  0
LINE
  5
187
330
133
100
AcDbEntity
  8
AM_4
100
AcDbLine
 10
0.4279411764705884
 20
-0.4499999999999998
 30
0.0
 11
0.427941176470588
 21
0.0000000000000002
 31
0.0
  0
LINE
  5
188
330
133
100
AcDbEntity
  8
AM_4
100
AcDbLine
 10
-0.4279411764705884
 20
-0.4499999999999998
 30
0.0
 11
-0.427941176470588
 21
0.0000000000000002
 31
0.0
  0
LINE
  5
189
330
133
100
AcDbEntity
  8
AM_4
100
AcDbLine
 10
-0.4704284060236931
 20
-0.4499999999999998
 30
0.0
 11
-0.4704284060236931
 21
-0.4999999999999998
 31
0.0
  0
ENDBLK
  5
136
330
133
100
AcDbEntity
  8
0
100
AcDbBlockEnd
  0
ENDSEC
  0
SECTION
  2
ENTITIES
  0
INSERT
  5
6F
330
1F
100
AcDbEntity
  8
0
100
AcDbBlockReference
  2
1_128835_4
 10
0.0
 20
0.0
 30
0.0
  0
POINT
  5
18B
330
1F
100
AcDbEntity
  8
ConnectionPoints
100
AcDbPoint
 10
0.0
 20
-1.6
 30
0.0000000000000001
  0
POINT
  5
18C
330
1F
100
AcDbEntity
  8
ConnectionPoints
100
AcDbPoint
 10
0.0
 20
-0.04
 30
0.0
  0
POINT
  5
18D
330
1F
100
AcDbEntity
  8
ConnectionPoints
100
AcDbPoint
 10
0.0
 20
-0.62
 30
0.0
  0
POINT
  5
18E
330
1F
100
AcDbEntity
  8
ConnectionPoints
100
AcDbPoint
 10
0.0
 20
-0.04
 30
0.0
  0
POINT
  5
18F
330
1F
100
AcDbEntity
  8
ConnectionPoints
100
AcDbPoint
 10
1.493797086927644
 20
-0.7499999999999999
 30
1.493797086927644
  0
ENDSEC
  0
SECTION
  2
OBJECTS
  0
DICTIONARY
  5
C
330
0
100
AcDbDictionary
281
     1
  3
ACAD_DETAILVIEWSTYLE
350
197
  3
ACAD_GROUP
350
D
  3
ACAD_LAYOUT
350
1A
  3
ACAD_MATERIAL
350
43
  3
ACAD_MLEADERSTYLE
350
6B
  3
ACAD_MLINESTYLE
350
17
  3
ACAD_PLOTSETTINGS
350
19
  3
ACAD_PLOTSTYLENAME
350
E
  3
ACAD_SCALELIST
350
47
  3
ACAD_SECTIONVIEWSTYLE
350
198
  3
ACAD_TABLESTYLE
350
69
  3
ACAD_VISUALSTYLE
350
2A
  3
ACDB_RECOMPOSE_DATA
350
194
  3
AcDbVariableDictionary
350
190
  0
SUN
  5
6D
330
29
100
AcDbSun
 90
        1
290
     0
 63
     7
421
 16777215
 40
1.0
291
     1
 91
  2455826
 92
 54000000
292
     0
 70
     2
 71
   256
280
     1
  0
DICTIONARY
  5
197
102
{ACAD_REACTORS
330
C
102
}
330
C
100
AcDbDictionary
281
     1
  0
DICTIONARY
  5
D
102
{ACAD_REACTORS
330
C
102
}
330
C
100
AcDbDictionary
281
     1
  0
DICTIONARY
  5
1A
102
{ACAD_REACTORS
330
C
102
}
330
C
100
AcDbDictionary
281
     1
  3
Layout1
350
1E
  3
Layout2
350
26
  3
Model
350
22
  0
DICTIONARY
  5
43
102
{ACAD_REACTORS
330
C
102
}
330
C
100
AcDbDictionary
281
     1
  3
ByBlock
350
45
  3
ByLayer
350
44
  3
Global
350
46
  0
DICTIONARY
  5
6B
102
{ACAD_REACTORS
330
C
102
}
330
C
100
AcDbDictionary
281
     1
  3
Standard
350
6C
  0
DICTIONARY
  5
17
102
{ACAD_REACTORS
330
C
102
}
330
C
100
AcDbDictionary
281
     1
  3
Standard
350
18
  0
DICTIONARY
  5
19
102
{ACAD_REACTORS
330
C
102
}
330
C
100
AcDbDictionary
281
     1
  0
ACDBDICTIONARYWDFLT
  5
E
102
{ACAD_REACTORS
330
C
102
}
330
C
100
AcDbDictionary
281
     1
  3
Normal
350
F
100
AcDbDictionaryWithDefault
340
F
  0
DICTIONARY
  5
47
102
{ACAD_REACTORS
330
C
102
}
330
C
100
AcDbDictionary
281
     1
  3
A0
350
48
  3
A1
350
49
  3
A2
350
4A
  3
A3
350
4B
  3
A4
350
4C
  3
A5
350
4D
  3
A6
350
4E
  3
A7
350
4F
  3
A8
350
50
  3
A9
350
51
  3
B0
350
52
  3
B1
350
53
  3
B2
350
54
  3
B3
350
55
  3
B4
350
56
  3
B5
350
57
  3
B6
350
58
  3
B7
350
59
  3
B8
350
5A
  3
B9
350
5B
  3
C0
350
5C
  3
C1
350
5D
  3
C2
350
5E
  3
C3
350
5F
  3
C4
350
60
  3
C5
350
61
  3
C6
350
62
  3
C7
350
63
  3
C8
350
64
  3
C9
350
65
  3
D0
350
66
  3
D1
350
67
  3
D2
350
68
  0
DICTIONARY
  5
198
102
{ACAD_REACTORS
330
C
102
}
330
C
100
AcDbDictionary
281
     1
  0
DICTIONARY
  5
69
102
{ACAD_REACTORS
330
C
102
}
330
C
100
AcDbDictionary
281
     1
  3
Standard
350
6A
  0
DICTIONARY
  5
2A
102
{ACAD_REACTORS
330
C
102
}
330
C
100
AcDbDictionary
281
     1
  3
2dWireframe
350
2F
  3
Basic
350
32
  3
Brighten
350
36
  3
ColorChange
350
3A
  3
Conceptual
350
34
  3
Dim
350
35
  3
EdgeColorOff
350
3D
  3
Facepattern
350
39
  3
Flat
350
2B
  3
FlatWithEdges
350
2C
  3
Gouraud
350
2D
  3
GouraudWithEdges
350
2E
  3
Hidden
350
31
  3
JitterOff
350
3B
  3
Linepattern
350
38
  3
OverhangOff
350
3C
  3
Realistic
350
33
  3
Shaded
350
42
  3
Shaded with edges
350
41
  3
Shades of Gray
350
3E
  3
Sketchy
350
3F
  3
Thicken
350
37
  3
Wireframe
350
30
  3
X-Ray
350
40
  0
XRECORD
  5
194
102
{ACAD_REACTORS
330
C
102
}
330
C
100
AcDbXrecord
280
     1
 90
        1
330
6A
  0
DICTIONARY
  5
190
102
{ACAD_REACTORS
330
C
102
}
330
C
100
AcDbDictionary
281
     1
  3
CANNOSCALE
350
191
  3
CMLEADERSTYLE
350
196
  3
CTABLESTYLE
350
195
  0
LAYOUT
  5
1E
102
{ACAD_REACTORS
330
1A
102
}
330
1A
100
AcDbPlotSettings
  1

  2
none_device
  4

  6

 40
0.0
 41
0.0
 42
0.0
 43
0.0
 44
0.0
 45
0.0
 46
0.0
 47
0.0
 48
0.0
 49
0.0
140
0.0
141
0.0
142
1.0
143
1.0
 70
   688
 72
     0
 73
     0
 74
     5
  7

 75
    16
 76
     0
 77
     2
 78
   300
147
1.0
148
0.0
149
0.0
100
AcDbLayout
  1
Layout1
 70
     1
 71
     1
 10
0.0
 20
0.0
 11
12.0
 21
9.0
 12
0.0
 22
0.0
 32
0.0
 14
1.000000000000000E+20
 24
1.000000000000000E+20
 34
1.000000000000000E+20
 15
-1.000000000000000E+20
 25
-1.000000000000000E+20
 35
-1.000000000000000E+20
146
0.0
 13
0.0
 23
0.0
 33
0.0
 16
1.0
 26
0.0
 36
0.0
 17
0.0
 27
1.0
 37
0.0
 76
     0
330
1B
  0
LAYOUT
  5
26
102
{ACAD_REACTORS
330
1A
102
}
330
1A
100
AcDbPlotSettings
  1

  2
none_device
  4

  6

 40
0.0
 41
0.0
 42
0.0
 43
0.0
 44
0.0
 45
0.0
 46
0.0
 47
0.0
 48
0.0
 49
0.0
140
0.0
141
0.0
142
1.0
143
1.0
 70
   688
 72
     0
 73
     0
 74
     5
  7

 75
    16
 76
     0
 77
     2
 78
   300
147
1.0
148
0.0
149
0.0
100
AcDbLayout
  1
Layout2
 70
     1
 71
     2
 10
0.0
 20
0.0
 11
0.0
 21
0.0
 12
0.0
 22
0.0
 32
0.0
 14
0.0
 24
0.0
 34
0.0
 15
0.0
 25
0.0
 35
0.0
146
0.0
 13
0.0
 23
0.0
 33
0.0
 16
1.0
 26
0.0
 36
0.0
 17
0.0
 27
1.0
 37
0.0
 76
     0
330
23
  0
LAYOUT
  5
22
102
{ACAD_REACTORS
330
1A
102
}
330
1A
100
AcDbPlotSettings
  1

  2
none_device
  4
Letter_(8.50_x_11.00_Inches)
  6

 40
6.35
 41
6.35
 42
6.35000508
 43
6.35000508
 44
215.9
 45
279.4
 46
0.0
 47
0.0
 48
0.0
 49
0.0
140
0.0
141
0.0
142
1.0
143
1.0
 70
  1712
 72
     0
 73
     0
 74
     0
  7

 75
     0
 76
     0
 77
     2
 78
   300
147
1.0
148
0.0
149
0.0
100
AcDbLayout
  1
Model
 70
     1
 71
     0
 10
0.0
 20
0.0
 11
12.0
 21
9.0
 12
0.0
 22
0.0
 32
0.0
 14
1.000000000000000E+20
 24
1.000000000000000E+20
 34
1.000000000000000E+20
 15
-1.000000000000000E+20
 25
-1.000000000000000E+20
 35
-1.000000000000000E+20
146
0.0
 13
0.0
 23
0.0
 33
0.0
 16
1.0
 26
0.0
 36
0.0
 17
0.0
 27
1.0
 37
0.0
 76
     0
330
1F
331
29
  0
MATERIAL
  5
45
102
{ACAD_REACTORS
330
43
102
}
330
43
100
AcDbMaterial
  1
ByBlock
 72
     1
 94
      127
  0
MATERIAL
  5
44
102
{ACAD_REACTORS
330
43
102
}
330
43
100
AcDbMaterial
  1
ByLayer
 72
     1
 94
      127
  0
MATERIAL
  5
46
102
{ACAD_REACTORS
330
43
102
}
330
43
100
AcDbMaterial
  1
Global
 72
     1
 94
      127
  0
MLEADERSTYLE
  5
6C
102
{ACAD_REACTORS
330
6B
102
}
330
6B
100
AcDbMLeaderStyle
179
     2
170
     2
171
     1
172
     0
 90
        2
 40
0.0
 41
0.0
173
     1
 91
-1056964608
340
14
 92
       -2
290
     1
 42
0.09
291
     1
 43
0.36
  3
Standard
341
0
 44
0.18
300

342
11
174
     1
178
     6
175
     1
176
     0
 93
-1056964608
 45
0.18
292
     0
297
     0
 46
0.18
343
0
 94
-1056964608
 47
1.0
 49
1.0
140
1.0
293
     1
141
0.0
294
     1
177
     0
142
1.0
295
     0
296
     0
143
0.125
271
     0
272
     9
273
     9
298
     0
  0
MLINESTYLE
  5
18
102
{ACAD_REACTORS
330
17
102
}
330
17
100
AcDbMlineStyle
  2
Standard
 70
     0
  3

 62
   256
 51
90.0
 52
90.0
 71
     2
 49
0.5
 62
   256
  6
BYLAYER
 49
-0.5
 62
   256
  6
BYLAYER
  0
ACDBPLACEHOLDER
  5
F
102
{ACAD_REACTORS
330
E
102
}
330
E
  0
SCALE
  5
48
102
{ACAD_REACTORS
330
47
102
}
330
47
100
AcDbScale
 70
     0
300
1:1
140
1.0
141
1.0
290
     1
  0
SCALE
  5
49
102
{ACAD_REACTORS
330
47
102
}
330
47
100
AcDbScale
 70
     0
300
1:2
140
1.0
141
2.0
290
     0
  0
SCALE
  5
4A
102
{ACAD_REACTORS
330
47
102
}
330
47
100
AcDbScale
 70
     0
300
1:4
140
1.0
141
4.0
290
     0
  0
SCALE
  5
4B
102
{ACAD_REACTORS
330
47
102
}
330
47
100
AcDbScale
 70
     0
300
1:5
140
1.0
141
5.0
290
     0
  0
SCALE
  5
4C
102
{ACAD_REACTORS
330
47
102
}
330
47
100
AcDbScale
 70
     0
300
1:8
140
1.0
141
8.0
290
     0
  0
SCALE
  5
4D
102
{ACAD_REACTORS
330
47
102
}
330
47
100
AcDbScale
 70
     0
300
1:10
140
1.0
141
10.0
290
     0
  0
SCALE
  5
4E
102
{ACAD_REACTORS
330
47
102
}
330
47
100
AcDbScale
 70
     0
300
1:16
140
1.0
141
16.0
290
     0
  0
SCALE
  5
4F
102
{ACAD_REACTORS
330
47
102
}
330
47
100
AcDbScale
 70
     0
300
1:20
140
1.0
141
20.0
290
     0
  0
SCALE
  5
50
102
{ACAD_REACTORS
330
47
102
}
330
47
100
AcDbScale
 70
     0
300
1:30
140
1.0
141
30.0
290
     0
  0
SCALE
  5
51
102
{ACAD_REACTORS
330
47
102
}
330
47
100
AcDbScale
 70
     0
300
1:40
140
1.0
141
40.0
290
     0
  0
SCALE
  5
52
102
{ACAD_REACTORS
330
47
102
}
330
47
100
AcDbScale
 70
     0
300
1:50
140
1.0
141
50.0
290
     0
  0
SCALE
  5
53
102
{ACAD_REACTORS
330
47
102
}
330
47
100
AcDbScale
 70
     0
300
1:100
140
1.0
141
100.0
290
     0
  0
SCALE
  5
54
102
{ACAD_REACTORS
330
47
102
}
330
47
100
AcDbScale
 70
     0
300
2:1
140
2.0
141
1.0
290
     0
  0
SCALE
  5
55
102
{ACAD_REACTORS
330
47
102
}
330
47
100
AcDbScale
 70
     0
300
4:1
140
4.0
141
1.0
290
     0
  0
SCALE
  5
56
102
{ACAD_REACTORS
330
47
102
}
330
47
100
AcDbScale
 70
     0
300
8:1
140
8.0
141
1.0
290
     0
  0
SCALE
  5
57
102
{ACAD_REACTORS
330
47
102
}
330
47
100
AcDbScale
 70
     0
300
10:1
140
10.0
141
1.0
290
     0
  0
SCALE
  5
58
102
{ACAD_REACTORS
330
47
102
}
330
47
100
AcDbScale
 70
     0
300
100:1
140
100.0
141
1.0
290
     0
  0
SCALE
  5
59
102
{ACAD_REACTORS
330
47
102
}
330
47
100
AcDbScale
 70
     0
300
1/128" = 1'-0"
140
0.0078125
141
12.0
290
     0
  0
SCALE
  5
5A
102
{ACAD_REACTORS
330
47
102
}
330
47
100
AcDbScale
 70
     0
300
1/64" = 1'-0"
140
0.015625
141
12.0
290
     0
  0
SCALE
  5
5B
102
{ACAD_REACTORS
330
47
102
}
330
47
100
AcDbScale
 70
     0
300
1/32" = 1'-0"
140
0.03125
141
12.0
290
     0
  0
SCALE
  5
5C
102
{ACAD_REACTORS
330
47
102
}
330
47
100
AcDbScale
 70
     0
300
1/16" = 1'-0"
140
0.0625
141
12.0
290
     0
  0
SCALE
  5
5D
102
{ACAD_REACTORS
330
47
102
}
330
47
100
AcDbScale
 70
     0
300
3/32" = 1'-0"
140
0.09375
141
12.0
290
     0
  0
SCALE
  5
5E
102
{ACAD_REACTORS
330
47
102
}
330
47
100
AcDbScale
 70
     0
300
1/8" = 1'-0"
140
0.125
141
12.0
290
     0
  0
SCALE
  5
5F
102
{ACAD_REACTORS
330
47
102
}
330
47
100
AcDbScale
 70
     0
300
3/16" = 1'-0"
140
0.1875
141
12.0
290
     0
  0
SCALE
  5
60
102
{ACAD_REACTORS
330
47
102
}
330
47
100
AcDbScale
 70
     0
300
1/4" = 1'-0"
140
0.25
141
12.0
290
     0
  0
SCALE
  5
61
102
{ACAD_REACTORS
330
47
102
}
330
47
100
AcDbScale
 70
     0
300
3/8" = 1'-0"
140
0.375
141
12.0
290
     0
  0
SCALE
  5
62
102
{ACAD_REACTORS
330
47
102
}
330
47
100
AcDbScale
 70
     0
300
1/2" = 1'-0"
140
0.5
141
12.0
290
     0
  0
SCALE
  5
63
102
{ACAD_REACTORS
330
47
102
}
330
47
100
AcDbScale
 70
     0
300
3/4" = 1'-0"
140
0.75
141
12.0
290
     0
  0
SCALE
  5
64
102
{ACAD_REACTORS
330
47
102
}
330
47
100
AcDbScale
 70
     0
300
1" = 1'-0"
140
1.0
141
12.0
290
     0
  0
SCALE
  5
65
102
{ACAD_REACTORS
330
47
102
}
330
47
100
AcDbScale
 70
     0
300
1-1/2" = 1'-0"
140
1.5
141
12.0
290
     0
  0
SCALE
  5
66
102
{ACAD_REACTORS
330
47
102
}
330
47
100
AcDbScale
 70
     0
300
3" = 1'-0"
140
3.0
141
12.0
290
     0
  0
SCALE
  5
67
102
{ACAD_REACTORS
330
47
102
}
330
47
100
AcDbScale
 70
     0
300
6" = 1'-0"
140
6.0
141
12.0
290
     0
  0
SCALE
  5
68
102
{ACAD_REACTORS
330
47
102
}
330
47
100
AcDbScale
 70
     0
300
1'-0" = 1'-0"
140
12.0
141
12.0
290
     0
  0
TABLESTYLE
  5
6A
102
{ACAD_REACTORS
330
69
102
}
102
{ACAD_XDICTIONARY
360
192
102
}
330
69
100
AcDbTableStyle
  3
Standard
 70
     0
 71
     0
 40
0.06
 41
0.06
280
     0
281
     0
  7
Standard
140
0.18
170
     2
 62
     0
 63
   257
283
     0
 90
        4
 91
        0
  1

274
    -2
284
     1
 64
     0
275
    -2
285
     1
 65
     0
276
    -2
286
     1
 66
     0
277
    -2
287
     1
 67
     0
278
    -2
288
     1
 68
     0
279
    -2
289
     1
 69
     0
  7
Standard
140
0.25
170
     5
 62
     0
 63
   257
283
     0
 90
        4
 91
        0
  1

274
    -2
284
     1
 64
     0
275
    -2
285
     1
 65
     0
276
    -2
286
     1
 66
     0
277
    -2
287
     1
 67
     0
278
    -2
288
     1
 68
     0
279
    -2
289
     1
 69
     0
  7
Standard
140
0.18
170
     5
 62
     0
 63
   257
283
     0
 90
        4
 91
        0
  1

274
    -2
284
     1
 64
     0
275
    -2
285
     1
 65
     0
276
    -2
286
     1
 66
     0
277
    -2
287
     1
 67
     0
278
    -2
288
     1
 68
     0
279
    -2
289
     1
 69
     0
  0
VISUALSTYLE
  5
2F
102
{ACAD_REACTORS
330
2A
102
}
330
2A
100
AcDbVisualStyle
  2
2dWireframe
 70
     4
177
     3
291
     0
 70
    58
 90
        0
176
     1
 90
        2
176
     1
 90
        0
176
     1
 90
        0
176
     1
 40
0.6
176
     1
 40
30.0
176
     1
 62
     7
420
 16777215
176
     1
 90
        1
176
     1
 90
        4
176
     1
 62
     7
176
     1
 62
   257
176
     1
 90
        1
176
     1
 90
        1
176
     1
 40
1.0
176
     1
 90
        0
176
     1
 62
   257
176
     1
 40
1.0
176
     1
 90
        1
176
     1
 90
        6
176
     1
 90
        2
176
     1
 62
     7
176
     1
 90
        5
176
     1
 90
        0
176
     1
 90
        0
176
     1
290
     0
176
     1
 90
        1
176
     1
 40
0.0
176
     1
 90
        0
176
     1
290
     1
176
     1
290
     1
176
     1
290
     0
176
     1
290
     0
176
     1
290
     0
176
     1
290
     0
176
     1
290
     0
176
     1
290
     0
176
     1
290
     0
176
     1
 90
       50
176
     1
 40
0.0
176
     1
 40
1.0
176
     1
 90
        0
176
     1
 62
    18
420
        0
176
     1
 90
       50
176
     1
 90
        3
176
     1
 62
     5
420
      255
176
     1
290
     0
176
     1
 90
       50
176
     1
 90
       50
176
     1
 90
       50
176
     1
290
     0
176
     1
 90
       50
176
     1
 62
   256
176
     0
 40
1.0
176
     0
 90
        2
176
     1
  1
strokes_ogs.tif
176
     1
290
     0
176
     1
 40
1.0
176
     1
 40
1.0
176
     1
  0
VISUALSTYLE
  5
32
102
{ACAD_REACTORS
330
2A
102
}
330
2A
100
AcDbVisualStyle
  2
Basic
 70
     7
177
     3
291
     1
 70
    58
 90
        1
176
     1
 90
        0
176
     1
 90
        1
176
     1
 90
        0
176
     1
 40
0.6
176
     1
 40
30.0
176
     1
 62
     7
420
 16777215
176
     1
 90
        0
176
     1
 90
        4
176
     1
 62
     7
176
     1
 62
   257
176
     1
 90
        1
176
     1
 90
        1
176
     1
 40
1.0
176
     1
 90
        8
176
     1
 62
     7
176
     1
 40
1.0
176
     1
 90
        1
176
     1
 90
        6
176
     1
 90
        2
176
     1
 62
     7
176
     1
 90
        5
176
     1
 90
        0
176
     1
 90
        0
176
     1
290
     0
176
     1
 90
        1
176
     1
 40
0.0
176
     1
 90
        0
176
     1
290
     0
176
     1
290
     1
176
     1
290
     1
176
     1
290
     0
176
     1
290
     0
176
     1
290
     0
176
     1
290
     0
176
     1
290
     0
176
     1
290
     0
176
     1
 90
       50
176
     1
 40
0.0
176
     1
 40
1.0
176
     1
 90
        0
176
     1
 62
    18
420
        0
176
     1
 90
       50
176
     1
 90
        3
176
     1
 62
     5
420
      255
176
     1
290
     0
176
     1
 90
       50
176
     1
 90
       50
176
     1
 90
       50
176
     1
290
     0
176
     1
 90
       50
176
     1
 62
   256
176
     0
 40
1.0
176
     0
 90
        2
176
     1
  1
strokes_ogs.tif
176
     1
290
     0
176
     1
 40
1.0
176
     1
 40
1.0
176
     1
  0
VISUALSTYLE
  5
36
102
{ACAD_REACTORS
330
2A
102
}
330
2A
100
AcDbVisualStyle
  2
Brighten
 70
    12
177
     3
291
     1
 70
    58
 90
        2
176
     1
 90
        2
176
     1
 90
        0
176
     1
 90
        0
176
     1
 40
0.6
176
     1
 40
30.0
176
     1
 62
     7
420
 16777215
176
     1
 90
        1
176
     1
 90
        4
176
     1
 62
     7
176
     1
 62
   257
176
     1
 90
        1
176
     1
 90
        1
176
     1
 40
1.0
176
     1
 90
        8
176
     1
 62
     7
176
     1
 40
1.0
176
     1
 90
        1
176
     1
 90
        6
176
     1
 90
        2
176
     1
 62
     7
176
     1
 90
        5
176
     1
 90
        0
176
     1
 90
        0
176
     1
290
     0
176
     1
 90
        1
176
     1
 40
50.0
176
     1
 90
        0
176
     1
290
     0
176
     1
290
     1
176
     1
290
     1
176
     1
290
     0
176
     1
290
     0
176
     1
290
     0
176
     1
290
     0
176
     1
290
     0
176
     1
290
     0
176
     1
 90
       50
176
     1
 40
0.0
176
     1
 40
1.0
176
     1
 90
        0
176
     1
 62
    18
420
        0
176
     1
 90
       50
176
     1
 90
        3
176
     1
 62
     5
420
      255
176
     1
290
     0
176
     1
 90
       50
176
     1
 90
       50
176
     1
 90
       50
176
     1
290
     0
176
     1
 90
       50
176
     1
 62
   256
176
     0
 40
1.0
176
     0
 90
        2
176
     1
  1
strokes_ogs.tif
176
     1
290
     0
176
     1
 40
1.0
176
     1
 40
1.0
176
     1
  0
VISUALSTYLE
  5
3A
102
{ACAD_REACTORS
330
2A
102
}
330
2A
100
AcDbVisualStyle
  2
ColorChange
 70
    16
177
     3
291
     1
 70
    58
 90
        2
176
     1
 90
        2
176
     1
 90
        3
176
     1
 90
        0
176
     1
 40
0.6
176
     1
 40
30.0
176
     1
 62
     8
420
  8421504
176
     1
 90
        1
176
     1
 90
        4
176
     1
 62
     7
176
     1
 62
   257
176
     1
 90
        1
176
     1
 90
        1
176
     1
 40
1.0
176
     1
 90
        8
176
     1
 62
     8
420
  8421504
176
     1
 40
1.0
176
     1
 90
        1
176
     1
 90
        6
176
     1
 90
        2
176
     1
 62
     7
176
     1
 90
        5
176
     1
 90
        0
176
     1
 90
        0
176
     1
290
     0
176
     1
 90
        1
176
     1
 40
0.0
176
     1
 90
        0
176
     1
290
     0
176
     1
290
     1
176
     1
290
     1
176
     1
290
     0
176
     1
290
     0
176
     1
290
     0
176
     1
290
     0
176
     1
290
     0
176
     1
290
     0
176
     1
 90
       50
176
     1
 40
0.0
176
     1
 40
1.0
176
     1
 90
        0
176
     1
 62
    18
420
        0
176
     1
 90
       50
176
     1
 90
        3
176
     1
 62
     5
420
      255
176
     1
290
     0
176
     1
 90
       50
176
     1
 90
       50
176
     1
 90
       50
176
     1
290
     0
176
     1
 90
       50
176
     1
 62
   256
176
     0
 40
1.0
176
     0
 90
        2
176
     1
  1
strokes_ogs.tif
176
     1
290
     0
176
     1
 40
1.0
176
     1
 40
1.0
176
     1
  0
VISUALSTYLE
  5
34
102
{ACAD_REACTORS
330
2A
102
}
330
2A
100
AcDbVisualStyle
  2
Conceptual
 70
     9
177
     3
291
     0
 70
    58
 90
        3
176
     1
 90
        2
176
     1
 90
        0
176
     1
 90
        0
176
     1
 40
0.6
176
     1
 40
30.0
176
     1
 62
     7
420
 16777215
176
     1
 90
        2
176
     1
 90
        2
176
     1
 62
     7
176
     1
 62
   257
176
     1
 90
        1
176
     1
 90
        1
176
     1
 40
179.0
176
     1
 90
        8
176
     1
 62
     7
176
     1
 40
1.0
176
     1
 90
        1
176
     1
 90
        6
176
     1
 90
        2
176
     1
 62
     7
176
     1
 90
        3
176
     1
 90
        0
176
     1
 90
        0
176
     1
290
     0
176
     1
 90
        1
176
     1
 40
0.0
176
     1
 90
        0
176
     1
290
     0
176
     1
290
     1
176
     1
290
     1
176
     1
290
     0
176
     1
290
     0
176
     1
290
     0
176
     1
290
     0
176
     1
290
     0
176
     1
290
     0
176
     1
 90
       50
176
     1
 40
0.0
176
     1
 40
1.0
176
     1
 90
        0
176
     1
 62
    18
420
        0
176
     1
 90
       50
176
     1
 90
        3
176
     1
 62
     5
420
      255
176
     1
290
     0
176
     1
 90
       50
176
     1
 90
       50
176
     1
 90
       50
176
     1
290
     0
176
     1
 90
       50
176
     1
 62
   256
176
     0
 40
1.0
176
     0
 90
        2
176
     1
  1
strokes_ogs.tif
176
     1
290
     0
176
     1
 40
1.0
176
     1
 40
1.0
176
     1
  0
VISUALSTYLE
  5
35
102
{ACAD_REACTORS
330
2A
102
}
330
2A
100
AcDbVisualStyle
  2
Dim
 70
    11
177
     3
291
     1
 70
    58
 90
        2
176
     1
 90
        2
176
     1
 90
        0
176
     1
 90
        0
176
     1
 40
0.6
176
     1
 40
30.0
176
     1
 62
     7
420
 16777215
176
     1
 90
        1
176
     1
 90
        4
176
     1
 62
     7
176
     1
 62
   257
176
     1
 90
        1
176
     1
 90
        1
176
     1
 40
1.0
176
     1
 90
        8
176
     1
 62
     7
176
     1
 40
1.0
176
     1
 90
        1
176
     1
 90
        6
176
     1
 90
        2
176
     1
 62
     7
176
     1
 90
        5
176
     1
 90
        0
176
     1
 90
        0
176
     1
290
     0
176
     1
 90
        1
176
     1
 40
-50.0
176
     1
 90
        0
176
     1
290
     0
176
     1
290
     1
176
     1
290
     1
176
     1
290
     0
176
     1
290
     0
176
     1
290
     0
176
     1
290
     0
176
     1
290
     0
176
     1
290
     0
176
     1
 90
       50
176
     1
 40
0.0
176
     1
 40
1.0
176
     1
 90
        0
176
     1
 62
    18
420
        0
176
     1
 90
       50
176
     1
 90
        3
176
     1
 62
     5
420
      255
176
     1
290
     0
176
     1
 90
       50
176
     1
 90
       50
176
     1
 90
       50
176
     1
290
     0
176
     1
 90
       50
176
     1
 62
   256
176
     0
 40
1.0
176
     0
 90
        2
176
     1
  1
strokes_ogs.tif
176
     1
290
     0
176
     1
 40
1.0
176
     1
 40
1.0
176
     1
  0
VISUALSTYLE
  5
3D
102
{ACAD_REACTORS
330
2A
102
}
330
2A
100
AcDbVisualStyle
  2
EdgeColorOff
 70
    22
177
     3
291
     1
 70
    58
 90
        2
176
     0
 90
        2
176
     0
 90
        0
176
     0
 90
        0
176
     0
 40
0.6
176
     0
 40
30.0
176
     0
 62
     7
420
 16777215
176
     0
 90
        1
176
     0
 90
        4
176
     0
 62
     7
176
     0
 62
   257
176
     0
 90
        1
176
     0
 90
        1
176
     0
 40
1.0
176
     0
 90
        8
176
     2
 62
     7
176
     0
 40
1.0
176
     0
 90
        1
176
     0
 90
        6
176
     0
 90
        2
176
     0
 62
     7
176
     0
 90
        5
176
     0
 90
        0
176
     0
 90
        0
176
     0
290
     0
176
     0
 90
        1
176
     0
 40
0.0
176
     0
 90
        0
176
     0
290
     0
176
     0
290
     1
176
     0
290
     1
176
     0
290
     0
176
     0
290
     0
176
     0
290
     0
176
     0
290
     0
176
     0
290
     0
176
     0
290
     0
176
     0
 90
       50
176
     0
 40
0.0
176
     0
 40
1.0
176
     0
 90
        0
176
     0
 62
    18
420
        0
176
     0
 90
       50
176
     0
 90
        3
176
     0
 62
     5
420
      255
176
     0
290
     0
176
     0
 90
       50
176
     0
 90
       50
176
     0
 90
       50
176
     0
290
     0
176
     0
 90
       50
176
     0
 62
   256
176
     0
 40
1.0
176
     0
 90
        2
176
     0
  1
strokes_ogs.tif
176
     0
290
     0
176
     0
 40
1.0
176
     0
 40
1.0
176
     0
  0
VISUALSTYLE
  5
39
102
{ACAD_REACTORS
330
2A
102
}
330
2A
100
AcDbVisualStyle
  2
Facepattern
 70
    15
177
     3
291
     1
 70
    58
 90
        2
176
     1
 90
        2
176
     1
 90
        0
176
     1
 90
        0
176
     1
 40
0.6
176
     1
 40
30.0
176
     1
 62
     7
420
 16777215
176
     1
 90
        1
176
     1
 90
        4
176
     1
 62
     7
176
     1
 62
   257
176
     1
 90
        1
176
     1
 90
        1
176
     1
 40
1.0
176
     1
 90
        8
176
     1
 62
     7
176
     1
 40
1.0
176
     1
 90
        1
176
     1
 90
        6
176
     1
 90
        2
176
     1
 62
     7
176
     1
 90
        5
176
     1
 90
        0
176
     1
 90
        0
176
     1
290
     0
176
     1
 90
        1
176
     1
 40
0.0
176
     1
 90
        0
176
     1
290
     0
176
     1
290
     1
176
     1
290
     1
176
     1
290
     0
176
     1
290
     0
176
     1
290
     0
176
     1
290
     0
176
     1
290
     0
176
     1
290
     0
176
     1
 90
       50
176
     1
 40
0.0
176
     1
 40
1.0
176
     1
 90
        0
176
     1
 62
    18
420
        0
176
     1
 90
       50
176
     1
 90
        3
176
     1
 62
     5
420
      255
176
     1
290
     0
176
     1
 90
       50
176
     1
 90
       50
176
     1
 90
       50
176
     1
290
     0
176
     1
 90
       50
176
     1
 62
   256
176
     0
 40
1.0
176
     0
 90
        2
176
     1
  1
strokes_ogs.tif
176
     1
290
     0
176
     1
 40
1.0
176
     1
 40
1.0
176
     1
  0
VISUALSTYLE
  5
2B
102
{ACAD_REACTORS
330
2A
102
}
330
2A
100
AcDbVisualStyle
  2
Flat
 70
     0
177
     3
291
     1
 70
    58
 90
        2
176
     1
 90
        1
176
     1
 90
        1
176
     1
 90
        2
176
     1
 40
0.6
176
     1
 40
30.0
176
     1
 62
     7
420
 16777215
176
     1
 90
        0
176
     1
 90
        0
176
     1
 62
     7
176
     1
 62
   257
176
     1
 90
        1
176
     1
 90
        1
176
     1
 40
1.0
176
     1
 90
        8
176
     1
 62
     7
176
     1
 40
1.0
176
     1
 90
        1
176
     1
 90
        6
176
     1
 90
        2
176
     1
 62
     7
176
     1
 90
        5
176
     1
 90
        0
176
     1
 90
        0
176
     1
290
     0
176
     1
 90
       13
176
     1
 40
0.0
176
     1
 90
        0
176
     1
290
     0
176
     1
290
     1
176
     1
290
     1
176
     1
290
     0
176
     1
290
     0
176
     1
290
     0
176
     1
290
     0
176
     1
290
     0
176
     1
290
     0
176
     1
 90
       50
176
     1
 40
0.0
176
     1
 40
1.0
176
     1
 90
        0
176
     1
 62
    18
420
        0
176
     1
 90
       50
176
     1
 90
        3
176
     1
 62
     5
420
      255
176
     1
290
     0
176
     1
 90
       50
176
     1
 90
       50
176
     1
 90
       50
176
     1
290
     0
176
     1
 90
       50
176
     1
 62
   256
176
     0
 40
1.0
176
     0
 90
        2
176
     1
  1
strokes_ogs.tif
176
     1
290
     0
176
     1
 40
1.0
176
     1
 40
1.0
176
     1
  0
VISUALSTYLE
  5
2C
102
{ACAD_REACTORS
330
2A
102
}
330
2A
100
AcDbVisualStyle
  2
FlatWithEdges
 70
     1
177
     3
291
     1
 70
    58
 90
        2
176
     1
 90
        1
176
     1
 90
        1
176
     1
 90
        2
176
     1
 40
0.6
176
     1
 40
30.0
176
     1
 62
     7
420
 16777215
176
     1
 90
        1
176
     1
 90
        0
176
     1
 62
     7
176
     1
 62
   257
176
     1
 90
        1
176
     1
 90
        1
176
     1
 40
1.0
176
     1
 90
        0
176
     1
 62
   257
176
     1
 40
1.0
176
     1
 90
        1
176
     1
 90
        6
176
     1
 90
        2
176
     1
 62
     7
176
     1
 90
        5
176
     1
 90
        0
176
     1
 90
        0
176
     1
290
     0
176
     1
 90
       13
176
     1
 40
0.0
176
     1
 90
        0
176
     1
290
     0
176
     1
290
     1
176
     1
290
     1
176
     1
290
     0
176
     1
290
     0
176
     1
290
     0
176
     1
290
     0
176
     1
290
     0
176
     1
290
     0
176
     1
 90
       50
176
     1
 40
0.0
176
     1
 40
1.0
176
     1
 90
        0
176
     1
 62
    18
420
        0
176
     1
 90
       50
176
     1
 90
        3
176
     1
 62
     5
420
      255
176
     1
290
     0
176
     1
 90
       50
176
     1
 90
       50
176
     1
 90
       50
176
     1
290
     0
176
     1
 90
       50
176
     1
 62
   256
176
     0
 40
1.0
176
     0
 90
        2
176
     1
  1
strokes_ogs.tif
176
     1
290
     0
176
     1
 40
1.0
176
     1
 40
1.0
176
     1
  0
VISUALSTYLE
  5
2D
102
{ACAD_REACTORS
330
2A
102
}
330
2A
100
AcDbVisualStyle
  2
Gouraud
 70
     2
177
     3
291
     1
 70
    58
 90
        2
176
     1
 90
        2
176
     1
 90
        1
176
     1
 90
        2
176
     1
 40
0.6
176
     1
 40
30.0
176
     1
 62
     7
420
 16777215
176
     1
 90
        0
176
     1
 90
        0
176
     1
 62
     7
176
     1
 62
   257
176
     1
 90
        1
176
     1
 90
        1
176
     1
 40
1.0
176
     1
 90
        0
176
     1
 62
     7
176
     1
 40
1.0
176
     1
 90
        1
176
     1
 90
        6
176
     1
 90
        2
176
     1
 62
     7
176
     1
 90
        5
176
     1
 90
        0
176
     1
 90
        0
176
     1
290
     0
176
     1
 90
       13
176
     1
 40
0.0
176
     1
 90
        0
176
     1
290
     0
176
     1
290
     1
176
     1
290
     1
176
     1
290
     0
176
     1
290
     0
176
     1
290
     0
176
     1
290
     0
176
     1
290
     0
176
     1
290
     0
176
     1
 90
       50
176
     1
 40
0.0
176
     1
 40
1.0
176
     1
 90
        0
176
     1
 62
    18
420
        0
176
     1
 90
       50
176
     1
 90
        3
176
     1
 62
     5
420
      255
176
     1
290
     0
176
     1
 90
       50
176
     1
 90
       50
176
     1
 90
       50
176
     1
290
     0
176
     1
 90
       50
176
     1
 62
   256
176
     0
 40
1.0
176
     0
 90
        2
176
     1
  1
strokes_ogs.tif
176
     1
290
     0
176
     1
 40
1.0
176
     1
 40
1.0
176
     1
  0
VISUALSTYLE
  5
2E
102
{ACAD_REACTORS
330
2A
102
}
330
2A
100
AcDbVisualStyle
  2
GouraudWithEdges
 70
     3
177
     3
291
     1
 70
    58
 90
        2
176
     1
 90
        2
176
     1
 90
        1
176
     1
 90
        2
176
     1
 40
0.6
176
     1
 40
30.0
176
     1
 62
     7
420
 16777215
176
     1
 90
        1
176
     1
 90
        0
176
     1
 62
     7
176
     1
 62
   257
176
     1
 90
        1
176
     1
 90
        1
176
     1
 40
1.0
176
     1
 90
        0
176
     1
 62
   257
176
     1
 40
1.0
176
     1
 90
        1
176
     1
 90
        6
176
     1
 90
        2
176
     1
 62
     7
176
     1
 90
        5
176
     1
 90
        0
176
     1
 90
        0
176
     1
290
     0
176
     1
 90
       13
176
     1
 40
0.0
176
     1
 90
        0
176
     1
290
     0
176
     1
290
     1
176
     1
290
     1
176
     1
290
     0
176
     1
290
     0
176
     1
290
     0
176
     1
290
     0
176
     1
290
     0
176
     1
290
     0
176
     1
 90
       50
176
     1
 40
0.0
176
     1
 40
1.0
176
     1
 90
        0
176
     1
 62
    18
420
        0
176
     1
 90
       50
176
     1
 90
        3
176
     1
 62
     5
420
      255
176
     1
290
     0
176
     1
 90
       50
176
     1
 90
       50
176
     1
 90
       50
176
     1
290
     0
176
     1
 90
       50
176
     1
 62
   256
176
     0
 40
1.0
176
     0
 90
        2
176
     1
  1
strokes_ogs.tif
176
     1
290
     0
176
     1
 40
1.0
176
     1
 40
1.0
176
     1
  0
VISUALSTYLE
  5
31
102
{ACAD_REACTORS
330
2A
102
}
330
2A
100
AcDbVisualStyle
  2
Hidden
 70
     6
177
     3
291
     0
 70
    58
 90
        1
176
     1
 90
        2
176
     1
 90
        2
176
     1
 90
        0
176
     1
 40
0.6
176
     1
 40
30.0
176
     1
 62
     7
420
 16777215
176
     1
 90
        2
176
     1
 90
        2
176
     1
 62
     7
176
     1
 62
   257
176
     1
 90
        2
176
     1
 90
        1
176
     1
 40
40.0
176
     1
 90
        0
176
     1
 62
   257
176
     1
 40
1.0
176
     1
 90
        1
176
     1
 90
        6
176
     1
 90
        2
176
     1
 62
     7
176
     1
 90
        3
176
     1
 90
        0
176
     1
 90
        0
176
     1
290
     0
176
     1
 90
        1
176
     1
 40
0.0
176
     1
 90
        0
176
     1
290
     0
176
     1
290
     1
176
     1
290
     1
176
     1
290
     0
176
     1
290
     0
176
     1
290
     0
176
     1
290
     0
176
     1
290
     0
176
     1
290
     0
176
     1
 90
       50
176
     1
 40
0.0
176
     1
 40
1.0
176
     1
 90
        0
176
     1
 62
    18
420
        0
176
     1
 90
       50
176
     1
 90
        3
176
     1
 62
     5
420
      255
176
     1
290
     0
176
     1
 90
       50
176
     1
 90
       50
176
     1
 90
       50
176
     1
290
     0
176
     1
 90
       50
176
     1
 62
   256
176
     0
 40
1.0
176
     0
 90
        2
176
     1
  1
strokes_ogs.tif
176
     1
290
     0
176
     1
 40
1.0
176
     1
 40
1.0
176
     1
  0
VISUALSTYLE
  5
3B
102
{ACAD_REACTORS
330
2A
102
}
330
2A
100
AcDbVisualStyle
  2
JitterOff
 70
    20
177
     3
291
     1
 70
    58
 90
        2
176
     0
 90
        2
176
     0
 90
        0
176
     0
 90
        0
176
     0
 40
0.6
176
     0
 40
30.0
176
     0
 62
     7
420
 16777215
176
     0
 90
        1
176
     0
 90
        4
176
     0
 62
     7
176
     0
 62
   257
176
     0
 90
        1
176
     0
 90
        1
176
     0
 40
1.0
176
     0
 90
       10
176
     2
 62
     7
176
     0
 40
1.0
176
     0
 90
        1
176
     0
 90
        6
176
     0
 90
        2
176
     0
 62
     7
176
     0
 90
        5
176
     0
 90
        0
176
     0
 90
        0
176
     0
290
     0
176
     0
 90
        1
176
     0
 40
0.0
176
     0
 90
        0
176
     0
290
     0
176
     0
290
     1
176
     0
290
     1
176
     0
290
     0
176
     0
290
     0
176
     0
290
     0
176
     0
290
     0
176
     0
290
     0
176
     0
290
     0
176
     0
 90
       50
176
     0
 40
0.0
176
     0
 40
1.0
176
     0
 90
        0
176
     0
 62
    18
420
        0
176
     0
 90
       50
176
     0
 90
        3
176
     0
 62
     5
420
      255
176
     0
290
     0
176
     0
 90
       50
176
     0
 90
       50
176
     0
 90
       50
176
     0
290
     0
176
     0
 90
       50
176
     0
 62
   256
176
     0
 40
1.0
176
     0
 90
        2
176
     0
  1
strokes_ogs.tif
176
     0
290
     0
176
     0
 40
1.0
176
     0
 40
1.0
176
     0
  0
VISUALSTYLE
  5
38
102
{ACAD_REACTORS
330
2A
102
}
330
2A
100
AcDbVisualStyle
  2
Linepattern
 70
    14
177
     3
291
     1
 70
    58
 90
        2
176
     1
 90
        2
176
     1
 90
        0
176
     1
 90
        0
176
     1
 40
0.6
176
     1
 40
30.0
176
     1
 62
     7
420
 16777215
176
     1
 90
        1
176
     1
 90
        4
176
     1
 62
     7
176
     1
 62
   257
176
     1
 90
        7
176
     1
 90
        7
176
     1
 40
1.0
176
     1
 90
        8
176
     1
 62
     7
176
     1
 40
1.0
176
     1
 90
        1
176
     1
 90
        6
176
     1
 90
        2
176
     1
 62
     7
176
     1
 90
        5
176
     1
 90
        0
176
     1
 90
        0
176
     1
290
     0
176
     1
 90
        1
176
     1
 40
0.0
176
     1
 90
        0
176
     1
290
     0
176
     1
290
     1
176
     1
290
     1
176
     1
290
     0
176
     1
290
     0
176
     1
290
     0
176
     1
290
     0
176
     1
290
     0
176
     1
290
     0
176
     1
 90
       50
176
     1
 40
0.0
176
     1
 40
1.0
176
     1
 90
        0
176
     1
 62
    18
420
        0
176
     1
 90
       50
176
     1
 90
        3
176
     1
 62
     5
420
      255
176
     1
290
     0
176
     1
 90
       50
176
     1
 90
       50
176
     1
 90
       50
176
     1
290
     0
176
     1
 90
       50
176
     1
 62
   256
176
     0
 40
1.0
176
     0
 90
        2
176
     1
  1
strokes_ogs.tif
176
     1
290
     0
176
     1
 40
1.0
176
     1
 40
1.0
176
     1
  0
VISUALSTYLE
  5
3C
102
{ACAD_REACTORS
330
2A
102
}
330
2A
100
AcDbVisualStyle
  2
OverhangOff
 70
    21
177
     3
291
     1
 70
    58
 90
        2
176
     0
 90
        2
176
     0
 90
        0
176
     0
 90
        0
176
     0
 40
0.6
176
     0
 40
30.0
176
     0
 62
     7
420
 16777215
176
     0
 90
        1
176
     0
 90
        4
176
     0
 62
     7
176
     0
 62
   257
176
     0
 90
        1
176
     0
 90
        1
176
     0
 40
1.0
176
     0
 90
        9
176
     2
 62
     7
176
     0
 40
1.0
176
     0
 90
        1
176
     0
 90
        6
176
     0
 90
        2
176
     0
 62
     7
176
     0
 90
        5
176
     0
 90
        0
176
     0
 90
        0
176
     0
290
     0
176
     0
 90
        1
176
     0
 40
0.0
176
     0
 90
        0
176
     0
290
     0
176
     0
290
     1
176
     0
290
     1
176
     0
290
     0
176
     0
290
     0
176
     0
290
     0
176
     0
290
     0
176
     0
290
     0
176
     0
290
     0
176
     0
 90
       50
176
     0
 40
0.0
176
     0
 40
1.0
176
     0
 90
        0
176
     0
 62
    18
420
        0
176
     0
 90
       50
176
     0
 90
        3
176
     0
 62
     5
420
      255
176
     0
290
     0
176
     0
 90
       50
176
     0
 90
       50
176
     0
 90
       50
176
     0
290
     0
176
     0
 90
       50
176
     0
 62
   256
176
     0
 40
1.0
176
     0
 90
        2
176
     0
  1
strokes_ogs.tif
176
     0
290
     0
176
     0
 40
1.0
176
     0
 40
1.0
176
     0
  0
VISUALSTYLE
  5
33
102
{ACAD_REACTORS
330
2A
102
}
330
2A
100
AcDbVisualStyle
  2
Realistic
 70
     8
177
     3
291
     0
 70
    58
 90
        2
176
     1
 90
        3
176
     1
 90
        0
176
     1
 90
        2
176
     1
 40
0.6
176
     1
 40
30.0
176
     1
 62
     7
420
 16777215
176
     1
 90
        0
176
     1
 90
        0
176
     1
 62
     7
176
     1
 62
   257
176
     1
 90
        1
176
     1
 90
        1
176
     1
 40
1.0
176
     1
 90
        8
176
     1
 62
   257
176
     1
 40
1.0
176
     1
 90
        1
176
     1
 90
        6
176
     1
 90
        2
176
     1
 62
     7
176
     1
 90
        3
176
     1
 90
        0
176
     1
 90
        0
176
     1
290
     0
176
     1
 90
       13
176
     1
 40
0.0
176
     1
 90
        0
176
     1
290
     0
176
     1
290
     1
176
     1
290
     1
176
     1
290
     0
176
     1
290
     0
176
     1
290
     0
176
     1
290
     0
176
     1
290
     0
176
     1
290
     0
176
     1
 90
       50
176
     1
 40
0.0
176
     1
 40
1.0
176
     1
 90
        0
176
     1
 62
    18
420
        0
176
     1
 90
       50
176
     1
 90
        3
176
     1
 62
     5
420
      255
176
     1
290
     0
176
     1
 90
       50
176
     1
 90
       50
176
     1
 90
       50
176
     1
290
     0
176
     1
 90
       50
176
     1
 62
   256
176
     0
 40
1.0
176
     0
 90
        2
176
     1
  1
strokes_ogs.tif
176
     1
290
     0
176
     1
 40
1.0
176
     1
 40
1.0
176
     1
  0
VISUALSTYLE
  5
42
102
{ACAD_REACTORS
330
2A
102
}
330
2A
100
AcDbVisualStyle
  2
Shaded
 70
    27
177
     3
291
     0
 70
    58
 90
        2
176
     1
 90
        2
176
     1
 90
        1
176
     1
 90
        2
176
     1
 40
0.6
176
     1
 40
30.0
176
     1
 62
     7
420
 16777215
176
     1
 90
        0
176
     1
 90
        4
176
     1
 62
     7
176
     1
 62
   257
176
     1
 90
        1
176
     1
 90
        1
176
     1
 40
1.0
176
     1
 90
        8
176
     1
 62
   257
176
     1
 40
1.0
176
     1
 90
        1
176
     1
 90
        6
176
     1
 90
        2
176
     1
 62
     8
420
  7895160
176
     1
 90
        3
176
     1
 90
        0
176
     1
 90
        0
176
     1
290
     0
176
     1
 90
        5
176
     1
 40
0.0
176
     1
 90
        0
176
     1
290
     0
176
     1
290
     1
176
     1
290
     1
176
     1
290
     0
176
     1
290
     0
176
     1
290
     0
176
     1
290
     0
176
     1
290
     0
176
     1
290
     0
176
     1
 90
       50
176
     1
 40
0.0
176
     1
 40
1.0
176
     1
 90
        0
176
     1
 62
    18
420
        0
176
     1
 90
       50
176
     1
 90
        3
176
     1
 62
     5
420
      255
176
     1
290
     0
176
     1
 90
       50
176
     1
 90
       50
176
     1
 90
       50
176
     1
290
     0
176
     1
 90
       50
176
     1
 62
   256
176
     0
 40
1.0
176
     0
 90
        2
176
     1
  1
strokes_ogs.tif
176
     1
290
     0
176
     1
 40
1.0
176
     1
 40
1.0
176
     1
  0
VISUALSTYLE
  5
41
102
{ACAD_REACTORS
330
2A
102
}
330
2A
100
AcDbVisualStyle
  2
Shaded with edges
 70
    26
177
     3
291
     0
 70
    58
 90
        2
176
     1
 90
        2
176
     1
 90
        1
176
     1
 90
        2
176
     1
 40
0.6
176
     1
 40
30.0
176
     1
 62
     7
420
 16777215
176
     1
 90
        1
176
     1
 90
       10
176
     1
 62
     7
176
     1
 62
   257
176
     1
 90
        2
176
     1
 90
        1
176
     1
 40
1.0
176
     1
 90
        8
176
     1
 62
   257
176
     1
 40
1.0
176
     1
 90
        1
176
     1
 90
        6
176
     1
 90
        2
176
     1
 62
     7
176
     1
 90
        3
176
     1
 90
        0
176
     1
 90
        0
176
     1
290
     0
176
     1
 90
        5
176
     1
 40
0.0
176
     1
 90
        0
176
     1
290
     0
176
     1
290
     1
176
     1
290
     1
176
     1
290
     0
176
     1
290
     0
176
     1
290
     0
176
     1
290
     0
176
     1
290
     0
176
     1
290
     0
176
     1
 90
       50
176
     1
 40
0.0
176
     1
 40
1.0
176
     1
 90
        0
176
     1
 62
    18
420
        0
176
     1
 90
       50
176
     1
 90
        3
176
     1
 62
     5
420
      255
176
     1
290
     0
176
     1
 90
       50
176
     1
 90
       50
176
     1
 90
       50
176
     1
290
     0
176
     1
 90
       50
176
     1
 62
   256
176
     0
 40
1.0
176
     0
 90
        2
176
     1
  1
strokes_ogs.tif
176
     1
290
     0
176
     1
 40
1.0
176
     1
 40
1.0
176
     1
  0
VISUALSTYLE
  5
3E
102
{ACAD_REACTORS
330
2A
102
}
330
2A
100
AcDbVisualStyle
  2
Shades of Gray
 70
    23
177
     3
291
     0
 70
    58
 90
        2
176
     1
 90
        2
176
     1
 90
        3
176
     1
 90
        0
176
     1
 40
0.6
176
     1
 40
30.0
176
     1
 62
     7
420
 16777215
176
     1
 90
        2
176
     1
 90
        2
176
     1
 62
     7
176
     1
 62
     7
176
     1
 90
        1
176
     1
 90
        1
176
     1
 40
40.0
176
     1
 90
        8
176
     1
 62
     7
176
     1
 40
1.0
176
     1
 90
        1
176
     1
 90
        6
176
     1
 90
        2
176
     1
 62
     7
176
     1
 90
        3
176
     1
 90
        0
176
     1
 90
        0
176
     1
290
     0
176
     1
 90
        1
176
     1
 40
0.0
176
     1
 90
        0
176
     1
290
     0
176
     1
290
     1
176
     1
290
     1
176
     1
290
     0
176
     1
290
     0
176
     1
290
     0
176
     1
290
     0
176
     1
290
     0
176
     1
290
     0
176
     1
 90
       50
176
     1
 40
0.0
176
     1
 40
1.0
176
     1
 90
        0
176
     1
 62
    18
420
        0
176
     1
 90
       50
176
     1
 90
        3
176
     1
 62
     5
420
      255
176
     1
290
     0
176
     1
 90
       50
176
     1
 90
       50
176
     1
 90
       50
176
     1
290
     0
176
     1
 90
       50
176
     1
 62
   256
176
     0
 40
1.0
176
     0
 90
        2
176
     1
  1
strokes_ogs.tif
176
     1
290
     0
176
     1
 40
1.0
176
     1
 40
1.0
176
     1
  0
VISUALSTYLE
  5
3F
102
{ACAD_REACTORS
330
2A
102
}
330
2A
100
AcDbVisualStyle
  2
Sketchy
 70
    24
177
     3
291
     0
 70
    58
 90
        1
176
     1
 90
        2
176
     1
 90
        2
176
     1
 90
        0
176
     1
 40
0.6
176
     1
 40
30.0
176
     1
 62
     7
420
 16777215
176
     1
 90
        2
176
     1
 90
        2
176
     1
 62
     7
176
     1
 62
     7
176
     1
 90
        1
176
     1
 90
        1
176
     1
 40
40.0
176
     1
 90
       11
176
     1
 62
     7
176
     1
 40
1.0
176
     1
 90
        1
176
     1
 90
        6
176
     1
 90
        2
176
     1
 62
     7
176
     1
 90
        6
176
     1
 90
        0
176
     1
 90
        0
176
     1
290
     0
176
     1
 90
        1
176
     1
 40
0.0
176
     1
 90
        0
176
     1
290
     0
176
     1
290
     1
176
     1
290
     1
176
     1
290
     0
176
     1
290
     0
176
     1
290
     0
176
     1
290
     0
176
     1
290
     0
176
     1
290
     0
176
     1
 90
       50
176
     1
 40
0.0
176
     1
 40
1.0
176
     1
 90
        0
176
     1
 62
    18
420
        0
176
     1
 90
       50
176
     1
 90
        3
176
     1
 62
     5
420
      255
176
     1
290
     0
176
     1
 90
       50
176
     1
 90
       50
176
     1
 90
       50
176
     1
290
     0
176
     1
 90
       50
176
     1
 62
   256
176
     0
 40
1.0
176
     0
 90
        2
176
     1
  1
strokes_ogs.tif
176
     1
290
     0
176
     1
 40
1.0
176
     1
 40
1.0
176
     1
  0
VISUALSTYLE
  5
37
102
{ACAD_REACTORS
330
2A
102
}
330
2A
100
AcDbVisualStyle
  2
Thicken
 70
    13
177
     3
291
     1
 70
    58
 90
        2
176
     1
 90
        2
176
     1
 90
        0
176
     1
 90
        0
176
     1
 40
0.6
176
     1
 40
30.0
176
     1
 62
     7
420
 16777215
176
     1
 90
        1
176
     1
 90
        4
176
     1
 62
     7
176
     1
 62
   257
176
     1
 90
        1
176
     1
 90
        1
176
     1
 40
1.0
176
     1
 90
       12
176
     1
 62
     7
176
     1
 40
1.0
176
     1
 90
        1
176
     1
 90
        6
176
     1
 90
        2
176
     1
 62
     7
176
     1
 90
        5
176
     1
 90
        0
176
     1
 90
        0
176
     1
290
     0
176
     1
 90
        1
176
     1
 40
0.0
176
     1
 90
        0
176
     1
290
     0
176
     1
290
     1
176
     1
290
     1
176
     1
290
     0
176
     1
290
     0
176
     1
290
     0
176
     1
290
     0
176
     1
290
     0
176
     1
290
     0
176
     1
 90
       50
176
     1
 40
0.0
176
     1
 40
1.0
176
     1
 90
        0
176
     1
 62
    18
420
        0
176
     1
 90
       50
176
     1
 90
        3
176
     1
 62
     5
420
      255
176
     1
290
     0
176
     1
 90
       50
176
     1
 90
       50
176
     1
 90
       50
176
     1
290
     0
176
     1
 90
       50
176
     1
 62
   256
176
     0
 40
1.0
176
     0
 90
        2
176
     1
  1
strokes_ogs.tif
176
     1
290
     0
176
     1
 40
1.0
176
     1
 40
1.0
176
     1
  0
VISUALSTYLE
  5
30
102
{ACAD_REACTORS
330
2A
102
}
330
2A
100
AcDbVisualStyle
  2
Wireframe
 70
     5
177
     3
291
     0
 70
    58
 90
        0
176
     1
 90
        2
176
     1
 90
        0
176
     1
 90
        0
176
     1
 40
0.6
176
     1
 40
30.0
176
     1
 62
     7
420
 16777215
176
     1
 90
        1
176
     1
 90
        4
176
     1
 62
     7
176
     1
 62
   257
176
     1
 90
        1
176
     1
 90
        1
176
     1
 40
1.0
176
     1
 90
        0
176
     1
 62
   257
176
     1
 40
1.0
176
     1
 90
        1
176
     1
 90
        6
176
     1
 90
        2
176
     1
 62
     7
176
     1
 90
        3
176
     1
 90
        0
176
     1
 90
        0
176
     1
290
     0
176
     1
 90
        1
176
     1
 40
0.0
176
     1
 90
        0
176
     1
290
     0
176
     1
290
     1
176
     1
290
     1
176
     1
290
     0
176
     1
290
     0
176
     1
290
     0
176
     1
290
     0
176
     1
290
     0
176
     1
290
     0
176
     1
 90
       50
176
     1
 40
0.0
176
     1
 40
1.0
176
     1
 90
        0
176
     1
 62
    18
420
        0
176
     1
 90
       50
176
     1
 90
        3
176
     1
 62
     5
420
      255
176
     1
290
     0
176
     1
 90
       50
176
     1
 90
       50
176
     1
 90
       50
176
     1
290
     0
176
     1
 90
       50
176
     1
 62
   256
176
     0
 40
1.0
176
     0
 90
        2
176
     1
  1
strokes_ogs.tif
176
     1
290
     0
176
     1
 40
1.0
176
     1
 40
1.0
176
     1
  0
VISUALSTYLE
  5
40
102
{ACAD_REACTORS
330
2A
102
}
330
2A
100
AcDbVisualStyle
  2
X-Ray
 70
    25
177
     3
291
     0
 70
    58
 90
        2
176
     1
 90
        2
176
     1
 90
        1
176
     1
 90
        1
176
     1
 40
0.5
176
     1
 40
30.0
176
     1
 62
     7
420
 16777215
176
     1
 90
        1
176
     1
 90
        0
176
     1
 62
     7
176
     1
 62
   257
176
     1
 90
        1
176
     1
 90
        1
176
     1
 40
1.0
176
     1
 90
        8
176
     1
 62
     7
176
     1
 40
1.0
176
     1
 90
        1
176
     1
 90
        6
176
     1
 90
        2
176
     1
 62
     7
176
     1
 90
        3
176
     1
 90
        0
176
     1
 90
        0
176
     1
290
     0
176
     1
 90
       13
176
     1
 40
0.0
176
     1
 90
        0
176
     1
290
     0
176
     1
290
     1
176
     1
290
     1
176
     1
290
     0
176
     1
290
     0
176
     1
290
     0
176
     1
290
     0
176
     1
290
     0
176
     1
290
     0
176
     1
 90
       50
176
     1
 40
0.0
176
     1
 40
1.0
176
     1
 90
        0
176
     1
 62
    18
420
        0
176
     1
 90
       50
176
     1
 90
        3
176
     1
 62
     5
420
      255
176
     1
290
     0
176
     1
 90
       50
176
     1
 90
       50
176
     1
 90
       50
176
     1
290
     0
176
     1
 90
       50
176
     1
 62
   256
176
     0
 40
1.0
176
     0
 90
        2
176
     1
  1
strokes_ogs.tif
176
     1
290
     0
176
     1
 40
1.0
176
     1
 40
1.0
176
     1
  0
DICTIONARYVAR
  5
191
102
{ACAD_REACTORS
330
190
102
}
330
190
100
DictionaryVariables
280
     0
  1
1:1
  0
DICTIONARYVAR
  5
196
102
{ACAD_REACTORS
330
190
102
}
330
190
100
DictionaryVariables
280
     0
  1
Standard
  0
DICTIONARYVAR
  5
195
102
{ACAD_REACTORS
330
190
102
}
330
190
100
DictionaryVariables
280
     0
  1
Standard
  0
DICTIONARY
  5
192
330
6A
100
AcDbDictionary
280
     1
281
     1
  3
ACAD_ROUNDTRIP_2008_TABLESTYLE_CELLSTYLEMAP
360
193
  0
CELLSTYLEMAP
  5
193
102
{ACAD_REACTORS
330
192
102
}
330
192
100
AcDbCellStyleMap
 90
        3
300
CELLSTYLE
  1
TABLEFORMAT_BEGIN
 90
        5
170
     1
 91
        0
 92
    32768
 62
   257
 93
        1
300
CONTENTFORMAT
  1
CONTENTFORMAT_BEGIN
 90
        0
 91
        0
 92
        4
 93
        0
300

 40
0.0
140
1.0
 94
        5
 62
     0
340
11
144
0.25
309
CONTENTFORMAT_END
171
     1
301
MARGIN
  1
CELLMARGIN_BEGIN
 40
0.06
 40
0.06
 40
0.06
 40
0.06
 40
0.06
 40
0.06
309
CELLMARGIN_END
 94
        6
 95
        1
302
GRIDFORMAT
  1
GRIDFORMAT_BEGIN
 90
        0
 91
        1
 62
     0
 92
       -2
340
14
 93
        0
 40
0.045
309
GRIDFORMAT_END
 95
        2
302
GRIDFORMAT
  1
GRIDFORMAT_BEGIN
 90
        0
 91
        1
 62
     0
 92
       -2
340
14
 93
        0
 40
0.045
309
GRIDFORMAT_END
 95
        4
302
GRIDFORMAT
  1
GRIDFORMAT_BEGIN
 90
        0
 91
        1
 62
     0
 92
       -2
340
14
 93
        0
 40
0.045
309
GRIDFORMAT_END
 95
        8
302
GRIDFORMAT
  1
GRIDFORMAT_BEGIN
 90
        0
 91
        1
 62
     0
 92
       -2
340
14
 93
        0
 40
0.045
309
GRIDFORMAT_END
 95
       16
302
GRIDFORMAT
  1
GRIDFORMAT_BEGIN
 90
        0
 91
        1
 62
     0
 92
       -2
340
14
 93
        0
 40
0.045
309
GRIDFORMAT_END
 95
       32
302
GRIDFORMAT
  1
GRIDFORMAT_BEGIN
 90
        0
 91
        1
 62
     0
 92
       -2
340
14
 93
        0
 40
0.045
309
GRIDFORMAT_END
309
TABLEFORMAT_END
  1
CELLSTYLE_BEGIN
 90
        1
 91
        1
300
_TITLE
309
CELLSTYLE_END
300
CELLSTYLE
  1
TABLEFORMAT_BEGIN
 90
        5
170
     1
 91
        0
 92
        0
 62
   257
 93
        1
300
CONTENTFORMAT
  1
CONTENTFORMAT_BEGIN
 90
        0
 91
        0
 92
        4
 93
        0
300

 40
0.0
140
1.0
 94
        5
 62
     0
340
11
144
0.18
309
CONTENTFORMAT_END
171
     1
301
MARGIN
  1
CELLMARGIN_BEGIN
 40
0.06
 40
0.06
 40
0.06
 40
0.06
 40
0.06
 40
0.06
309
CELLMARGIN_END
 94
        6
 95
        1
302
GRIDFORMAT
  1
GRIDFORMAT_BEGIN
 90
        0
 91
        1
 62
     0
 92
       -2
340
14
 93
        0
 40
0.045
309
GRIDFORMAT_END
 95
        2
302
GRIDFORMAT
  1
GRIDFORMAT_BEGIN
 90
        0
 91
        1
 62
     0
 92
       -2
340
14
 93
        0
 40
0.045
309
GRIDFORMAT_END
 95
        4
302
GRIDFORMAT
  1
GRIDFORMAT_BEGIN
 90
        0
 91
        1
 62
     0
 92
       -2
340
14
 93
        0
 40
0.045
309
GRIDFORMAT_END
 95
        8
302
GRIDFORMAT
  1
GRIDFORMAT_BEGIN
 90
        0
 91
        1
 62
     0
 92
       -2
340
14
 93
        0
 40
0.045
309
GRIDFORMAT_END
 95
       16
302
GRIDFORMAT
  1
GRIDFORMAT_BEGIN
 90
        0
 91
        1
 62
     0
 92
       -2
340
14
 93
        0
 40
0.045
309
GRIDFORMAT_END
 95
       32
302
GRIDFORMAT
  1
GRIDFORMAT_BEGIN
 90
        0
 91
        1
 62
     0
 92
       -2
340
14
 93
        0
 40
0.045
309
GRIDFORMAT_END
309
TABLEFORMAT_END
  1
CELLSTYLE_BEGIN
 90
        2
 91
        1
300
_HEADER
309
CELLSTYLE_END
300
CELLSTYLE
  1
TABLEFORMAT_BEGIN
 90
        5
170
     1
 91
        0
 92
        0
 62
   257
 93
        1
300
CONTENTFORMAT
  1
CONTENTFORMAT_BEGIN
 90
        0
 91
        0
 92
        4
 93
        0
300

 40
0.0
140
1.0
 94
        2
 62
     0
340
11
144
0.18
309
CONTENTFORMAT_END
171
     1
301
MARGIN
  1
CELLMARGIN_BEGIN
 40
0.06
 40
0.06
 40
0.06
 40
0.06
 40
0.06
 40
0.06
309
CELLMARGIN_END
 94
        6
 95
        1
302
GRIDFORMAT
  1
GRIDFORMAT_BEGIN
 90
        0
 91
        1
 62
     0
 92
       -2
340
14
 93
        0
 40
0.045
309
GRIDFORMAT_END
 95
        2
302
GRIDFORMAT
  1
GRIDFORMAT_BEGIN
 90
        0
 91
        1
 62
     0
 92
       -2
340
14
 93
        0
 40
0.045
309
GRIDFORMAT_END
 95
        4
302
GRIDFORMAT
  1
GRIDFORMAT_BEGIN
 90
        0
 91
        1
 62
     0
 92
       -2
340
14
 93
        0
 40
0.045
309
GRIDFORMAT_END
 95
        8
302
GRIDFORMAT
  1
GRIDFORMAT_BEGIN
 90
        0
 91
        1
 62
     0
 92
       -2
340
14
 93
        0
 40
0.045
309
GRIDFORMAT_END
 95
       16
302
GRIDFORMAT
  1
GRIDFORMAT_BEGIN
 90
        0
 91
        1
 62
     0
 92
       -2
340
14
 93
        0
 40
0.045
309
GRIDFORMAT_END
 95
       32
302
GRIDFORMAT
  1
GRIDFORMAT_BEGIN
 90
        0
 91
        1
 62
     0
 92
       -2
340
14
 93
        0
 40
0.045
309
GRIDFORMAT_END
309
TABLEFORMAT_END
  1
CELLSTYLE_BEGIN
 90
        3
 91
        2
300
_DATA
309
CELLSTYLE_END
  0
ENDSEC
  0
EOF