0
SECTION
  2
HEADER
  9
$ACADVER
  1
AC1027
  9
$ACADMAINTVER
 70
   105
  9
$DWGCODEPAGE
  3
ANSI_1252
  9
$REQUIREDVERSIONS
160
                 0
  9
$COMMENTS
  1
File was created by Cadenas
  9
$CUSTOMPROPERTYTAG
  1
NN
  9
$CUSTOMPROPERTY
  1
D-Lok Two-Bolt Flange Inch Bore
  9
$CUSTOMPROPERTYTAG
  1
NT
  9
$CUSTOMPROPERTY
  1
DL Normal Duty 2-Bolt Flange Bearings
  9
$CUSTOMPROPERTYTAG
  1
NB
  9
$CUSTOMPROPERTY
  1
128772
  9
$CUSTOMPROPERTYTAG
  1
NBSYN
  9
$CUSTOMPROPERTY
  1
$PN.
  9
$CUSTOMPROPERTYTAG
  1
LINA
  9
$CUSTOMPROPERTY
  1
128772
  9
$CUSTOMPROPERTYTAG
  1
SERIES
  9
$CUSTOMPROPERTY
  1
210
  9
$CUSTOMPROPERTYTAG
  1
SS
  9
$CUSTOMPROPERTY
  1
2
  9
$CUSTOMPROPERTYTAG
  1
PN
  9
$CUSTOMPROPERTY
  1
128772
  9
$CUSTOMPROPERTYTAG
  1
DESCRIPTION
  9
$CUSTOMPROPERTY
  1
F2B-DL-200
  9
$CUSTOMPROPERTYTAG
  1
W
  9
$CUSTOMPROPERTY
  1
5.9
  9
$CUSTOMPROPERTYTAG
  1
A
  9
$CUSTOMPROPERTY
  1
2.01
  9
$CUSTOMPROPERTYTAG
  1
B
  9
$CUSTOMPROPERTY
  1
7.44
  9
$CUSTOMPROPERTYTAG
  1
C
  9
$CUSTOMPROPERTY
  1
2.10
  9
$CUSTOMPROPERTYTAG
  1
D
  9
$CUSTOMPROPERTY
  1
6.19
  9
$CUSTOMPROPERTYTAG
  1
F
  9
$CUSTOMPROPERTY
  1
1/2
  9
$CUSTOMPROPERTYTAG
  1
H
  9
$CUSTOMPROPERTY
  1
0.63
  9
$CUSTOMPROPERTYTAG
  1
J
  9
$CUSTOMPROPERTY
  1
0.63
  9
$CUSTOMPROPERTYTAG
  1
L
  9
$CUSTOMPROPERTY
  1
3.24
  9
$CUSTOMPROPERTYTAG
  1
M
  9
$CUSTOMPROPERTY
  1
4.56
  9
$CUSTOMPROPERTYTAG
  1
N
  9
$CUSTOMPROPERTY
  1
2.03
  9
$CUSTOMPROPERTYTAG
  1
COMPANY
  9
$CUSTOMPROPERTY
  1
baldor
  9
$INSBASE
 10
0.0
 20
0.0
 30
0.0
  9
$EXTMIN
 10
1.000000000000000E+20
 20
1.000000000000000E+20
 30
1.000000000000000E+20
  9
$EXTMAX
 10
-1.000000000000000E+20
 20
-1.000000000000000E+20
 30
-1.000000000000000E+20
  9
$LIMMIN
 10
0.0
 20
0.0
  9
$LIMMAX
 10
12.0
 20
9.0
  9
$ORTHOMODE
 70
     0
  9
$REGENMODE
 70
     1
  9
$FILLMODE
 70
     1
  9
$QTEXTMODE
 70
     0
  9
$MIRRTEXT
 70
     1
  9
$LTSCALE
 40
1.0
  9
$ATTMODE
 70
     1
  9
$TEXTSIZE
 40
0.2
  9
$TRACEWID
 40
0.05
  9
$TEXTSTYLE
  7
Standard
  9
$CLAYER
  8
0
  9
$CELTYPE
  6
ByLayer
  9
$CECOLOR
 62
   256
  9
$CELTSCALE
 40
1.0
  9
$DISPSILH
 70
     0
  9
$DIMSCALE
 40
1.0
  9
$DIMASZ
 40
0.18
  9
$DIMEXO
 40
0.0625
  9
$DIMDLI
 40
0.38
  9
$DIMRND
 40
0.0
  9
$DIMDLE
 40
0.0
  9
$DIMEXE
 40
0.18
  9
$DIMTP
 40
0.0
  9
$DIMTM
 40
0.0
  9
$DIMTXT
 40
0.18
  9
$DIMCEN
 40
0.09
  9
$DIMTSZ
 40
0.0
  9
$DIMTOL
 70
     0
  9
$DIMLIM
 70
     0
  9
$DIMTIH
 70
     1
  9
$DIMTOH
 70
     1
  9
$DIMSE1
 70
     0
  9
$DIMSE2
 70
     0
  9
$DIMTAD
 70
     0
  9
$DIMZIN
 70
     0
  9
$DIMBLK
  1

  9
$DIMASO
 70
     1
  9
$DIMSHO
 70
     1
  9
$DIMPOST
  1

  9
$DIMAPOST
  1

  9
$DIMALT
 70
     0
  9
$DIMALTD
 70
     2
  9
$DIMALTF
 40
25.4
  9
$DIMLFAC
 40
1.0
  9
$DIMTOFL
 70
     0
  9
$DIMTVP
 40
0.0
  9
$DIMTIX
 70
     0
  9
$DIMSOXD
 70
     0
  9
$DIMSAH
 70
     0
  9
$DIMBLK1
  1

  9
$DIMBLK2
  1

  9
$DIMSTYLE
  2
Standard
  9
$DIMCLRD
 70
     0
  9
$DIMCLRE
 70
     0
  9
$DIMCLRT
 70
     0
  9
$DIMTFAC
 40
1.0
  9
$DIMGAP
 40
0.09
  9
$DIMJUST
 70
     0
  9
$DIMSD1
 70
     0
  9
$DIMSD2
 70
     0
  9
$DIMTOLJ
 70
     1
  9
$DIMTZIN
 70
     0
  9
$DIMALTZ
 70
     0
  9
$DIMALTTZ
 70
     0
  9
$DIMUPT
 70
     0
  9
$DIMDEC
 70
     4
  9
$DIMTDEC
 70
     4
  9
$DIMALTU
 70
     2
  9
$DIMALTTD
 70
     2
  9
$DIMTXSTY
  7
Standard
  9
$DIMAUNIT
 70
     0
  9
$DIMADEC
 70
     0
  9
$DIMALTRND
 40
0.0
  9
$DIMAZIN
 70
     0
  9
$DIMDSEP
 70
    46
  9
$DIMATFIT
 70
     3
  9
$DIMFRAC
 70
     0
  9
$DIMLDRBLK
  1

  9
$DIMLUNIT
 70
     2
  9
$DIMLWD
 70
    -2
  9
$DIMLWE
 70
    -2
  9
$DIMTMOVE
 70
     0
  9
$DIMFXL
 40
1.0
  9
$DIMFXLON
 70
     0
  9
$DIMJOGANG
 40
0.7853981633974483
  9
$DIMTFILL
 70
     0
  9
$DIMTFILLCLR
 70
     0
  9
$DIMARCSYM
 70
     0
  9
$DIMLTYPE
  6

  9
$DIMLTEX1
  6

  9
$DIMLTEX2
  6

  9
$DIMTXTDIRECTION
 70
     0
  9
$LUNITS
 70
     2
  9
$LUPREC
 70
     4
  9
$SKETCHINC
 40
0.1
  9
$FILLETRAD
 40
0.5
  9
$AUNITS
 70
     0
  9
$AUPREC
 70
     0
  9
$MENU
  1
.
  9
$ELEVATION
 40
0.0
  9
$PELEVATION
 40
0.0
  9
$THICKNESS
 40
0.0
  9
$LIMCHECK
 70
     0
  9
$CHAMFERA
 40
0.0
  9
$CHAMFERB
 40
0.0
  9
$CHAMFERC
 40
0.0
  9
$CHAMFERD
 40
0.0
  9
$SKPOLY
 70
     0
  9
$TDCREATE
 40
2458169.002005891
  9
$TDUCREATE
 40
2458168.960339224
  9
$TDUPDATE
 40
2458169.002006065
  9
$TDUUPDATE
 40
2458168.960339398
  9
$TDINDWG
 40
0.0000000116
  9
$TDUSRTIMER
 40
0.0000000116
  9
$USRTIMER
 70
     1
  9
$ANGBASE
 50
0.0
  9
$ANGDIR
 70
     0
  9
$PDMODE
 70
     0
  9
$PDSIZE
 40
0.0
  9
$PLINEWID
 40
0.0
  9
$SPLFRAME
 70
     0
  9
$SPLINETYPE
 70
     6
  9
$SPLINESEGS
 70
     8
  9
$HANDSEED
  5
186
  9
$SURFTAB1
 70
     6
  9
$SURFTAB2
 70
     6
  9
$SURFTYPE
 70
     6
  9
$SURFU
 70
     6
  9
$SURFV
 70
     6
  9
$UCSBASE
  2

  9
$UCSNAME
  2

  9
$UCSORG
 10
0.0
 20
0.0
 30
0.0
  9
$UCSXDIR
 10
1.0
 20
0.0
 30
0.0
  9
$UCSYDIR
 10
0.0
 20
1.0
 30
0.0
  9
$UCSORTHOREF
  2

  9
$UCSORTHOVIEW
 70
     0
  9
$UCSORGTOP
 10
0.0
 20
0.0
 30
0.0
  9
$UCSORGBOTTOM
 10
0.0
 20
0.0
 30
0.0
  9
$UCSORGLEFT
 10
0.0
 20
0.0
 30
0.0
  9
$UCSORGRIGHT
 10
0.0
 20
0.0
 30
0.0
  9
$UCSORGFRONT
 10
0.0
 20
0.0
 30
0.0
  9
$UCSORGBACK
 10
0.0
 20
0.0
 30
0.0
  9
$PUCSBASE
  2

  9
$PUCSNAME
  2

  9
$PUCSORG
 10
0.0
 20
0.0
 30
0.0
  9
$PUCSXDIR
 10
1.0
 20
0.0
 30
0.0
  9
$PUCSYDIR
 10
0.0
 20
1.0
 30
0.0
  9
$PUCSORTHOREF
  2

  9
$PUCSORTHOVIEW
 70
     0
  9
$PUCSORGTOP
 10
0.0
 20
0.0
 30
0.0
  9
$PUCSORGBOTTOM
 10
0.0
 20
0.0
 30
0.0
  9
$PUCSORGLEFT
 10
0.0
 20
0.0
 30
0.0
  9
$PUCSORGRIGHT
 10
0.0
 20
0.0
 30
0.0
  9
$PUCSORGFRONT
 10
0.0
 20
0.0
 30
0.0
  9
$PUCSORGBACK
 10
0.0
 20
0.0
 30
0.0
  9
$USERI1
 70
     0
  9
$USERI2
 70
     0
  9
$USERI3
 70
     0
  9
$USERI4
 70
     0
  9
$USERI5
 70
     0
  9
$USERR1
 40
0.0
  9
$USERR2
 40
0.0
  9
$USERR3
 40
0.0
  9
$USERR4
 40
0.0
  9
$USERR5
 40
0.0
  9
$WORLDVIEW
 70
     1
  9
$SHADEDGE
 70
     3
  9
$SHADEDIF
 70
    70
  9
$TILEMODE
 70
     1
  9
$MAXACTVP
 70
    64
  9
$PINSBASE
 10
0.0
 20
0.0
 30
0.0
  9
$PLIMCHECK
 70
     0
  9
$PEXTMIN
 10
1.000000000000000E+20
 20
1.000000000000000E+20
 30
1.000000000000000E+20
  9
$PEXTMAX
 10
-1.000000000000000E+20
 20
-1.000000000000000E+20
 30
-1.000000000000000E+20
  9
$PLIMMIN
 10
0.0
 20
0.0
  9
$PLIMMAX
 10
12.0
 20
9.0
  9
$UNITMODE
 70
     0
  9
$VISRETAIN
 70
     1
  9
$PLINEGEN
 70
     0
  9
$PSLTSCALE
 70
     1
  9
$TREEDEPTH
 70
  3020
  9
$CMLSTYLE
  2
Standard
  9
$CMLJUST
 70
     0
  9
$CMLSCALE
 40
1.0
  9
$PROXYGRAPHICS
 70
     1
  9
$MEASUREMENT
 70
     0
  9
$CELWEIGHT
370
    -1
  9
$ENDCAPS
280
     0
  9
$JOINSTYLE
280
     0
  9
$LWDISPLAY
290
     0
  9
$INSUNITS
 70
     1
  9
$HYPERLINKBASE
  1

  9
$STYLESHEET
  1

  9
$XEDIT
290
     1
  9
$CEPSNTYPE
380
     0
  9
$PSTYLEMODE
290
     1
  9
$FINGERPRINTGUID
  2
{77E32FC9-1E45-4A2C-A6E5-35D74816143B}
  9
$VERSIONGUID
  2
{FAEB1C32-E019-11D5-929B-00C0DF256EC4}
  9
$EXTNAMES
290
     1
  9
$PSVPSCALE
 40
0.0
  9
$OLESTARTUP
290
     0
  9
$SORTENTS
280
   127
  9
$INDEXCTL
280
     0
  9
$HIDETEXT
280
     1
  9
$XCLIPFRAME
280
     2
  9
$HALOGAP
280
     0
  9
$OBSCOLOR
 70
   257
  9
$OBSLTYPE
280
     0
  9
$INTERSECTIONDISPLAY
280
     0
  9
$INTERSECTIONCOLOR
 70
   257
  9
$DIMASSOC
280
     2
  9
$PROJECTNAME
  1

  9
$CAMERADISPLAY
290
     0
  9
$LENSLENGTH
 40
50.0
  9
$CAMERAHEIGHT
 40
0.0
  9
$STEPSPERSEC
 40
2.0
  9
$STEPSIZE
 40
6.0
  9
$3DDWFPREC
 40
2.0
  9
$PSOLWIDTH
 40
0.25
  9
$PSOLHEIGHT
 40
4.0
  9
$LOFTANG1
 40
1.570796326794897
  9
$LOFTANG2
 40
1.570796326794897
  9
$LOFTMAG1
 40
0.0
  9
$LOFTMAG2
 40
0.0
  9
$LOFTPARAM
 70
     7
  9
$LOFTNORMALS
280
     1
  9
$LATITUDE
 40
37.795
  9
$LONGITUDE
 40
-122.394
  9
$NORTHDIRECTION
 40
0.0
  9
$TIMEZONE
 70
 -8000
  9
$LIGHTGLYPHDISPLAY
280
     1
  9
$TILEMODELIGHTSYNCH
280
     1
  9
$CMATERIAL
347
44
  9
$SOLIDHIST
280
     0
  9
$SHOWHIST
280
     1
  9
$DWFFRAME
280
     2
  9
$DGNFRAME
280
     2
  9
$REALWORLDSCALE
290
     1
  9
$INTERFERECOLOR
 62
   256
  9
$CSHADOW
280
     0
  9
$SHADOWPLANELOCATION
 40
0.0
  0
ENDSEC
  0
SECTION
  2
CLASSES
  0
CLASS
  1
ACDBDICTIONARYWDFLT
  2
AcDbDictionaryWithDefault
  3
ObjectDBX Classes
 90
        0
 91
        4
280
     0
281
     0
  0
CLASS
  1
VISUALSTYLE
  2
AcDbVisualStyle
  3
ObjectDBX Classes
 90
     4095
 91
        4
280
     0
281
     0
  0
CLASS
  1
MATERIAL
  2
AcDbMaterial
  3
ObjectDBX Classes
 90
     1153
 91
        4
280
     0
281
     0
  0
CLASS
  1
SCALE
  2
AcDbScale
  3
ObjectDBX Classes
 90
     1153
 91
        4
280
     0
281
     0
  0
CLASS
  1
TABLESTYLE
  2
AcDbTableStyle
  3
ObjectDBX Classes
 90
     4095
 91
        4
280
     0
281
     0
  0
CLASS
  1
MLEADERSTYLE
  2
AcDbMLeaderStyle
  3
ACDB_MLEADERSTYLE_CLASS
 90
     4095
 91
        4
280
     0
281
     0
  0
CLASS
  1
SUN
  2
AcDbSun
  3
SCENEOE
 90
     1153
 91
        4
280
     0
281
     0
  0
CLASS
  1
DICTIONARYVAR
  2
AcDbDictionaryVar
  3
ObjectDBX Classes
 90
        0
 91
        4
280
     0
281
     0
  0
CLASS
  1
CELLSTYLEMAP
  2
AcDbCellStyleMap
  3
ObjectDBX Classes
 90
     1152
 91
        4
280
     0
281
     0
  0
ENDSEC
  0
SECTION
  2
TABLES
  0
TABLE
  2
VPORT
  5
8
330
0
100
AcDbSymbolTable
 70
     1
  0
VPORT
  5
29
330
8
100
AcDbSymbolTableRecord
100
AcDbViewportTableRecord
  2
*Active
 70
     0
 10
0.0
 20
0.0
 11
1.0
 21
1.0
 12
4.821428571428571
 22
-4.645
 13
0.0
 23
0.0
 14
0.5
 24
0.5
 15
0.5
 25
0.5
 16
0.0
 26
0.0
 36
1.0
 17
0.0
 27
0.0
 37
0.0
 40
10.71
 41
1.35265306122449
 42
50.0
 43
0.0
 44
0.0
 50
0.0
 51
0.0
 71
     0
 72
   100
 73
     1
 74
     3
 75
     0
 76
     0
 77
     0
 78
     0
281
     0
 65
     1
110
0.0
120
0.0
130
0.0
111
1.0
121
0.0
131
0.0
112
0.0
122
1.0
132
0.0
 79
     0
146
0.0
348
2F
 60
     3
 61
     5
292
     1
282
     1
141
0.0
142
0.0
 63
   250
361
6D
  0
ENDTAB
  0
TABLE
  2
LTYPE
  5
5
330
0
100
AcDbSymbolTable
 70
     3
  0
LTYPE
  5
14
330
5
100
AcDbSymbolTableRecord
100
AcDbLinetypeTableRecord
  2
ByBlock
 70
     0
  3

 72
    65
 73
     0
 40
0.0
  0
LTYPE
  5
15
330
5
100
AcDbSymbolTableRecord
100
AcDbLinetypeTableRecord
  2
ByLayer
 70
     0
  3

 72
    65
 73
     0
 40
0.0
  0
LTYPE
  5
16
330
5
100
AcDbSymbolTableRecord
100
AcDbLinetypeTableRecord
  2
Continuous
 70
     0
  3
Solid line
 72
    65
 73
     0
 40
0.0
  0
LTYPE
  5
96
330
5
100
AcDbSymbolTableRecord
100
AcDbLinetypeTableRecord
  2
Dashed
 70
     0
  3

 72
    65
 73
     2
 40
2.0
 49
1.0
 74
     0
 49
-1.0
 74
     0
  0
LTYPE
  5
15D
330
5
100
AcDbSymbolTableRecord
100
AcDbLinetypeTableRecord
  2
Center
 70
     0
  3

 72
    65
 73
     4
 40
1.5
 49
0.45
 74
     0
 49
-0.5
 74
     0
 49
0.05
 74
     0
 49
-0.5
 74
     0
  0
ENDTAB
  0
TABLE
  2
LAYER
  5
2
330
0
100
AcDbSymbolTable
 70
     7
  0
LAYER
  5
10
330
2
100
AcDbSymbolTableRecord
100
AcDbLayerTableRecord
  2
0
 70
     0
 62
     7
  6
Continuous
370
    -3
390
F
347
46
348
0
  0
LAYER
  5
6E
330
2
100
AcDbSymbolTableRecord
100
AcDbLayerTableRecord
  2
AM_6
 70
     0
 62
    -2
  6
Continuous
370
    35
390
F
347
46
348
0
  0
LAYER
  5
97
330
2
100
AcDbSymbolTableRecord
100
AcDbLayerTableRecord
  2
AM_9
 70
     0
 62
     6
  6
Dashed
370
    25
390
F
347
46
348
0
  0
LAYER
  5
B8
330
2
100
AcDbSymbolTableRecord
100
AcDbLayerTableRecord
  2
AM_0
 70
     0
 62
     7
  6
Continuous
370
    50
390
F
347
46
348
0
  0
LAYER
  5
CE
330
2
100
AcDbSymbolTableRecord
100
AcDbLayerTableRecord
  2
AM_4
 70
     0
 62
     3
  6
Continuous
370
    25
390
F
347
46
348
0
  0
LAYER
  5
15E
330
2
100
AcDbSymbolTableRecord
100
AcDbLayerTableRecord
  2
AM_7
 70
     0
 62
     7
  6
Center
370
    25
390
F
347
46
348
0
  0
LAYER
  5
177
330
2
100
AcDbSymbolTableRecord
100
AcDbLayerTableRecord
  2
ConnectionPoints
 70
     0
 62
     7
  6
Continuous
370
    50
390
F
347
46
348
0
  0
ENDTAB
  0
TABLE
  2
STYLE
  5
3
330
0
100
AcDbSymbolTable
 70
     1
  0
STYLE
  5
11
330
3
100
AcDbSymbolTableRecord
100
AcDbTextStyleTableRecord
  2
Standard
 70
     0
 40
0.0
 41
1.0
 50
0.0
 71
     0
 42
0.2
  3
txt
  4

  0
ENDTAB
  0
TABLE
  2
VIEW
  5
6
330
0
100
AcDbSymbolTable
 70
     0
  0
ENDTAB
  0
TABLE
  2
UCS
  5
7
330
0
100
AcDbSymbolTable
 70
     0
  0
ENDTAB
  0
TABLE
  2
APPID
  5
9
330
0
100
AcDbSymbolTable
 70
     1
  0
APPID
  5
12
330
9
100
AcDbSymbolTableRecord
100
AcDbRegAppTableRecord
  2
ACAD
 70
     0
  0
ENDTAB
  0
TABLE
  2
DIMSTYLE
  5
A
330
0
100
AcDbSymbolTable
 70
     1
100
AcDbDimStyleTable
  0
DIMSTYLE
105
27
330
A
100
AcDbSymbolTableRecord
100
AcDbDimStyleTableRecord
  2
Standard
 70
     0
178
     0
340
11
  0
ENDTAB
  0
TABLE
  2
BLOCK_RECORD
  5
1
330
0
100
AcDbSymbolTable
 70
     4
  0
BLOCK_RECORD
  5
1F
330
1
100
AcDbSymbolTableRecord
100
AcDbBlockTableRecord
  2
*Model_Space
340
22
 70
     0
280
     1
281
     0
  0
BLOCK_RECORD
  5
1B
330
1
100
AcDbSymbolTableRecord
100
AcDbBlockTableRecord
  2
*Paper_Space
340
1E
 70
     0
280
     1
281
     0
  0
BLOCK_RECORD
  5
23
330
1
100
AcDbSymbolTableRecord
100
AcDbBlockTableRecord
  2
*Paper_Space0
340
26
 70
     0
280
     1
281
     0
  0
BLOCK_RECORD
  5
84
330
1
100
AcDbSymbolTableRecord
100
AcDbBlockTableRecord
  2
1_405020c_Inch_0_in_128772_4
340
0
102
{BLKREFS
331
85
102
}
 70
     0
280
     1
281
     0
  0
BLOCK_RECORD
  5
DE
330
1
100
AcDbSymbolTableRecord
100
AcDbBlockTableRecord
  2
2_128660_0_in_128772_4
340
0
102
{BLKREFS
331
DF
102
}
 70
     0
280
     1
281
     0
  0
BLOCK_RECORD
  5
11D
330
1
100
AcDbSymbolTableRecord
100
AcDbBlockTableRecord
  2
3_128772i_0_in_128772_4
340
0
102
{BLKREFS
331
11E
102
}
 70
     0
280
     1
281
     0
  0
ENDTAB
  0
ENDSEC
  0
SECTION
  2
BLOCKS
  0
BLOCK
  5
20
330
1F
100
AcDbEntity
  8
0
100
AcDbBlockBegin
  2
*Model_Space
 70
     0
 10
0.0
 20
0.0
 30
0.0
  3
*Model_Space
  1

  0
ENDBLK
  5
21
330
1F
100
AcDbEntity
  8
0
100
AcDbBlockEnd
  0
BLOCK
  5
1C
330
1B
100
AcDbEntity
 67
     1
  8
0
100
AcDbBlockBegin
  2
*Paper_Space
 70
     0
 10
0.0
 20
0.0
 30
0.0
  3
*Paper_Space
  1

  0
ENDBLK
  5
1D
330
1B
100
AcDbEntity
 67
     1
  8
0
100
AcDbBlockEnd
  0
BLOCK
  5
24
330
23
100
AcDbEntity
  8
0
100
AcDbBlockBegin
  2
*Paper_Space0
 70
     0
 10
0.0
 20
0.0
 30
0.0
  3
*Paper_Space0
  1

  0
ENDBLK
  5
25
330
23
100
AcDbEntity
  8
0
100
AcDbBlockEnd
  0
BLOCK
  5
86
330
84
100
AcDbEntity
  8
0
100
AcDbBlockBegin
  2
1_405020c_Inch_0_in_128772_4
 70
     2
 10
0.0
 20
0.0
 30
0.0
  3
1_405020c_Inch_0_in_128772_4
  1

  0
ATTDEF
  5
88
330
84
100
AcDbEntity
  8
AM_6
100
AcDbText
 10
7.073173155635255
 20
-0.7825913692769582
 30
0.0
 40
0.5
  1
405020C -Inch
100
AcDbAttributeDefinition
  3

  2
NN
 70
     8
280
     0
  0
ATTDEF
  5
89
330
84
100
AcDbEntity
  8
AM_6
100
AcDbText
 10
7.073173155635255
 20
-1.282591369276958
 30
0.0
 40
0.5
  1
Grease fitting
100
AcDbAttributeDefinition
  3

  2
NT
 70
     8
280
     0
  0
ATTDEF
  5
8A
330
84
100
AcDbEntity
  8
AM_6
100
AcDbText
 10
7.073173155635255
 20
-1.782591369276958
 30
0.0
 40
0.5
  1
405020c-Inch
100
AcDbAttributeDefinition
  3

  2
NB
 70
     8
280
     0
  0
ATTDEF
  5
8B
330
84
100
AcDbEntity
  8
AM_6
100
AcDbText
 10
7.073173155635255
 20
-2.282591369276958
 30
0.0
 40
0.5
  1
$MN.-Inch
100
AcDbAttributeDefinition
  3

  2
NBSYN
 70
     8
280
     0
  0
ATTDEF
  5
8C
330
84
100
AcDbEntity
  8
AM_6
100
AcDbText
 10
7.073173155635255
 20
-2.782591369276958
 30
0.0
 40
0.5
  1
405020c
100
AcDbAttributeDefinition
  3

  2
LINA
 70
     8
280
     0
  0
ATTDEF
  5
8D
330
84
100
AcDbEntity
  8
AM_6
100
AcDbText
 10
7.073173155635255
 20
-3.282591369276958
 30
0.0
 40
0.5
  1
405020c
100
AcDbAttributeDefinition
  3

  2
MN
 70
     8
280
     0
  0
ATTDEF
  5
8E
330
84
100
AcDbEntity
  8
AM_6
100
AcDbText
 10
7.073173155635255
 20
-3.782591369276958
 30
0.0
 40
0.5
  1
0.230
100
AcDbAttributeDefinition
  3

  2
NDR
 70
     8
280
     0
  0
ATTDEF
  5
8F
330
84
100
AcDbEntity
  8
AM_6
100
AcDbText
 10
7.073173155635255
 20
-4.282591369276958
 30
0.0
 40
0.5
  1
0.210
100
AcDbAttributeDefinition
  3

  2
KDR
 70
     8
280
     0
  0
ATTDEF
  5
90
330
84
100
AcDbEntity
  8
AM_6
100
AcDbText
 10
7.073173155635255
 20
-4.782591369276958
 30
0.0
 40
0.5
  1
0.157
100
AcDbAttributeDefinition
  3

  2
BZE
 70
     8
280
     0
  0
ATTDEF
  5
91
330
84
100
AcDbEntity
  8
AM_6
100
AcDbText
 10
7.073173155635255
 20
-5.282591369276958
 30
0.0
 40
0.5
  1
9/32
100
AcDbAttributeDefinition
  3

  2
WAF
 70
     8
280
     0
  0
ATTDEF
  5
92
330
84
100
AcDbEntity
  8
AM_6
100
AcDbText
 10
7.073173155635255
 20
-5.782591369276958
 30
0.0
 40
0.5
  1
0.2813
100
AcDbAttributeDefinition
  3

  2
WAF1
 70
     8
280
     0
  0
ATTDEF
  5
93
330
84
100
AcDbEntity
  8
AM_6
100
AcDbText
 10
7.073173155635255
 20
-6.282591369276958
 30
0.0
 40
0.5
  1
0.545
100
AcDbAttributeDefinition
  3

  2
BL
 70
     8
280
     0
  0
ATTDEF
  5
94
330
84
100
AcDbEntity
  8
AM_6
100
AcDbText
 10
7.073173155635255
 20
-6.782591369276958
 30
0.0
 40
0.5
  1
0.200
100
AcDbAttributeDefinition
  3

  2
TL
 70
     8
280
     0
  0
ATTDEF
  5
95
330
84
100
AcDbEntity
  8
AM_6
100
AcDbText
 10
7.073173155635255
 20
-7.282591369276958
 30
0.0
 40
0.5
  1
baldor
100
AcDbAttributeDefinition
  3

  2
COMPANY
 70
     8
280
     0
  0
ELLIPSE
  5
98
330
84
100
AcDbEntity
  8
AM_9
 48
0.0012572448109571
100
AcDbEllipse
 10
1.623413600817735
 20
-0.9449999999999998
 30
0.0
 11
-1.838598171376523E-17
 21
-0.1000886227036577
 31
0.0
210
0.0
220
0.0
230
1.0
 40
0.7071067811865474
 41
0.0
 42
6.283185307179586
  0
LINE
  5
99
330
84
100
AcDbEntity
  8
AM_9
 48
0.0012572448109571
100
AcDbLine
 10
1.907307398627391
 20
-0.863795684638479
 30
0.0
 11
1.868412105109577
 21
-0.863795684638479
 31
0.0
  0
LINE
  5
9A
330
84
100
AcDbEntity
  8
AM_9
 48
0.0012572448109571
100
AcDbLine
 10
1.907307398627391
 20
-1.026204315361521
 30
0.0
 11
1.868412105109577
 21
-1.026204315361521
 31
0.0
  0
LWPOLYLINE
  5
9B
330
84
100
AcDbEntity
  8
AM_9
 48
0.0012572448109571
100
AcDbPolyline
 90
        3
 70
     0
 43
0.0
 10
1.864289525828933
 20
-0.9449999999999998
 10
1.865377675103846
 20
-0.9856021576807603
 10
1.868412105109577
 20
-1.026204315361521
  0
LWPOLYLINE
  5
9C
330
84
100
AcDbEntity
  8
AM_9
 48
0.0012572448109571
100
AcDbPolyline
 90
        4
 70
     0
 43
0.0
 10
1.868412105109577
 20
-0.863795684638479
 10
1.86678688445299
 20
-0.8826982481560967
 10
1.864939068271965
 20
-0.9137571743791795
 10
1.864289525828933
 20
-0.9449999999999998
  0
LWPOLYLINE
  5
9D
330
84
100
AcDbEntity
  8
AM_9
 48
0.0012572448109571
100
AcDbPolyline
 90
        3
 70
     0
 43
0.0
 10
1.814562241441989
 20
-0.8231935269577185
 10
1.840514032910374
 20
-0.8434946057980988
 10
1.868412105109577
 20
-0.863795684638479
  0
LWPOLYLINE
  5
9E
330
84
100
AcDbEntity
  8
AM_9
 48
0.0012572448109571
100
AcDbPolyline
 90
        3
 70
     0
 43
0.0
 10
1.868412105109577
 20
-1.026204315361521
 10
1.840635439723729
 20
-1.046414115084908
 10
1.814562241441989
 20
-1.066806473042281
  0
LWPOLYLINE
  5
9F
330
84
100
AcDbEntity
  8
AM_9
 48
0.0012572448109571
100
AcDbPolyline
 90
        3
 70
     0
 43
0.0
 10
1.873666256002587
 20
-1.056819974333028
 10
1.88547818643965
 20
-1.046505394201901
 10
1.907307398627391
 20
-1.026204315361521
  0
LWPOLYLINE
  5
A0
330
84
100
AcDbEntity
  8
AM_9
 48
0.0012572448109571
100
AcDbPolyline
 90
        3
 70
     0
 43
0.0
 10
1.907307398627391
 20
-1.026204315361521
 10
1.91033221545017
 20
-0.9857847159147454
 10
1.911429977908036
 20
-0.9449999999999998
  0
LWPOLYLINE
  5
A1
330
84
100
AcDbEntity
  8
AM_9
 48
0.0012572448109571
100
AcDbPolyline
 90
        3
 70
     0
 43
0.0
 10
1.907307398627391
 20
-0.863795684638479
 10
1.885580366887099
 20
-0.8435858849150913
 10
1.873667405973574
 20
-0.8331810073183181
  0
LWPOLYLINE
  5
A2
330
84
100
AcDbEntity
  8
AM_9
 48
0.0012572448109571
100
AcDbPolyline
 90
        4
 70
     0
 43
0.0
 10
1.911429977908036
 20
-0.9449999999999998
 10
1.910784207972954
 20
-0.9138491240780483
 10
1.908932619283978
 20
-0.8826982481560967
 10
1.907307398627391
 20
-0.863795684638479
  0
LWPOLYLINE
  5
A3
330
84
100
AcDbEntity
  8
AM_9
 48
0.0012572448109571
100
AcDbPolyline
 90
        3
 70
     0
 43
0.0
 10
1.814562241441989
 20
-1.066806473042281
 10
1.79078674852343
 20
-1.087107551882661
 10
1.76895753633569
 20
-1.107408630723042
  0
LWPOLYLINE
  5
A4
330
84
100
AcDbEntity
  8
AM_9
 48
0.0012572448109571
100
AcDbPolyline
 90
        3
 70
     0
 43
0.0
 10
1.76895753633569
 20
-0.7825913692769582
 10
1.790684568075982
 20
-0.8028011690003458
 10
1.814562241441989
 20
-0.8231935269577185
  0
LINE
  5
A5
330
84
100
AcDbEntity
  8
AM_9
 48
0.0012572448109571
100
AcDbLine
 10
1.628276343280021
 20
-1.055362326844218
 30
0.0
 11
1.762263969138229
 21
-1.061286989091894
 31
0.0
  0
LINE
  5
A6
330
84
100
AcDbEntity
  8
AM_9
 48
0.0012572448109571
100
AcDbLine
 10
1.762263969138229
 20
-0.8287130109081056
 30
0.0
 11
1.628276343280021
 21
-0.8346376731557813
 31
0.0
  0
ELLIPSE
  5
A7
330
84
100
AcDbEntity
  8
AM_9
 48
0.0012572448109571
100
AcDbEllipse
 10
1.811975409134146
 20
-0.9449999999999987
 30
0.0
 11
-8.970743081834746E-16
 21
0.1406500000000023
 31
0.0
210
0.0
220
0.0
230
1.0
 40
0.7071067811865536
 41
3.798906696793619
 42
5.625871263975733
  0
ELLIPSE
  5
A8
330
84
100
AcDbEntity
  8
AM_9
 48
0.0012572448109571
100
AcDbEllipse
 10
1.834122382019683
 20
-0.944999999999998
 30
0.0
 11
-2.663667114586856E-15
 21
0.1093294505797689
 31
0.0
210
0.0
220
0.0
230
1.0
 40
0.7071067811865361
 41
5.435374385396559
 42
5.928986666165865
  0
ELLIPSE
  5
A9
330
84
100
AcDbEntity
  8
AM_9
 48
0.0012572448109571
100
AcDbEllipse
 10
1.834122382019682
 20
-0.9449999999999996
 30
0.0
 11
3.963684887772197E-15
 21
0.1093294505797715
 31
0.0
210
0.0
220
0.0
230
1.0
 40
0.7071067811865338
 41
3.49579129460353
 42
4.09169996595273
  0
ELLIPSE
  5
AA
330
84
100
AcDbEntity
  8
AM_9
 48
0.0012572448109571
100
AcDbEllipse
 10
1.834122382019584
 20
-0.9450000000003285
 30
0.0
 11
-4.793960430168978E-13
 21
0.1093294505789383
 31
0.0
210
0.0
220
0.0
230
1.0
 40
0.7071067811919513
 41
4.307132534106554
 42
5.271488018135616
  0
LWPOLYLINE
  5
AB
330
84
100
AcDbEntity
  8
AM_9
 48
0.0012572448109571
100
AcDbPolyline
 90
       12
 70
     0
 43
0.0
 10
1.85912238201968
 20
-0.8503152103609011
 10
1.860826960972999
 20
-0.8503801765186842
 10
1.865601402452027
 20
-0.8512439661034772
 10
1.870191562653843
 20
-0.8529840095514987
 10
1.874887774121993
 20
-0.8556480385164639
 10
1.879705214809347
 20
-0.8593113580721486
 10
1.885014986504441
 20
-0.8645132271537357
 10
1.890162731598394
 20
-0.8708921096471501
 10
1.895022940681033
 20
-0.8784149376219068
 10
1.89946363809642
 20
-0.8870146707798131
 10
1.903351560241589
 20
-0.8965760001157573
 10
1.90574855449374
 20
-0.9039958988449963
  0
LWPOLYLINE
  5
AC
330
84
100
AcDbEntity
  8
AM_9
 48
0.0012572448109571
100
AcDbPolyline
 90
        4
 70
     0
 43
0.0
 10
1.851519059992644
 20
-1.038410356283627
 10
1.849787534081261
 20
-1.037775183679869
 10
1.845139766865614
 20
-1.035467563361627
 10
1.841268143656319
 20
-1.032881254325602
  0
LWPOLYLINE
  5
AD
330
84
100
AcDbEntity
  8
AM_9
 48
0.0012572448109571
100
AcDbPolyline
 90
       14
 70
     0
 43
0.0
 10
1.906014180152307
 20
-0.9850764088240282
 10
1.905405428662838
 20
-0.9871663794843278
 10
1.901913102734002
 20
-0.9972479545879226
 10
1.897810202976691
 20
-1.006421547490253
 10
1.89323299515002
 20
-1.014551673122396
 10
1.888335047091241
 20
-1.021539531616258
 10
1.88328524849257
 20
-1.027323705769946
 10
1.878250146843859
 20
-1.031896711179909
 10
1.873368304922717
 20
-1.035310835064695
 10
1.868718447174663
 20
-1.037668663499834
 10
1.864261189398072
 20
-1.039098247733477
 10
1.859722575177959
 20
-1.039676728917403
 10
1.854375342114015
 20
-1.039183757254664
 10
1.851519059992644
 20
-1.038410356283627
  0
LWPOLYLINE
  5
AE
330
84
100
AcDbEntity
  8
AM_9
 48
0.0012572448109571
100
AcDbPolyline
 90
        4
 70
     0
 43
0.0
 10
1.850002590835505
 20
-0.852139214113948
 10
1.85248601936327
 20
-0.8512891456285523
 10
1.856943654961102
 20
-0.8504212863311621
 10
1.85912238201968
 20
-0.8503152103609011
  0
LWPOLYLINE
  5
AF
330
84
100
AcDbEntity
  8
AM_9
 48
0.0012572448109571
100
AcDbPolyline
 90
        4
 70
     0
 43
0.0
 10
1.841379683972632
 20
-0.8570357092219358
 10
1.843247528909196
 20
-0.8557207073966118
 10
1.847979033602902
 20
-0.8530191936658824
 10
1.850002590835505
 20
-0.852139214113948
  0
ELLIPSE
  5
B0
330
84
100
AcDbEntity
  8
AM_9
 48
0.0012572448109571
100
AcDbEllipse
 10
1.874064193956186
 20
-0.9449999999999996
 30
0.0
 11
2.267290131839832E-16
 21
0.09936940028726637
 31
0.0
210
0.0
220
0.0
230
1.0
 40
0.7071067811865466
 41
2.656480407116017
 42
6.28318530717959
  0
ELLIPSE
  5
B1
330
84
100
AcDbEntity
  8
AM_9
 48
0.0012572448109571
100
AcDbEllipse
 10
1.922395522658918
 20
-0.9450000000020455
 30
0.0
 11
-1.763930490925247E-12
 21
0.1312419113445877
 31
0.0
210
0.0
220
0.0
230
1.0
 40
0.707106781183032
 41
2.65457995148954
 42
6.768297553614591
  0
ELLIPSE
  5
B2
330
84
100
AcDbEntity
  8
AM_9
 48
0.0012572448109571
100
AcDbEllipse
 10
1.998016342799109
 20
-0.9450000000000139
 30
0.0
 11
-3.952861211628541E-14
 21
0.1038190510530227
 31
0.0
210
0.0
220
0.0
230
1.0
 40
0.7071067811866665
 41
3.595743639497734
 42
3.733944287048331
  0
ELLIPSE
  5
B3
330
84
100
AcDbEntity
  8
AM_9
 48
0.0012572448109571
100
AcDbEllipse
 10
1.998016342799399
 20
-0.944999999999783
 30
0.0
 11
-3.421382568296051E-13
 21
0.1038190510527933
 31
0.0
210
0.0
220
0.0
230
1.0
 40
0.7071067811857221
 41
-0.499958585363256
 42
-0.4517786826489045
  0
ELLIPSE
  5
B4
330
84
100
AcDbEntity
  8
AM_9
 48
0.0012572448109571
100
AcDbEllipse
 10
1.951151766125939
 20
-0.9449999999999998
 30
0.0
 11
8.079715312105963E-18
 21
0.1319517646676801
 31
0.0
210
0.0
220
0.0
230
1.0
 40
0.7071067811865482
 41
3.5799744285438
 42
5.844803532225579
  0
ELLIPSE
  5
B5
330
84
100
AcDbEntity
  8
AM_9
 48
0.0012572448109571
100
AcDbEllipse
 10
1.764834957055046
 20
-0.944999999999999
 30
0.0
 11
8.612328615003887E-18
 21
0.1406500000000021
 31
0.0
210
0.0
220
0.0
230
1.0
 40
0.7071067811865468
 41
0.0
 42
6.283185307179586
  0
ELLIPSE
  5
B6
330
84
100
AcDbEntity
  8
AM_9
 48
0.0012572448109571
100
AcDbEllipse
 10
1.764834957055045
 20
-0.9449999999999998
 30
0.0
 11
7.124004163867288E-18
 21
0.1163438171532771
 31
0.0
210
0.0
220
0.0
230
1.0
 40
0.7071067811865471
 41
0.0
 42
6.283185307179586
  0
ELLIPSE
  5
B7
330
84
100
AcDbEntity
  8
AM_9
 48
0.0012572448109571
100
AcDbEllipse
 10
1.630716342896521
 20
-0.945
 30
0.0
 11
6.761045944280102E-18
 21
0.1104162595939892
 31
0.0
210
0.0
220
0.0
230
1.0
 40
0.707106781186549
 41
0.0
 42
6.283185307179586
  0
LINE
  5
B9
330
84
100
AcDbEntity
  8
AM_0
 48
0.0012572448109571
100
AcDbLine
 10
1.861702693521092
 20
-1.066806473042281
 30
0.0
 11
1.873666256002587
 21
-1.056819974333028
 31
0.0
  0
LINE
  5
BA
330
84
100
AcDbEntity
  8
AM_0
 48
0.0012572448109571
100
AcDbLine
 10
1.873667405973574
 20
-0.8331810073183181
 30
0.0
 11
1.861702693521092
 21
-0.8231935269577185
 31
0.0
  0
LWPOLYLINE
  5
BB
330
84
100
AcDbEntity
  8
AM_0
 48
0.0012572448109571
100
AcDbPolyline
 90
        3
 70
     0
 43
0.0
 10
1.861702693521092
 20
-0.8231935269577185
 10
1.835750902052707
 20
-0.8028924481173384
 10
1.807852829853503
 20
-0.7825913692769582
  0
LWPOLYLINE
  5
BC
330
84
100
AcDbEntity
  8
AM_0
 48
0.0012572448109571
100
AcDbPolyline
 90
        3
 70
     0
 43
0.0
 10
1.807852829853503
 20
-1.107408630723042
 10
1.835629495239352
 20
-1.087198830999654
 10
1.861702693521092
 20
-1.066806473042281
  0
LWPOLYLINE
  5
BD
330
84
100
AcDbEntity
  8
AM_0
 48
0.0012572448109571
100
AcDbPolyline
 90
        3
 70
     0
 43
0.0
 10
1.715107672668101
 20
-1.066806473042281
 10
1.691332179749542
 20
-1.046505394201901
 10
1.669502967561802
 20
-1.026204315361521
  0
LWPOLYLINE
  5
BE
330
84
100
AcDbEntity
  8
AM_0
 48
0.0012572448109571
100
AcDbPolyline
 90
        3
 70
     0
 43
0.0
 10
1.76895753633569
 20
-1.107408630723042
 10
1.741180870949841
 20
-1.087198830999654
 10
1.715107672668101
 20
-1.066806473042281
  0
LINE
  5
BF
330
84
100
AcDbEntity
  8
AM_0
 48
0.0012572448109571
100
AcDbLine
 10
1.807852829853503
 20
-1.107408630723042
 30
0.0
 11
1.76895753633569
 21
-1.107408630723042
 31
0.0
  0
LWPOLYLINE
  5
C0
330
84
100
AcDbEntity
  8
AM_0
 48
0.0012572448109571
100
AcDbPolyline
 90
        3
 70
     0
 43
0.0
 10
1.762248124747204
 20
-1.066806473042281
 10
1.786023617665762
 20
-1.087107551882661
 10
1.807852829853503
 20
-1.107408630723042
  0
LWPOLYLINE
  5
C1
330
84
100
AcDbEntity
  8
AM_0
 48
0.0012572448109571
100
AcDbPolyline
 90
        4
 70
     0
 43
0.0
 10
1.665380388281157
 20
-0.9449999999999998
 10
1.666026158216239
 20
-0.9138491240780483
 10
1.667877746905215
 20
-0.8826982481560967
 10
1.669502967561802
 20
-0.863795684638479
  0
LWPOLYLINE
  5
C2
330
84
100
AcDbEntity
  8
AM_0
 48
0.0012572448109571
100
AcDbPolyline
 90
        3
 70
     0
 43
0.0
 10
1.669502967561802
 20
-1.026204315361521
 10
1.666478150739023
 20
-0.9857847159147454
 10
1.665380388281157
 20
-0.9449999999999998
  0
LINE
  5
C3
330
84
100
AcDbEntity
  8
AM_0
 48
0.0012572448109571
100
AcDbLine
 10
1.708398261079616
 20
-1.026204315361521
 30
0.0
 11
1.669502967561802
 21
-1.026204315361521
 31
0.0
  0
LWPOLYLINE
  5
C4
330
84
100
AcDbEntity
  8
AM_0
 48
0.0012572448109571
100
AcDbPolyline
 90
        4
 70
     0
 43
0.0
 10
1.708398261079616
 20
-0.863795684638479
 10
1.710023481736202
 20
-0.8826982481560967
 10
1.711871297917228
 20
-0.9137571743791795
 10
1.71252084036026
 20
-0.9449999999999998
  0
LWPOLYLINE
  5
C5
330
84
100
AcDbEntity
  8
AM_0
 48
0.0012572448109571
100
AcDbPolyline
 90
        3
 70
     0
 43
0.0
 10
1.71252084036026
 20
-0.9449999999999998
 10
1.711432691085347
 20
-0.9856021576807603
 10
1.708398261079616
 20
-1.026204315361521
  0
LWPOLYLINE
  5
C6
330
84
100
AcDbEntity
  8
AM_0
 48
0.0012572448109571
100
AcDbPolyline
 90
        3
 70
     0
 43
0.0
 10
1.708398261079616
 20
-1.026204315361521
 10
1.736174926465464
 20
-1.046414115084908
 10
1.762248124747204
 20
-1.066806473042281
  0
LINE
  5
C7
330
84
100
AcDbEntity
  8
AM_0
 48
0.0012572448109571
100
AcDbLine
 10
1.807852829853503
 20
-0.7825913692769582
 30
0.0
 11
1.76895753633569
 21
-0.7825913692769582
 31
0.0
  0
LWPOLYLINE
  5
C8
330
84
100
AcDbEntity
  8
AM_0
 48
0.0012572448109571
100
AcDbPolyline
 90
        3
 70
     0
 43
0.0
 10
1.715107672668101
 20
-0.8231935269577185
 10
1.741059464136486
 20
-0.8028924481173384
 10
1.76895753633569
 20
-0.7825913692769582
  0
LWPOLYLINE
  5
C9
330
84
100
AcDbEntity
  8
AM_0
 48
0.0012572448109571
100
AcDbPolyline
 90
        3
 70
     0
 43
0.0
 10
1.669502967561802
 20
-0.863795684638479
 10
1.691229999302093
 20
-0.8435858849150913
 10
1.715107672668101
 20
-0.8231935269577185
  0
LINE
  5
CA
330
84
100
AcDbEntity
  8
AM_0
 48
0.0012572448109571
100
AcDbLine
 10
1.708398261079616
 20
-0.863795684638479
 30
0.0
 11
1.669502967561802
 21
-0.863795684638479
 31
0.0
  0
LWPOLYLINE
  5
CB
330
84
100
AcDbEntity
  8
AM_0
 48
0.0012572448109571
100
AcDbPolyline
 90
        3
 70
     0
 43
0.0
 10
1.762248124747204
 20
-0.8231935269577185
 10
1.736296333278819
 20
-0.8434946057980988
 10
1.708398261079616
 20
-0.863795684638479
  0
LWPOLYLINE
  5
CC
330
84
100
AcDbEntity
  8
AM_0
 48
0.0012572448109571
100
AcDbPolyline
 90
        3
 70
     0
 43
0.0
 10
1.807852829853503
 20
-0.7825913692769582
 10
1.786125798113211
 20
-0.8028011690003458
 10
1.762248124747204
 20
-0.8231935269577185
  0
ELLIPSE
  5
CD
330
84
100
AcDbEntity
  8
AM_0
 48
0.0012572448109571
100
AcDbEllipse
 10
1.811975409134149
 20
-0.9449999999999998
 30
0.0
 11
-8.970743081834598E-16
 21
0.1406499999999999
 31
0.0
210
0.0
220
0.0
230
1.0
 40
0.7071067811865526
 41
5.625871263975761
 42
10.08209200397319
  0
ELLIPSE
  5
CF
330
84
100
AcDbEntity
  8
AM_4
 48
0.0012572448109571
100
AcDbEllipse
 10
1.834122382019688
 20
-0.9449999999999954
 30
0.0
 11
-1.402484197577337E-14
 21
0.1093294505797668
 31
0.0
210
0.0
220
0.0
230
1.0
 40
0.7071067811865356
 41
5.928986666165778
 42
9.77897660178282
  0
LINE
  5
D0
330
84
100
AcDbEntity
  8
AM_0
 48
0.0012572448109571
100
AcDbLine
 10
1.841299190442525
 20
-1.032904418563292
 30
0.0
 11
1.879121218156566
 21
-1.061099562589007
 31
0.0
  0
LINE
  5
D1
330
84
100
AcDbEntity
  8
AM_0
 48
0.0012572448109571
100
AcDbLine
 10
1.879121218156566
 20
-0.8289004374109928
 30
0.0
 11
1.841299190442525
 21
-0.8570955814367075
 31
0.0
  0
ELLIPSE
  5
D2
330
84
100
AcDbEntity
  8
AM_4
 48
0.0012572448109571
100
AcDbEllipse
 10
1.874064193956186
 20
-0.9449999999999997
 30
0.0
 11
-2.145597713844839E-16
 21
0.09936940028726637
 31
0.0
210
0.0
220
0.0
230
1.0
 40
0.7071067811865488
 41
0.4851122464737783
 42
2.656480407116012
  0
LWPOLYLINE
  5
D3
330
84
100
AcDbEntity
  8
AM_0
 48
0.0012572448109571
100
AcDbPolyline
 90
        7
 70
     0
 43
0.0
 10
1.937337334597168
 20
-0.8090734780049419
 10
1.928187655379212
 20
-0.8095245865539669
 10
1.916512962440487
 20
-0.8114287702835943
 10
1.90517552639889
 20
-0.8147704333518758
 10
1.89426772270088
 20
-0.8194957172660587
 10
1.88387190929459
 20
-0.8255560106892786
 10
1.878318637314127
 20
-0.8295045705597772
  0
LINE
  5
D4
330
84
100
AcDbEntity
  8
AM_0
 48
0.0012572448109571
100
AcDbLine
 10
1.989723352925766
 20
-1.065150916619398
 30
0.0
 11
2.029177529332259
 21
-1.03900189503009
 31
0.0
  0
LWPOLYLINE
  5
D5
330
84
100
AcDbEntity
  8
AM_0
 48
0.0012572448109571
100
AcDbPolyline
 90
       12
 70
     0
 43
0.0
 10
1.878914769103197
 20
-1.060945276796606
 10
1.884879552610645
 20
-1.065104504536792
 10
1.896086259314264
 20
-1.071402142402324
 10
1.907720486382175
 20
-1.07611334567682
 10
1.91960740261323
 20
-1.079223825479326
 10
1.931586150494983
 20
-1.080748492065734
 10
1.943511888261326
 20
-1.080721293106932
 10
1.955255871367531
 20
-1.079187142475188
 10
1.966687311492838
 20
-1.076201437801448
 10
1.977711094960205
 20
-1.071819039917318
 10
1.988243009396413
 20
-1.066089912109701
 10
1.989723352925766
 20
-1.065150916619398
  0
LWPOLYLINE
  5
D6
330
84
100
AcDbEntity
  8
AM_0
 48
0.0012572448109571
100
AcDbPolyline
 90
        6
 70
     0
 43
0.0
 10
1.990935727147647
 20
-0.8256444123997901
 10
1.981450722726758
 20
-0.8200319231075127
 10
1.969906977960448
 20
-0.8149194861693162
 10
1.958067805209511
 20
-0.8114073693954266
 10
1.946097858320143
 20
-0.8094869649664532
 10
1.937337334597168
 20
-0.8090734780049419
  0
ELLIPSE
  5
D7
330
84
100
AcDbEntity
  8
AM_4
 48
0.0012572448109571
100
AcDbEllipse
 10
1.922395522660661
 20
-0.9449999999999997
 30
0.0
 11
8.036249332247490E-18
 21
0.1312419113468902
 31
0.0
210
0.0
220
0.0
230
1.0
 40
0.7071067811865455
 41
0.4928730694860528
 42
2.654579951499219
  0
ELLIPSE
  5
D8
330
84
100
AcDbEntity
  8
AM_4
 48
0.0012572448109571
100
AcDbEllipse
 10
2.008786796564404
 20
-0.9449999999999998
 30
0.0
 11
-1.484390032546750E-17
 21
-0.08080642971672813
 31
0.0
210
0.0
220
0.0
230
1.0
 40
0.707106781186548
 41
0.0
 42
6.283185307179586
  0
LWPOLYLINE
  5
D9
330
84
100
AcDbEntity
  8
AM_0
 48
0.0012572448109571
100
AcDbPolyline
 90
       20
 70
     0
 43
0.0
 10
2.030397406052175
 20
-1.038176239171901
 10
2.035517553588256
 20
-1.034322750571767
 10
2.043407763692428
 20
-1.026979875521326
 10
2.050582198396518
 20
-1.018425224403967
 10
2.056927236089967
 20
-1.008765558302085
 10
2.06233582235265
 20
-0.9981436711296611
 10
2.066719215783671
 20
-0.9867288972462757
 10
2.070011950101514
 20
-0.9747046071087335
 10
2.072171234923792
 20
-0.9622569385162445
 10
2.073173155635255
 20
-0.9495618699445051
 10
2.073005652142653
 20
-0.9367918967427029
 10
2.071666047567945
 20
-0.9241174165503431
 10
2.069160423147059
 20
-0.9117096884909964
 10
2.065502378165699
 20
-0.899735912315546
 10
2.060713896410856
 20
-0.8883647780834735
 10
2.054829429036602
 20
-0.8777702820839763
 10
2.047909619388511
 20
-0.8681408005362303
 10
2.040046870478283
 20
-0.859662623092555
 10
2.031375612881685
 20
-0.8525106691732989
 10
2.030206113978922
 20
-0.8516920367954391
  0
ELLIPSE
  5
DA
330
84
100
AcDbEntity
  8
AM_0
 48
0.0012572448109571
100
AcDbEllipse
 10
1.998016342796898
 20
-0.9450000000039372
 30
0.0
 11
-6.444170569739338E-12
 21
0.103819051048667
 31
0.0
210
0.0
220
0.0
230
1.0
 40
0.7071067812013982
 41
3.579974428499423
 42
3.595743639454307
  0
ELLIPSE
  5
DB
330
84
100
AcDbEntity
  8
AM_4
 48
0.0012572448109571
100
AcDbEllipse
 10
1.951151766125939
 20
-0.9450000000000023
 30
0.0
 11
8.079715312106105E-18
 21
0.1319517646676824
 31
0.0
210
0.0
220
0.0
230
1.0
 40
0.7071067811865476
 41
5.844803532225584
 42
9.863159735723396
  0
ELLIPSE
  5
DC
330
84
100
AcDbEntity
  8
AM_4
 48
0.0012572448109571
100
AcDbEllipse
 10
1.998016342799126
 20
-0.9450000000000022
 30
0.0
 11
6.357083428131136E-18
 21
0.1038190510530413
 31
0.0
210
0.0
220
0.0
230
1.0
 40
0.707106781186548
 41
5.84480353222559
 42
9.863159735723396
  0
LINE
  5
DD
330
84
100
AcDbEntity
  8
AM_0
 48
0.0012572448109571
100
AcDbLine
 10
2.029177529332259
 20
-0.8509981049699095
 30
0.0
 11
1.990756959108151
 21
-0.8255256279505999
 31
0.0
  0
ENDBLK
  5
87
330
84
100
AcDbEntity
  8
0
100
AcDbBlockEnd
  0
BLOCK
  5
E0
330
DE
100
AcDbEntity
  8
0
100
AcDbBlockBegin
  2
2_128660_0_in_128772_4
 70
     2
 10
0.0
 20
0.0
 30
0.0
  3
2_128660_0_in_128772_4
  1

  0
ATTDEF
  5
E2
330
DE
100
AcDbEntity
  8
AM_6
100
AcDbText
 10
6.770932289101488
 20
-0.0900000000000004
 30
0.0
 40
0.5
  1
D-Lok Insert Inch Bore
100
AcDbAttributeDefinition
  3

  2
NN
 70
     8
280
     0
  0
ATTDEF
  5
E3
330
DE
100
AcDbEntity
  8
AM_6
100
AcDbText
 10
6.770932289101488
 20
-0.5900000000000004
 30
0.0
 40
0.5
  1
D-LOK
100
AcDbAttributeDefinition
  3

  2
NT
 70
     8
280
     0
  0
ATTDEF
  5
E4
330
DE
100
AcDbEntity
  8
AM_6
100
AcDbText
 10
6.770932289101488
 20
-1.09
 30
0.0
 40
0.5
  1
128660
100
AcDbAttributeDefinition
  3

  2
NB
 70
     8
280
     0
  0
ATTDEF
  5
E5
330
DE
100
AcDbEntity
  8
AM_6
100
AcDbText
 10
6.770932289101488
 20
-1.59
 30
0.0
 40
0.5
  1
$PN.
100
AcDbAttributeDefinition
  3

  2
NBSYN
 70
     8
280
     0
  0
ATTDEF
  5
E6
330
DE
100
AcDbEntity
  8
AM_6
100
AcDbText
 10
6.770932289101488
 20
-2.09
 30
0.0
 40
0.5
  1
128660
100
AcDbAttributeDefinition
  3

  2
LINA
 70
     8
280
     0
  0
ATTDEF
  5
E7
330
DE
100
AcDbEntity
  8
AM_6
100
AcDbText
 10
6.770932289101488
 20
-2.59
 30
0.0
 40
0.5
  1
210
100
AcDbAttributeDefinition
  3

  2
SERIES
 70
     8
280
     0
  0
ATTDEF
  5
E8
330
DE
100
AcDbEntity
  8
AM_6
100
AcDbText
 10
6.770932289101488
 20
-3.09
 30
0.0
 40
0.5
  1
2
100
AcDbAttributeDefinition
  3

  2
SS
 70
     8
280
     0
  0
ATTDEF
  5
E9
330
DE
100
AcDbEntity
  8
AM_6
100
AcDbText
 10
6.770932289101488
 20
-3.59
 30
0.0
 40
0.5
  1
128660
100
AcDbAttributeDefinition
  3

  2
PN
 70
     8
280
     0
  0
ATTDEF
  5
EA
330
DE
100
AcDbEntity
  8
AM_6
100
AcDbText
 10
6.770932289101488
 20
-4.09
 30
0.0
 40
0.5
  1
INS-DL-200
100
AcDbAttributeDefinition
  3

  2
DESCRIPTION
 70
     8
280
     0
  0
ATTDEF
  5
EB
330
DE
100
AcDbEntity
  8
AM_6
100
AcDbText
 10
6.770932289101488
 20
-4.59
 30
0.0
 40
0.5
  1
3.0
100
AcDbAttributeDefinition
  3

  2
WEIGHT
 70
     8
280
     0
  0
ATTDEF
  5
EC
330
DE
100
AcDbEntity
  8
AM_6
100
AcDbText
 10
6.770932289101488
 20
-5.09
 30
0.0
 40
0.5
  1
2.01
100
AcDbAttributeDefinition
  3

  2
A
 70
     8
280
     0
  0
ATTDEF
  5
ED
330
DE
100
AcDbEntity
  8
AM_6
100
AcDbText
 10
6.770932289101488
 20
-5.59
 30
0.0
 40
0.5
  1
0.87
100
AcDbAttributeDefinition
  3

  2
C
 70
     8
280
     0
  0
ATTDEF
  5
EE
330
DE
100
AcDbEntity
  8
AM_6
100
AcDbText
 10
6.770932289101488
 20
-6.09
 30
0.0
 40
0.5
  1
3.5433
100
AcDbAttributeDefinition
  3

  2
D
 70
     8
280
     0
  0
ATTDEF
  5
EF
330
DE
100
AcDbEntity
  8
AM_6
100
AcDbText
 10
6.770932289101488
 20
-6.59
 30
0.0
 40
0.5
  1
0.25
100
AcDbAttributeDefinition
  3

  2
J
 70
     8
280
     0
  0
ATTDEF
  5
F0
330
DE
100
AcDbEntity
  8
AM_6
100
AcDbText
 10
6.770932289101488
 20
-7.09
 30
0.0
 40
0.5
  1
3.24
100
AcDbAttributeDefinition
  3

  2
L
 70
     8
280
     0
  0
ATTDEF
  5
F1
330
DE
100
AcDbEntity
  8
AM_6
100
AcDbText
 10
6.770932289101488
 20
-7.59
 30
0.0
 40
0.5
  1
1/4-28
100
AcDbAttributeDefinition
  3

  2
N
 70
     8
280
     0
  0
ATTDEF
  5
F2
330
DE
100
AcDbEntity
  8
AM_6
100
AcDbText
 10
6.770932289101488
 20
-8.09
 30
0.0
 40
0.5
  1
0.75
100
AcDbAttributeDefinition
  3

  2
W
 70
     8
280
     0
  0
ATTDEF
  5
F3
330
DE
100
AcDbEntity
  8
AM_6
100
AcDbText
 10
6.770932289101488
 20
-8.59
 30
0.0
 40
0.5
  1
1.26
100
AcDbAttributeDefinition
  3

  2
Y
 70
     8
280
     0
  0
ATTDEF
  5
F4
330
DE
100
AcDbEntity
  8
AM_6
100
AcDbText
 10
6.770932289101488
 20
-9.09
 30
0.0
 40
0.5
  1
2.43
100
AcDbAttributeDefinition
  3

  2
Z
 70
     8
280
     0
  0
ATTDEF
  5
F5
330
DE
100
AcDbEntity
  8
AM_6
100
AcDbText
 10
6.770932289101488
 20
-9.59
 30
0.0
 40
0.5
  1
baldor
100
AcDbAttributeDefinition
  3

  2
COMPANY
 70
     8
280
     0
  0
LINE
  5
F6
330
DE
100
AcDbEntity
  8
AM_9
 48
0.0094717060494966
100
AcDbLine
 10
1.0
 20
-2.0352
 30
0.0
 11
1.0
 21
-0.1548000000000002
 31
0.0
  0
LINE
  5
F7
330
DE
100
AcDbEntity
  8
AM_9
 48
0.0094717060494966
100
AcDbLine
 10
-1.0
 20
-0.1548000000000002
 30
0.0
 11
-1.0
 21
-2.0352
 31
0.0
  0
LINE
  5
F8
330
DE
100
AcDbEntity
  8
AM_9
 48
0.0094717060494966
100
AcDbLine
 10
1.0
 20
-0.1548000000000002
 30
0.0
 11
1.0648
 21
-0.0900000000000004
 31
0.0
  0
LINE
  5
F9
330
DE
100
AcDbEntity
  8
AM_9
 48
0.0094717060494966
100
AcDbLine
 10
-1.0648
 20
-0.0900000000000004
 30
0.0
 11
-1.0
 21
-0.1548000000000002
 31
0.0
  0
LINE
  5
FA
330
DE
100
AcDbEntity
  8
AM_9
 48
0.0094717060494966
100
AcDbLine
 10
-0.9999999999999999
 20
-2.0352
 30
0.0
 11
-1.0648
 21
-2.1
 31
0.0
  0
LINE
  5
FB
330
DE
100
AcDbEntity
  8
AM_9
 48
0.0094717060494966
100
AcDbLine
 10
1.0648
 20
-2.1
 30
0.0
 11
0.9999999999999999
 21
-2.0352
 31
0.0
  0
LINE
  5
FC
330
DE
100
AcDbEntity
  8
AM_9
 48
0.0094717060494966
100
AcDbLine
 10
-1.1502
 20
-0.0900000000000004
 30
0.0
 11
1.1502
 21
-0.0900000000000004
 31
0.0
  0
LINE
  5
FD
330
DE
100
AcDbEntity
  8
AM_9
 48
0.0094717060494966
100
AcDbLine
 10
-1.1502
 20
-0.0900000000000004
 30
0.0
 11
-1.215
 21
-0.1548000000000004
 31
0.0
  0
LINE
  5
FE
330
DE
100
AcDbEntity
  8
AM_9
 48
0.0094717060494966
100
AcDbLine
 10
1.215
 20
-0.1548000000000004
 30
0.0
 11
1.1502
 21
-0.0900000000000004
 31
0.0
  0
LINE
  5
FF
330
DE
100
AcDbEntity
  8
AM_9
 48
0.0094717060494966
100
AcDbLine
 10
-1.215
 20
-0.1548000000000004
 30
0.0
 11
1.215
 21
-0.1548000000000004
 31
0.0
  0
LINE
  5
100
330
DE
100
AcDbEntity
  8
AM_9
 48
0.0094717060494966
100
AcDbLine
 10
1.215
 20
-0.4050000000000003
 30
0.0
 11
1.215
 21
-0.1548000000000004
 31
0.0
  0
LINE
  5
101
330
DE
100
AcDbEntity
  8
AM_9
 48
0.0094717060494966
100
AcDbLine
 10
-1.215
 20
-0.1548000000000004
 30
0.0
 11
-1.215
 21
-0.4050000000000003
 31
0.0
  0
LINE
  5
102
330
DE
100
AcDbEntity
  8
AM_9
 48
0.0094717060494966
100
AcDbLine
 10
1.215
 20
-1.47
 30
0.0
 11
1.215
 21
-1.275000000000001
 31
0.0
  0
LINE
  5
103
330
DE
100
AcDbEntity
  8
AM_9
 48
0.0094717060494966
100
AcDbLine
 10
-1.215
 20
-1.275000000000001
 30
0.0
 11
-1.215
 21
-1.47
 31
0.0
  0
LINE
  5
104
330
DE
100
AcDbEntity
  8
AM_9
 48
0.0094717060494966
100
AcDbLine
 10
1.688316666666667
 20
-1.14
 30
0.0
 11
1.688316666666667
 21
-1.04
 31
0.0
  0
LINE
  5
105
330
DE
100
AcDbEntity
  8
AM_9
 48
0.0094717060494966
100
AcDbLine
 10
-1.688316666666667
 20
-1.04
 30
0.0
 11
-1.688316666666667
 21
-1.14
 31
0.0
  0
LINE
  5
106
330
DE
100
AcDbEntity
  8
AM_9
 48
0.0094717060494966
100
AcDbLine
 10
-1.67805057209251
 20
-0.4050000000000003
 30
0.0
 11
1.678050572090914
 21
-0.4050000000000003
 31
0.0
  0
ARC
  5
107
330
DE
100
AcDbEntity
  8
AM_9
 48
0.0094717060494966
100
AcDbCircle
 10
1.67805057209251
 20
-0.4550000000000005
 30
0.0
 40
0.0500000000000002
100
AcDbArc
 50
12.92189495844626
 51
90.00000000000026
  0
ARC
  5
108
330
DE
100
AcDbEntity
  8
AM_9
 48
0.0094717060494966
100
AcDbCircle
 10
-1.67805057209251
 20
-0.4550000000000005
 30
0.0
 40
0.0500000000000002
100
AcDbArc
 50
89.99999999999974
 51
167.0781050415538
  0
LINE
  5
109
330
DE
100
AcDbEntity
  8
AM_9
 48
0.0094717060494966
100
AcDbLine
 10
-1.67805057209251
 20
-1.275000000000001
 30
0.0
 11
1.678050572090914
 21
-1.275000000000001
 31
0.0
  0
ARC
  5
10A
330
DE
100
AcDbEntity
  8
AM_9
 48
0.0094717060494966
100
AcDbCircle
 10
1.678050572092514
 20
-1.225
 30
0.0
 40
0.0500000000000005
100
AcDbArc
 50
269.9999999999955
 51
347.0781236960818
  0
ARC
  5
10B
330
DE
100
AcDbEntity
  8
AM_9
 48
0.0094717060494966
100
AcDbCircle
 10
-1.678050572092514
 20
-1.225
 30
0.0
 40
0.0500000000000004
100
AcDbArc
 50
192.9218763039182
 51
270.0000000000045
  0
LINE
  5
10C
330
DE
100
AcDbEntity
  8
AM_9
 48
0.0094717060494966
100
AcDbLine
 10
-1.726784366253863
 20
-1.23618111383715
 30
0.0
 11
1.726784366253893
 21
-1.23618111383715
 31
0.0
  0
LINE
  5
10D
330
DE
100
AcDbEntity
  8
AM_9
 48
0.0094717060494966
100
AcDbLine
 10
-1.746065211411074
 20
-1.14
 30
0.0
 11
1.746065211411104
 21
-1.14
 31
0.0
  0
ARC
  5
10E
330
DE
100
AcDbEntity
  8
AM_9
 48
0.0094717060494966
100
AcDbCircle
 10
0.0000000000742879
 20
-0.8400000000148874
 30
0.0
 40
1.771649999924293
100
AcDbArc
 50
347.078100229172
 51
350.2509203909801
  0
ARC
  5
10F
330
DE
100
AcDbEntity
  8
AM_9
 48
0.0094717060494966
100
AcDbCircle
 10
-0.0000000000740539
 20
-0.8400000000148404
 30
0.0
 40
1.771649999924532
100
AcDbArc
 50
189.74907960902
 51
192.9218997708278
  0
LINE
  5
110
330
DE
100
AcDbEntity
  8
AM_9
 48
0.0094717060494966
100
AcDbLine
 10
-1.760324891177762
 20
-1.04
 30
0.0
 11
1.760324891177771
 21
-1.04
 31
0.0
  0
LINE
  5
111
330
DE
100
AcDbEntity
  8
AM_9
 48
0.0094717060494966
100
AcDbLine
 10
-1.726784362613476
 20
-0.4438188702959596
 30
0.0
 11
1.726784362613486
 21
-0.4438188702959596
 31
0.0
  0
ARC
  5
112
330
DE
100
AcDbEntity
  8
AM_9
 48
0.0094717060494966
100
AcDbCircle
 10
0.0000000000006255
 20
-0.8399999999999648
 30
0.0
 40
1.771649999999392
100
AcDbArc
 50
353.518112659818
 51
12.9219002972369
  0
ARC
  5
113
330
DE
100
AcDbEntity
  8
AM_9
 48
0.0094717060494966
100
AcDbCircle
 10
0.0000000000024134
 20
-0.8400000000001357
 30
0.0
 40
1.771650000002392
100
AcDbArc
 50
167.0780997027797
 51
186.4818873401653
  0
LINE
  5
114
330
DE
100
AcDbEntity
  8
AM_0
 48
0.0094717060494966
100
AcDbLine
 10
-1.5552
 20
-1.47
 30
0.0
 11
-1.62
 21
-1.5348
 31
0.0
  0
LINE
  5
115
330
DE
100
AcDbEntity
  8
AM_0
 48
0.0094717060494966
100
AcDbLine
 10
1.62
 20
-1.5348
 30
0.0
 11
1.5552
 21
-1.47
 31
0.0
  0
LINE
  5
116
330
DE
100
AcDbEntity
  8
AM_0
 48
0.0094717060494966
100
AcDbLine
 10
-1.5552
 20
-2.1
 30
0.0
 11
1.5552
 21
-2.1
 31
0.0
  0
LINE
  5
117
330
DE
100
AcDbEntity
  8
AM_0
 48
0.0094717060494966
100
AcDbLine
 10
1.5552
 20
-2.1
 30
0.0
 11
1.62
 21
-2.0352
 31
0.0
  0
LINE
  5
118
330
DE
100
AcDbEntity
  8
AM_0
 48
0.0094717060494966
100
AcDbLine
 10
-1.62
 20
-2.0352
 30
0.0
 11
-1.5552
 21
-2.1
 31
0.0
  0
LINE
  5
119
330
DE
100
AcDbEntity
  8
AM_0
 48
0.0094717060494966
100
AcDbLine
 10
-1.62
 20
-2.0352
 30
0.0
 11
1.62
 21
-2.0352
 31
0.0
  0
LINE
  5
11A
330
DE
100
AcDbEntity
  8
AM_0
 48
0.0094717060494966
100
AcDbLine
 10
-1.62
 20
-1.5348
 30
0.0
 11
1.62
 21
-1.5348
 31
0.0
  0
LINE
  5
11B
330
DE
100
AcDbEntity
  8
AM_0
 48
0.0094717060494966
100
AcDbLine
 10
1.62
 20
-2.0352
 30
0.0
 11
1.62
 21
-1.5348
 31
0.0
  0
LINE
  5
11C
330
DE
100
AcDbEntity
  8
AM_0
 48
0.0094717060494966
100
AcDbLine
 10
-1.62
 20
-1.5348
 30
0.0
 11
-1.62
 21
-2.0352
 31
0.0
  0
ENDBLK
  5
E1
330
DE
100
AcDbEntity
  8
0
100
AcDbBlockEnd
  0
BLOCK
  5
11F
330
11D
100
AcDbEntity
  8
0
100
AcDbBlockBegin
  2
3_128772i_0_in_128772_4
 70
     2
 10
0.0
 20
0.0
 30
0.0
  3
3_128772i_0_in_128772_4
  1

  0
ATTDEF
  5
121
330
11D
100
AcDbEntity
  8
AM_6
100
AcDbText
 10
7.280000000000001
 20
0.105
 30
0.0
 40
0.5
  1
DL FLANGE BEARING 2B - Inch
100
AcDbAttributeDefinition
  3

  2
NN
 70
     8
280
     0
  0
ATTDEF
  5
122
330
11D
100
AcDbEntity
  8
AM_6
100
AcDbText
 10
7.280000000000001
 20
-0.395
 30
0.0
 40
0.5
  1
D-LOK Inch
100
AcDbAttributeDefinition
  3

  2
NT
 70
     8
280
     0
  0
ATTDEF
  5
123
330
11D
100
AcDbEntity
  8
AM_6
100
AcDbText
 10
7.280000000000001
 20
-0.895
 30
0.0
 40
0.5
  1
128772i
100
AcDbAttributeDefinition
  3

  2
NB
 70
     8
280
     0
  0
ATTDEF
  5
124
330
11D
100
AcDbEntity
  8
AM_6
100
AcDbText
 10
7.280000000000001
 20
-1.395
 30
0.0
 40
0.5
  1
$PN.i
100
AcDbAttributeDefinition
  3

  2
NBSYN
 70
     8
280
     0
  0
ATTDEF
  5
125
330
11D
100
AcDbEntity
  8
AM_6
100
AcDbText
 10
7.280000000000001
 20
-1.895
 30
0.0
 40
0.5
  1
128772
100
AcDbAttributeDefinition
  3

  2
LINA
 70
     8
280
     0
  0
ATTDEF
  5
126
330
11D
100
AcDbEntity
  8
AM_6
100
AcDbText
 10
7.280000000000001
 20
-2.395
 30
0.0
 40
0.5
  1
210
100
AcDbAttributeDefinition
  3

  2
SERIES
 70
     8
280
     0
  0
ATTDEF
  5
127
330
11D
100
AcDbEntity
  8
AM_6
100
AcDbText
 10
7.280000000000001
 20
-2.895
 30
0.0
 40
0.5
  1
2
100
AcDbAttributeDefinition
  3

  2
SS
 70
     8
280
     0
  0
ATTDEF
  5
128
330
11D
100
AcDbEntity
  8
AM_6
100
AcDbText
 10
7.280000000000001
 20
-3.395
 30
0.0
 40
0.5
  1
2.00000
100
AcDbAttributeDefinition
  3

  2
SS1
 70
     8
280
     0
  0
ATTDEF
  5
129
330
11D
100
AcDbEntity
  8
AM_6
100
AcDbText
 10
7.280000000000001
 20
-3.895
 30
0.0
 40
0.5
  1
128772
100
AcDbAttributeDefinition
  3

  2
PN
 70
     8
280
     0
  0
ATTDEF
  5
12A
330
11D
100
AcDbEntity
  8
AM_6
100
AcDbText
 10
7.280000000000001
 20
-4.395
 30
0.0
 40
0.5
  1
F2B-DL-200
100
AcDbAttributeDefinition
  3

  2
DESCRIPTION
 70
     8
280
     0
  0
ATTDEF
  5
12B
330
11D
100
AcDbEntity
  8
AM_6
100
AcDbText
 10
7.280000000000001
 20
-4.895
 30
0.0
 40
0.5
  1
5.9
100
AcDbAttributeDefinition
  3

  2
W
 70
     8
280
     0
  0
ATTDEF
  5
12C
330
11D
100
AcDbEntity
  8
AM_6
100
AcDbText
 10
7.280000000000001
 20
-5.395
 30
0.0
 40
0.5
  1
2.01
100
AcDbAttributeDefinition
  3

  2
A
 70
     8
280
     0
  0
ATTDEF
  5
12D
330
11D
100
AcDbEntity
  8
AM_6
100
AcDbText
 10
7.280000000000001
 20
-5.895
 30
0.0
 40
0.5
  1
2.010000
100
AcDbAttributeDefinition
  3

  2
A1
 70
     8
280
     0
  0
ATTDEF
  5
12E
330
11D
100
AcDbEntity
  8
AM_6
100
AcDbText
 10
7.280000000000001
 20
-6.395
 30
0.0
 40
0.5
  1
7.44
100
AcDbAttributeDefinition
  3

  2
B
 70
     8
280
     0
  0
ATTDEF
  5
12F
330
11D
100
AcDbEntity
  8
AM_6
100
AcDbText
 10
7.280000000000001
 20
-6.895
 30
0.0
 40
0.5
  1
7.440000
100
AcDbAttributeDefinition
  3

  2
B1
 70
     8
280
     0
  0
ATTDEF
  5
130
330
11D
100
AcDbEntity
  8
AM_6
100
AcDbText
 10
7.280000000000001
 20
-7.395
 30
0.0
 40
0.5
  1
2.10
100
AcDbAttributeDefinition
  3

  2
C
 70
     8
280
     0
  0
ATTDEF
  5
131
330
11D
100
AcDbEntity
  8
AM_6
100
AcDbText
 10
7.280000000000001
 20
-7.895
 30
0.0
 40
0.5
  1
2.100000
100
AcDbAttributeDefinition
  3

  2
C1
 70
     8
280
     0
  0
ATTDEF
  5
132
330
11D
100
AcDbEntity
  8
AM_6
100
AcDbText
 10
7.280000000000001
 20
-8.395
 30
0.0
 40
0.5
  1
6.19
100
AcDbAttributeDefinition
  3

  2
D
 70
     8
280
     0
  0
ATTDEF
  5
133
330
11D
100
AcDbEntity
  8
AM_6
100
AcDbText
 10
7.280000000000001
 20
-8.895
 30
0.0
 40
0.5
  1
6.190000
100
AcDbAttributeDefinition
  3

  2
D1
 70
     8
280
     0
  0
ATTDEF
  5
134
330
11D
100
AcDbEntity
  8
AM_6
100
AcDbText
 10
7.280000000000001
 20
-9.395
 30
0.0
 40
0.5
  1
1/2
100
AcDbAttributeDefinition
  3

  2
F
 70
     8
280
     0
  0
ATTDEF
  5
135
330
11D
100
AcDbEntity
  8
AM_6
100
AcDbText
 10
7.280000000000001
 20
-9.895
 30
0.0
 40
0.5
  1
0.500000
100
AcDbAttributeDefinition
  3

  2
F1
 70
     8
280
     0
  0
ATTDEF
  5
136
330
11D
100
AcDbEntity
  8
AM_6
100
AcDbText
 10
7.280000000000001
 20
-10.395
 30
0.0
 40
0.5
  1
0.63
100
AcDbAttributeDefinition
  3

  2
H
 70
     8
280
     0
  0
ATTDEF
  5
137
330
11D
100
AcDbEntity
  8
AM_6
100
AcDbText
 10
7.280000000000001
 20
-10.895
 30
0.0
 40
0.5
  1
0.630000
100
AcDbAttributeDefinition
  3

  2
H1
 70
     8
280
     0
  0
ATTDEF
  5
138
330
11D
100
AcDbEntity
  8
AM_6
100
AcDbText
 10
7.280000000000001
 20
-11.395
 30
0.0
 40
0.5
  1
0.63
100
AcDbAttributeDefinition
  3

  2
J
 70
     8
280
     0
  0
ATTDEF
  5
139
330
11D
100
AcDbEntity
  8
AM_6
100
AcDbText
 10
7.280000000000001
 20
-11.895
 30
0.0
 40
0.5
  1
0.630000
100
AcDbAttributeDefinition
  3

  2
J1
 70
     8
280
     0
  0
ATTDEF
  5
13A
330
11D
100
AcDbEntity
  8
AM_6
100
AcDbText
 10
7.280000000000001
 20
-12.395
 30
0.0
 40
0.5
  1
3.24
100
AcDbAttributeDefinition
  3

  2
L
 70
     8
280
     0
  0
ATTDEF
  5
13B
330
11D
100
AcDbEntity
  8
AM_6
100
AcDbText
 10
7.280000000000001
 20
-12.895
 30
0.0
 40
0.5
  1
3.240000
100
AcDbAttributeDefinition
  3

  2
L1
 70
     8
280
     0
  0
ATTDEF
  5
13C
330
11D
100
AcDbEntity
  8
AM_6
100
AcDbText
 10
7.280000000000001
 20
-13.395
 30
0.0
 40
0.5
  1
4.56
100
AcDbAttributeDefinition
  3

  2
M
 70
     8
280
     0
  0
ATTDEF
  5
13D
330
11D
100
AcDbEntity
  8
AM_6
100
AcDbText
 10
7.280000000000001
 20
-13.895
 30
0.0
 40
0.5
  1
4.560000
100
AcDbAttributeDefinition
  3

  2
M1
 70
     8
280
     0
  0
ATTDEF
  5
13E
330
11D
100
AcDbEntity
  8
AM_6
100
AcDbText
 10
7.280000000000001
 20
-14.395
 30
0.0
 40
0.5
  1
2.03
100
AcDbAttributeDefinition
  3

  2
N
 70
     8
280
     0
  0
ATTDEF
  5
13F
330
11D
100
AcDbEntity
  8
AM_6
100
AcDbText
 10
7.280000000000001
 20
-14.895
 30
0.0
 40
0.5
  1
2.030000
100
AcDbAttributeDefinition
  3

  2
N1
 70
     8
280
     0
  0
ATTDEF
  5
140
330
11D
100
AcDbEntity
  8
AM_6
100
AcDbText
 10
7.280000000000001
 20
-15.395
 30
0.0
 40
0.5
  1
4450
100
AcDbAttributeDefinition
  3

  2
CAPS
 70
     8
280
     0
  0
ATTDEF
  5
141
330
11D
100
AcDbEntity
  8
AM_6
100
AcDbText
 10
7.280000000000001
 20
-15.895
 30
0.0
 40
0.5
  1
7891
100
AcDbAttributeDefinition
  3

  2
CAPD
 70
     8
280
     0
  0
ATTDEF
  5
142
330
11D
100
AcDbEntity
  8
AM_6
100
AcDbText
 10
7.280000000000001
 20
-16.395
 30
0.0
 40
0.5
  1
10
100
AcDbAttributeDefinition
  3

  2
BN
 70
     8
280
     0
  0
ATTDEF
  5
143
330
11D
100
AcDbEntity
  8
AM_6
100
AcDbText
 10
7.280000000000001
 20
-16.895
 30
0.0
 40
0.5
  1
1/2
100
AcDbAttributeDefinition
  3

  2
BD
 70
     8
280
     0
  0
ATTDEF
  5
144
330
11D
100
AcDbEntity
  8
AM_6
100
AcDbText
 10
7.280000000000001
 20
-17.395
 30
0.0
 40
0.5
  1
2.7645
100
AcDbAttributeDefinition
  3

  2
PDI
 70
     8
280
     0
  0
ATTDEF
  5
145
330
11D
100
AcDbEntity
  8
AM_6
100
AcDbText
 10
7.280000000000001
 20
-17.895
 30
0.0
 40
0.5
  1
7-14
100
AcDbAttributeDefinition
  3

  2
IC
 70
     8
280
     0
  0
ATTDEF
  5
146
330
11D
100
AcDbEntity
  8
AM_6
100
AcDbText
 10
7.280000000000001
 20
-18.395
 30
0.0
 40
0.5
  1
1/4-28
100
AcDbAttributeDefinition
  3

  2
SC
 70
     8
280
     0
  0
ATTDEF
  5
147
330
11D
100
AcDbEntity
  8
AM_6
100
AcDbText
 10
7.280000000000001
 20
-18.895
 30
0.0
 40
0.5
  1
180
100
AcDbAttributeDefinition
  3

  2
TC
 70
     8
280
     0
  0
ATTDEF
  5
148
330
11D
100
AcDbEntity
  8
AM_6
100
AcDbText
 10
7.280000000000001
 20
-19.395
 30
0.0
 40
0.5
  1
C.I.
100
AcDbAttributeDefinition
  3

  2
MH
 70
     8
280
     0
  0
ATTDEF
  5
149
330
11D
100
AcDbEntity
  8
AM_6
100
AcDbText
 10
7.280000000000001
 20
-19.895
 30
0.0
 40
0.5
  1
4118
100
AcDbAttributeDefinition
  3

  2
IR
 70
     8
280
     0
  0
ATTDEF
  5
14A
330
11D
100
AcDbEntity
  8
AM_6
100
AcDbText
 10
7.280000000000001
 20
-20.395
 30
0.0
 40
0.5
  1
52100
100
AcDbAttributeDefinition
  3

  2
OR
 70
     8
280
     0
  0
ATTDEF
  5
14B
330
11D
100
AcDbEntity
  8
AM_6
100
AcDbText
 10
7.280000000000001
 20
-20.895
 30
0.0
 40
0.5
  1
NYLON 6/6
100
AcDbAttributeDefinition
  3

  2
MR
 70
     8
280
     0
  0
ATTDEF
  5
14C
330
11D
100
AcDbEntity
  8
AM_6
100
AcDbText
 10
7.280000000000001
 20
-21.395
 30
0.0
 40
0.5
  1
52100
100
AcDbAttributeDefinition
  3

  2
MB
 70
     8
280
     0
  0
ATTDEF
  5
14D
330
11D
100
AcDbEntity
  8
AM_6
100
AcDbText
 10
7.280000000000001
 20
-21.895
 30
0.0
 40
0.5
  1
±2
100
AcDbAttributeDefinition
  3

  2
SM
 70
     8
280
     0
  0
ATTDEF
  5
14E
330
11D
100
AcDbEntity
  8
AM_6
100
AcDbText
 10
7.280000000000001
 20
-22.395
 30
0.0
 40
0.5
  1
3.543300
100
AcDbAttributeDefinition
  3

  2
BOD
 70
     8
280
     0
  0
ATTDEF
  5
14F
330
11D
100
AcDbEntity
  8
AM_6
100
AcDbText
 10
7.280000000000001
 20
-22.895
 30
0.0
 40
0.5
  1
p2b_dl_flange_bodi_templ.prj
100
AcDbAttributeDefinition
  3

  2
PPATH
 70
     8
280
     0
  0
ATTDEF
  5
150
330
11D
100
AcDbEntity
  8
AM_6
100
AcDbText
 10
7.280000000000001
 20
-23.395
 30
0.0
 40
0.5
  1
baldor
100
AcDbAttributeDefinition
  3

  2
COMPANY
 70
     8
280
     0
  0
LINE
  5
151
330
11D
100
AcDbEntity
  8
AM_9
 48
0.0123138196468345
100
AcDbLine
 10
1.926647416724925
 20
-0.567
 30
0.0
 11
1.435758659455364
 21
-0.567
 31
0.0
  0
LINE
  5
152
330
11D
100
AcDbEntity
  8
AM_9
 48
0.0123138196468345
100
AcDbLine
 10
1.92819981657087
 20
-1.47
 30
0.0
 11
1.92819981657087
 21
0.0000000000000001
 31
0.0
  0
LINE
  5
153
330
11D
100
AcDbEntity
  8
AM_9
 48
0.0123138196468345
100
AcDbLine
 10
1.912010703809326
 20
0.0000000000000001
 30
0.0
 11
1.912010703809326
 21
-0.567
 31
0.0
  0
LINE
  5
154
330
11D
100
AcDbEntity
  8
AM_9
 48
0.0123138196468345
100
AcDbLine
 10
1.898910494689525
 20
-0.000000000000001
 30
0.0
 11
1.898910494689525
 21
-1.47
 31
0.0
  0
LINE
  5
155
330
11D
100
AcDbEntity
  8
AM_9
 48
0.0123138196468345
100
AcDbLine
 10
2.006256313292354
 20
-1.054198445873178
 30
0.0
 11
2.006256313292354
 21
-0.8358015541268212
 31
0.0
  0
LINE
  5
156
330
11D
100
AcDbEntity
  8
AM_9
 48
0.0123138196468345
100
AcDbLine
 10
1.77165
 20
-1.47
 30
0.0
 11
1.77165
 21
0.0
 31
0.0
  0
LINE
  5
157
330
11D
100
AcDbEntity
  8
AM_9
 48
0.0123138196468345
100
AcDbLine
 10
-1.77165
 20
0.0
 30
0.0
 11
-1.77165
 21
-1.47
 31
0.0
  0
LINE
  5
158
330
11D
100
AcDbEntity
  8
AM_9
 48
0.0123138196468345
100
AcDbLine
 10
1.976966991411009
 20
-1.072114851045069
 30
0.0
 11
1.976966991411009
 21
-0.81804619022242
 31
0.0
  0
LINE
  5
159
330
11D
100
AcDbEntity
  8
AM_9
 48
0.0123138196468345
100
AcDbLine
 10
1.926647416724925
 20
-0.567
 30
0.0
 11
1.926647416724924
 21
0.0000000000000001
 31
0.0
  0
LINE
  5
15A
330
11D
100
AcDbEntity
  8
AM_9
 48
0.0123138196468345
100
AcDbLine
 10
1.914922658778198
 20
-1.47
 30
0.0
 11
1.914922658778198
 21
-0.567
 31
0.0
  0
LINE
  5
15B
330
11D
100
AcDbEntity
  8
AM_9
 48
0.0123138196468345
100
AcDbLine
 10
0.25
 20
-0.6299999999999998
 30
0.0
 11
0.25
 21
0.0000000000000002
 31
0.0
  0
LINE
  5
15C
330
11D
100
AcDbEntity
  8
AM_9
 48
0.0123138196468345
100
AcDbLine
 10
-0.25
 20
0.0000000000000002
 30
0.0
 11
-0.25
 21
-0.6299999999999998
 31
0.0
  0
LINE
  5
15F
330
11D
100
AcDbEntity
  8
AM_7
 48
0.0123138196468345
100
AcDbLine
 10
0.0
 20
0.105
 30
0.0
 11
0.0
 21
-2.205
 31
0.0
  0
LINE
  5
160
330
11D
100
AcDbEntity
  8
AM_0
 48
0.0123138196468345
100
AcDbLine
 10
2.006256313292354
 20
-0.8358015541268212
 30
0.0
 11
2.006256313292354
 21
-0.000000000000001
 31
0.0
  0
LINE
  5
161
330
11D
100
AcDbEntity
  8
AM_0
 48
0.0123138196468345
100
AcDbLine
 10
2.006256313292354
 20
-1.47
 30
0.0
 11
2.006256313292354
 21
-1.054198445873178
 31
0.0
  0
LINE
  5
162
330
11D
100
AcDbEntity
  8
AM_4
 48
0.0123138196468345
100
AcDbLine
 10
1.362514391621632
 20
-1.47
 30
0.0
 11
1.362514391621632
 21
-0.5669999999999998
 31
0.0
  0
LINE
  5
163
330
11D
100
AcDbEntity
  8
AM_0
 48
0.0123138196468345
100
AcDbLine
 10
2.280000000000002
 20
-1.47
 30
0.0
 11
-2.279999999999998
 21
-1.47
 31
0.0
  0
LINE
  5
164
330
11D
100
AcDbEntity
  8
AM_4
 48
0.0123138196468345
100
AcDbLine
 10
1.976966991411009
 20
-0.81804619022242
 30
0.0
 11
1.976966991411009
 21
0.0000000000000001
 31
0.0
  0
LINE
  5
165
330
11D
100
AcDbEntity
  8
AM_4
 48
0.0123138196468345
100
AcDbLine
 10
1.976966991411009
 20
-1.47
 30
0.0
 11
1.976966991411009
 21
-1.072114851045069
 31
0.0
  0
LINE
  5
166
330
11D
100
AcDbEntity
  8
AM_4
 48
0.0123138196468345
100
AcDbLine
 10
1.41128156646177
 20
-1.47
 30
0.0
 11
1.41128156646177
 21
-0.5669999999999998
 31
0.0
  0
LINE
  5
167
330
11D
100
AcDbEntity
  8
AM_4
 48
0.0123138196468345
100
AcDbLine
 10
1.552702922699081
 20
-1.47
 30
0.0
 11
1.552702922699081
 21
0.0000000000000001
 31
0.0
  0
LINE
  5
168
330
11D
100
AcDbEntity
  8
AM_4
 48
0.0123138196468345
100
AcDbLine
 10
1.23752624654907
 20
-1.47
 30
0.0
 11
1.23752624654907
 21
-0.5669999999999998
 31
0.0
  0
LINE
  5
169
330
11D
100
AcDbEntity
  8
AM_0
 48
0.0123138196468345
100
AcDbLine
 10
2.28
 20
-1.47
 30
0.0
 11
2.28
 21
0.0
 31
0.0
  0
LINE
  5
16A
330
11D
100
AcDbEntity
  8
AM_0
 48
0.0123138196468345
100
AcDbLine
 10
-2.279999999999991
 20
0.0
 30
0.0
 11
-2.279999999999991
 21
-1.47
 31
0.0
  0
LINE
  5
16B
330
11D
100
AcDbEntity
  8
AM_0
 48
0.0123138196468345
100
AcDbLine
 10
-0.9636301789673903
 20
-0.5669999999999998
 30
0.0
 11
-0.9636301789673903
 21
-0.6299999999999998
 31
0.0
  0
LINE
  5
16C
330
11D
100
AcDbEntity
  8
AM_0
 48
0.0123138196468345
100
AcDbLine
 10
0.9636301789673907
 20
-0.6299999999999998
 30
0.0
 11
-0.9636301789673903
 21
-0.6299999999999998
 31
0.0
  0
LINE
  5
16D
330
11D
100
AcDbEntity
  8
AM_0
 48
0.0123138196468345
100
AcDbLine
 10
0.9636301789673906
 20
-0.5669999999999998
 30
0.0
 11
0.9636301789673907
 21
-0.6299999999999998
 31
0.0
  0
LINE
  5
16E
330
11D
100
AcDbEntity
  8
AM_0
 48
0.0123138196468345
100
AcDbLine
 10
-0.5281379980057358
 20
-0.5669999999999998
 30
0.0
 11
-1.926647416724925
 21
-0.567
 31
0.0
  0
LINE
  5
16F
330
11D
100
AcDbEntity
  8
AM_4
 48
0.0123138196468345
100
AcDbLine
 10
-1.926647416724925
 20
-0.567
 30
0.0
 11
-1.926647416724924
 21
0.0000000000000001
 31
0.0
  0
LINE
  5
170
330
11D
100
AcDbEntity
  8
AM_0
 48
0.0123138196468345
100
AcDbLine
 10
2.28
 20
0.0
 30
0.0
 11
-2.28
 21
0.0
 31
0.0
  0
LINE
  5
171
330
11D
100
AcDbEntity
  8
AM_0
 48
0.0123138196468345
100
AcDbLine
 10
1.435758659455364
 20
0.0000000000000001
 30
0.0
 11
1.435758659455364
 21
-0.5669999999999998
 31
0.0
  0
LINE
  5
172
330
11D
100
AcDbEntity
  8
AM_0
 48
0.0123138196468345
100
AcDbLine
 10
1.435758659455364
 20
-0.5669999999999998
 30
0.0
 11
0.5281379980057361
 21
-0.5669999999999998
 31
0.0
  0
LINE
  5
173
330
11D
100
AcDbEntity
  8
AM_4
 48
0.0123138196468345
100
AcDbLine
 10
0.5982974505515355
 20
-0.5669999999999998
 30
0.0
 11
0.5982974505515355
 21
-0.6299999999999998
 31
0.0
  0
LINE
  5
174
330
11D
100
AcDbEntity
  8
AM_4
 48
0.0123138196468345
100
AcDbLine
 10
0.5281379980057361
 20
-0.5669999999999998
 30
0.0
 11
0.528137998005736
 21
0.0000000000000002
 31
0.0
  0
LINE
  5
175
330
11D
100
AcDbEntity
  8
AM_4
 48
0.0123138196468345
100
AcDbLine
 10
-0.5281379980057358
 20
-0.5669999999999998
 30
0.0
 11
-0.5281379980057359
 21
0.0000000000000002
 31
0.0
  0
LINE
  5
176
330
11D
100
AcDbEntity
  8
AM_4
 48
0.0123138196468345
100
AcDbLine
 10
-0.5982974505515355
 20
-0.5669999999999998
 30
0.0
 11
-0.5982974505515355
 21
-0.6299999999999998
 31
0.0
  0
ENDBLK
  5
120
330
11D
100
AcDbEntity
  8
0
100
AcDbBlockEnd
  0
ENDSEC
  0
SECTION
  2
ENTITIES
  0
ATTDEF
  5
6F
330
1F
100
AcDbEntity
  8
AM_6
100
AcDbText
 10
7.280000000000001
 20
0.105
 30
0.0
 40
0.5
  1
D-Lok Two-Bolt Flange Inch Bore
100
AcDbAttributeDefinition
  3

  2
NN
 70
     8
280
     0
  0
ATTDEF
  5
70
330
1F
100
AcDbEntity
  8
AM_6
100
AcDbText
 10
7.280000000000001
 20
-0.395
 30
0.0
 40
0.5
  1
DL Normal Duty 2-Bolt Flange Bearings
100
AcDbAttributeDefinition
  3

  2
NT
 70
     8
280
     0
  0
ATTDEF
  5
71
330
1F
100
AcDbEntity
  8
AM_6
100
AcDbText
 10
7.280000000000001
 20
-0.895
 30
0.0
 40
0.5
  1
128772
100
AcDbAttributeDefinition
  3

  2
NB
 70
     8
280
     0
  0
ATTDEF
  5
72
330
1F
100
AcDbEntity
  8
AM_6
100
AcDbText
 10
7.280000000000001
 20
-1.395
 30
0.0
 40
0.5
  1
$PN.
100
AcDbAttributeDefinition
  3

  2
NBSYN
 70
     8
280
     0
  0
ATTDEF
  5
73
330
1F
100
AcDbEntity
  8
AM_6
100
AcDbText
 10
7.280000000000001
 20
-1.895
 30
0.0
 40
0.5
  1
128772
100
AcDbAttributeDefinition
  3

  2
LINA
 70
     8
280
     0
  0
ATTDEF
  5
74
330
1F
100
AcDbEntity
  8
AM_6
100
AcDbText
 10
7.280000000000001
 20
-2.395
 30
0.0
 40
0.5
  1
210
100
AcDbAttributeDefinition
  3

  2
SERIES
 70
     8
280
     0
  0
ATTDEF
  5
75
330
1F
100
AcDbEntity
  8
AM_6
100
AcDbText
 10
7.280000000000001
 20
-2.895
 30
0.0
 40
0.5
  1
2
100
AcDbAttributeDefinition
  3

  2
SS
 70
     8
280
     0
  0
ATTDEF
  5
76
330
1F
100
AcDbEntity
  8
AM_6
100
AcDbText
 10
7.280000000000001
 20
-3.395
 30
0.0
 40
0.5
  1
128772
100
AcDbAttributeDefinition
  3

  2
PN
 70
     8
280
     0
  0
ATTDEF
  5
77
330
1F
100
AcDbEntity
  8
AM_6
100
AcDbText
 10
7.280000000000001
 20
-3.895
 30
0.0
 40
0.5
  1
F2B-DL-200
100
AcDbAttributeDefinition
  3

  2
DESCRIPTION
 70
     8
280
     0
  0
ATTDEF
  5
78
330
1F
100
AcDbEntity
  8
AM_6
100
AcDbText
 10
7.280000000000001
 20
-4.395
 30
0.0
 40
0.5
  1
5.9
100
AcDbAttributeDefinition
  3

  2
W
 70
     8
280
     0
  0
ATTDEF
  5
79
330
1F
100
AcDbEntity
  8
AM_6
100
AcDbText
 10
7.280000000000001
 20
-4.895
 30
0.0
 40
0.5
  1
2.01
100
AcDbAttributeDefinition
  3

  2
A
 70
     8
280
     0
  0
ATTDEF
  5
7A
330
1F
100
AcDbEntity
  8
AM_6
100
AcDbText
 10
7.280000000000001
 20
-5.395
 30
0.0
 40
0.5
  1
7.44
100
AcDbAttributeDefinition
  3

  2
B
 70
     8
280
     0
  0
ATTDEF
  5
7B
330
1F
100
AcDbEntity
  8
AM_6
100
AcDbText
 10
7.280000000000001
 20
-5.895
 30
0.0
 40
0.5
  1
2.10
100
AcDbAttributeDefinition
  3

  2
C
 70
     8
280
     0
  0
ATTDEF
  5
7C
330
1F
100
AcDbEntity
  8
AM_6
100
AcDbText
 10
7.280000000000001
 20
-6.395
 30
0.0
 40
0.5
  1
6.19
100
AcDbAttributeDefinition
  3

  2
D
 70
     8
280
     0
  0
ATTDEF
  5
7D
330
1F
100
AcDbEntity
  8
AM_6
100
AcDbText
 10
7.280000000000001
 20
-6.895
 30
0.0
 40
0.5
  1
1/2
100
AcDbAttributeDefinition
  3

  2
F
 70
     8
280
     0
  0
ATTDEF
  5
7E
330
1F
100
AcDbEntity
  8
AM_6
100
AcDbText
 10
7.280000000000001
 20
-7.395
 30
0.0
 40
0.5
  1
0.63
100
AcDbAttributeDefinition
  3

  2
H
 70
     8
280
     0
  0
ATTDEF
  5
7F
330
1F
100
AcDbEntity
  8
AM_6
100
AcDbText
 10
7.280000000000001
 20
-7.895
 30
0.0
 40
0.5
  1
0.63
100
AcDbAttributeDefinition
  3

  2
J
 70
     8
280
     0
  0
ATTDEF
  5
80
330
1F
100
AcDbEntity
  8
AM_6
100
AcDbText
 10
7.280000000000001
 20
-8.395
 30
0.0
 40
0.5
  1
3.24
100
AcDbAttributeDefinition
  3

  2
L
 70
     8
280
     0
  0
ATTDEF
  5
81
330
1F
100
AcDbEntity
  8
AM_6
100
AcDbText
 10
7.280000000000001
 20
-8.895
 30
0.0
 40
0.5
  1
4.56
100
AcDbAttributeDefinition
  3

  2
M
 70
     8
280
     0
  0
ATTDEF
  5
82
330
1F
100
AcDbEntity
  8
AM_6
100
AcDbText
 10
7.280000000000001
 20
-9.395
 30
0.0
 40
0.5
  1
2.03
100
AcDbAttributeDefinition
  3

  2
N
 70
     8
280
     0
  0
ATTDEF
  5
83
330
1F
100
AcDbEntity
  8
AM_6
100
AcDbText
 10
7.280000000000001
 20
-9.895
 30
0.0
 40
0.5
  1
baldor
100
AcDbAttributeDefinition
  3

  2
COMPANY
 70
     8
280
     0
  0
INSERT
  5
85
330
1F
100
AcDbEntity
  8
0
100
AcDbBlockReference
  2
1_405020c_Inch_0_in_128772_4
 10
0.0
 20
0.0
 30
0.0
  0
INSERT
  5
DF
330
1F
100
AcDbEntity
  8
0
100
AcDbBlockReference
  2
2_128660_0_in_128772_4
 10
0.0
 20
0.0
 30
0.0
  0
INSERT
  5
11E
330
1F
100
AcDbEntity
  8
0
100
AcDbBlockReference
  2
3_128772i_0_in_128772_4
 10
0.0
 20
0.0
 30
0.0
  0
POINT
  5
178
330
1F
100
AcDbEntity
  8
ConnectionPoints
100
AcDbPoint
 10
0.0
 20
-2.1
 30
0.0000000000000001
  0
POINT
  5
179
330
1F
100
AcDbEntity
  8
ConnectionPoints
100
AcDbPoint
 10
0.0
 20
-0.0900000000000003
 30
0.0
  0
POINT
  5
17A
330
1F
100
AcDbEntity
  8
ConnectionPoints
100
AcDbPoint
 10
0.0
 20
-0.8400000000000003
 30
0.0000000000000001
  0
POINT
  5
17B
330
1F
100
AcDbEntity
  8
ConnectionPoints
100
AcDbPoint
 10
0.0
 20
-0.0900000000000003
 30
0.0
  0
POINT
  5
17C
330
1F
100
AcDbEntity
  8
ConnectionPoints
100
AcDbPoint
 10
1.764834957055045
 20
-0.945
 30
1.764834957055045
  0
ENDSEC
  0
SECTION
  2
OBJECTS
  0
DICTIONARY
  5
C
330
0
100
AcDbDictionary
281
     1
  3
ACAD_DETAILVIEWSTYLE
350
184
  3
ACAD_GROUP
350
D
  3
ACAD_LAYOUT
350
1A
  3
ACAD_MATERIAL
350
43
  3
ACAD_MLEADERSTYLE
350
6B
  3
ACAD_MLINESTYLE
350
17
  3
ACAD_PLOTSETTINGS
350
19
  3
ACAD_PLOTSTYLENAME
350
E
  3
ACAD_SCALELIST
350
47
  3
ACAD_SECTIONVIEWSTYLE
350
185
  3
ACAD_TABLESTYLE
350
69
  3
ACAD_VISUALSTYLE
350
2A
  3
ACDB_RECOMPOSE_DATA
350
181
  3
AcDbVariableDictionary
350
17D
  0
SUN
  5
6D
330
29
100
AcDbSun
 90
        1
290
     0
 63
     7
421
 16777215
 40
1.0
291
     1
 91
  2455826
 92
 54000000
292
     0
 70
     2
 71
   256
280
     1
  0
DICTIONARY
  5
184
102
{ACAD_REACTORS
330
C
102
}
330
C
100
AcDbDictionary
281
     1
  0
DICTIONARY
  5
D
102
{ACAD_REACTORS
330
C
102
}
330
C
100
AcDbDictionary
281
     1
  0
DICTIONARY
  5
1A
102
{ACAD_REACTORS
330
C
102
}
330
C
100
AcDbDictionary
281
     1
  3
Layout1
350
1E
  3
Layout2
350
26
  3
Model
350
22
  0
DICTIONARY
  5
43
102
{ACAD_REACTORS
330
C
102
}
330
C
100
AcDbDictionary
281
     1
  3
ByBlock
350
45
  3
ByLayer
350
44
  3
Global
350
46
  0
DICTIONARY
  5
6B
102
{ACAD_REACTORS
330
C
102
}
330
C
100
AcDbDictionary
281
     1
  3
Standard
350
6C
  0
DICTIONARY
  5
17
102
{ACAD_REACTORS
330
C
102
}
330
C
100
AcDbDictionary
281
     1
  3
Standard
350
18
  0
DICTIONARY
  5
19
102
{ACAD_REACTORS
330
C
102
}
330
C
100
AcDbDictionary
281
     1
  0
ACDBDICTIONARYWDFLT
  5
E
102
{ACAD_REACTORS
330
C
102
}
330
C
100
AcDbDictionary
281
     1
  3
Normal
350
F
100
AcDbDictionaryWithDefault
340
F
  0
DICTIONARY
  5
47
102
{ACAD_REACTORS
330
C
102
}
330
C
100
AcDbDictionary
281
     1
  3
A0
350
48
  3
A1
350
49
  3
A2
350
4A
  3
A3
350
4B
  3
A4
350
4C
  3
A5
350
4D
  3
A6
350
4E
  3
A7
350
4F
  3
A8
350
50
  3
A9
350
51
  3
B0
350
52
  3
B1
350
53
  3
B2
350
54
  3
B3
350
55
  3
B4
350
56
  3
B5
350
57
  3
B6
350
58
  3
B7
350
59
  3
B8
350
5A
  3
B9
350
5B
  3
C0
350
5C
  3
C1
350
5D
  3
C2
350
5E
  3
C3
350
5F
  3
C4
350
60
  3
C5
350
61
  3
C6
350
62
  3
C7
350
63
  3
C8
350
64
  3
C9
350
65
  3
D0
350
66
  3
D1
350
67
  3
D2
350
68
  0
DICTIONARY
  5
185
102
{ACAD_REACTORS
330
C
102
}
330
C
100
AcDbDictionary
281
     1
  0
DICTIONARY
  5
69
102
{ACAD_REACTORS
330
C
102
}
330
C
100
AcDbDictionary
281
     1
  3
Standard
350
6A
  0
DICTIONARY
  5
2A
102
{ACAD_REACTORS
330
C
102
}
330
C
100
AcDbDictionary
281
     1
  3
2dWireframe
350
2F
  3
Basic
350
32
  3
Brighten
350
36
  3
ColorChange
350
3A
  3
Conceptual
350
34
  3
Dim
350
35
  3
EdgeColorOff
350
3D
  3
Facepattern
350
39
  3
Flat
350
2B
  3
FlatWithEdges
350
2C
  3
Gouraud
350
2D
  3
GouraudWithEdges
350
2E
  3
Hidden
350
31
  3
JitterOff
350
3B
  3
Linepattern
350
38
  3
OverhangOff
350
3C
  3
Realistic
350
33
  3
Shaded
350
42
  3
Shaded with edges
350
41
  3
Shades of Gray
350
3E
  3
Sketchy
350
3F
  3
Thicken
350
37
  3
Wireframe
350
30
  3
X-Ray
350
40
  0
XRECORD
  5
181
102
{ACAD_REACTORS
330
C
102
}
330
C
100
AcDbXrecord
280
     1
 90
        1
330
6A
  0
DICTIONARY
  5
17D
102
{ACAD_REACTORS
330
C
102
}
330
C
100
AcDbDictionary
281
     1
  3
CANNOSCALE
350
17E
  3
CMLEADERSTYLE
350
183
  3
CTABLESTYLE
350
182
  0
LAYOUT
  5
1E
102
{ACAD_REACTORS
330
1A
102
}
330
1A
100
AcDbPlotSettings
  1

  2
none_device
  4

  6

 40
0.0
 41
0.0
 42
0.0
 43
0.0
 44
0.0
 45
0.0
 46
0.0
 47
0.0
 48
0.0
 49
0.0
140
0.0
141
0.0
142
1.0
143
1.0
 70
   688
 72
     0
 73
     0
 74
     5
  7

 75
    16
 76
     0
 77
     2
 78
   300
147
1.0
148
0.0
149
0.0
100
AcDbLayout
  1
Layout1
 70
     1
 71
     1
 10
0.0
 20
0.0
 11
12.0
 21
9.0
 12
0.0
 22
0.0
 32
0.0
 14
1.000000000000000E+20
 24
1.000000000000000E+20
 34
1.000000000000000E+20
 15
-1.000000000000000E+20
 25
-1.000000000000000E+20
 35
-1.000000000000000E+20
146
0.0
 13
0.0
 23
0.0
 33
0.0
 16
1.0
 26
0.0
 36
0.0
 17
0.0
 27
1.0
 37
0.0
 76
     0
330
1B
  0
LAYOUT
  5
26
102
{ACAD_REACTORS
330
1A
102
}
330
1A
100
AcDbPlotSettings
  1

  2
none_device
  4

  6

 40
0.0
 41
0.0
 42
0.0
 43
0.0
 44
0.0
 45
0.0
 46
0.0
 47
0.0
 48
0.0
 49
0.0
140
0.0
141
0.0
142
1.0
143
1.0
 70
   688
 72
     0
 73
     0
 74
     5
  7

 75
    16
 76
     0
 77
     2
 78
   300
147
1.0
148
0.0
149
0.0
100
AcDbLayout
  1
Layout2
 70
     1
 71
     2
 10
0.0
 20
0.0
 11
0.0
 21
0.0
 12
0.0
 22
0.0
 32
0.0
 14
0.0
 24
0.0
 34
0.0
 15
0.0
 25
0.0
 35
0.0
146
0.0
 13
0.0
 23
0.0
 33
0.0
 16
1.0
 26
0.0
 36
0.0
 17
0.0
 27
1.0
 37
0.0
 76
     0
330
23
  0
LAYOUT
  5
22
102
{ACAD_REACTORS
330
1A
102
}
330
1A
100
AcDbPlotSettings
  1

  2
none_device
  4
Letter_(8.50_x_11.00_Inches)
  6

 40
6.35
 41
6.35
 42
6.35000508
 43
6.35000508
 44
215.9
 45
279.4
 46
0.0
 47
0.0
 48
0.0
 49
0.0
140
0.0
141
0.0
142
1.0
143
1.0
 70
  1712
 72
     0
 73
     0
 74
     0
  7

 75
     0
 76
     0
 77
     2
 78
   300
147
1.0
148
0.0
149
0.0
100
AcDbLayout
  1
Model
 70
     1
 71
     0
 10
0.0
 20
0.0
 11
12.0
 21
9.0
 12
0.0
 22
0.0
 32
0.0
 14
1.000000000000000E+20
 24
1.000000000000000E+20
 34
1.000000000000000E+20
 15
-1.000000000000000E+20
 25
-1.000000000000000E+20
 35
-1.000000000000000E+20
146
0.0
 13
0.0
 23
0.0
 33
0.0
 16
1.0
 26
0.0
 36
0.0
 17
0.0
 27
1.0
 37
0.0
 76
     0
330
1F
331
29
  0
MATERIAL
  5
45
102
{ACAD_REACTORS
330
43
102
}
330
43
100
AcDbMaterial
  1
ByBlock
 72
     1
 94
      127
  0
MATERIAL
  5
44
102
{ACAD_REACTORS
330
43
102
}
330
43
100
AcDbMaterial
  1
ByLayer
 72
     1
 94
      127
  0
MATERIAL
  5
46
102
{ACAD_REACTORS
330
43
102
}
330
43
100
AcDbMaterial
  1
Global
 72
     1
 94
      127
  0
MLEADERSTYLE
  5
6C
102
{ACAD_REACTORS
330
6B
102
}
330
6B
100
AcDbMLeaderStyle
179
     2
170
     2
171
     1
172
     0
 90
        2
 40
0.0
 41
0.0
173
     1
 91
-1056964608
340
14
 92
       -2
290
     1
 42
0.09
291
     1
 43
0.36
  3
Standard
341
0
 44
0.18
300

342
11
174
     1
178
     6
175
     1
176
     0
 93
-1056964608
 45
0.18
292
     0
297
     0
 46
0.18
343
0
 94
-1056964608
 47
1.0
 49
1.0
140
1.0
293
     1
141
0.0
294
     1
177
     0
142
1.0
295
     0
296
     0
143
0.125
271
     0
272
     9
273
     9
298
     0
  0
MLINESTYLE
  5
18
102
{ACAD_REACTORS
330
17
102
}
330
17
100
AcDbMlineStyle
  2
Standard
 70
     0
  3

 62
   256
 51
90.0
 52
90.0
 71
     2
 49
0.5
 62
   256
  6
BYLAYER
 49
-0.5
 62
   256
  6
BYLAYER
  0
ACDBPLACEHOLDER
  5
F
102
{ACAD_REACTORS
330
E
102
}
330
E
  0
SCALE
  5
48
102
{ACAD_REACTORS
330
47
102
}
330
47
100
AcDbScale
 70
     0
300
1:1
140
1.0
141
1.0
290
     1
  0
SCALE
  5
49
102
{ACAD_REACTORS
330
47
102
}
330
47
100
AcDbScale
 70
     0
300
1:2
140
1.0
141
2.0
290
     0
  0
SCALE
  5
4A
102
{ACAD_REACTORS
330
47
102
}
330
47
100
AcDbScale
 70
     0
300
1:4
140
1.0
141
4.0
290
     0
  0
SCALE
  5
4B
102
{ACAD_REACTORS
330
47
102
}
330
47
100
AcDbScale
 70
     0
300
1:5
140
1.0
141
5.0
290
     0
  0
SCALE
  5
4C
102
{ACAD_REACTORS
330
47
102
}
330
47
100
AcDbScale
 70
     0
300
1:8
140
1.0
141
8.0
290
     0
  0
SCALE
  5
4D
102
{ACAD_REACTORS
330
47
102
}
330
47
100
AcDbScale
 70
     0
300
1:10
140
1.0
141
10.0
290
     0
  0
SCALE
  5
4E
102
{ACAD_REACTORS
330
47
102
}
330
47
100
AcDbScale
 70
     0
300
1:16
140
1.0
141
16.0
290
     0
  0
SCALE
  5
4F
102
{ACAD_REACTORS
330
47
102
}
330
47
100
AcDbScale
 70
     0
300
1:20
140
1.0
141
20.0
290
     0
  0
SCALE
  5
50
102
{ACAD_REACTORS
330
47
102
}
330
47
100
AcDbScale
 70
     0
300
1:30
140
1.0
141
30.0
290
     0
  0
SCALE
  5
51
102
{ACAD_REACTORS
330
47
102
}
330
47
100
AcDbScale
 70
     0
300
1:40
140
1.0
141
40.0
290
     0
  0
SCALE
  5
52
102
{ACAD_REACTORS
330
47
102
}
330
47
100
AcDbScale
 70
     0
300
1:50
140
1.0
141
50.0
290
     0
  0
SCALE
  5
53
102
{ACAD_REACTORS
330
47
102
}
330
47
100
AcDbScale
 70
     0
300
1:100
140
1.0
141
100.0
290
     0
  0
SCALE
  5
54
102
{ACAD_REACTORS
330
47
102
}
330
47
100
AcDbScale
 70
     0
300
2:1
140
2.0
141
1.0
290
     0
  0
SCALE
  5
55
102
{ACAD_REACTORS
330
47
102
}
330
47
100
AcDbScale
 70
     0
300
4:1
140
4.0
141
1.0
290
     0
  0
SCALE
  5
56
102
{ACAD_REACTORS
330
47
102
}
330
47
100
AcDbScale
 70
     0
300
8:1
140
8.0
141
1.0
290
     0
  0
SCALE
  5
57
102
{ACAD_REACTORS
330
47
102
}
330
47
100
AcDbScale
 70
     0
300
10:1
140
10.0
141
1.0
290
     0
  0
SCALE
  5
58
102
{ACAD_REACTORS
330
47
102
}
330
47
100
AcDbScale
 70
     0
300
100:1
140
100.0
141
1.0
290
     0
  0
SCALE
  5
59
102
{ACAD_REACTORS
330
47
102
}
330
47
100
AcDbScale
 70
     0
300
1/128" = 1'-0"
140
0.0078125
141
12.0
290
     0
  0
SCALE
  5
5A
102
{ACAD_REACTORS
330
47
102
}
330
47
100
AcDbScale
 70
     0
300
1/64" = 1'-0"
140
0.015625
141
12.0
290
     0
  0
SCALE
  5
5B
102
{ACAD_REACTORS
330
47
102
}
330
47
100
AcDbScale
 70
     0
300
1/32" = 1'-0"
140
0.03125
141
12.0
290
     0
  0
SCALE
  5
5C
102
{ACAD_REACTORS
330
47
102
}
330
47
100
AcDbScale
 70
     0
300
1/16" = 1'-0"
140
0.0625
141
12.0
290
     0
  0
SCALE
  5
5D
102
{ACAD_REACTORS
330
47
102
}
330
47
100
AcDbScale
 70
     0
300
3/32" = 1'-0"
140
0.09375
141
12.0
290
     0
  0
SCALE
  5
5E
102
{ACAD_REACTORS
330
47
102
}
330
47
100
AcDbScale
 70
     0
300
1/8" = 1'-0"
140
0.125
141
12.0
290
     0
  0
SCALE
  5
5F
102
{ACAD_REACTORS
330
47
102
}
330
47
100
AcDbScale
 70
     0
300
3/16" = 1'-0"
140
0.1875
141
12.0
290
     0
  0
SCALE
  5
60
102
{ACAD_REACTORS
330
47
102
}
330
47
100
AcDbScale
 70
     0
300
1/4" = 1'-0"
140
0.25
141
12.0
290
     0
  0
SCALE
  5
61
102
{ACAD_REACTORS
330
47
102
}
330
47
100
AcDbScale
 70
     0
300
3/8" = 1'-0"
140
0.375
141
12.0
290
     0
  0
SCALE
  5
62
102
{ACAD_REACTORS
330
47
102
}
330
47
100
AcDbScale
 70
     0
300
1/2" = 1'-0"
140
0.5
141
12.0
290
     0
  0
SCALE
  5
63
102
{ACAD_REACTORS
330
47
102
}
330
47
100
AcDbScale
 70
     0
300
3/4" = 1'-0"
140
0.75
141
12.0
290
     0
  0
SCALE
  5
64
102
{ACAD_REACTORS
330
47
102
}
330
47
100
AcDbScale
 70
     0
300
1" = 1'-0"
140
1.0
141
12.0
290
     0
  0
SCALE
  5
65
102
{ACAD_REACTORS
330
47
102
}
330
47
100
AcDbScale
 70
     0
300
1-1/2" = 1'-0"
140
1.5
141
12.0
290
     0
  0
SCALE
  5
66
102
{ACAD_REACTORS
330
47
102
}
330
47
100
AcDbScale
 70
     0
300
3" = 1'-0"
140
3.0
141
12.0
290
     0
  0
SCALE
  5
67
102
{ACAD_REACTORS
330
47
102
}
330
47
100
AcDbScale
 70
     0
300
6" = 1'-0"
140
6.0
141
12.0
290
     0
  0
SCALE
  5
68
102
{ACAD_REACTORS
330
47
102
}
330
47
100
AcDbScale
 70
     0
300
1'-0" = 1'-0"
140
12.0
141
12.0
290
     0
  0
TABLESTYLE
  5
6A
102
{ACAD_REACTORS
330
69
102
}
102
{ACAD_XDICTIONARY
360
17F
102
}
330
69
100
AcDbTableStyle
  3
Standard
 70
     0
 71
     0
 40
0.06
 41
0.06
280
     0
281
     0
  7
Standard
140
0.18
170
     2
 62
     0
 63
   257
283
     0
 90
        4
 91
        0
  1

274
    -2
284
     1
 64
     0
275
    -2
285
     1
 65
     0
276
    -2
286
     1
 66
     0
277
    -2
287
     1
 67
     0
278
    -2
288
     1
 68
     0
279
    -2
289
     1
 69
     0
  7
Standard
140
0.25
170
     5
 62
     0
 63
   257
283
     0
 90
        4
 91
        0
  1

274
    -2
284
     1
 64
     0
275
    -2
285
     1
 65
     0
276
    -2
286
     1
 66
     0
277
    -2
287
     1
 67
     0
278
    -2
288
     1
 68
     0
279
    -2
289
     1
 69
     0
  7
Standard
140
0.18
170
     5
 62
     0
 63
   257
283
     0
 90
        4
 91
        0
  1

274
    -2
284
     1
 64
     0
275
    -2
285
     1
 65
     0
276
    -2
286
     1
 66
     0
277
    -2
287
     1
 67
     0
278
    -2
288
     1
 68
     0
279
    -2
289
     1
 69
     0
  0
VISUALSTYLE
  5
2F
102
{ACAD_REACTORS
330
2A
102
}
330
2A
100
AcDbVisualStyle
  2
2dWireframe
 70
     4
177
     3
291
     0
 70
    58
 90
        0
176
     1
 90
        2
176
     1
 90
        0
176
     1
 90
        0
176
     1
 40
0.6
176
     1
 40
30.0
176
     1
 62
     7
420
 16777215
176
     1
 90
        1
176
     1
 90
        4
176
     1
 62
     7
176
     1
 62
   257
176
     1
 90
        1
176
     1
 90
        1
176
     1
 40
1.0
176
     1
 90
        0
176
     1
 62
   257
176
     1
 40
1.0
176
     1
 90
        1
176
     1
 90
        6
176
     1
 90
        2
176
     1
 62
     7
176
     1
 90
        5
176
     1
 90
        0
176
     1
 90
        0
176
     1
290
     0
176
     1
 90
        1
176
     1
 40
0.0
176
     1
 90
        0
176
     1
290
     1
176
     1
290
     1
176
     1
290
     0
176
     1
290
     0
176
     1
290
     0
176
     1
290
     0
176
     1
290
     0
176
     1
290
     0
176
     1
290
     0
176
     1
 90
       50
176
     1
 40
0.0
176
     1
 40
1.0
176
     1
 90
        0
176
     1
 62
    18
420
        0
176
     1
 90
       50
176
     1
 90
        3
176
     1
 62
     5
420
      255
176
     1
290
     0
176
     1
 90
       50
176
     1
 90
       50
176
     1
 90
       50
176
     1
290
     0
176
     1
 90
       50
176
     1
 62
   256
176
     0
 40
1.0
176
     0
 90
        2
176
     1
  1
strokes_ogs.tif
176
     1
290
     0
176
     1
 40
1.0
176
     1
 40
1.0
176
     1
  0
VISUALSTYLE
  5
32
102
{ACAD_REACTORS
330
2A
102
}
330
2A
100
AcDbVisualStyle
  2
Basic
 70
     7
177
     3
291
     1
 70
    58
 90
        1
176
     1
 90
        0
176
     1
 90
        1
176
     1
 90
        0
176
     1
 40
0.6
176
     1
 40
30.0
176
     1
 62
     7
420
 16777215
176
     1
 90
        0
176
     1
 90
        4
176
     1
 62
     7
176
     1
 62
   257
176
     1
 90
        1
176
     1
 90
        1
176
     1
 40
1.0
176
     1
 90
        8
176
     1
 62
     7
176
     1
 40
1.0
176
     1
 90
        1
176
     1
 90
        6
176
     1
 90
        2
176
     1
 62
     7
176
     1
 90
        5
176
     1
 90
        0
176
     1
 90
        0
176
     1
290
     0
176
     1
 90
        1
176
     1
 40
0.0
176
     1
 90
        0
176
     1
290
     0
176
     1
290
     1
176
     1
290
     1
176
     1
290
     0
176
     1
290
     0
176
     1
290
     0
176
     1
290
     0
176
     1
290
     0
176
     1
290
     0
176
     1
 90
       50
176
     1
 40
0.0
176
     1
 40
1.0
176
     1
 90
        0
176
     1
 62
    18
420
        0
176
     1
 90
       50
176
     1
 90
        3
176
     1
 62
     5
420
      255
176
     1
290
     0
176
     1
 90
       50
176
     1
 90
       50
176
     1
 90
       50
176
     1
290
     0
176
     1
 90
       50
176
     1
 62
   256
176
     0
 40
1.0
176
     0
 90
        2
176
     1
  1
strokes_ogs.tif
176
     1
290
     0
176
     1
 40
1.0
176
     1
 40
1.0
176
     1
  0
VISUALSTYLE
  5
36
102
{ACAD_REACTORS
330
2A
102
}
330
2A
100
AcDbVisualStyle
  2
Brighten
 70
    12
177
     3
291
     1
 70
    58
 90
        2
176
     1
 90
        2
176
     1
 90
        0
176
     1
 90
        0
176
     1
 40
0.6
176
     1
 40
30.0
176
     1
 62
     7
420
 16777215
176
     1
 90
        1
176
     1
 90
        4
176
     1
 62
     7
176
     1
 62
   257
176
     1
 90
        1
176
     1
 90
        1
176
     1
 40
1.0
176
     1
 90
        8
176
     1
 62
     7
176
     1
 40
1.0
176
     1
 90
        1
176
     1
 90
        6
176
     1
 90
        2
176
     1
 62
     7
176
     1
 90
        5
176
     1
 90
        0
176
     1
 90
        0
176
     1
290
     0
176
     1
 90
        1
176
     1
 40
50.0
176
     1
 90
        0
176
     1
290
     0
176
     1
290
     1
176
     1
290
     1
176
     1
290
     0
176
     1
290
     0
176
     1
290
     0
176
     1
290
     0
176
     1
290
     0
176
     1
290
     0
176
     1
 90
       50
176
     1
 40
0.0
176
     1
 40
1.0
176
     1
 90
        0
176
     1
 62
    18
420
        0
176
     1
 90
       50
176
     1
 90
        3
176
     1
 62
     5
420
      255
176
     1
290
     0
176
     1
 90
       50
176
     1
 90
       50
176
     1
 90
       50
176
     1
290
     0
176
     1
 90
       50
176
     1
 62
   256
176
     0
 40
1.0
176
     0
 90
        2
176
     1
  1
strokes_ogs.tif
176
     1
290
     0
176
     1
 40
1.0
176
     1
 40
1.0
176
     1
  0
VISUALSTYLE
  5
3A
102
{ACAD_REACTORS
330
2A
102
}
330
2A
100
AcDbVisualStyle
  2
ColorChange
 70
    16
177
     3
291
     1
 70
    58
 90
        2
176
     1
 90
        2
176
     1
 90
        3
176
     1
 90
        0
176
     1
 40
0.6
176
     1
 40
30.0
176
     1
 62
     8
420
  8421504
176
     1
 90
        1
176
     1
 90
        4
176
     1
 62
     7
176
     1
 62
   257
176
     1
 90
        1
176
     1
 90
        1
176
     1
 40
1.0
176
     1
 90
        8
176
     1
 62
     8
420
  8421504
176
     1
 40
1.0
176
     1
 90
        1
176
     1
 90
        6
176
     1
 90
        2
176
     1
 62
     7
176
     1
 90
        5
176
     1
 90
        0
176
     1
 90
        0
176
     1
290
     0
176
     1
 90
        1
176
     1
 40
0.0
176
     1
 90
        0
176
     1
290
     0
176
     1
290
     1
176
     1
290
     1
176
     1
290
     0
176
     1
290
     0
176
     1
290
     0
176
     1
290
     0
176
     1
290
     0
176
     1
290
     0
176
     1
 90
       50
176
     1
 40
0.0
176
     1
 40
1.0
176
     1
 90
        0
176
     1
 62
    18
420
        0
176
     1
 90
       50
176
     1
 90
        3
176
     1
 62
     5
420
      255
176
     1
290
     0
176
     1
 90
       50
176
     1
 90
       50
176
     1
 90
       50
176
     1
290
     0
176
     1
 90
       50
176
     1
 62
   256
176
     0
 40
1.0
176
     0
 90
        2
176
     1
  1
strokes_ogs.tif
176
     1
290
     0
176
     1
 40
1.0
176
     1
 40
1.0
176
     1
  0
VISUALSTYLE
  5
34
102
{ACAD_REACTORS
330
2A
102
}
330
2A
100
AcDbVisualStyle
  2
Conceptual
 70
     9
177
     3
291
     0
 70
    58
 90
        3
176
     1
 90
        2
176
     1
 90
        0
176
     1
 90
        0
176
     1
 40
0.6
176
     1
 40
30.0
176
     1
 62
     7
420
 16777215
176
     1
 90
        2
176
     1
 90
        2
176
     1
 62
     7
176
     1
 62
   257
176
     1
 90
        1
176
     1
 90
        1
176
     1
 40
179.0
176
     1
 90
        8
176
     1
 62
     7
176
     1
 40
1.0
176
     1
 90
        1
176
     1
 90
        6
176
     1
 90
        2
176
     1
 62
     7
176
     1
 90
        3
176
     1
 90
        0
176
     1
 90
        0
176
     1
290
     0
176
     1
 90
        1
176
     1
 40
0.0
176
     1
 90
        0
176
     1
290
     0
176
     1
290
     1
176
     1
290
     1
176
     1
290
     0
176
     1
290
     0
176
     1
290
     0
176
     1
290
     0
176
     1
290
     0
176
     1
290
     0
176
     1
 90
       50
176
     1
 40
0.0
176
     1
 40
1.0
176
     1
 90
        0
176
     1
 62
    18
420
        0
176
     1
 90
       50
176
     1
 90
        3
176
     1
 62
     5
420
      255
176
     1
290
     0
176
     1
 90
       50
176
     1
 90
       50
176
     1
 90
       50
176
     1
290
     0
176
     1
 90
       50
176
     1
 62
   256
176
     0
 40
1.0
176
     0
 90
        2
176
     1
  1
strokes_ogs.tif
176
     1
290
     0
176
     1
 40
1.0
176
     1
 40
1.0
176
     1
  0
VISUALSTYLE
  5
35
102
{ACAD_REACTORS
330
2A
102
}
330
2A
100
AcDbVisualStyle
  2
Dim
 70
    11
177
     3
291
     1
 70
    58
 90
        2
176
     1
 90
        2
176
     1
 90
        0
176
     1
 90
        0
176
     1
 40
0.6
176
     1
 40
30.0
176
     1
 62
     7
420
 16777215
176
     1
 90
        1
176
     1
 90
        4
176
     1
 62
     7
176
     1
 62
   257
176
     1
 90
        1
176
     1
 90
        1
176
     1
 40
1.0
176
     1
 90
        8
176
     1
 62
     7
176
     1
 40
1.0
176
     1
 90
        1
176
     1
 90
        6
176
     1
 90
        2
176
     1
 62
     7
176
     1
 90
        5
176
     1
 90
        0
176
     1
 90
        0
176
     1
290
     0
176
     1
 90
        1
176
     1
 40
-50.0
176
     1
 90
        0
176
     1
290
     0
176
     1
290
     1
176
     1
290
     1
176
     1
290
     0
176
     1
290
     0
176
     1
290
     0
176
     1
290
     0
176
     1
290
     0
176
     1
290
     0
176
     1
 90
       50
176
     1
 40
0.0
176
     1
 40
1.0
176
     1
 90
        0
176
     1
 62
    18
420
        0
176
     1
 90
       50
176
     1
 90
        3
176
     1
 62
     5
420
      255
176
     1
290
     0
176
     1
 90
       50
176
     1
 90
       50
176
     1
 90
       50
176
     1
290
     0
176
     1
 90
       50
176
     1
 62
   256
176
     0
 40
1.0
176
     0
 90
        2
176
     1
  1
strokes_ogs.tif
176
     1
290
     0
176
     1
 40
1.0
176
     1
 40
1.0
176
     1
  0
VISUALSTYLE
  5
3D
102
{ACAD_REACTORS
330
2A
102
}
330
2A
100
AcDbVisualStyle
  2
EdgeColorOff
 70
    22
177
     3
291
     1
 70
    58
 90
        2
176
     0
 90
        2
176
     0
 90
        0
176
     0
 90
        0
176
     0
 40
0.6
176
     0
 40
30.0
176
     0
 62
     7
420
 16777215
176
     0
 90
        1
176
     0
 90
        4
176
     0
 62
     7
176
     0
 62
   257
176
     0
 90
        1
176
     0
 90
        1
176
     0
 40
1.0
176
     0
 90
        8
176
     2
 62
     7
176
     0
 40
1.0
176
     0
 90
        1
176
     0
 90
        6
176
     0
 90
        2
176
     0
 62
     7
176
     0
 90
        5
176
     0
 90
        0
176
     0
 90
        0
176
     0
290
     0
176
     0
 90
        1
176
     0
 40
0.0
176
     0
 90
        0
176
     0
290
     0
176
     0
290
     1
176
     0
290
     1
176
     0
290
     0
176
     0
290
     0
176
     0
290
     0
176
     0
290
     0
176
     0
290
     0
176
     0
290
     0
176
     0
 90
       50
176
     0
 40
0.0
176
     0
 40
1.0
176
     0
 90
        0
176
     0
 62
    18
420
        0
176
     0
 90
       50
176
     0
 90
        3
176
     0
 62
     5
420
      255
176
     0
290
     0
176
     0
 90
       50
176
     0
 90
       50
176
     0
 90
       50
176
     0
290
     0
176
     0
 90
       50
176
     0
 62
   256
176
     0
 40
1.0
176
     0
 90
        2
176
     0
  1
strokes_ogs.tif
176
     0
290
     0
176
     0
 40
1.0
176
     0
 40
1.0
176
     0
  0
VISUALSTYLE
  5
39
102
{ACAD_REACTORS
330
2A
102
}
330
2A
100
AcDbVisualStyle
  2
Facepattern
 70
    15
177
     3
291
     1
 70
    58
 90
        2
176
     1
 90
        2
176
     1
 90
        0
176
     1
 90
        0
176
     1
 40
0.6
176
     1
 40
30.0
176
     1
 62
     7
420
 16777215
176
     1
 90
        1
176
     1
 90
        4
176
     1
 62
     7
176
     1
 62
   257
176
     1
 90
        1
176
     1
 90
        1
176
     1
 40
1.0
176
     1
 90
        8
176
     1
 62
     7
176
     1
 40
1.0
176
     1
 90
        1
176
     1
 90
        6
176
     1
 90
        2
176
     1
 62
     7
176
     1
 90
        5
176
     1
 90
        0
176
     1
 90
        0
176
     1
290
     0
176
     1
 90
        1
176
     1
 40
0.0
176
     1
 90
        0
176
     1
290
     0
176
     1
290
     1
176
     1
290
     1
176
     1
290
     0
176
     1
290
     0
176
     1
290
     0
176
     1
290
     0
176
     1
290
     0
176
     1
290
     0
176
     1
 90
       50
176
     1
 40
0.0
176
     1
 40
1.0
176
     1
 90
        0
176
     1
 62
    18
420
        0
176
     1
 90
       50
176
     1
 90
        3
176
     1
 62
     5
420
      255
176
     1
290
     0
176
     1
 90
       50
176
     1
 90
       50
176
     1
 90
       50
176
     1
290
     0
176
     1
 90
       50
176
     1
 62
   256
176
     0
 40
1.0
176
     0
 90
        2
176
     1
  1
strokes_ogs.tif
176
     1
290
     0
176
     1
 40
1.0
176
     1
 40
1.0
176
     1
  0
VISUALSTYLE
  5
2B
102
{ACAD_REACTORS
330
2A
102
}
330
2A
100
AcDbVisualStyle
  2
Flat
 70
     0
177
     3
291
     1
 70
    58
 90
        2
176
     1
 90
        1
176
     1
 90
        1
176
     1
 90
        2
176
     1
 40
0.6
176
     1
 40
30.0
176
     1
 62
     7
420
 16777215
176
     1
 90
        0
176
     1
 90
        0
176
     1
 62
     7
176
     1
 62
   257
176
     1
 90
        1
176
     1
 90
        1
176
     1
 40
1.0
176
     1
 90
        8
176
     1
 62
     7
176
     1
 40
1.0
176
     1
 90
        1
176
     1
 90
        6
176
     1
 90
        2
176
     1
 62
     7
176
     1
 90
        5
176
     1
 90
        0
176
     1
 90
        0
176
     1
290
     0
176
     1
 90
       13
176
     1
 40
0.0
176
     1
 90
        0
176
     1
290
     0
176
     1
290
     1
176
     1
290
     1
176
     1
290
     0
176
     1
290
     0
176
     1
290
     0
176
     1
290
     0
176
     1
290
     0
176
     1
290
     0
176
     1
 90
       50
176
     1
 40
0.0
176
     1
 40
1.0
176
     1
 90
        0
176
     1
 62
    18
420
        0
176
     1
 90
       50
176
     1
 90
        3
176
     1
 62
     5
420
      255
176
     1
290
     0
176
     1
 90
       50
176
     1
 90
       50
176
     1
 90
       50
176
     1
290
     0
176
     1
 90
       50
176
     1
 62
   256
176
     0
 40
1.0
176
     0
 90
        2
176
     1
  1
strokes_ogs.tif
176
     1
290
     0
176
     1
 40
1.0
176
     1
 40
1.0
176
     1
  0
VISUALSTYLE
  5
2C
102
{ACAD_REACTORS
330
2A
102
}
330
2A
100
AcDbVisualStyle
  2
FlatWithEdges
 70
     1
177
     3
291
     1
 70
    58
 90
        2
176
     1
 90
        1
176
     1
 90
        1
176
     1
 90
        2
176
     1
 40
0.6
176
     1
 40
30.0
176
     1
 62
     7
420
 16777215
176
     1
 90
        1
176
     1
 90
        0
176
     1
 62
     7
176
     1
 62
   257
176
     1
 90
        1
176
     1
 90
        1
176
     1
 40
1.0
176
     1
 90
        0
176
     1
 62
   257
176
     1
 40
1.0
176
     1
 90
        1
176
     1
 90
        6
176
     1
 90
        2
176
     1
 62
     7
176
     1
 90
        5
176
     1
 90
        0
176
     1
 90
        0
176
     1
290
     0
176
     1
 90
       13
176
     1
 40
0.0
176
     1
 90
        0
176
     1
290
     0
176
     1
290
     1
176
     1
290
     1
176
     1
290
     0
176
     1
290
     0
176
     1
290
     0
176
     1
290
     0
176
     1
290
     0
176
     1
290
     0
176
     1
 90
       50
176
     1
 40
0.0
176
     1
 40
1.0
176
     1
 90
        0
176
     1
 62
    18
420
        0
176
     1
 90
       50
176
     1
 90
        3
176
     1
 62
     5
420
      255
176
     1
290
     0
176
     1
 90
       50
176
     1
 90
       50
176
     1
 90
       50
176
     1
290
     0
176
     1
 90
       50
176
     1
 62
   256
176
     0
 40
1.0
176
     0
 90
        2
176
     1
  1
strokes_ogs.tif
176
     1
290
     0
176
     1
 40
1.0
176
     1
 40
1.0
176
     1
  0
VISUALSTYLE
  5
2D
102
{ACAD_REACTORS
330
2A
102
}
330
2A
100
AcDbVisualStyle
  2
Gouraud
 70
     2
177
     3
291
     1
 70
    58
 90
        2
176
     1
 90
        2
176
     1
 90
        1
176
     1
 90
        2
176
     1
 40
0.6
176
     1
 40
30.0
176
     1
 62
     7
420
 16777215
176
     1
 90
        0
176
     1
 90
        0
176
     1
 62
     7
176
     1
 62
   257
176
     1
 90
        1
176
     1
 90
        1
176
     1
 40
1.0
176
     1
 90
        0
176
     1
 62
     7
176
     1
 40
1.0
176
     1
 90
        1
176
     1
 90
        6
176
     1
 90
        2
176
     1
 62
     7
176
     1
 90
        5
176
     1
 90
        0
176
     1
 90
        0
176
     1
290
     0
176
     1
 90
       13
176
     1
 40
0.0
176
     1
 90
        0
176
     1
290
     0
176
     1
290
     1
176
     1
290
     1
176
     1
290
     0
176
     1
290
     0
176
     1
290
     0
176
     1
290
     0
176
     1
290
     0
176
     1
290
     0
176
     1
 90
       50
176
     1
 40
0.0
176
     1
 40
1.0
176
     1
 90
        0
176
     1
 62
    18
420
        0
176
     1
 90
       50
176
     1
 90
        3
176
     1
 62
     5
420
      255
176
     1
290
     0
176
     1
 90
       50
176
     1
 90
       50
176
     1
 90
       50
176
     1
290
     0
176
     1
 90
       50
176
     1
 62
   256
176
     0
 40
1.0
176
     0
 90
        2
176
     1
  1
strokes_ogs.tif
176
     1
290
     0
176
     1
 40
1.0
176
     1
 40
1.0
176
     1
  0
VISUALSTYLE
  5
2E
102
{ACAD_REACTORS
330
2A
102
}
330
2A
100
AcDbVisualStyle
  2
GouraudWithEdges
 70
     3
177
     3
291
     1
 70
    58
 90
        2
176
     1
 90
        2
176
     1
 90
        1
176
     1
 90
        2
176
     1
 40
0.6
176
     1
 40
30.0
176
     1
 62
     7
420
 16777215
176
     1
 90
        1
176
     1
 90
        0
176
     1
 62
     7
176
     1
 62
   257
176
     1
 90
        1
176
     1
 90
        1
176
     1
 40
1.0
176
     1
 90
        0
176
     1
 62
   257
176
     1
 40
1.0
176
     1
 90
        1
176
     1
 90
        6
176
     1
 90
        2
176
     1
 62
     7
176
     1
 90
        5
176
     1
 90
        0
176
     1
 90
        0
176
     1
290
     0
176
     1
 90
       13
176
     1
 40
0.0
176
     1
 90
        0
176
     1
290
     0
176
     1
290
     1
176
     1
290
     1
176
     1
290
     0
176
     1
290
     0
176
     1
290
     0
176
     1
290
     0
176
     1
290
     0
176
     1
290
     0
176
     1
 90
       50
176
     1
 40
0.0
176
     1
 40
1.0
176
     1
 90
        0
176
     1
 62
    18
420
        0
176
     1
 90
       50
176
     1
 90
        3
176
     1
 62
     5
420
      255
176
     1
290
     0
176
     1
 90
       50
176
     1
 90
       50
176
     1
 90
       50
176
     1
290
     0
176
     1
 90
       50
176
     1
 62
   256
176
     0
 40
1.0
176
     0
 90
        2
176
     1
  1
strokes_ogs.tif
176
     1
290
     0
176
     1
 40
1.0
176
     1
 40
1.0
176
     1
  0
VISUALSTYLE
  5
31
102
{ACAD_REACTORS
330
2A
102
}
330
2A
100
AcDbVisualStyle
  2
Hidden
 70
     6
177
     3
291
     0
 70
    58
 90
        1
176
     1
 90
        2
176
     1
 90
        2
176
     1
 90
        0
176
     1
 40
0.6
176
     1
 40
30.0
176
     1
 62
     7
420
 16777215
176
     1
 90
        2
176
     1
 90
        2
176
     1
 62
     7
176
     1
 62
   257
176
     1
 90
        2
176
     1
 90
        1
176
     1
 40
40.0
176
     1
 90
        0
176
     1
 62
   257
176
     1
 40
1.0
176
     1
 90
        1
176
     1
 90
        6
176
     1
 90
        2
176
     1
 62
     7
176
     1
 90
        3
176
     1
 90
        0
176
     1
 90
        0
176
     1
290
     0
176
     1
 90
        1
176
     1
 40
0.0
176
     1
 90
        0
176
     1
290
     0
176
     1
290
     1
176
     1
290
     1
176
     1
290
     0
176
     1
290
     0
176
     1
290
     0
176
     1
290
     0
176
     1
290
     0
176
     1
290
     0
176
     1
 90
       50
176
     1
 40
0.0
176
     1
 40
1.0
176
     1
 90
        0
176
     1
 62
    18
420
        0
176
     1
 90
       50
176
     1
 90
        3
176
     1
 62
     5
420
      255
176
     1
290
     0
176
     1
 90
       50
176
     1
 90
       50
176
     1
 90
       50
176
     1
290
     0
176
     1
 90
       50
176
     1
 62
   256
176
     0
 40
1.0
176
     0
 90
        2
176
     1
  1
strokes_ogs.tif
176
     1
290
     0
176
     1
 40
1.0
176
     1
 40
1.0
176
     1
  0
VISUALSTYLE
  5
3B
102
{ACAD_REACTORS
330
2A
102
}
330
2A
100
AcDbVisualStyle
  2
JitterOff
 70
    20
177
     3
291
     1
 70
    58
 90
        2
176
     0
 90
        2
176
     0
 90
        0
176
     0
 90
        0
176
     0
 40
0.6
176
     0
 40
30.0
176
     0
 62
     7
420
 16777215
176
     0
 90
        1
176
     0
 90
        4
176
     0
 62
     7
176
     0
 62
   257
176
     0
 90
        1
176
     0
 90
        1
176
     0
 40
1.0
176
     0
 90
       10
176
     2
 62
     7
176
     0
 40
1.0
176
     0
 90
        1
176
     0
 90
        6
176
     0
 90
        2
176
     0
 62
     7
176
     0
 90
        5
176
     0
 90
        0
176
     0
 90
        0
176
     0
290
     0
176
     0
 90
        1
176
     0
 40
0.0
176
     0
 90
        0
176
     0
290
     0
176
     0
290
     1
176
     0
290
     1
176
     0
290
     0
176
     0
290
     0
176
     0
290
     0
176
     0
290
     0
176
     0
290
     0
176
     0
290
     0
176
     0
 90
       50
176
     0
 40
0.0
176
     0
 40
1.0
176
     0
 90
        0
176
     0
 62
    18
420
        0
176
     0
 90
       50
176
     0
 90
        3
176
     0
 62
     5
420
      255
176
     0
290
     0
176
     0
 90
       50
176
     0
 90
       50
176
     0
 90
       50
176
     0
290
     0
176
     0
 90
       50
176
     0
 62
   256
176
     0
 40
1.0
176
     0
 90
        2
176
     0
  1
strokes_ogs.tif
176
     0
290
     0
176
     0
 40
1.0
176
     0
 40
1.0
176
     0
  0
VISUALSTYLE
  5
38
102
{ACAD_REACTORS
330
2A
102
}
330
2A
100
AcDbVisualStyle
  2
Linepattern
 70
    14
177
     3
291
     1
 70
    58
 90
        2
176
     1
 90
        2
176
     1
 90
        0
176
     1
 90
        0
176
     1
 40
0.6
176
     1
 40
30.0
176
     1
 62
     7
420
 16777215
176
     1
 90
        1
176
     1
 90
        4
176
     1
 62
     7
176
     1
 62
   257
176
     1
 90
        7
176
     1
 90
        7
176
     1
 40
1.0
176
     1
 90
        8
176
     1
 62
     7
176
     1
 40
1.0
176
     1
 90
        1
176
     1
 90
        6
176
     1
 90
        2
176
     1
 62
     7
176
     1
 90
        5
176
     1
 90
        0
176
     1
 90
        0
176
     1
290
     0
176
     1
 90
        1
176
     1
 40
0.0
176
     1
 90
        0
176
     1
290
     0
176
     1
290
     1
176
     1
290
     1
176
     1
290
     0
176
     1
290
     0
176
     1
290
     0
176
     1
290
     0
176
     1
290
     0
176
     1
290
     0
176
     1
 90
       50
176
     1
 40
0.0
176
     1
 40
1.0
176
     1
 90
        0
176
     1
 62
    18
420
        0
176
     1
 90
       50
176
     1
 90
        3
176
     1
 62
     5
420
      255
176
     1
290
     0
176
     1
 90
       50
176
     1
 90
       50
176
     1
 90
       50
176
     1
290
     0
176
     1
 90
       50
176
     1
 62
   256
176
     0
 40
1.0
176
     0
 90
        2
176
     1
  1
strokes_ogs.tif
176
     1
290
     0
176
     1
 40
1.0
176
     1
 40
1.0
176
     1
  0
VISUALSTYLE
  5
3C
102
{ACAD_REACTORS
330
2A
102
}
330
2A
100
AcDbVisualStyle
  2
OverhangOff
 70
    21
177
     3
291
     1
 70
    58
 90
        2
176
     0
 90
        2
176
     0
 90
        0
176
     0
 90
        0
176
     0
 40
0.6
176
     0
 40
30.0
176
     0
 62
     7
420
 16777215
176
     0
 90
        1
176
     0
 90
        4
176
     0
 62
     7
176
     0
 62
   257
176
     0
 90
        1
176
     0
 90
        1
176
     0
 40
1.0
176
     0
 90
        9
176
     2
 62
     7
176
     0
 40
1.0
176
     0
 90
        1
176
     0
 90
        6
176
     0
 90
        2
176
     0
 62
     7
176
     0
 90
        5
176
     0
 90
        0
176
     0
 90
        0
176
     0
290
     0
176
     0
 90
        1
176
     0
 40
0.0
176
     0
 90
        0
176
     0
290
     0
176
     0
290
     1
176
     0
290
     1
176
     0
290
     0
176
     0
290
     0
176
     0
290
     0
176
     0
290
     0
176
     0
290
     0
176
     0
290
     0
176
     0
 90
       50
176
     0
 40
0.0
176
     0
 40
1.0
176
     0
 90
        0
176
     0
 62
    18
420
        0
176
     0
 90
       50
176
     0
 90
        3
176
     0
 62
     5
420
      255
176
     0
290
     0
176
     0
 90
       50
176
     0
 90
       50
176
     0
 90
       50
176
     0
290
     0
176
     0
 90
       50
176
     0
 62
   256
176
     0
 40
1.0
176
     0
 90
        2
176
     0
  1
strokes_ogs.tif
176
     0
290
     0
176
     0
 40
1.0
176
     0
 40
1.0
176
     0
  0
VISUALSTYLE
  5
33
102
{ACAD_REACTORS
330
2A
102
}
330
2A
100
AcDbVisualStyle
  2
Realistic
 70
     8
177
     3
291
     0
 70
    58
 90
        2
176
     1
 90
        3
176
     1
 90
        0
176
     1
 90
        2
176
     1
 40
0.6
176
     1
 40
30.0
176
     1
 62
     7
420
 16777215
176
     1
 90
        0
176
     1
 90
        0
176
     1
 62
     7
176
     1
 62
   257
176
     1
 90
        1
176
     1
 90
        1
176
     1
 40
1.0
176
     1
 90
        8
176
     1
 62
   257
176
     1
 40
1.0
176
     1
 90
        1
176
     1
 90
        6
176
     1
 90
        2
176
     1
 62
     7
176
     1
 90
        3
176
     1
 90
        0
176
     1
 90
        0
176
     1
290
     0
176
     1
 90
       13
176
     1
 40
0.0
176
     1
 90
        0
176
     1
290
     0
176
     1
290
     1
176
     1
290
     1
176
     1
290
     0
176
     1
290
     0
176
     1
290
     0
176
     1
290
     0
176
     1
290
     0
176
     1
290
     0
176
     1
 90
       50
176
     1
 40
0.0
176
     1
 40
1.0
176
     1
 90
        0
176
     1
 62
    18
420
        0
176
     1
 90
       50
176
     1
 90
        3
176
     1
 62
     5
420
      255
176
     1
290
     0
176
     1
 90
       50
176
     1
 90
       50
176
     1
 90
       50
176
     1
290
     0
176
     1
 90
       50
176
     1
 62
   256
176
     0
 40
1.0
176
     0
 90
        2
176
     1
  1
strokes_ogs.tif
176
     1
290
     0
176
     1
 40
1.0
176
     1
 40
1.0
176
     1
  0
VISUALSTYLE
  5
42
102
{ACAD_REACTORS
330
2A
102
}
330
2A
100
AcDbVisualStyle
  2
Shaded
 70
    27
177
     3
291
     0
 70
    58
 90
        2
176
     1
 90
        2
176
     1
 90
        1
176
     1
 90
        2
176
     1
 40
0.6
176
     1
 40
30.0
176
     1
 62
     7
420
 16777215
176
     1
 90
        0
176
     1
 90
        4
176
     1
 62
     7
176
     1
 62
   257
176
     1
 90
        1
176
     1
 90
        1
176
     1
 40
1.0
176
     1
 90
        8
176
     1
 62
   257
176
     1
 40
1.0
176
     1
 90
        1
176
     1
 90
        6
176
     1
 90
        2
176
     1
 62
     8
420
  7895160
176
     1
 90
        3
176
     1
 90
        0
176
     1
 90
        0
176
     1
290
     0
176
     1
 90
        5
176
     1
 40
0.0
176
     1
 90
        0
176
     1
290
     0
176
     1
290
     1
176
     1
290
     1
176
     1
290
     0
176
     1
290
     0
176
     1
290
     0
176
     1
290
     0
176
     1
290
     0
176
     1
290
     0
176
     1
 90
       50
176
     1
 40
0.0
176
     1
 40
1.0
176
     1
 90
        0
176
     1
 62
    18
420
        0
176
     1
 90
       50
176
     1
 90
        3
176
     1
 62
     5
420
      255
176
     1
290
     0
176
     1
 90
       50
176
     1
 90
       50
176
     1
 90
       50
176
     1
290
     0
176
     1
 90
       50
176
     1
 62
   256
176
     0
 40
1.0
176
     0
 90
        2
176
     1
  1
strokes_ogs.tif
176
     1
290
     0
176
     1
 40
1.0
176
     1
 40
1.0
176
     1
  0
VISUALSTYLE
  5
41
102
{ACAD_REACTORS
330
2A
102
}
330
2A
100
AcDbVisualStyle
  2
Shaded with edges
 70
    26
177
     3
291
     0
 70
    58
 90
        2
176
     1
 90
        2
176
     1
 90
        1
176
     1
 90
        2
176
     1
 40
0.6
176
     1
 40
30.0
176
     1
 62
     7
420
 16777215
176
     1
 90
        1
176
     1
 90
       10
176
     1
 62
     7
176
     1
 62
   257
176
     1
 90
        2
176
     1
 90
        1
176
     1
 40
1.0
176
     1
 90
        8
176
     1
 62
   257
176
     1
 40
1.0
176
     1
 90
        1
176
     1
 90
        6
176
     1
 90
        2
176
     1
 62
     7
176
     1
 90
        3
176
     1
 90
        0
176
     1
 90
        0
176
     1
290
     0
176
     1
 90
        5
176
     1
 40
0.0
176
     1
 90
        0
176
     1
290
     0
176
     1
290
     1
176
     1
290
     1
176
     1
290
     0
176
     1
290
     0
176
     1
290
     0
176
     1
290
     0
176
     1
290
     0
176
     1
290
     0
176
     1
 90
       50
176
     1
 40
0.0
176
     1
 40
1.0
176
     1
 90
        0
176
     1
 62
    18
420
        0
176
     1
 90
       50
176
     1
 90
        3
176
     1
 62
     5
420
      255
176
     1
290
     0
176
     1
 90
       50
176
     1
 90
       50
176
     1
 90
       50
176
     1
290
     0
176
     1
 90
       50
176
     1
 62
   256
176
     0
 40
1.0
176
     0
 90
        2
176
     1
  1
strokes_ogs.tif
176
     1
290
     0
176
     1
 40
1.0
176
     1
 40
1.0
176
     1
  0
VISUALSTYLE
  5
3E
102
{ACAD_REACTORS
330
2A
102
}
330
2A
100
AcDbVisualStyle
  2
Shades of Gray
 70
    23
177
     3
291
     0
 70
    58
 90
        2
176
     1
 90
        2
176
     1
 90
        3
176
     1
 90
        0
176
     1
 40
0.6
176
     1
 40
30.0
176
     1
 62
     7
420
 16777215
176
     1
 90
        2
176
     1
 90
        2
176
     1
 62
     7
176
     1
 62
     7
176
     1
 90
        1
176
     1
 90
        1
176
     1
 40
40.0
176
     1
 90
        8
176
     1
 62
     7
176
     1
 40
1.0
176
     1
 90
        1
176
     1
 90
        6
176
     1
 90
        2
176
     1
 62
     7
176
     1
 90
        3
176
     1
 90
        0
176
     1
 90
        0
176
     1
290
     0
176
     1
 90
        1
176
     1
 40
0.0
176
     1
 90
        0
176
     1
290
     0
176
     1
290
     1
176
     1
290
     1
176
     1
290
     0
176
     1
290
     0
176
     1
290
     0
176
     1
290
     0
176
     1
290
     0
176
     1
290
     0
176
     1
 90
       50
176
     1
 40
0.0
176
     1
 40
1.0
176
     1
 90
        0
176
     1
 62
    18
420
        0
176
     1
 90
       50
176
     1
 90
        3
176
     1
 62
     5
420
      255
176
     1
290
     0
176
     1
 90
       50
176
     1
 90
       50
176
     1
 90
       50
176
     1
290
     0
176
     1
 90
       50
176
     1
 62
   256
176
     0
 40
1.0
176
     0
 90
        2
176
     1
  1
strokes_ogs.tif
176
     1
290
     0
176
     1
 40
1.0
176
     1
 40
1.0
176
     1
  0
VISUALSTYLE
  5
3F
102
{ACAD_REACTORS
330
2A
102
}
330
2A
100
AcDbVisualStyle
  2
Sketchy
 70
    24
177
     3
291
     0
 70
    58
 90
        1
176
     1
 90
        2
176
     1
 90
        2
176
     1
 90
        0
176
     1
 40
0.6
176
     1
 40
30.0
176
     1
 62
     7
420
 16777215
176
     1
 90
        2
176
     1
 90
        2
176
     1
 62
     7
176
     1
 62
     7
176
     1
 90
        1
176
     1
 90
        1
176
     1
 40
40.0
176
     1
 90
       11
176
     1
 62
     7
176
     1
 40
1.0
176
     1
 90
        1
176
     1
 90
        6
176
     1
 90
        2
176
     1
 62
     7
176
     1
 90
        6
176
     1
 90
        0
176
     1
 90
        0
176
     1
290
     0
176
     1
 90
        1
176
     1
 40
0.0
176
     1
 90
        0
176
     1
290
     0
176
     1
290
     1
176
     1
290
     1
176
     1
290
     0
176
     1
290
     0
176
     1
290
     0
176
     1
290
     0
176
     1
290
     0
176
     1
290
     0
176
     1
 90
       50
176
     1
 40
0.0
176
     1
 40
1.0
176
     1
 90
        0
176
     1
 62
    18
420
        0
176
     1
 90
       50
176
     1
 90
        3
176
     1
 62
     5
420
      255
176
     1
290
     0
176
     1
 90
       50
176
     1
 90
       50
176
     1
 90
       50
176
     1
290
     0
176
     1
 90
       50
176
     1
 62
   256
176
     0
 40
1.0
176
     0
 90
        2
176
     1
  1
strokes_ogs.tif
176
     1
290
     0
176
     1
 40
1.0
176
     1
 40
1.0
176
     1
  0
VISUALSTYLE
  5
37
102
{ACAD_REACTORS
330
2A
102
}
330
2A
100
AcDbVisualStyle
  2
Thicken
 70
    13
177
     3
291
     1
 70
    58
 90
        2
176
     1
 90
        2
176
     1
 90
        0
176
     1
 90
        0
176
     1
 40
0.6
176
     1
 40
30.0
176
     1
 62
     7
420
 16777215
176
     1
 90
        1
176
     1
 90
        4
176
     1
 62
     7
176
     1
 62
   257
176
     1
 90
        1
176
     1
 90
        1
176
     1
 40
1.0
176
     1
 90
       12
176
     1
 62
     7
176
     1
 40
1.0
176
     1
 90
        1
176
     1
 90
        6
176
     1
 90
        2
176
     1
 62
     7
176
     1
 90
        5
176
     1
 90
        0
176
     1
 90
        0
176
     1
290
     0
176
     1
 90
        1
176
     1
 40
0.0
176
     1
 90
        0
176
     1
290
     0
176
     1
290
     1
176
     1
290
     1
176
     1
290
     0
176
     1
290
     0
176
     1
290
     0
176
     1
290
     0
176
     1
290
     0
176
     1
290
     0
176
     1
 90
       50
176
     1
 40
0.0
176
     1
 40
1.0
176
     1
 90
        0
176
     1
 62
    18
420
        0
176
     1
 90
       50
176
     1
 90
        3
176
     1
 62
     5
420
      255
176
     1
290
     0
176
     1
 90
       50
176
     1
 90
       50
176
     1
 90
       50
176
     1
290
     0
176
     1
 90
       50
176
     1
 62
   256
176
     0
 40
1.0
176
     0
 90
        2
176
     1
  1
strokes_ogs.tif
176
     1
290
     0
176
     1
 40
1.0
176
     1
 40
1.0
176
     1
  0
VISUALSTYLE
  5
30
102
{ACAD_REACTORS
330
2A
102
}
330
2A
100
AcDbVisualStyle
  2
Wireframe
 70
     5
177
     3
291
     0
 70
    58
 90
        0
176
     1
 90
        2
176
     1
 90
        0
176
     1
 90
        0
176
     1
 40
0.6
176
     1
 40
30.0
176
     1
 62
     7
420
 16777215
176
     1
 90
        1
176
     1
 90
        4
176
     1
 62
     7
176
     1
 62
   257
176
     1
 90
        1
176
     1
 90
        1
176
     1
 40
1.0
176
     1
 90
        0
176
     1
 62
   257
176
     1
 40
1.0
176
     1
 90
        1
176
     1
 90
        6
176
     1
 90
        2
176
     1
 62
     7
176
     1
 90
        3
176
     1
 90
        0
176
     1
 90
        0
176
     1
290
     0
176
     1
 90
        1
176
     1
 40
0.0
176
     1
 90
        0
176
     1
290
     0
176
     1
290
     1
176
     1
290
     1
176
     1
290
     0
176
     1
290
     0
176
     1
290
     0
176
     1
290
     0
176
     1
290
     0
176
     1
290
     0
176
     1
 90
       50
176
     1
 40
0.0
176
     1
 40
1.0
176
     1
 90
        0
176
     1
 62
    18
420
        0
176
     1
 90
       50
176
     1
 90
        3
176
     1
 62
     5
420
      255
176
     1
290
     0
176
     1
 90
       50
176
     1
 90
       50
176
     1
 90
       50
176
     1
290
     0
176
     1
 90
       50
176
     1
 62
   256
176
     0
 40
1.0
176
     0
 90
        2
176
     1
  1
strokes_ogs.tif
176
     1
290
     0
176
     1
 40
1.0
176
     1
 40
1.0
176
     1
  0
VISUALSTYLE
  5
40
102
{ACAD_REACTORS
330
2A
102
}
330
2A
100
AcDbVisualStyle
  2
X-Ray
 70
    25
177
     3
291
     0
 70
    58
 90
        2
176
     1
 90
        2
176
     1
 90
        1
176
     1
 90
        1
176
     1
 40
0.5
176
     1
 40
30.0
176
     1
 62
     7
420
 16777215
176
     1
 90
        1
176
     1
 90
        0
176
     1
 62
     7
176
     1
 62
   257
176
     1
 90
        1
176
     1
 90
        1
176
     1
 40
1.0
176
     1
 90
        8
176
     1
 62
     7
176
     1
 40
1.0
176
     1
 90
        1
176
     1
 90
        6
176
     1
 90
        2
176
     1
 62
     7
176
     1
 90
        3
176
     1
 90
        0
176
     1
 90
        0
176
     1
290
     0
176
     1
 90
       13
176
     1
 40
0.0
176
     1
 90
        0
176
     1
290
     0
176
     1
290
     1
176
     1
290
     1
176
     1
290
     0
176
     1
290
     0
176
     1
290
     0
176
     1
290
     0
176
     1
290
     0
176
     1
290
     0
176
     1
 90
       50
176
     1
 40
0.0
176
     1
 40
1.0
176
     1
 90
        0
176
     1
 62
    18
420
        0
176
     1
 90
       50
176
     1
 90
        3
176
     1
 62
     5
420
      255
176
     1
290
     0
176
     1
 90
       50
176
     1
 90
       50
176
     1
 90
       50
176
     1
290
     0
176
     1
 90
       50
176
     1
 62
   256
176
     0
 40
1.0
176
     0
 90
        2
176
     1
  1
strokes_ogs.tif
176
     1
290
     0
176
     1
 40
1.0
176
     1
 40
1.0
176
     1
  0
DICTIONARYVAR
  5
17E
102
{ACAD_REACTORS
330
17D
102
}
330
17D
100
DictionaryVariables
280
     0
  1
1:1
  0
DICTIONARYVAR
  5
183
102
{ACAD_REACTORS
330
17D
102
}
330
17D
100
DictionaryVariables
280
     0
  1
Standard
  0
DICTIONARYVAR
  5
182
102
{ACAD_REACTORS
330
17D
102
}
330
17D
100
DictionaryVariables
280
     0
  1
Standard
  0
DICTIONARY
  5
17F
330
6A
100
AcDbDictionary
280
     1
281
     1
  3
ACAD_ROUNDTRIP_2008_TABLESTYLE_CELLSTYLEMAP
360
180
  0
CELLSTYLEMAP
  5
180
102
{ACAD_REACTORS
330
17F
102
}
330
17F
100
AcDbCellStyleMap
 90
        3
300
CELLSTYLE
  1
TABLEFORMAT_BEGIN
 90
        5
170
     1
 91
        0
 92
    32768
 62
   257
 93
        1
300
CONTENTFORMAT
  1
CONTENTFORMAT_BEGIN
 90
        0
 91
        0
 92
        4
 93
        0
300

 40
0.0
140
1.0
 94
        5
 62
     0
340
11
144
0.25
309
CONTENTFORMAT_END
171
     1
301
MARGIN
  1
CELLMARGIN_BEGIN
 40
0.06
 40
0.06
 40
0.06
 40
0.06
 40
0.06
 40
0.06
309
CELLMARGIN_END
 94
        6
 95
        1
302
GRIDFORMAT
  1
GRIDFORMAT_BEGIN
 90
        0
 91
        1
 62
     0
 92
       -2
340
14
 93
        0
 40
0.045
309
GRIDFORMAT_END
 95
        2
302
GRIDFORMAT
  1
GRIDFORMAT_BEGIN
 90
        0
 91
        1
 62
     0
 92
       -2
340
14
 93
        0
 40
0.045
309
GRIDFORMAT_END
 95
        4
302
GRIDFORMAT
  1
GRIDFORMAT_BEGIN
 90
        0
 91
        1
 62
     0
 92
       -2
340
14
 93
        0
 40
0.045
309
GRIDFORMAT_END
 95
        8
302
GRIDFORMAT
  1
GRIDFORMAT_BEGIN
 90
        0
 91
        1
 62
     0
 92
       -2
340
14
 93
        0
 40
0.045
309
GRIDFORMAT_END
 95
       16
302
GRIDFORMAT
  1
GRIDFORMAT_BEGIN
 90
        0
 91
        1
 62
     0
 92
       -2
340
14
 93
        0
 40
0.045
309
GRIDFORMAT_END
 95
       32
302
GRIDFORMAT
  1
GRIDFORMAT_BEGIN
 90
        0
 91
        1
 62
     0
 92
       -2
340
14
 93
        0
 40
0.045
309
GRIDFORMAT_END
309
TABLEFORMAT_END
  1
CELLSTYLE_BEGIN
 90
        1
 91
        1
300
_TITLE
309
CELLSTYLE_END
300
CELLSTYLE
  1
TABLEFORMAT_BEGIN
 90
        5
170
     1
 91
        0
 92
        0
 62
   257
 93
        1
300
CONTENTFORMAT
  1
CONTENTFORMAT_BEGIN
 90
        0
 91
        0
 92
        4
 93
        0
300

 40
0.0
140
1.0
 94
        5
 62
     0
340
11
144
0.18
309
CONTENTFORMAT_END
171
     1
301
MARGIN
  1
CELLMARGIN_BEGIN
 40
0.06
 40
0.06
 40
0.06
 40
0.06
 40
0.06
 40
0.06
309
CELLMARGIN_END
 94
        6
 95
        1
302
GRIDFORMAT
  1
GRIDFORMAT_BEGIN
 90
        0
 91
        1
 62
     0
 92
       -2
340
14
 93
        0
 40
0.045
309
GRIDFORMAT_END
 95
        2
302
GRIDFORMAT
  1
GRIDFORMAT_BEGIN
 90
        0
 91
        1
 62
     0
 92
       -2
340
14
 93
        0
 40
0.045
309
GRIDFORMAT_END
 95
        4
302
GRIDFORMAT
  1
GRIDFORMAT_BEGIN
 90
        0
 91
        1
 62
     0
 92
       -2
340
14
 93
        0
 40
0.045
309
GRIDFORMAT_END
 95
        8
302
GRIDFORMAT
  1
GRIDFORMAT_BEGIN
 90
        0
 91
        1
 62
     0
 92
       -2
340
14
 93
        0
 40
0.045
309
GRIDFORMAT_END
 95
       16
302
GRIDFORMAT
  1
GRIDFORMAT_BEGIN
 90
        0
 91
        1
 62
     0
 92
       -2
340
14
 93
        0
 40
0.045
309
GRIDFORMAT_END
 95
       32
302
GRIDFORMAT
  1
GRIDFORMAT_BEGIN
 90
        0
 91
        1
 62
     0
 92
       -2
340
14
 93
        0
 40
0.045
309
GRIDFORMAT_END
309
TABLEFORMAT_END
  1
CELLSTYLE_BEGIN
 90
        2
 91
        1
300
_HEADER
309
CELLSTYLE_END
300
CELLSTYLE
  1
TABLEFORMAT_BEGIN
 90
        5
170
     1
 91
        0
 92
        0
 62
   257
 93
        1
300
CONTENTFORMAT
  1
CONTENTFORMAT_BEGIN
 90
        0
 91
        0
 92
        4
 93
        0
300

 40
0.0
140
1.0
 94
        2
 62
     0
340
11
144
0.18
309
CONTENTFORMAT_END
171
     1
301
MARGIN
  1
CELLMARGIN_BEGIN
 40
0.06
 40
0.06
 40
0.06
 40
0.06
 40
0.06
 40
0.06
309
CELLMARGIN_END
 94
        6
 95
        1
302
GRIDFORMAT
  1
GRIDFORMAT_BEGIN
 90
        0
 91
        1
 62
     0
 92
       -2
340
14
 93
        0
 40
0.045
309
GRIDFORMAT_END
 95
        2
302
GRIDFORMAT
  1
GRIDFORMAT_BEGIN
 90
        0
 91
        1
 62
     0
 92
       -2
340
14
 93
        0
 40
0.045
309
GRIDFORMAT_END
 95
        4
302
GRIDFORMAT
  1
GRIDFORMAT_BEGIN
 90
        0
 91
        1
 62
     0
 92
       -2
340
14
 93
        0
 40
0.045
309
GRIDFORMAT_END
 95
        8
302
GRIDFORMAT
  1
GRIDFORMAT_BEGIN
 90
        0
 91
        1
 62
     0
 92
       -2
340
14
 93
        0
 40
0.045
309
GRIDFORMAT_END
 95
       16
302
GRIDFORMAT
  1
GRIDFORMAT_BEGIN
 90
        0
 91
        1
 62
     0
 92
       -2
340
14
 93
        0
 40
0.045
309
GRIDFORMAT_END
 95
       32
302
GRIDFORMAT
  1
GRIDFORMAT_BEGIN
 90
        0
 91
        1
 62
     0
 92
       -2
340
14
 93
        0
 40
0.045
309
GRIDFORMAT_END
309
TABLEFORMAT_END
  1
CELLSTYLE_BEGIN
 90
        3
 91
        2
300
_DATA
309
CELLSTYLE_END
  0
ENDSEC
  0
EOF