0
SECTION
  2
HEADER
  9
$ACADVER
  1
AC1027
  9
$ACADMAINTVER
 70
     8
  9
$DWGCODEPAGE
  3
ANSI_1252
  9
$REQUIREDVERSIONS
160
                 0
  9
$COMMENTS
  1
File was created by Cadenas
  9
$CUSTOMPROPERTYTAG
  1
NN
  9
$CUSTOMPROPERTY
  1
D-Lok Tapped Base Inch Bore
  9
$CUSTOMPROPERTYTAG
  1
NT
  9
$CUSTOMPROPERTY
  1
DL Normal Duty Tapped Base Pillow Blocks
  9
$CUSTOMPROPERTYTAG
  1
NB
  9
$CUSTOMPROPERTY
  1
128754
  9
$CUSTOMPROPERTYTAG
  1
NBSYN
  9
$CUSTOMPROPERTY
  1
$PN.
  9
$CUSTOMPROPERTYTAG
  1
LINA
  9
$CUSTOMPROPERTY
  1
128754
  9
$CUSTOMPROPERTYTAG
  1
SERIES
  9
$CUSTOMPROPERTY
  1
209
  9
$CUSTOMPROPERTYTAG
  1
SS
  9
$CUSTOMPROPERTY
  1
1-3/4
  9
$CUSTOMPROPERTYTAG
  1
PN
  9
$CUSTOMPROPERTY
  1
128754
  9
$CUSTOMPROPERTYTAG
  1
DESCRIPTION
  9
$CUSTOMPROPERTY
  1
TB-DL-112
  9
$CUSTOMPROPERTYTAG
  1
W
  9
$CUSTOMPROPERTY
  1
6.6
  9
$CUSTOMPROPERTYTAG
  1
A
  9
$CUSTOMPROPERTY
  1
2.01
  9
$CUSTOMPROPERTYTAG
  1
B
  9
$CUSTOMPROPERTY
  1
5.00
  9
$CUSTOMPROPERTYTAG
  1
C
  9
$CUSTOMPROPERTY
  1
2.00
  9
$CUSTOMPROPERTYTAG
  1
D
  9
$CUSTOMPROPERTY
  1
3.75
  9
$CUSTOMPROPERTYTAG
  1
J
  9
$CUSTOMPROPERTY
  1
4.25
  9
$CUSTOMPROPERTYTAG
  1
L
  9
$CUSTOMPROPERTY
  1
2.99
  9
$CUSTOMPROPERTYTAG
  1
M
  9
$CUSTOMPROPERTY
  1
2.13
  9
$CUSTOMPROPERTYTAG
  1
N
  9
$CUSTOMPROPERTY
  1
0.75
  9
$CUSTOMPROPERTYTAG
  1
R
  9
$CUSTOMPROPERTY
  1
1/2-13
  9
$CUSTOMPROPERTYTAG
  1
S
  9
$CUSTOMPROPERTY
  1
1.26
  9
$CUSTOMPROPERTYTAG
  1
COMPANY
  9
$CUSTOMPROPERTY
  1
baldor
  9
$INSBASE
 10
0.0
 20
0.0
 30
0.0
  9
$EXTMIN
 10
1.000000000000000E+20
 20
1.000000000000000E+20
 30
1.000000000000000E+20
  9
$EXTMAX
 10
-1.000000000000000E+20
 20
-1.000000000000000E+20
 30
-1.000000000000000E+20
  9
$LIMMIN
 10
0.0
 20
0.0
  9
$LIMMAX
 10
12.0
 20
9.0
  9
$ORTHOMODE
 70
     0
  9
$REGENMODE
 70
     1
  9
$FILLMODE
 70
     1
  9
$QTEXTMODE
 70
     0
  9
$MIRRTEXT
 70
     1
  9
$LTSCALE
 40
1.0
  9
$ATTMODE
 70
     1
  9
$TEXTSIZE
 40
0.2
  9
$TRACEWID
 40
0.05
  9
$TEXTSTYLE
  7
Standard
  9
$CLAYER
  8
0
  9
$CELTYPE
  6
ByLayer
  9
$CECOLOR
 62
   256
  9
$CELTSCALE
 40
1.0
  9
$DISPSILH
 70
     0
  9
$DIMSCALE
 40
1.0
  9
$DIMASZ
 40
0.18
  9
$DIMEXO
 40
0.0625
  9
$DIMDLI
 40
0.38
  9
$DIMRND
 40
0.0
  9
$DIMDLE
 40
0.0
  9
$DIMEXE
 40
0.18
  9
$DIMTP
 40
0.0
  9
$DIMTM
 40
0.0
  9
$DIMTXT
 40
0.18
  9
$DIMCEN
 40
0.09
  9
$DIMTSZ
 40
0.0
  9
$DIMTOL
 70
     0
  9
$DIMLIM
 70
     0
  9
$DIMTIH
 70
     1
  9
$DIMTOH
 70
     1
  9
$DIMSE1
 70
     0
  9
$DIMSE2
 70
     0
  9
$DIMTAD
 70
     0
  9
$DIMZIN
 70
     0
  9
$DIMBLK
  1

  9
$DIMASO
 70
     1
  9
$DIMSHO
 70
     1
  9
$DIMPOST
  1

  9
$DIMAPOST
  1

  9
$DIMALT
 70
     0
  9
$DIMALTD
 70
     2
  9
$DIMALTF
 40
25.4
  9
$DIMLFAC
 40
1.0
  9
$DIMTOFL
 70
     0
  9
$DIMTVP
 40
0.0
  9
$DIMTIX
 70
     0
  9
$DIMSOXD
 70
     0
  9
$DIMSAH
 70
     0
  9
$DIMBLK1
  1

  9
$DIMBLK2
  1

  9
$DIMSTYLE
  2
Standard
  9
$DIMCLRD
 70
     0
  9
$DIMCLRE
 70
     0
  9
$DIMCLRT
 70
     0
  9
$DIMTFAC
 40
1.0
  9
$DIMGAP
 40
0.09
  9
$DIMJUST
 70
     0
  9
$DIMSD1
 70
     0
  9
$DIMSD2
 70
     0
  9
$DIMTOLJ
 70
     1
  9
$DIMTZIN
 70
     0
  9
$DIMALTZ
 70
     0
  9
$DIMALTTZ
 70
     0
  9
$DIMUPT
 70
     0
  9
$DIMDEC
 70
     4
  9
$DIMTDEC
 70
     4
  9
$DIMALTU
 70
     2
  9
$DIMALTTD
 70
     2
  9
$DIMTXSTY
  7
Standard
  9
$DIMAUNIT
 70
     0
  9
$DIMADEC
 70
     0
  9
$DIMALTRND
 40
0.0
  9
$DIMAZIN
 70
     0
  9
$DIMDSEP
 70
    46
  9
$DIMATFIT
 70
     3
  9
$DIMFRAC
 70
     0
  9
$DIMLDRBLK
  1

  9
$DIMLUNIT
 70
     2
  9
$DIMLWD
 70
    -2
  9
$DIMLWE
 70
    -2
  9
$DIMTMOVE
 70
     0
  9
$DIMFXL
 40
1.0
  9
$DIMFXLON
 70
     0
  9
$DIMJOGANG
 40
0.7853981633974483
  9
$DIMTFILL
 70
     0
  9
$DIMTFILLCLR
 70
     0
  9
$DIMARCSYM
 70
     0
  9
$DIMLTYPE
  6

  9
$DIMLTEX1
  6

  9
$DIMLTEX2
  6

  9
$DIMTXTDIRECTION
 70
     0
  9
$LUNITS
 70
     2
  9
$LUPREC
 70
     4
  9
$SKETCHINC
 40
0.1
  9
$FILLETRAD
 40
0.5
  9
$AUNITS
 70
     0
  9
$AUPREC
 70
     0
  9
$MENU
  1
.
  9
$ELEVATION
 40
0.0
  9
$PELEVATION
 40
0.0
  9
$THICKNESS
 40
0.0
  9
$LIMCHECK
 70
     0
  9
$CHAMFERA
 40
0.0
  9
$CHAMFERB
 40
0.0
  9
$CHAMFERC
 40
0.0
  9
$CHAMFERD
 40
0.0
  9
$SKPOLY
 70
     0
  9
$TDCREATE
 40
2458168.966641076
  9
$TDUCREATE
 40
2458168.92497441
  9
$TDUPDATE
 40
2458168.966641076
  9
$TDUUPDATE
 40
2458168.92497441
  9
$TDINDWG
 40
0.0000000116
  9
$TDUSRTIMER
 40
0.0000000116
  9
$USRTIMER
 70
     1
  9
$ANGBASE
 50
0.0
  9
$ANGDIR
 70
     0
  9
$PDMODE
 70
     0
  9
$PDSIZE
 40
0.0
  9
$PLINEWID
 40
0.0
  9
$SPLFRAME
 70
     0
  9
$SPLINETYPE
 70
     6
  9
$SPLINESEGS
 70
     8
  9
$HANDSEED
  5
190
  9
$SURFTAB1
 70
     6
  9
$SURFTAB2
 70
     6
  9
$SURFTYPE
 70
     6
  9
$SURFU
 70
     6
  9
$SURFV
 70
     6
  9
$UCSBASE
  2

  9
$UCSNAME
  2

  9
$UCSORG
 10
0.0
 20
0.0
 30
0.0
  9
$UCSXDIR
 10
1.0
 20
0.0
 30
0.0
  9
$UCSYDIR
 10
0.0
 20
1.0
 30
0.0
  9
$UCSORTHOREF
  2

  9
$UCSORTHOVIEW
 70
     0
  9
$UCSORGTOP
 10
0.0
 20
0.0
 30
0.0
  9
$UCSORGBOTTOM
 10
0.0
 20
0.0
 30
0.0
  9
$UCSORGLEFT
 10
0.0
 20
0.0
 30
0.0
  9
$UCSORGRIGHT
 10
0.0
 20
0.0
 30
0.0
  9
$UCSORGFRONT
 10
0.0
 20
0.0
 30
0.0
  9
$UCSORGBACK
 10
0.0
 20
0.0
 30
0.0
  9
$PUCSBASE
  2

  9
$PUCSNAME
  2

  9
$PUCSORG
 10
0.0
 20
0.0
 30
0.0
  9
$PUCSXDIR
 10
1.0
 20
0.0
 30
0.0
  9
$PUCSYDIR
 10
0.0
 20
1.0
 30
0.0
  9
$PUCSORTHOREF
  2

  9
$PUCSORTHOVIEW
 70
     0
  9
$PUCSORGTOP
 10
0.0
 20
0.0
 30
0.0
  9
$PUCSORGBOTTOM
 10
0.0
 20
0.0
 30
0.0
  9
$PUCSORGLEFT
 10
0.0
 20
0.0
 30
0.0
  9
$PUCSORGRIGHT
 10
0.0
 20
0.0
 30
0.0
  9
$PUCSORGFRONT
 10
0.0
 20
0.0
 30
0.0
  9
$PUCSORGBACK
 10
0.0
 20
0.0
 30
0.0
  9
$USERI1
 70
     0
  9
$USERI2
 70
     0
  9
$USERI3
 70
     0
  9
$USERI4
 70
     0
  9
$USERI5
 70
     0
  9
$USERR1
 40
0.0
  9
$USERR2
 40
0.0
  9
$USERR3
 40
0.0
  9
$USERR4
 40
0.0
  9
$USERR5
 40
0.0
  9
$WORLDVIEW
 70
     1
  9
$SHADEDGE
 70
     3
  9
$SHADEDIF
 70
    70
  9
$TILEMODE
 70
     1
  9
$MAXACTVP
 70
    64
  9
$PINSBASE
 10
0.0
 20
0.0
 30
0.0
  9
$PLIMCHECK
 70
     0
  9
$PEXTMIN
 10
1.000000000000000E+20
 20
1.000000000000000E+20
 30
1.000000000000000E+20
  9
$PEXTMAX
 10
-1.000000000000000E+20
 20
-1.000000000000000E+20
 30
-1.000000000000000E+20
  9
$PLIMMIN
 10
0.0
 20
0.0
  9
$PLIMMAX
 10
12.0
 20
9.0
  9
$UNITMODE
 70
     0
  9
$VISRETAIN
 70
     1
  9
$PLINEGEN
 70
     0
  9
$PSLTSCALE
 70
     1
  9
$TREEDEPTH
 70
  3020
  9
$CMLSTYLE
  2
Standard
  9
$CMLJUST
 70
     0
  9
$CMLSCALE
 40
1.0
  9
$PROXYGRAPHICS
 70
     1
  9
$MEASUREMENT
 70
     0
  9
$CELWEIGHT
370
    -1
  9
$ENDCAPS
280
     0
  9
$JOINSTYLE
280
     0
  9
$LWDISPLAY
290
     0
  9
$INSUNITS
 70
     1
  9
$HYPERLINKBASE
  1

  9
$STYLESHEET
  1

  9
$XEDIT
290
     1
  9
$CEPSNTYPE
380
     0
  9
$PSTYLEMODE
290
     1
  9
$FINGERPRINTGUID
  2
{7611DF5B-C6B0-42E6-A94C-6A3C79568E48}
  9
$VERSIONGUID
  2
{FAEB1C32-E019-11D5-929B-00C0DF256EC4}
  9
$EXTNAMES
290
     1
  9
$PSVPSCALE
 40
0.0
  9
$OLESTARTUP
290
     0
  9
$SORTENTS
280
   127
  9
$INDEXCTL
280
     0
  9
$HIDETEXT
280
     1
  9
$XCLIPFRAME
280
     2
  9
$HALOGAP
280
     0
  9
$OBSCOLOR
 70
   257
  9
$OBSLTYPE
280
     0
  9
$INTERSECTIONDISPLAY
280
     0
  9
$INTERSECTIONCOLOR
 70
   257
  9
$DIMASSOC
280
     2
  9
$PROJECTNAME
  1

  9
$CAMERADISPLAY
290
     0
  9
$LENSLENGTH
 40
50.0
  9
$CAMERAHEIGHT
 40
0.0
  9
$STEPSPERSEC
 40
2.0
  9
$STEPSIZE
 40
6.0
  9
$3DDWFPREC
 40
2.0
  9
$PSOLWIDTH
 40
0.25
  9
$PSOLHEIGHT
 40
4.0
  9
$LOFTANG1
 40
1.570796326794897
  9
$LOFTANG2
 40
1.570796326794897
  9
$LOFTMAG1
 40
0.0
  9
$LOFTMAG2
 40
0.0
  9
$LOFTPARAM
 70
     7
  9
$LOFTNORMALS
280
     1
  9
$LATITUDE
 40
37.795
  9
$LONGITUDE
 40
-122.394
  9
$NORTHDIRECTION
 40
0.0
  9
$TIMEZONE
 70
 -8000
  9
$LIGHTGLYPHDISPLAY
280
     1
  9
$TILEMODELIGHTSYNCH
280
     1
  9
$CMATERIAL
347
44
  9
$SOLIDHIST
280
     0
  9
$SHOWHIST
280
     1
  9
$DWFFRAME
280
     2
  9
$DGNFRAME
280
     2
  9
$REALWORLDSCALE
290
     1
  9
$INTERFERECOLOR
 62
   256
  9
$CSHADOW
280
     0
  9
$SHADOWPLANELOCATION
 40
0.0
  0
ENDSEC
  0
SECTION
  2
CLASSES
  0
CLASS
  1
ACDBDICTIONARYWDFLT
  2
AcDbDictionaryWithDefault
  3
ObjectDBX Classes
 90
        0
 91
        4
280
     0
281
     0
  0
CLASS
  1
VISUALSTYLE
  2
AcDbVisualStyle
  3
ObjectDBX Classes
 90
     4095
 91
        4
280
     0
281
     0
  0
CLASS
  1
MATERIAL
  2
AcDbMaterial
  3
ObjectDBX Classes
 90
     1153
 91
        4
280
     0
281
     0
  0
CLASS
  1
SCALE
  2
AcDbScale
  3
ObjectDBX Classes
 90
     1153
 91
        4
280
     0
281
     0
  0
CLASS
  1
TABLESTYLE
  2
AcDbTableStyle
  3
ObjectDBX Classes
 90
     4095
 91
        4
280
     0
281
     0
  0
CLASS
  1
MLEADERSTYLE
  2
AcDbMLeaderStyle
  3
ACDB_MLEADERSTYLE_CLASS
 90
     4095
 91
        4
280
     0
281
     0
  0
CLASS
  1
SUN
  2
AcDbSun
  3
SCENEOE
 90
     1153
 91
        4
280
     0
281
     0
  0
CLASS
  1
DICTIONARYVAR
  2
AcDbDictionaryVar
  3
ObjectDBX Classes
 90
        0
 91
        4
280
     0
281
     0
  0
CLASS
  1
CELLSTYLEMAP
  2
AcDbCellStyleMap
  3
ObjectDBX Classes
 90
     1152
 91
        4
280
     0
281
     0
  0
ENDSEC
  0
SECTION
  2
TABLES
  0
TABLE
  2
VPORT
  5
8
330
0
100
AcDbSymbolTable
 70
     1
  0
VPORT
  5
29
330
8
100
AcDbSymbolTableRecord
100
AcDbViewportTableRecord
  2
*Active
 70
     0
 10
0.0
 20
0.0
 11
1.0
 21
1.0
 12
-0.1302500000000002
 22
-0.0305072732146412
 13
0.0
 23
0.0
 14
0.5
 24
0.5
 15
0.5
 25
0.5
 16
0.0
 26
0.0
 36
1.0
 17
0.0
 27
0.0
 37
0.0
 40
4.38703483735787
 41
0.5720743265197079
 42
50.0
 43
0.0
 44
0.0
 50
0.0
 51
0.0
 71
     0
 72
   100
 73
     1
 74
     3
 75
     0
 76
     0
 77
     0
 78
     0
281
     0
 65
     1
110
0.0
120
0.0
130
0.0
111
1.0
121
0.0
131
0.0
112
0.0
122
1.0
132
0.0
 79
     0
146
0.0
348
2F
 60
     3
 61
     5
292
     1
282
     1
141
0.0
142
0.0
 63
   250
361
6D
  0
ENDTAB
  0
TABLE
  2
LTYPE
  5
5
330
0
100
AcDbSymbolTable
 70
     3
  0
LTYPE
  5
14
330
5
100
AcDbSymbolTableRecord
100
AcDbLinetypeTableRecord
  2
ByBlock
 70
     0
  3

 72
    65
 73
     0
 40
0.0
  0
LTYPE
  5
15
330
5
100
AcDbSymbolTableRecord
100
AcDbLinetypeTableRecord
  2
ByLayer
 70
     0
  3

 72
    65
 73
     0
 40
0.0
  0
LTYPE
  5
16
330
5
100
AcDbSymbolTableRecord
100
AcDbLinetypeTableRecord
  2
Continuous
 70
     0
  3
Solid line
 72
    65
 73
     0
 40
0.0
  0
LTYPE
  5
A0
330
5
100
AcDbSymbolTableRecord
100
AcDbLinetypeTableRecord
  2
Dashed
 70
     0
  3

 72
    65
 73
     2
 40
2.0
 49
1.0
 74
     0
 49
-1.0
 74
     0
  0
LTYPE
  5
172
330
5
100
AcDbSymbolTableRecord
100
AcDbLinetypeTableRecord
  2
Center
 70
     0
  3

 72
    65
 73
     4
 40
1.5
 49
0.45
 74
     0
 49
-0.5
 74
     0
 49
0.05
 74
     0
 49
-0.5
 74
     0
  0
ENDTAB
  0
TABLE
  2
LAYER
  5
2
330
0
100
AcDbSymbolTable
 70
     7
  0
LAYER
  5
10
330
2
100
AcDbSymbolTableRecord
100
AcDbLayerTableRecord
  2
0
 70
     0
 62
     7
  6
Continuous
370
    -3
390
F
347
46
348
0
  0
LAYER
  5
72
330
2
100
AcDbSymbolTableRecord
100
AcDbLayerTableRecord
  2
AM_6
 70
     0
 62
    -2
  6
Continuous
370
    35
390
F
347
46
348
0
  0
LAYER
  5
A1
330
2
100
AcDbSymbolTableRecord
100
AcDbLayerTableRecord
  2
AM_9
 70
     0
 62
     6
  6
Dashed
370
    25
390
F
347
46
348
0
  0
LAYER
  5
C3
330
2
100
AcDbSymbolTableRecord
100
AcDbLayerTableRecord
  2
AM_4
 70
     0
 62
     7
  6
Continuous
370
    50
390
F
347
46
348
0
  0
LAYER
  5
16C
330
2
100
AcDbSymbolTableRecord
100
AcDbLayerTableRecord
  2
AM_5
 70
     0
 62
     3
  6
Continuous
370
    25
390
F
347
46
348
0
  0
LAYER
  5
173
330
2
100
AcDbSymbolTableRecord
100
AcDbLayerTableRecord
  2
AM_7
 70
     0
 62
     7
  6
Center
370
    25
390
F
347
46
348
0
  0
LAYER
  5
183
330
2
100
AcDbSymbolTableRecord
100
AcDbLayerTableRecord
  2
ConnectionPoints
 70
     0
 62
     7
  6
Continuous
370
    50
390
F
347
46
348
0
  0
ENDTAB
  0
TABLE
  2
STYLE
  5
3
330
0
100
AcDbSymbolTable
 70
     1
  0
STYLE
  5
11
330
3
100
AcDbSymbolTableRecord
100
AcDbTextStyleTableRecord
  2
Standard
 70
     0
 40
0.0
 41
1.0
 50
0.0
 71
     0
 42
0.2
  3
txt
  4

  0
ENDTAB
  0
TABLE
  2
VIEW
  5
6
330
0
100
AcDbSymbolTable
 70
     0
  0
ENDTAB
  0
TABLE
  2
UCS
  5
7
330
0
100
AcDbSymbolTable
 70
     0
  0
ENDTAB
  0
TABLE
  2
APPID
  5
9
330
0
100
AcDbSymbolTable
 70
     1
  0
APPID
  5
12
330
9
100
AcDbSymbolTableRecord
100
AcDbRegAppTableRecord
  2
ACAD
 70
     0
  0
ENDTAB
  0
TABLE
  2
DIMSTYLE
  5
A
330
0
100
AcDbSymbolTable
 70
     1
100
AcDbDimStyleTable
  0
DIMSTYLE
105
27
330
A
100
AcDbSymbolTableRecord
100
AcDbDimStyleTableRecord
  2
Standard
 70
     0
178
     0
340
11
  0
ENDTAB
  0
TABLE
  2
BLOCK_RECORD
  5
1
330
0
100
AcDbSymbolTable
 70
     5
  0
BLOCK_RECORD
  5
1F
330
1
100
AcDbSymbolTableRecord
100
AcDbBlockTableRecord
  2
*Model_Space
340
22
 70
     0
280
     1
281
     0
  0
BLOCK_RECORD
  5
1B
330
1
100
AcDbSymbolTableRecord
100
AcDbBlockTableRecord
  2
*Paper_Space
340
1E
 70
     0
280
     1
281
     0
  0
BLOCK_RECORD
  5
23
330
1
100
AcDbSymbolTableRecord
100
AcDbBlockTableRecord
  2
*Paper_Space0
340
26
 70
     0
280
     1
281
     0
  0
BLOCK_RECORD
  5
6E
330
1
100
AcDbSymbolTableRecord
100
AcDbBlockTableRecord
  2
1_128754_2
340
0
102
{BLKREFS
331
6F
102
}
 70
     0
280
     1
281
     0
  0
BLOCK_RECORD
  5
88
330
1
100
AcDbSymbolTableRecord
100
AcDbBlockTableRecord
  2
2_128658_0_in_128754_2
340
0
102
{BLKREFS
331
89
102
}
 70
     0
280
     1
281
     0
  0
BLOCK_RECORD
  5
D1
330
1
100
AcDbSymbolTableRecord
100
AcDbBlockTableRecord
  2
3_405020c_Inch_0_in_128754_2
340
0
102
{BLKREFS
331
D2
102
}
 70
     0
280
     1
281
     0
  0
BLOCK_RECORD
  5
12C
330
1
100
AcDbSymbolTableRecord
100
AcDbBlockTableRecord
  2
4_128754h_0_in_128754_2
340
0
102
{BLKREFS
331
12D
102
}
 70
     0
280
     1
281
     0
  0
ENDTAB
  0
ENDSEC
  0
SECTION
  2
BLOCKS
  0
BLOCK
  5
20
330
1F
100
AcDbEntity
  8
0
100
AcDbBlockBegin
  2
*Model_Space
 70
     0
 10
0.0
 20
0.0
 30
0.0
  3
*Model_Space
  1

  0
ENDBLK
  5
21
330
1F
100
AcDbEntity
  8
0
100
AcDbBlockEnd
  0
BLOCK
  5
1C
330
1B
100
AcDbEntity
 67
     1
  8
0
100
AcDbBlockBegin
  2
*Paper_Space
 70
     0
 10
0.0
 20
0.0
 30
0.0
  3
*Paper_Space
  1

  0
ENDBLK
  5
1D
330
1B
100
AcDbEntity
 67
     1
  8
0
100
AcDbBlockEnd
  0
BLOCK
  5
24
330
23
100
AcDbEntity
  8
0
100
AcDbBlockBegin
  2
*Paper_Space0
 70
     0
 10
0.0
 20
0.0
 30
0.0
  3
*Paper_Space0
  1

  0
ENDBLK
  5
25
330
23
100
AcDbEntity
  8
0
100
AcDbBlockEnd
  0
BLOCK
  5
70
330
6E
100
AcDbEntity
  8
0
100
AcDbBlockBegin
  2
1_128754_2
 70
     2
 10
0.0
 20
0.0
 30
0.0
  3
1_128754_2
  1

  0
ATTDEF
  5
73
330
6E
100
AcDbEntity
  8
AM_6
100
AcDbText
 10
6.1
 20
2.120000000000001
 30
0.0
 40
0.5
  1
D-Lok Tapped Base Inch Bore
100
AcDbAttributeDefinition
  3

  2
NN
 70
     8
280
     0
  0
ATTDEF
  5
74
330
6E
100
AcDbEntity
  8
AM_6
100
AcDbText
 10
6.1
 20
1.620000000000001
 30
0.0
 40
0.5
  1
DL Normal Duty Tapped Base Pillow Blocks
100
AcDbAttributeDefinition
  3

  2
NT
 70
     8
280
     0
  0
ATTDEF
  5
75
330
6E
100
AcDbEntity
  8
AM_6
100
AcDbText
 10
6.1
 20
1.120000000000001
 30
0.0
 40
0.5
  1
128754
100
AcDbAttributeDefinition
  3

  2
NB
 70
     8
280
     0
  0
ATTDEF
  5
76
330
6E
100
AcDbEntity
  8
AM_6
100
AcDbText
 10
6.1
 20
0.6200000000000006
 30
0.0
 40
0.5
  1
$PN.
100
AcDbAttributeDefinition
  3

  2
NBSYN
 70
     8
280
     0
  0
ATTDEF
  5
77
330
6E
100
AcDbEntity
  8
AM_6
100
AcDbText
 10
6.1
 20
0.1200000000000006
 30
0.0
 40
0.5
  1
128754
100
AcDbAttributeDefinition
  3

  2
LINA
 70
     8
280
     0
  0
ATTDEF
  5
78
330
6E
100
AcDbEntity
  8
AM_6
100
AcDbText
 10
6.1
 20
-0.3799999999999994
 30
0.0
 40
0.5
  1
209
100
AcDbAttributeDefinition
  3

  2
SERIES
 70
     8
280
     0
  0
ATTDEF
  5
79
330
6E
100
AcDbEntity
  8
AM_6
100
AcDbText
 10
6.1
 20
-0.8799999999999994
 30
0.0
 40
0.5
  1
1-3/4
100
AcDbAttributeDefinition
  3

  2
SS
 70
     8
280
     0
  0
ATTDEF
  5
7A
330
6E
100
AcDbEntity
  8
AM_6
100
AcDbText
 10
6.1
 20
-1.379999999999999
 30
0.0
 40
0.5
  1
128754
100
AcDbAttributeDefinition
  3

  2
PN
 70
     8
280
     0
  0
ATTDEF
  5
7B
330
6E
100
AcDbEntity
  8
AM_6
100
AcDbText
 10
6.1
 20
-1.879999999999999
 30
0.0
 40
0.5
  1
TB-DL-112
100
AcDbAttributeDefinition
  3

  2
DESCRIPTION
 70
     8
280
     0
  0
ATTDEF
  5
7C
330
6E
100
AcDbEntity
  8
AM_6
100
AcDbText
 10
6.1
 20
-2.379999999999999
 30
0.0
 40
0.5
  1
6.6
100
AcDbAttributeDefinition
  3

  2
W
 70
     8
280
     0
  0
ATTDEF
  5
7D
330
6E
100
AcDbEntity
  8
AM_6
100
AcDbText
 10
6.1
 20
-2.879999999999999
 30
0.0
 40
0.5
  1
2.01
100
AcDbAttributeDefinition
  3

  2
A
 70
     8
280
     0
  0
ATTDEF
  5
7E
330
6E
100
AcDbEntity
  8
AM_6
100
AcDbText
 10
6.1
 20
-3.379999999999999
 30
0.0
 40
0.5
  1
5.00
100
AcDbAttributeDefinition
  3

  2
B
 70
     8
280
     0
  0
ATTDEF
  5
7F
330
6E
100
AcDbEntity
  8
AM_6
100
AcDbText
 10
6.1
 20
-3.879999999999999
 30
0.0
 40
0.5
  1
2.00
100
AcDbAttributeDefinition
  3

  2
C
 70
     8
280
     0
  0
ATTDEF
  5
80
330
6E
100
AcDbEntity
  8
AM_6
100
AcDbText
 10
6.1
 20
-4.379999999999999
 30
0.0
 40
0.5
  1
3.75
100
AcDbAttributeDefinition
  3

  2
D
 70
     8
280
     0
  0
ATTDEF
  5
81
330
6E
100
AcDbEntity
  8
AM_6
100
AcDbText
 10
6.1
 20
-4.879999999999999
 30
0.0
 40
0.5
  1
4.25
100
AcDbAttributeDefinition
  3

  2
J
 70
     8
280
     0
  0
ATTDEF
  5
82
330
6E
100
AcDbEntity
  8
AM_6
100
AcDbText
 10
6.1
 20
-5.379999999999999
 30
0.0
 40
0.5
  1
2.99
100
AcDbAttributeDefinition
  3

  2
L
 70
     8
280
     0
  0
ATTDEF
  5
83
330
6E
100
AcDbEntity
  8
AM_6
100
AcDbText
 10
6.1
 20
-5.879999999999999
 30
0.0
 40
0.5
  1
2.13
100
AcDbAttributeDefinition
  3

  2
M
 70
     8
280
     0
  0
ATTDEF
  5
84
330
6E
100
AcDbEntity
  8
AM_6
100
AcDbText
 10
6.1
 20
-6.379999999999999
 30
0.0
 40
0.5
  1
0.75
100
AcDbAttributeDefinition
  3

  2
N
 70
     8
280
     0
  0
ATTDEF
  5
85
330
6E
100
AcDbEntity
  8
AM_6
100
AcDbText
 10
6.1
 20
-6.879999999999999
 30
0.0
 40
0.5
  1
1/2-13
100
AcDbAttributeDefinition
  3

  2
R
 70
     8
280
     0
  0
ATTDEF
  5
86
330
6E
100
AcDbEntity
  8
AM_6
100
AcDbText
 10
6.1
 20
-7.379999999999999
 30
0.0
 40
0.5
  1
1.26
100
AcDbAttributeDefinition
  3

  2
S
 70
     8
280
     0
  0
ATTDEF
  5
87
330
6E
100
AcDbEntity
  8
AM_6
100
AcDbText
 10
6.1
 20
-7.879999999999999
 30
0.0
 40
0.5
  1
baldor
100
AcDbAttributeDefinition
  3

  2
COMPANY
 70
     8
280
     0
  0
INSERT
  5
89
330
6E
100
AcDbEntity
  8
0
100
AcDbBlockReference
  2
2_128658_0_in_128754_2
 10
0.0
 20
0.0
 30
0.0
  0
INSERT
  5
D2
330
6E
100
AcDbEntity
  8
0
100
AcDbBlockReference
  2
3_405020c_Inch_0_in_128754_2
 10
0.0
 20
0.0
 30
0.0
  0
INSERT
  5
12D
330
6E
100
AcDbEntity
  8
0
100
AcDbBlockReference
  2
4_128754h_0_in_128754_2
 10
0.0
 20
0.0
 30
0.0
  0
ENDBLK
  5
71
330
6E
100
AcDbEntity
  8
0
100
AcDbBlockEnd
  0
BLOCK
  5
8A
330
88
100
AcDbEntity
  8
0
100
AcDbBlockBegin
  2
2_128658_0_in_128754_2
 70
     2
 10
0.0
 20
0.0
 30
0.0
  3
2_128658_0_in_128754_2
  1

  0
ATTDEF
  5
8C
330
88
100
AcDbEntity
  8
AM_6
100
AcDbText
 10
5.75
 20
1.672772310801082
 30
0.0
 40
0.5
  1
D-Lok Insert Inch Bore
100
AcDbAttributeDefinition
  3

  2
NN
 70
     8
280
     0
  0
ATTDEF
  5
8D
330
88
100
AcDbEntity
  8
AM_6
100
AcDbText
 10
5.75
 20
1.172772310801082
 30
0.0
 40
0.5
  1
D-LOK
100
AcDbAttributeDefinition
  3

  2
NT
 70
     8
280
     0
  0
ATTDEF
  5
8E
330
88
100
AcDbEntity
  8
AM_6
100
AcDbText
 10
5.75
 20
0.6727723108010817
 30
0.0
 40
0.5
  1
128658
100
AcDbAttributeDefinition
  3

  2
NB
 70
     8
280
     0
  0
ATTDEF
  5
8F
330
88
100
AcDbEntity
  8
AM_6
100
AcDbText
 10
5.75
 20
0.1727723108010817
 30
0.0
 40
0.5
  1
$PN.
100
AcDbAttributeDefinition
  3

  2
NBSYN
 70
     8
280
     0
  0
ATTDEF
  5
90
330
88
100
AcDbEntity
  8
AM_6
100
AcDbText
 10
5.75
 20
-0.3272276891989183
 30
0.0
 40
0.5
  1
128658
100
AcDbAttributeDefinition
  3

  2
LINA
 70
     8
280
     0
  0
ATTDEF
  5
91
330
88
100
AcDbEntity
  8
AM_6
100
AcDbText
 10
5.75
 20
-0.8272276891989183
 30
0.0
 40
0.5
  1
209
100
AcDbAttributeDefinition
  3

  2
SERIES
 70
     8
280
     0
  0
ATTDEF
  5
92
330
88
100
AcDbEntity
  8
AM_6
100
AcDbText
 10
5.75
 20
-1.327227689198918
 30
0.0
 40
0.5
  1
1-3/4
100
AcDbAttributeDefinition
  3

  2
SS
 70
     8
280
     0
  0
ATTDEF
  5
93
330
88
100
AcDbEntity
  8
AM_6
100
AcDbText
 10
5.75
 20
-1.827227689198918
 30
0.0
 40
0.5
  1
128658
100
AcDbAttributeDefinition
  3

  2
PN
 70
     8
280
     0
  0
ATTDEF
  5
94
330
88
100
AcDbEntity
  8
AM_6
100
AcDbText
 10
5.75
 20
-2.327227689198918
 30
0.0
 40
0.5
  1
INS-DL-112
100
AcDbAttributeDefinition
  3

  2
DESCRIPTION
 70
     8
280
     0
  0
ATTDEF
  5
95
330
88
100
AcDbEntity
  8
AM_6
100
AcDbText
 10
5.75
 20
-2.827227689198918
 30
0.0
 40
0.5
  1
2.5
100
AcDbAttributeDefinition
  3

  2
WEIGHT
 70
     8
280
     0
  0
ATTDEF
  5
96
330
88
100
AcDbEntity
  8
AM_6
100
AcDbText
 10
5.75
 20
-3.327227689198918
 30
0.0
 40
0.5
  1
2.01
100
AcDbAttributeDefinition
  3

  2
A
 70
     8
280
     0
  0
ATTDEF
  5
97
330
88
100
AcDbEntity
  8
AM_6
100
AcDbText
 10
5.75
 20
-3.827227689198918
 30
0.0
 40
0.5
  1
0.87
100
AcDbAttributeDefinition
  3

  2
C
 70
     8
280
     0
  0
ATTDEF
  5
98
330
88
100
AcDbEntity
  8
AM_6
100
AcDbText
 10
5.75
 20
-4.327227689198918
 30
0.0
 40
0.5
  1
3.3465
100
AcDbAttributeDefinition
  3

  2
D
 70
     8
280
     0
  0
ATTDEF
  5
99
330
88
100
AcDbEntity
  8
AM_6
100
AcDbText
 10
5.75
 20
-4.827227689198918
 30
0.0
 40
0.5
  1
0.25
100
AcDbAttributeDefinition
  3

  2
J
 70
     8
280
     0
  0
ATTDEF
  5
9A
330
88
100
AcDbEntity
  8
AM_6
100
AcDbText
 10
5.75
 20
-5.327227689198918
 30
0.0
 40
0.5
  1
2.99
100
AcDbAttributeDefinition
  3

  2
L
 70
     8
280
     0
  0
ATTDEF
  5
9B
330
88
100
AcDbEntity
  8
AM_6
100
AcDbText
 10
5.75
 20
-5.827227689198918
 30
0.0
 40
0.5
  1
1/4-28
100
AcDbAttributeDefinition
  3

  2
N
 70
     8
280
     0
  0
ATTDEF
  5
9C
330
88
100
AcDbEntity
  8
AM_6
100
AcDbText
 10
5.75
 20
-6.327227689198918
 30
0.0
 40
0.5
  1
0.75
100
AcDbAttributeDefinition
  3

  2
W
 70
     8
280
     0
  0
ATTDEF
  5
9D
330
88
100
AcDbEntity
  8
AM_6
100
AcDbText
 10
5.75
 20
-6.827227689198918
 30
0.0
 40
0.5
  1
1.26
100
AcDbAttributeDefinition
  3

  2
Y
 70
     8
280
     0
  0
ATTDEF
  5
9E
330
88
100
AcDbEntity
  8
AM_6
100
AcDbText
 10
5.75
 20
-7.327227689198918
 30
0.0
 40
0.5
  1
2.22
100
AcDbAttributeDefinition
  3

  2
Z
 70
     8
280
     0
  0
ATTDEF
  5
9F
330
88
100
AcDbEntity
  8
AM_6
100
AcDbText
 10
5.75
 20
-7.827227689198918
 30
0.0
 40
0.5
  1
baldor
100
AcDbAttributeDefinition
  3

  2
COMPANY
 70
     8
280
     0
  0
LINE
  5
A2
330
88
100
AcDbEntity
  8
AM_9
100
AcDbLine
 10
-1.2002
 20
-0.8749999999999998
 30
0.0
 11
0.6901999999999999
 21
-0.8749999999999998
 31
0.0
  0
LINE
  5
A3
330
88
100
AcDbEntity
  8
AM_9
100
AcDbLine
 10
0.6901999999999999
 20
0.8749999999999998
 30
0.0
 11
-1.2002
 21
0.8749999999999998
 31
0.0
  0
LINE
  5
A4
330
88
100
AcDbEntity
  8
AM_9
100
AcDbLine
 10
-1.2002
 20
0.8749999999999998
 30
0.0
 11
-1.26
 21
0.9347999999999999
 31
0.0
  0
LINE
  5
A5
330
88
100
AcDbEntity
  8
AM_9
100
AcDbLine
 10
-1.26
 20
-0.9347999999999999
 30
0.0
 11
-1.2002
 21
-0.8749999999999998
 31
0.0
  0
LINE
  5
A6
330
88
100
AcDbEntity
  8
AM_9
100
AcDbLine
 10
0.6901999999999999
 20
-0.875
 30
0.0
 11
0.7499999999999999
 21
-0.9348
 31
0.0
  0
LINE
  5
A7
330
88
100
AcDbEntity
  8
AM_9
100
AcDbLine
 10
0.7499999999999999
 20
0.9348
 30
0.0
 11
0.6901999999999999
 21
0.875
 31
0.0
  0
LINE
  5
A8
330
88
100
AcDbEntity
  8
AM_9
100
AcDbLine
 10
0.6902
 20
-1.11
 30
0.0
 11
0.7499999999999999
 21
-1.0502
 31
0.0
  0
LINE
  5
A9
330
88
100
AcDbEntity
  8
AM_9
100
AcDbLine
 10
0.7499999999999999
 20
-0.3424167179110137
 30
0.0
 11
0.7499999999999999
 21
-1.0502
 31
0.0
  0
LINE
  5
AA
330
88
100
AcDbEntity
  8
AM_9
100
AcDbLine
 10
0.435
 20
-1.11
 30
0.0
 11
0.6902
 21
-1.11
 31
0.0
  0
LINE
  5
AB
330
88
100
AcDbEntity
  8
AM_9
100
AcDbLine
 10
0.6484371293030258
 20
1.11
 30
0.0
 11
0.435
 21
1.11
 31
0.0
  0
LINE
  5
AC
330
88
100
AcDbEntity
  8
AM_9
100
AcDbLine
 10
0.6902
 20
0.512763124240356
 30
0.0
 11
0.6902
 21
-1.11
 31
0.0
  0
LINE
  5
AD
330
88
100
AcDbEntity
  8
AM_9
100
AcDbLine
 10
-0.6299999999999998
 20
-1.110000000000001
 30
0.0
 11
-0.435
 21
-1.110000000000001
 31
0.0
  0
LINE
  5
AE
330
88
100
AcDbEntity
  8
AM_9
100
AcDbLine
 10
-0.435
 20
1.110000000000001
 30
0.0
 11
-0.6299999999999998
 21
1.110000000000001
 31
0.0
  0
LINE
  5
AF
330
88
100
AcDbEntity
  8
AM_9
100
AcDbLine
 10
-0.6897999999999999
 20
-1.495
 30
0.0
 11
-0.6299999999999998
 21
-1.4352
 31
0.0
  0
LINE
  5
B0
330
88
100
AcDbEntity
  8
AM_9
100
AcDbLine
 10
-0.6299999999999998
 20
1.373663232894423
 30
0.0
 11
-0.6299999999999998
 21
-1.4352
 31
0.0
  0
LINE
  5
B1
330
88
100
AcDbEntity
  8
AM_9
100
AcDbLine
 10
-1.0
 20
-1.495
 30
0.0
 11
-0.6897999999999999
 21
-1.495
 31
0.0
  0
LINE
  5
B2
330
88
100
AcDbEntity
  8
AM_9
100
AcDbLine
 10
-0.6897999999999997
 20
0.5184833907430496
 30
0.0
 11
-0.6897999999999999
 21
-1.495
 31
0.0
  0
LINE
  5
B3
330
88
100
AcDbEntity
  8
AM_9
100
AcDbLine
 10
-0.3000000000000001
 20
-1.589916666666666
 30
0.0
 11
-0.2
 21
-1.589916666666666
 31
0.0
  0
LINE
  5
B4
330
88
100
AcDbEntity
  8
AM_9
100
AcDbLine
 10
-0.2
 20
1.589916666666666
 30
0.0
 11
-0.3000000000000001
 21
1.589916666666666
 31
0.0
  0
LINE
  5
B5
330
88
100
AcDbEntity
  8
AM_9
100
AcDbLine
 10
0.435
 20
1.576932326544167
 30
0.0
 11
0.435
 21
-1.576932326544167
 31
0.0
  0
ARC
  5
B6
330
88
100
AcDbEntity
  8
AM_9
100
AcDbCircle
 10
0.3850000000000002
 20
-1.576932326544167
 30
0.0
 40
0.0499999999999995
100
AcDbArc
 50
283.7200727604126
 51
0.0
  0
ARC
  5
B7
330
88
100
AcDbEntity
  8
AM_9
100
AcDbCircle
 10
0.3850000000000002
 20
1.576932326544167
 30
0.0
 40
0.0499999999999998
100
AcDbArc
 50
0.0
 51
76.27992723958742
  0
LINE
  5
B8
330
88
100
AcDbEntity
  8
AM_9
100
AcDbLine
 10
-0.4349999999999999
 20
1.576932327289234
 30
0.0
 11
-0.4349999999999999
 21
-1.576932327289234
 31
0.0
  0
ARC
  5
B9
330
88
100
AcDbEntity
  8
AM_9
100
AcDbCircle
 10
-0.3850000000000001
 20
-1.576932326544176
 30
0.0
 40
0.0499999999999998
100
AcDbArc
 50
180.0
 51
256.2799613905303
  0
ARC
  5
BA
330
88
100
AcDbEntity
  8
AM_9
100
AcDbCircle
 10
-0.3850000000000001
 20
1.576932326544176
 30
0.0
 40
0.0499999999999996
100
AcDbArc
 50
103.7200386094697
 51
180.0
  0
ARC
  5
BB
330
88
100
AcDbEntity
  8
AM_9
100
AcDbCircle
 10
-0.0000000000000698
 20
0.0000000000003471
 30
0.0
 40
1.673249999999646
100
AcDbArc
 50
100.3285117336903
 51
103.7200717399157
  0
ARC
  5
BC
330
88
100
AcDbEntity
  8
AM_9
100
AcDbCircle
 10
-0.0000000001490883
 20
-0.0000000007002821
 30
0.0
 40
1.67324999928465
100
AcDbArc
 50
256.2799282593594
 51
259.6714882670346
  0
LINE
  5
BD
330
88
100
AcDbEntity
  8
AM_9
100
AcDbLine
 10
-0.3968588960442045
 20
1.625505637987938
 30
0.0
 11
-0.3968588960442045
 21
-1.625505637988259
 31
0.0
  0
LINE
  5
BE
330
88
100
AcDbEntity
  8
AM_9
100
AcDbLine
 10
-0.2999999999999999
 20
1.646136556455752
 30
0.0
 11
-0.2999999999999999
 21
-1.646136556456072
 31
0.0
  0
ARC
  5
BF
330
88
100
AcDbEntity
  8
AM_9
100
AcDbCircle
 10
0.0000000000000014
 20
0.0000000000000335
 30
0.0
 40
1.673249999999967
100
AcDbArc
 50
76.27992723958717
 51
96.86485511600036
  0
ARC
  5
C0
330
88
100
AcDbEntity
  8
AM_9
100
AcDbCircle
 10
-0.0000000000000402
 20
0.0000000000006728
 30
0.0
 40
1.673250000000652
100
AcDbArc
 50
263.1351448840039
 51
283.7200727604086
  0
LINE
  5
C1
330
88
100
AcDbEntity
  8
AM_9
100
AcDbLine
 10
-0.1999999999999999
 20
1.661254213689163
 30
0.0
 11
-0.1999999999999999
 21
-1.661254213689152
 31
0.0
  0
LINE
  5
C2
330
88
100
AcDbEntity
  8
AM_9
100
AcDbLine
 10
0.3968589249961498
 20
1.625505630919469
 30
0.0
 11
0.3968589249961498
 21
-1.625505630919458
 31
0.0
  0
LINE
  5
C4
330
88
100
AcDbEntity
  8
AM_4
100
AcDbLine
 10
0.7499999999999999
 20
1.0502
 30
0.0
 11
0.6902
 21
1.11
 31
0.0
  0
LINE
  5
C5
330
88
100
AcDbEntity
  8
AM_4
100
AcDbLine
 10
0.7499999999999999
 20
1.0502
 30
0.0
 11
0.7499999999999999
 21
-0.3424167179110137
 31
0.0
  0
LINE
  5
C6
330
88
100
AcDbEntity
  8
AM_4
100
AcDbLine
 10
0.6902
 20
1.11
 30
0.0
 11
0.6484371293030258
 21
1.11
 31
0.0
  0
LINE
  5
C7
330
88
100
AcDbEntity
  8
AM_4
100
AcDbLine
 10
0.6902
 20
1.11
 30
0.0
 11
0.6902
 21
0.512763124240356
 31
0.0
  0
LINE
  5
C8
330
88
100
AcDbEntity
  8
AM_4
100
AcDbLine
 10
-0.6299999999999998
 20
1.4352
 30
0.0
 11
-0.6897999999999999
 21
1.495
 31
0.0
  0
LINE
  5
C9
330
88
100
AcDbEntity
  8
AM_4
100
AcDbLine
 10
-0.6299999999999998
 20
1.4352
 30
0.0
 11
-0.6299999999999998
 21
1.373663232894423
 31
0.0
  0
LINE
  5
CA
330
88
100
AcDbEntity
  8
AM_4
100
AcDbLine
 10
-1.26
 20
-1.4352
 30
0.0
 11
-1.2002
 21
-1.495
 31
0.0
  0
LINE
  5
CB
330
88
100
AcDbEntity
  8
AM_4
100
AcDbLine
 10
-1.2002
 20
1.495
 30
0.0
 11
-1.26
 21
1.4352
 31
0.0
  0
LINE
  5
CC
330
88
100
AcDbEntity
  8
AM_4
100
AcDbLine
 10
-1.26
 20
1.4352
 30
0.0
 11
-1.26
 21
-1.4352
 31
0.0
  0
LINE
  5
CD
330
88
100
AcDbEntity
  8
AM_4
100
AcDbLine
 10
-1.2002
 20
-1.495
 30
0.0
 11
-1.0
 21
-1.495
 31
0.0
  0
LINE
  5
CE
330
88
100
AcDbEntity
  8
AM_4
100
AcDbLine
 10
-0.6897999999999999
 20
1.495
 30
0.0
 11
-1.2002
 21
1.495
 31
0.0
  0
LINE
  5
CF
330
88
100
AcDbEntity
  8
AM_4
100
AcDbLine
 10
-1.2002
 20
1.495
 30
0.0
 11
-1.2002
 21
-1.495
 31
0.0
  0
LINE
  5
D0
330
88
100
AcDbEntity
  8
AM_4
100
AcDbLine
 10
-0.6897999999999999
 20
1.495
 30
0.0
 11
-0.6897999999999997
 21
0.5184833907430496
 31
0.0
  0
ENDBLK
  5
8B
330
88
100
AcDbEntity
  8
0
100
AcDbBlockEnd
  0
BLOCK
  5
D3
330
D1
100
AcDbEntity
  8
0
100
AcDbBlockBegin
  2
3_405020c_Inch_0_in_128754_2
 70
     2
 10
0.0
 20
0.0
 30
0.0
  3
3_405020c_Inch_0_in_128754_2
  1

  0
ATTDEF
  5
D5
330
D1
100
AcDbEntity
  8
AM_6
100
AcDbText
 10
5.162408630723042
 20
1.87593961380594
 30
0.0
 40
0.5
  1
405020C -Inch
100
AcDbAttributeDefinition
  3

  2
NN
 70
     8
280
     0
  0
ATTDEF
  5
D6
330
D1
100
AcDbEntity
  8
AM_6
100
AcDbText
 10
5.162408630723042
 20
1.37593961380594
 30
0.0
 40
0.5
  1
Grease fitting
100
AcDbAttributeDefinition
  3

  2
NT
 70
     8
280
     0
  0
ATTDEF
  5
D7
330
D1
100
AcDbEntity
  8
AM_6
100
AcDbText
 10
5.162408630723042
 20
0.8759396138059397
 30
0.0
 40
0.5
  1
405020c-Inch
100
AcDbAttributeDefinition
  3

  2
NB
 70
     8
280
     0
  0
ATTDEF
  5
D8
330
D1
100
AcDbEntity
  8
AM_6
100
AcDbText
 10
5.162408630723042
 20
0.3759396138059397
 30
0.0
 40
0.5
  1
$MN.-Inch
100
AcDbAttributeDefinition
  3

  2
NBSYN
 70
     8
280
     0
  0
ATTDEF
  5
D9
330
D1
100
AcDbEntity
  8
AM_6
100
AcDbText
 10
5.162408630723042
 20
-0.1240603861940603
 30
0.0
 40
0.5
  1
405020c
100
AcDbAttributeDefinition
  3

  2
LINA
 70
     8
280
     0
  0
ATTDEF
  5
DA
330
D1
100
AcDbEntity
  8
AM_6
100
AcDbText
 10
5.162408630723042
 20
-0.6240603861940603
 30
0.0
 40
0.5
  1
405020c
100
AcDbAttributeDefinition
  3

  2
MN
 70
     8
280
     0
  0
ATTDEF
  5
DB
330
D1
100
AcDbEntity
  8
AM_6
100
AcDbText
 10
5.162408630723042
 20
-1.12406038619406
 30
0.0
 40
0.5
  1
0.230
100
AcDbAttributeDefinition
  3

  2
NDR
 70
     8
280
     0
  0
ATTDEF
  5
DC
330
D1
100
AcDbEntity
  8
AM_6
100
AcDbText
 10
5.162408630723042
 20
-1.62406038619406
 30
0.0
 40
0.5
  1
0.210
100
AcDbAttributeDefinition
  3

  2
KDR
 70
     8
280
     0
  0
ATTDEF
  5
DD
330
D1
100
AcDbEntity
  8
AM_6
100
AcDbText
 10
5.162408630723042
 20
-2.12406038619406
 30
0.0
 40
0.5
  1
0.157
100
AcDbAttributeDefinition
  3

  2
BZE
 70
     8
280
     0
  0
ATTDEF
  5
DE
330
D1
100
AcDbEntity
  8
AM_6
100
AcDbText
 10
5.162408630723042
 20
-2.62406038619406
 30
0.0
 40
0.5
  1
9/32
100
AcDbAttributeDefinition
  3

  2
WAF
 70
     8
280
     0
  0
ATTDEF
  5
DF
330
D1
100
AcDbEntity
  8
AM_6
100
AcDbText
 10
5.162408630723042
 20
-3.12406038619406
 30
0.0
 40
0.5
  1
0.2813
100
AcDbAttributeDefinition
  3

  2
WAF1
 70
     8
280
     0
  0
ATTDEF
  5
E0
330
D1
100
AcDbEntity
  8
AM_6
100
AcDbText
 10
5.162408630723042
 20
-3.62406038619406
 30
0.0
 40
0.5
  1
0.545
100
AcDbAttributeDefinition
  3

  2
BL
 70
     8
280
     0
  0
ATTDEF
  5
E1
330
D1
100
AcDbEntity
  8
AM_6
100
AcDbText
 10
5.162408630723042
 20
-4.12406038619406
 30
0.0
 40
0.5
  1
0.200
100
AcDbAttributeDefinition
  3

  2
TL
 70
     8
280
     0
  0
ATTDEF
  5
E2
330
D1
100
AcDbEntity
  8
AM_6
100
AcDbText
 10
5.162408630723042
 20
-4.62406038619406
 30
0.0
 40
0.5
  1
baldor
100
AcDbAttributeDefinition
  3

  2
COMPANY
 70
     8
280
     0
  0
ELLIPSE
  5
E3
330
D1
100
AcDbEntity
  8
AM_9
100
AcDbEllipse
 10
0.0000000000000001
 20
1.426105314968564
 30
0.0
 11
0.1000886227036577
 21
0.0
 31
0.0
210
0.0
220
0.0
230
1.0
 40
0.7071067811865474
 41
0.0
 42
6.283185307179586
  0
LINE
  5
E4
330
D1
100
AcDbEntity
  8
AM_9
100
AcDbLine
 10
0.081204315361521
 20
1.70999911277822
 30
0.0
 11
0.081204315361521
 21
1.671103819260406
 31
0.0
  0
LINE
  5
E5
330
D1
100
AcDbEntity
  8
AM_9
100
AcDbLine
 10
-0.0812043153615208
 20
1.70999911277822
 30
0.0
 11
-0.0812043153615208
 21
1.671103819260406
 31
0.0
  0
LWPOLYLINE
  5
E6
330
D1
100
AcDbEntity
  8
AM_9
100
AcDbPolyline
 90
        4
 70
     0
 43
0.0
 10
0.0000000000000001
 20
1.666981239979762
 10
0.0311508759219517
 20
1.667627009914844
 10
0.0623017518439032
 20
1.66947859860382
 10
0.081204315361521
 20
1.671103819260406
  0
LWPOLYLINE
  5
E7
330
D1
100
AcDbEntity
  8
AM_9
100
AcDbPolyline
 90
        3
 70
     0
 43
0.0
 10
-0.0812043153615208
 20
1.671103819260406
 10
-0.0407847159147454
 20
1.668079002437628
 10
0.0000000000000001
 20
1.666981239979762
  0
LWPOLYLINE
  5
E8
330
D1
100
AcDbEntity
  8
AM_9
100
AcDbPolyline
 90
        3
 70
     0
 43
0.0
 10
-0.1218064730422811
 20
1.617253955592818
 10
-0.1015053942019009
 20
1.643205747061203
 10
-0.0812043153615208
 20
1.671103819260406
  0
LWPOLYLINE
  5
E9
330
D1
100
AcDbEntity
  8
AM_9
100
AcDbPolyline
 90
        3
 70
     0
 43
0.0
 10
0.081204315361521
 20
1.671103819260406
 10
0.1014141150849086
 20
1.643327153874558
 10
0.1218064730422814
 20
1.617253955592818
  0
LWPOLYLINE
  5
EA
330
D1
100
AcDbEntity
  8
AM_9
100
AcDbPolyline
 90
        3
 70
     0
 43
0.0
 10
0.1118199743330279
 20
1.676357970153416
 10
0.1015053942019012
 20
1.68816990059048
 10
0.081204315361521
 20
1.70999911277822
  0
LWPOLYLINE
  5
EB
330
D1
100
AcDbEntity
  8
AM_9
100
AcDbPolyline
 90
        4
 70
     0
 43
0.0
 10
0.081204315361521
 20
1.70999911277822
 10
0.0623017518439032
 20
1.711624333434807
 10
0.0312428256208205
 20
1.713472149615833
 10
0.0000000000000001
 20
1.714121692058865
  0
LWPOLYLINE
  5
EC
330
D1
100
AcDbEntity
  8
AM_9
100
AcDbPolyline
 90
        3
 70
     0
 43
0.0
 10
-0.0812043153615208
 20
1.70999911277822
 10
-0.1014141150849085
 20
1.688272081037928
 10
-0.1118189926816817
 20
1.676359120124403
  0
LWPOLYLINE
  5
ED
330
D1
100
AcDbEntity
  8
AM_9
100
AcDbPolyline
 90
        3
 70
     0
 43
0.0
 10
0.0000000000000001
 20
1.714121692058865
 10
-0.0406021576807603
 20
1.713033542783952
 10
-0.0812043153615208
 20
1.70999911277822
  0
LWPOLYLINE
  5
EE
330
D1
100
AcDbEntity
  8
AM_9
100
AcDbPolyline
 90
        3
 70
     0
 43
0.0
 10
-0.1624086307230416
 20
1.571649250486519
 10
-0.1421988309996539
 20
1.59337628222681
 10
-0.1218064730422811
 20
1.617253955592818
  0
LWPOLYLINE
  5
EF
330
D1
100
AcDbEntity
  8
AM_9
100
AcDbPolyline
 90
        3
 70
     0
 43
0.0
 10
0.1218064730422814
 20
1.617253955592818
 10
0.1421075518826616
 20
1.59347846267426
 10
0.1624086307230418
 20
1.571649250486519
  0
LINE
  5
F0
330
D1
100
AcDbEntity
  8
AM_9
100
AcDbLine
 10
0.1103623268442188
 20
1.43096805743085
 30
0.0
 11
0.1162869890918945
 21
1.564955683289058
 31
0.0
  0
LINE
  5
F1
330
D1
100
AcDbEntity
  8
AM_9
100
AcDbLine
 10
-0.1162869890918942
 20
1.564955683289058
 30
0.0
 11
-0.1103623268442186
 21
1.43096805743085
 31
0.0
  0
LWPOLYLINE
  5
F2
330
D1
100
AcDbEntity
  8
AM_9
100
AcDbPolyline
 90
        3
 70
     0
 43
0.0
 10
-0.1218064730422812
 20
1.51779938681893
 10
-0.1421075518826614
 20
1.543751178287316
 10
-0.1481162615249311
 20
1.551826041941573
  0
LWPOLYLINE
  5
F3
330
D1
100
AcDbEntity
  8
AM_9
100
AcDbPolyline
 90
        3
 70
     0
 43
0.0
 10
-0.0812043153615208
 20
1.472194681712631
 10
-0.1014141150849085
 20
1.493921713452923
 10
-0.1218064730422812
 20
1.51779938681893
  0
LINE
  5
F4
330
D1
100
AcDbEntity
  8
AM_9
100
AcDbLine
 10
-0.0812043153615207
 20
1.475991982352506
 30
0.0
 11
-0.0812043153615208
 21
1.472194681712631
 31
0.0
  0
LWPOLYLINE
  5
F5
330
D1
100
AcDbEntity
  8
AM_9
100
AcDbPolyline
 90
        3
 70
     0
 43
0.0
 10
0.0000000000000001
 20
1.468072102431986
 10
-0.0406021576807603
 20
1.4691602517069
 10
-0.0812043153615208
 20
1.472194681712631
  0
LWPOLYLINE
  5
F6
330
D1
100
AcDbEntity
  8
AM_9
100
AcDbPolyline
 90
        4
 70
     0
 43
0.0
 10
0.081204315361521
 20
1.472194681712631
 10
0.0623017518439032
 20
1.470569461056044
 10
0.0312428256208205
 20
1.468721644875018
 10
0.0000000000000001
 20
1.468072102431986
  0
LINE
  5
F7
330
D1
100
AcDbEntity
  8
AM_9
100
AcDbLine
 10
0.081204315361521
 20
1.475991982352506
 30
0.0
 11
0.081204315361521
 21
1.472194681712631
 31
0.0
  0
LWPOLYLINE
  5
F8
330
D1
100
AcDbEntity
  8
AM_9
100
AcDbPolyline
 90
        3
 70
     0
 43
0.0
 10
0.1218064730422814
 20
1.51779938681893
 10
0.1015053942019012
 20
1.494023893900371
 10
0.081204315361521
 20
1.472194681712631
  0
LWPOLYLINE
  5
F9
330
D1
100
AcDbEntity
  8
AM_9
100
AcDbPolyline
 90
        3
 70
     0
 43
0.0
 10
0.1481162673358551
 20
1.551826049830039
 10
0.1421988309996541
 20
1.54387258510067
 10
0.1218064730422814
 20
1.51779938681893
  0
ELLIPSE
  5
FA
330
D1
100
AcDbEntity
  8
AM_9
100
AcDbEllipse
 10
0.0
 20
1.614667123284977
 30
0.0
 11
-0.14065
 21
1.722465723000752E-17
 31
0.0
210
0.0
220
0.0
230
1.0
 40
0.7071067811865476
 41
3.798906696793617
 42
5.62587126397576
  0
ELLIPSE
  5
FB
330
D1
100
AcDbEntity
  8
AM_9
100
AcDbEllipse
 10
0.0000000000000043
 20
1.636814096170504
 30
0.0
 11
-0.1093294505797761
 21
1.338899617050615E-17
 31
0.0
210
0.0
220
0.0
230
1.0
 40
0.7071067811865671
 41
5.450283839720389
 42
5.928986666165835
  0
ELLIPSE
  5
FC
330
D1
100
AcDbEntity
  8
AM_9
100
AcDbEllipse
 10
0.0000000000000016
 20
1.636814096170508
 30
0.0
 11
-0.1093294505797696
 21
1.338899617050536E-17
 31
0.0
210
0.0
220
0.0
230
1.0
 40
0.707106781186556
 41
3.495791294603512
 42
4.065617840600482
  0
ELLIPSE
  5
FD
330
D1
100
AcDbEntity
  8
AM_9
100
AcDbEllipse
 10
0.0000000000005669
 20
1.636814096171042
 30
0.0
 11
-0.1093294505783379
 21
1.338899617033002E-17
 31
0.0
210
0.0
220
0.0
230
1.0
 40
0.7071067811898756
 41
4.285845500694133
 42
5.285537756971266
  0
LWPOLYLINE
  5
FE
330
D1
100
AcDbEntity
  8
AM_9
100
AcDbPolyline
 90
        4
 70
     0
 43
0.0
 10
0.0932312921144624
 20
1.653687009741676
 10
0.0918334970782569
 20
1.650365155624048
 10
0.0889714558553337
 20
1.645483400166936
 10
0.0879093099188058
 20
1.643997467229886
  0
LWPOLYLINE
  5
FF
330
D1
100
AcDbEntity
  8
AM_9
100
AcDbPolyline
 90
        4
 70
     0
 43
0.0
 10
0.0946847896390989
 20
1.661814096170509
 10
0.0946148649687718
 20
1.660045603007072
 10
0.0936945014938348
 20
1.65512166199994
 10
0.0932312921144624
 20
1.653687009741676
  0
LWPOLYLINE
  5
100
330
D1
100
AcDbEntity
  8
AM_9
100
AcDbPolyline
 90
       13
 70
     0
 43
0.0
 10
-0.0937409645326999
 20
1.655282189091156
 10
-0.09401800781078
 20
1.656332469229754
 10
-0.094669839584956
 20
1.660996674558501
 10
-0.0942033151654087
 20
1.666467009547329
 10
-0.0927485126273494
 20
1.671214994843844
 10
-0.0903257585113084
 20
1.676035147213824
 10
-0.08685310265493
 20
1.680996323289472
 10
-0.0817401153027621
 20
1.686541282915752
 10
-0.0753608192513071
 20
1.691931055165393
 10
-0.0677437426874718
 20
1.697033315615408
 10
-0.0589557533606019
 20
1.701703433018862
 10
-0.0491182920030479
 20
1.705792899452016
 10
-0.0424009023306271
 20
1.708026497782157
  0
LINE
  5
101
330
D1
100
AcDbEntity
  8
AM_9
100
AcDbLine
 10
-0.0880098631946013
 20
1.644132907982723
 30
0.0
 11
-0.0895848473282136
 21
1.646404534139669
 31
0.0
  0
LWPOLYLINE
  5
102
330
D1
100
AcDbEntity
  8
AM_9
100
AcDbPolyline
 90
       12
 70
     0
 43
0.0
 10
0.041478266639651
 20
1.708301683723361
 10
0.0445552849940116
 20
1.707354973514246
 10
0.054794661890744
 20
1.703562845938005
 10
0.0640143487516548
 20
1.699150858867324
 10
0.0720738518103953
 20
1.69427756288354
 10
0.0788779173180717
 20
1.689119055934008
 10
0.0843737277841431
 20
1.683869303443028
 10
0.0885820041416115
 20
1.678704422592479
 10
0.0915877525781601
 20
1.673756363854403
 10
0.0935252710525865
 20
1.669062283501363
 10
0.0945271469874492
 20
1.66447103046094
 10
0.0946847896390989
 20
1.661814096170509
  0
ELLIPSE
  5
103
330
D1
100
AcDbEntity
  8
AM_9
100
AcDbEllipse
 10
0.0000000000000019
 20
1.676755908107015
 30
0.0
 11
-0.09936940028726443
 21
1.216924179949905E-17
 31
0.0
210
0.0
220
0.0
230
1.0
 40
0.7071067811865469
 41
2.656480407116011
 42
3.141592653589793
  0
ELLIPSE
  5
104
330
D1
100
AcDbEntity
  8
AM_9
100
AcDbEllipse
 10
0.0000000000000001
 20
1.725087236811491
 30
0.0
 11
-0.1312419113468905
 21
1.607249866449502E-17
 31
0.0
210
0.0
220
0.0
230
1.0
 40
0.7071067811865474
 41
2.675469191819333
 42
6.768297553653364
  0
ELLIPSE
  5
105
330
D1
100
AcDbEntity
  8
AM_9
100
AcDbEllipse
 10
0.0000000000000001
 20
1.753843480276769
 30
0.0
 11
-0.1319517646676797
 21
1.615943062421188E-17
 31
0.0
210
0.0
220
0.0
230
1.0
 40
0.7071067811865485
 41
3.579974428543792
 42
5.835750606734319
  0
ELLIPSE
  5
106
330
D1
100
AcDbEntity
  8
AM_9
100
AcDbEllipse
 10
0.0000000000004232
 20
1.800708056948941
 30
0.0
 11
-0.1038190510525711
 21
1.271416685620468E-17
 31
0.0
210
0.0
220
0.0
230
1.0
 40
0.7071067811913208
 41
3.579974428555442
 42
3.599578663211555
  0
ELLIPSE
  5
107
330
D1
100
AcDbEntity
  8
AM_9
100
AcDbEllipse
 10
0.0000000000000576
 20
1.800708056949933
 30
0.0
 11
-0.1038190510531039
 21
1.271416685626993E-17
 31
0.0
210
0.0
220
0.0
230
1.0
 40
0.7071067811865476
 41
-0.5499408122852323
 42
-0.457009759984671
  0
ELLIPSE
  5
108
330
D1
100
AcDbEntity
  8
AM_9
100
AcDbEllipse
 10
-0.0000000000000003
 20
1.567526671205873
 30
0.0
 11
-0.1406499999999992
 21
1.722465723000743E-17
 31
0.0
210
0.0
220
0.0
230
1.0
 40
0.7071067811865483
 41
0.0
 42
6.283185307179586
  0
ELLIPSE
  5
109
330
D1
100
AcDbEntity
  8
AM_9
100
AcDbEllipse
 10
0.0000000000000016
 20
1.567526671205874
 30
0.0
 11
-0.1163438171532756
 21
1.424800832773439E-17
 31
0.0
210
0.0
220
0.0
230
1.0
 40
0.7071067811865469
 41
0.0
 42
6.283185307179586
  0
ELLIPSE
  5
10A
330
D1
100
AcDbEntity
  8
AM_9
100
AcDbEllipse
 10
-0.0000000000001808
 20
1.433408057046443
 30
0.0
 11
-0.11041625959417
 21
1.645330496156546E-9
 31
0.0
210
0.0
220
0.0
230
1.0
 40
0.7071067811863545
 41
0.0
 42
6.283185307179586
  0
LINE
  5
10B
330
D1
100
AcDbEntity
  8
AM_4
100
AcDbLine
 10
0.1218064730422814
 20
1.664394407671921
 30
0.0
 11
0.1118199743330279
 21
1.676357970153416
 31
0.0
  0
LINE
  5
10C
330
D1
100
AcDbEntity
  8
AM_4
100
AcDbLine
 10
-0.1118189926816817
 20
1.676359120124403
 30
0.0
 11
-0.1218064730422812
 21
1.664394407671921
 31
0.0
  0
LWPOLYLINE
  5
10D
330
D1
100
AcDbEntity
  8
AM_4
100
AcDbPolyline
 90
        3
 70
     0
 43
0.0
 10
-0.1218064730422812
 20
1.664394407671921
 10
-0.1421075518826614
 20
1.638442616203535
 10
-0.1624086307230416
 20
1.610544544004332
  0
LWPOLYLINE
  5
10E
330
D1
100
AcDbEntity
  8
AM_4
100
AcDbPolyline
 90
        3
 70
     0
 43
0.0
 10
0.1624086307230418
 20
1.610544544004332
 10
0.1421988309996541
 20
1.638321209390181
 10
0.1218064730422814
 20
1.664394407671921
  0
LINE
  5
10F
330
D1
100
AcDbEntity
  8
AM_4
100
AcDbLine
 10
-0.1624086307230416
 20
1.610544544004332
 30
0.0
 11
-0.1624086307230416
 21
1.571649250486519
 31
0.0
  0
LINE
  5
110
330
D1
100
AcDbEntity
  8
AM_4
100
AcDbLine
 10
-0.1481162615249311
 20
1.551826041941573
 30
0.0
 11
-0.1624086307230416
 21
1.571649250486519
 31
0.0
  0
LWPOLYLINE
  5
111
330
D1
100
AcDbEntity
  8
AM_4
100
AcDbPolyline
 90
        3
 70
     0
 43
0.0
 10
-0.1624086307230416
 20
1.610544544004332
 10
-0.1421988309996539
 20
1.58881751226404
 10
-0.1218064730422812
 20
1.564939838898033
  0
LINE
  5
112
330
D1
100
AcDbEntity
  8
AM_4
100
AcDbLine
 10
-0.0812043153615207
 20
1.511089975230445
 30
0.0
 11
-0.0812043153615207
 21
1.475991982352506
 31
0.0
  0
LWPOLYLINE
  5
113
330
D1
100
AcDbEntity
  8
AM_4
100
AcDbPolyline
 90
        4
 70
     0
 43
0.0
 10
0.0000000000000001
 20
1.515212554511089
 10
0.0311508759219517
 20
1.514566784576007
 10
0.0623017518439032
 20
1.512715195887032
 10
0.081204315361521
 20
1.511089975230445
  0
LINE
  5
114
330
D1
100
AcDbEntity
  8
AM_4
100
AcDbLine
 10
0.081204315361521
 20
1.511089975230445
 30
0.0
 11
0.081204315361521
 21
1.475991982352506
 31
0.0
  0
LINE
  5
115
330
D1
100
AcDbEntity
  8
AM_4
100
AcDbLine
 10
0.1624086307230418
 20
1.571649250486519
 30
0.0
 11
0.1481162673358551
 21
1.551826049830039
 31
0.0
  0
LINE
  5
116
330
D1
100
AcDbEntity
  8
AM_4
100
AcDbLine
 10
0.1624086307230418
 20
1.610544544004332
 30
0.0
 11
0.1624086307230418
 21
1.571649250486519
 31
0.0
  0
LWPOLYLINE
  5
117
330
D1
100
AcDbEntity
  8
AM_4
100
AcDbPolyline
 90
        3
 70
     0
 43
0.0
 10
0.1218064730422814
 20
1.564939838898033
 10
0.1421075518826616
 20
1.588715331816592
 10
0.1624086307230418
 20
1.610544544004332
  0
LWPOLYLINE
  5
118
330
D1
100
AcDbEntity
  8
AM_4
100
AcDbPolyline
 90
        3
 70
     0
 43
0.0
 10
0.081204315361521
 20
1.511089975230445
 10
0.1014141150849087
 20
1.538866640616293
 10
0.1218064730422814
 20
1.564939838898033
  0
LWPOLYLINE
  5
119
330
D1
100
AcDbEntity
  8
AM_4
100
AcDbPolyline
 90
        3
 70
     0
 43
0.0
 10
-0.1218064730422812
 20
1.564939838898033
 10
-0.101505394201901
 20
1.538988047429648
 10
-0.0812043153615207
 20
1.511089975230445
  0
LWPOLYLINE
  5
11A
330
D1
100
AcDbEntity
  8
AM_4
100
AcDbPolyline
 90
        3
 70
     0
 43
0.0
 10
-0.0812043153615207
 20
1.511089975230445
 10
-0.0407847159147454
 20
1.514114792053223
 10
0.0000000000000001
 20
1.515212554511089
  0
ELLIPSE
  5
11B
330
D1
100
AcDbEntity
  8
AM_4
100
AcDbEllipse
 10
-0.0000000000000075
 20
1.614667123284981
 30
0.0
 11
-0.1406499999999909
 21
1.722465723000641E-17
 31
0.0
210
0.0
220
0.0
230
1.0
 40
0.7071067811865476
 41
5.625871263975754
 42
10.08209200397314
  0
ELLIPSE
  5
11C
330
D1
100
AcDbEntity
  8
AM_4
100
AcDbEllipse
 10
0.0000000000000001
 20
1.636814096170509
 30
0.0
 11
-0.1093294505797713
 21
1.338899617050557E-17
 31
0.0
210
0.0
220
0.0
230
1.0
 40
0.7071067811865472
 41
5.928986666165874
 42
9.778976601783093
  0
LINE
  5
11D
330
D1
100
AcDbEntity
  8
AM_4
100
AcDbLine
 10
0.0879044185632924
 20
1.643990904593354
 30
0.0
 11
0.1160995625890072
 21
1.681812932307396
 31
0.0
  0
LINE
  5
11E
330
D1
100
AcDbEntity
  8
AM_4
100
AcDbLine
 10
-0.1160995625890069
 20
1.681812932307396
 30
0.0
 11
-0.0879044185632922
 21
1.643990904593354
 31
0.0
  0
ELLIPSE
  5
11F
330
D1
100
AcDbEntity
  8
AM_4
100
AcDbEllipse
 10
0.0000000000000001
 20
1.676755908107016
 30
0.0
 11
-0.09936940028726653
 21
1.480719463585772E-9
 31
0.0
210
0.0
220
0.0
230
1.0
 40
0.7071067811865476
 41
0.4851122652560731
 42
2.656480425898304
  0
LWPOLYLINE
  5
120
330
D1
100
AcDbEntity
  8
AM_4
100
AcDbPolyline
 90
        6
 70
     0
 43
0.0
 10
0.1359265219950581
 20
1.740029048747997
 10
0.1354413113972308
 20
1.749517598060977
 10
0.133394261098213
 20
1.761613642081286
 10
0.1298061491718147
 20
1.773335028469931
 10
0.1247381521839659
 20
1.784581038583207
 10
0.1207367763268358
 20
1.791497931495617
  0
LWPOLYLINE
  5
121
330
D1
100
AcDbEntity
  8
AM_4
100
AcDbPolyline
 90
       11
 70
     0
 43
0.0
 10
-0.1234266038095705
 20
1.78698862281568
 10
-0.1259723188781808
 20
1.782162278965668
 10
-0.1309620786556607
 20
1.77009817180289
 10
-0.1342241464676228
 20
1.757757321266285
 10
-0.1357757779991169
 20
1.745321480735313
 10
-0.1356569163143415
 20
1.732952964469938
 10
-0.133920308034699
 20
1.720795772145562
 10
-0.1306300595536025
 20
1.708992279053305
 10
-0.1258484133035838
 20
1.697645535083026
 10
-0.1196311436402102
 20
1.686846581695099
 10
-0.1153659391265325
 20
1.680840328899471
  0
LWPOLYLINE
  5
122
330
D1
100
AcDbEntity
  8
AM_4
100
AcDbPolyline
 90
        3
 70
     0
 43
0.0
 10
-0.118831813055661
 20
1.794406420109551
 10
-0.1192730364703362
 20
1.793751214491979
 10
-0.1222809269321641
 20
1.788973525477746
  0
LWPOLYLINE
  5
123
330
D1
100
AcDbEntity
  8
AM_4
100
AcDbPolyline
 90
        7
 70
     0
 43
0.0
 10
0.1159445749795153
 20
1.681605546504183
 10
0.1177602992529864
 20
1.684103118480307
 10
0.1247893941509591
 20
1.695574355769295
 10
0.1301179042643386
 20
1.707561182223605
 10
0.1337190578410748
 20
1.719862581224499
 10
0.1356042266942814
 20
1.732293197447583
 10
0.1359265219950581
 20
1.740029048747997
  0
ELLIPSE
  5
124
330
D1
100
AcDbEntity
  8
AM_4
100
AcDbEllipse
 10
0.0000000000000002
 20
1.725087236811491
 30
0.0
 11
-0.1312419113468904
 21
1.607249866449501E-17
 31
0.0
210
0.0
220
0.0
230
1.0
 40
0.707106781186546
 41
0.4945334262589851
 42
2.65461231515669
  0
ELLIPSE
  5
125
330
D1
100
AcDbEntity
  8
AM_4
100
AcDbEllipse
 10
0.0000000000000001
 20
1.811478510715233
 30
0.0
 11
0.08080642971672804
 21
0.0
 31
0.0
210
0.0
220
0.0
230
1.0
 40
0.7071067811865461
 41
0.0
 42
6.283185307179586
  0
LWPOLYLINE
  5
126
330
D1
100
AcDbEntity
  8
AM_4
100
AcDbPolyline
 90
       19
 70
     0
 43
0.0
 10
0.0935427725330959
 20
1.832553757542292
 10
0.0888899548320368
 20
1.838734376220292
 10
0.081174789869935
 20
1.846853477210226
 10
0.0721673766773967
 20
1.85419255202536
 10
0.0619899430650009
 20
1.860625715276067
 10
0.0508058352778996
 20
1.866035845261166
 10
0.0388071666305586
 20
1.870328035912727
 10
0.0262012394074381
 20
1.87343412794532
 10
0.0131929095226465
 20
1.875312202073243
 10
-0.0000223658180205
 20
1.87593961380594
 10
-0.0132529756134017
 20
1.875306452082498
 10
-0.0263079470028494
 20
1.873413330553638
 10
-0.0389981945790121
 20
1.870270454439783
 10
-0.0511368259319379
 20
1.865896741220525
 10
-0.062533628731962
 20
1.860322169161389
 10
-0.0729860799607046
 20
1.853598121592855
 10
-0.0822832610763041
 20
1.845810437709483
 10
-0.0902214782990211
 20
1.837089474107441
 10
-0.0930241297854856
 20
1.833308502796206
  0
ELLIPSE
  5
127
330
D1
100
AcDbEntity
  8
AM_4
100
AcDbEllipse
 10
0.0000000000000001
 20
1.753843480276769
 30
0.0
 11
-0.1319517646676799
 21
1.615943062421190E-17
 31
0.0
210
0.0
220
0.0
230
1.0
 40
0.7071067811865478
 41
5.844803532225583
 42
9.863159735723382
  0
ELLIPSE
  5
128
330
D1
100
AcDbEntity
  8
AM_4
100
AcDbEllipse
 10
0.0000000000000001
 20
1.800708056949955
 30
0.0
 11
-0.1038190510530392
 21
1.271416685626200E-17
 31
0.0
210
0.0
220
0.0
230
1.0
 40
0.7071067811865501
 41
5.844803532225583
 42
9.863159735723384
  0
LINE
  5
129
330
D1
100
AcDbEntity
  8
AM_4
100
AcDbLine
 10
-0.0940018950300903
 20
1.831869243483088
 30
0.0
 11
-0.1194743720493999
 21
1.79344867325898
 31
0.0
  0
LINE
  5
12A
330
D1
100
AcDbEntity
  8
AM_4
100
AcDbLine
 10
0.1194743720494001
 20
1.79344867325898
 30
0.0
 11
0.0940018950300905
 21
1.831869243483088
 31
0.0
  0
ELLIPSE
  5
12B
330
D1
100
AcDbEntity
  8
AM_4
100
AcDbEllipse
 10
-0.0000000000019362
 20
1.800708056946771
 30
0.0
 11
-0.1038190510508924
 21
1.271416685599911E-17
 31
0.0
210
0.0
220
0.0
230
1.0
 40
0.7071067812025059
 41
-0.457009760022868
 42
-0.4383817749925214
  0
ENDBLK
  5
D4
330
D1
100
AcDbEntity
  8
0
100
AcDbBlockEnd
  0
BLOCK
  5
12E
330
12C
100
AcDbEntity
  8
0
100
AcDbBlockBegin
  2
4_128754h_0_in_128754_2
 70
     2
 10
0.0
 20
0.0
 30
0.0
  3
4_128754h_0_in_128754_2
  1

  0
ATTDEF
  5
130
330
12C
100
AcDbEntity
  8
AM_6
100
AcDbText
 10
6.1
 20
2.120000000000001
 30
0.0
 40
0.5
  1
TB-DL - Inch - Housing
100
AcDbAttributeDefinition
  3

  2
NN
 70
     8
280
     0
  0
ATTDEF
  5
131
330
12C
100
AcDbEntity
  8
AM_6
100
AcDbText
 10
6.1
 20
1.620000000000001
 30
0.0
 40
0.5
  1
DL Normal Duty Tapped Base Pillow Blocks
100
AcDbAttributeDefinition
  3

  2
NT
 70
     8
280
     0
  0
ATTDEF
  5
132
330
12C
100
AcDbEntity
  8
AM_6
100
AcDbText
 10
6.1
 20
1.120000000000001
 30
0.0
 40
0.5
  1
128754h
100
AcDbAttributeDefinition
  3

  2
NB
 70
     8
280
     0
  0
ATTDEF
  5
133
330
12C
100
AcDbEntity
  8
AM_6
100
AcDbText
 10
6.1
 20
0.6200000000000006
 30
0.0
 40
0.5
  1
$PN.h
100
AcDbAttributeDefinition
  3

  2
NBSYN
 70
     8
280
     0
  0
ATTDEF
  5
134
330
12C
100
AcDbEntity
  8
AM_6
100
AcDbText
 10
6.1
 20
0.1200000000000006
 30
0.0
 40
0.5
  1
128754
100
AcDbAttributeDefinition
  3

  2
LINA
 70
     8
280
     0
  0
ATTDEF
  5
135
330
12C
100
AcDbEntity
  8
AM_6
100
AcDbText
 10
6.1
 20
-0.3799999999999994
 30
0.0
 40
0.5
  1
209
100
AcDbAttributeDefinition
  3

  2
SERIES
 70
     8
280
     0
  0
ATTDEF
  5
136
330
12C
100
AcDbEntity
  8
AM_6
100
AcDbText
 10
6.1
 20
-0.8799999999999994
 30
0.0
 40
0.5
  1
1-3/4
100
AcDbAttributeDefinition
  3

  2
SS
 70
     8
280
     0
  0
ATTDEF
  5
137
330
12C
100
AcDbEntity
  8
AM_6
100
AcDbText
 10
6.1
 20
-1.379999999999999
 30
0.0
 40
0.5
  1
1.75000
100
AcDbAttributeDefinition
  3

  2
SS1
 70
     8
280
     0
  0
ATTDEF
  5
138
330
12C
100
AcDbEntity
  8
AM_6
100
AcDbText
 10
6.1
 20
-1.879999999999999
 30
0.0
 40
0.5
  1
128754
100
AcDbAttributeDefinition
  3

  2
PN
 70
     8
280
     0
  0
ATTDEF
  5
139
330
12C
100
AcDbEntity
  8
AM_6
100
AcDbText
 10
6.1
 20
-2.379999999999999
 30
0.0
 40
0.5
  1
TB-DL-112
100
AcDbAttributeDefinition
  3

  2
DESCRIPTION
 70
     8
280
     0
  0
ATTDEF
  5
13A
330
12C
100
AcDbEntity
  8
AM_6
100
AcDbText
 10
6.1
 20
-2.879999999999999
 30
0.0
 40
0.5
  1
6.6
100
AcDbAttributeDefinition
  3

  2
W
 70
     8
280
     0
  0
ATTDEF
  5
13B
330
12C
100
AcDbEntity
  8
AM_6
100
AcDbText
 10
6.1
 20
-3.379999999999999
 30
0.0
 40
0.5
  1
3.346500
100
AcDbAttributeDefinition
  3

  2
BOD
 70
     8
280
     0
  0
ATTDEF
  5
13C
330
12C
100
AcDbEntity
  8
AM_6
100
AcDbText
 10
6.1
 20
-3.879999999999999
 30
0.0
 40
0.5
  1
2.01
100
AcDbAttributeDefinition
  3

  2
A
 70
     8
280
     0
  0
ATTDEF
  5
13D
330
12C
100
AcDbEntity
  8
AM_6
100
AcDbText
 10
6.1
 20
-4.379999999999999
 30
0.0
 40
0.5
  1
2.010000
100
AcDbAttributeDefinition
  3

  2
A1
 70
     8
280
     0
  0
ATTDEF
  5
13E
330
12C
100
AcDbEntity
  8
AM_6
100
AcDbText
 10
6.1
 20
-4.879999999999999
 30
0.0
 40
0.5
  1
5.00
100
AcDbAttributeDefinition
  3

  2
B
 70
     8
280
     0
  0
ATTDEF
  5
13F
330
12C
100
AcDbEntity
  8
AM_6
100
AcDbText
 10
6.1
 20
-5.379999999999999
 30
0.0
 40
0.5
  1
5.000000
100
AcDbAttributeDefinition
  3

  2
B1
 70
     8
280
     0
  0
ATTDEF
  5
140
330
12C
100
AcDbEntity
  8
AM_6
100
AcDbText
 10
6.1
 20
-5.879999999999999
 30
0.0
 40
0.5
  1
2.00
100
AcDbAttributeDefinition
  3

  2
C
 70
     8
280
     0
  0
ATTDEF
  5
141
330
12C
100
AcDbEntity
  8
AM_6
100
AcDbText
 10
6.1
 20
-6.379999999999999
 30
0.0
 40
0.5
  1
2.000000
100
AcDbAttributeDefinition
  3

  2
C1
 70
     8
280
     0
  0
ATTDEF
  5
142
330
12C
100
AcDbEntity
  8
AM_6
100
AcDbText
 10
6.1
 20
-6.879999999999999
 30
0.0
 40
0.5
  1
3.75
100
AcDbAttributeDefinition
  3

  2
D
 70
     8
280
     0
  0
ATTDEF
  5
143
330
12C
100
AcDbEntity
  8
AM_6
100
AcDbText
 10
6.1
 20
-7.379999999999999
 30
0.0
 40
0.5
  1
3.750000
100
AcDbAttributeDefinition
  3

  2
D1
 70
     8
280
     0
  0
ATTDEF
  5
144
330
12C
100
AcDbEntity
  8
AM_6
100
AcDbText
 10
6.1
 20
-7.879999999999999
 30
0.0
 40
0.5
  1
4.25
100
AcDbAttributeDefinition
  3

  2
J
 70
     8
280
     0
  0
ATTDEF
  5
145
330
12C
100
AcDbEntity
  8
AM_6
100
AcDbText
 10
6.1
 20
-8.379999999999999
 30
0.0
 40
0.5
  1
4.250000
100
AcDbAttributeDefinition
  3

  2
J1
 70
     8
280
     0
  0
ATTDEF
  5
146
330
12C
100
AcDbEntity
  8
AM_6
100
AcDbText
 10
6.1
 20
-8.879999999999999
 30
0.0
 40
0.5
  1
2.99
100
AcDbAttributeDefinition
  3

  2
L
 70
     8
280
     0
  0
ATTDEF
  5
147
330
12C
100
AcDbEntity
  8
AM_6
100
AcDbText
 10
6.1
 20
-9.379999999999999
 30
0.0
 40
0.5
  1
2.990000
100
AcDbAttributeDefinition
  3

  2
L1
 70
     8
280
     0
  0
ATTDEF
  5
148
330
12C
100
AcDbEntity
  8
AM_6
100
AcDbText
 10
6.1
 20
-9.879999999999999
 30
0.0
 40
0.5
  1
2.13
100
AcDbAttributeDefinition
  3

  2
M
 70
     8
280
     0
  0
ATTDEF
  5
149
330
12C
100
AcDbEntity
  8
AM_6
100
AcDbText
 10
6.1
 20
-10.38
 30
0.0
 40
0.5
  1
2.130000
100
AcDbAttributeDefinition
  3

  2
M1
 70
     8
280
     0
  0
ATTDEF
  5
14A
330
12C
100
AcDbEntity
  8
AM_6
100
AcDbText
 10
6.1
 20
-10.88
 30
0.0
 40
0.5
  1
0.75
100
AcDbAttributeDefinition
  3

  2
N
 70
     8
280
     0
  0
ATTDEF
  5
14B
330
12C
100
AcDbEntity
  8
AM_6
100
AcDbText
 10
6.1
 20
-11.38
 30
0.0
 40
0.5
  1
0.750000
100
AcDbAttributeDefinition
  3

  2
N1
 70
     8
280
     0
  0
ATTDEF
  5
14C
330
12C
100
AcDbEntity
  8
AM_6
100
AcDbText
 10
6.1
 20
-11.88
 30
0.0
 40
0.5
  1
1/2-13
100
AcDbAttributeDefinition
  3

  2
R
 70
     8
280
     0
  0
ATTDEF
  5
14D
330
12C
100
AcDbEntity
  8
AM_6
100
AcDbText
 10
6.1
 20
-12.38
 30
0.0
 40
0.5
  1
0.500000
100
AcDbAttributeDefinition
  3

  2
R1
 70
     8
280
     0
  0
ATTDEF
  5
14E
330
12C
100
AcDbEntity
  8
AM_6
100
AcDbText
 10
6.1
 20
-12.88
 30
0.0
 40
0.5
  1
1.26
100
AcDbAttributeDefinition
  3

  2
S
 70
     8
280
     0
  0
ATTDEF
  5
14F
330
12C
100
AcDbEntity
  8
AM_6
100
AcDbText
 10
6.1
 20
-13.38
 30
0.0
 40
0.5
  1
1.260000
100
AcDbAttributeDefinition
  3

  2
S1
 70
     8
280
     0
  0
ATTDEF
  5
150
330
12C
100
AcDbEntity
  8
AM_6
100
AcDbText
 10
6.1
 20
-13.88
 30
0.0
 40
0.5
  1
4450
100
AcDbAttributeDefinition
  3

  2
CAPS
 70
     8
280
     0
  0
ATTDEF
  5
151
330
12C
100
AcDbEntity
  8
AM_6
100
AcDbText
 10
6.1
 20
-14.38
 30
0.0
 40
0.5
  1
7891
100
AcDbAttributeDefinition
  3

  2
CAPD
 70
     8
280
     0
  0
ATTDEF
  5
152
330
12C
100
AcDbEntity
  8
AM_6
100
AcDbText
 10
6.1
 20
-14.88
 30
0.0
 40
0.5
  1
9
100
AcDbAttributeDefinition
  3

  2
BN
 70
     8
280
     0
  0
ATTDEF
  5
153
330
12C
100
AcDbEntity
  8
AM_6
100
AcDbText
 10
6.1
 20
-15.38
 30
0.0
 40
0.5
  1
.520
100
AcDbAttributeDefinition
  3

  2
BD
 70
     8
280
     0
  0
ATTDEF
  5
154
330
12C
100
AcDbEntity
  8
AM_6
100
AcDbText
 10
6.1
 20
-15.88
 30
0.0
 40
0.5
  1
2.5591
100
AcDbAttributeDefinition
  3

  2
PDI
 70
     8
280
     0
  0
ATTDEF
  5
155
330
12C
100
AcDbEntity
  8
AM_6
100
AcDbText
 10
6.1
 20
-16.38
 30
0.0
 40
0.5
  1
7-14
100
AcDbAttributeDefinition
  3

  2
IC
 70
     8
280
     0
  0
ATTDEF
  5
156
330
12C
100
AcDbEntity
  8
AM_6
100
AcDbText
 10
6.1
 20
-16.88
 30
0.0
 40
0.5
  1
1/4-28
100
AcDbAttributeDefinition
  3

  2
SC
 70
     8
280
     0
  0
ATTDEF
  5
157
330
12C
100
AcDbEntity
  8
AM_6
100
AcDbText
 10
6.1
 20
-17.38
 30
0.0
 40
0.5
  1
180
100
AcDbAttributeDefinition
  3

  2
TC
 70
     8
280
     0
  0
ATTDEF
  5
158
330
12C
100
AcDbEntity
  8
AM_6
100
AcDbText
 10
6.1
 20
-17.88
 30
0.0
 40
0.5
  1
C.I.
100
AcDbAttributeDefinition
  3

  2
MH
 70
     8
280
     0
  0
ATTDEF
  5
159
330
12C
100
AcDbEntity
  8
AM_6
100
AcDbText
 10
6.1
 20
-18.38
 30
0.0
 40
0.5
  1
4118
100
AcDbAttributeDefinition
  3

  2
IR
 70
     8
280
     0
  0
ATTDEF
  5
15A
330
12C
100
AcDbEntity
  8
AM_6
100
AcDbText
 10
6.1
 20
-18.88
 30
0.0
 40
0.5
  1
52100
100
AcDbAttributeDefinition
  3

  2
OR
 70
     8
280
     0
  0
ATTDEF
  5
15B
330
12C
100
AcDbEntity
  8
AM_6
100
AcDbText
 10
6.1
 20
-19.38
 30
0.0
 40
0.5
  1
NYLON 6-6
100
AcDbAttributeDefinition
  3

  2
MR
 70
     8
280
     0
  0
ATTDEF
  5
15C
330
12C
100
AcDbEntity
  8
AM_6
100
AcDbText
 10
6.1
 20
-19.88
 30
0.0
 40
0.5
  1
52100
100
AcDbAttributeDefinition
  3

  2
MB
 70
     8
280
     0
  0
ATTDEF
  5
15D
330
12C
100
AcDbEntity
  8
AM_6
100
AcDbText
 10
6.1
 20
-20.38
 30
0.0
 40
0.5
  1
±2
100
AcDbAttributeDefinition
  3

  2
SM
 70
     8
280
     0
  0
ATTDEF
  5
15E
330
12C
100
AcDbEntity
  8
AM_6
100
AcDbText
 10
6.1
 20
-20.88
 30
0.0
 40
0.5
  1
baldor
100
AcDbAttributeDefinition
  3

  2
COMPANY
 70
     8
280
     0
  0
LINE
  5
15F
330
12C
100
AcDbEntity
  8
AM_9
100
AcDbLine
 10
-0.8697554891042365
 20
-2.055
 30
0.0
 11
0.869755489104237
 21
-2.055
 31
0.0
  0
LINE
  5
160
330
12C
100
AcDbEntity
  8
AM_9
100
AcDbLine
 10
0.8750000000000001
 20
-2.13
 30
0.0
 11
0.8187134179612364
 21
-1.325064375532607
 31
0.0
  0
LINE
  5
161
330
12C
100
AcDbEntity
  8
AM_9
100
AcDbLine
 10
-0.8187134179612364
 20
-1.325064375532606
 30
0.0
 11
-0.8749999999999998
 21
-2.13
 31
0.0
  0
LINE
  5
162
330
12C
100
AcDbEntity
  8
AM_9
100
AcDbLine
 10
-0.8430609286448014
 20
-1.67325
 30
0.0
 11
0.8430609286448014
 21
-1.67325
 31
0.0
  0
LINE
  5
163
330
12C
100
AcDbEntity
  8
AM_9
100
AcDbLine
 10
0.609050852475843
 20
1.67325
 30
0.0
 11
-0.609050852475844
 21
1.67325
 31
0.0
  0
LINE
  5
164
330
12C
100
AcDbEntity
  8
AM_9
100
AcDbLine
 10
0.0000000000000001
 20
-1.109709071414342
 30
0.0
 11
-0.2083499999999996
 21
-1.23
 31
0.0
  0
LINE
  5
165
330
12C
100
AcDbEntity
  8
AM_9
100
AcDbLine
 10
0.2083499999999998
 20
-1.23
 30
0.0
 11
0.0000000000000001
 21
-1.109709071414342
 31
0.0
  0
LINE
  5
166
330
12C
100
AcDbEntity
  8
AM_9
100
AcDbLine
 10
0.2083499999999998
 20
-1.23
 30
0.0
 11
-0.2083499999999996
 21
-1.23
 31
0.0
  0
LINE
  5
167
330
12C
100
AcDbEntity
  8
AM_9
100
AcDbLine
 10
-0.2083499999999996
 20
-1.23
 30
0.0
 11
-0.2083499999999996
 21
-2.08835
 31
0.0
  0
LINE
  5
168
330
12C
100
AcDbEntity
  8
AM_9
100
AcDbLine
 10
0.2083499999999998
 20
-2.08835
 30
0.0
 11
0.2083499999999998
 21
-1.23
 31
0.0
  0
LINE
  5
169
330
12C
100
AcDbEntity
  8
AM_9
100
AcDbLine
 10
0.2083499999999998
 20
-2.08835
 30
0.0
 11
-0.2083499999999996
 21
-2.08835
 31
0.0
  0
LINE
  5
16A
330
12C
100
AcDbEntity
  8
AM_9
100
AcDbLine
 10
-0.2083499999999996
 20
-2.08835
 30
0.0
 11
-0.2499999999999997
 21
-2.13
 31
0.0
  0
LINE
  5
16B
330
12C
100
AcDbEntity
  8
AM_9
100
AcDbLine
 10
0.2499999999999999
 20
-2.13
 30
0.0
 11
0.2083499999999998
 21
-2.08835
 31
0.0
  0
LINE
  5
16D
330
12C
100
AcDbEntity
  8
AM_5
100
AcDbLine
 10
0.2083499999999998
 20
-1.307860083864755
 30
0.0
 11
0.2500000000000001
 21
-1.38
 31
0.0
  0
LINE
  5
16E
330
12C
100
AcDbEntity
  8
AM_5
100
AcDbLine
 10
-0.2500000000000001
 20
-2.13
 30
0.0
 11
-0.2500000000000001
 21
-1.38
 31
0.0
  0
LINE
  5
16F
330
12C
100
AcDbEntity
  8
AM_5
100
AcDbLine
 10
-0.2500000000000001
 20
-1.38
 30
0.0
 11
0.2499999999999998
 21
-1.38
 31
0.0
  0
LINE
  5
170
330
12C
100
AcDbEntity
  8
AM_5
100
AcDbLine
 10
-0.2083500000000004
 20
-1.307860083864756
 30
0.0
 11
-0.2500000000000001
 21
-1.38
 31
0.0
  0
LINE
  5
171
330
12C
100
AcDbEntity
  8
AM_5
100
AcDbLine
 10
0.2499999999999998
 20
-2.13
 30
0.0
 11
0.2499999999999998
 21
-1.38
 31
0.0
  0
LINE
  5
174
330
12C
100
AcDbEntity
  8
AM_7
100
AcDbLine
 10
1.1
 20
0.0
 30
0.0
 11
-1.3605
 21
0.0
 31
0.0
  0
LINE
  5
175
330
12C
100
AcDbEntity
  8
AM_7
100
AcDbLine
 10
-0.0000000000000001
 20
-1.058694524985059
 30
0.0
 11
-0.0000000000000001
 21
-2.181014546429283
 31
0.0
  0
LINE
  5
176
330
12C
100
AcDbEntity
  8
AM_4
100
AcDbLine
 10
0.8187134179612364
 20
-1.325064375532607
 30
0.0
 11
0.5778110492400801
 21
2.120000000000001
 31
0.0
  0
LINE
  5
177
330
12C
100
AcDbEntity
  8
AM_4
100
AcDbLine
 10
-0.5778110492400806
 20
2.120000000000001
 30
0.0
 11
-0.8187134179612362
 21
-1.325064375532606
 31
0.0
  0
ARC
  5
178
330
12C
100
AcDbEntity
  8
AM_4
100
AcDbCircle
 10
0.8776246627057352
 20
-1.3209449
 30
0.0
 40
0.0590550999999999
100
AcDbArc
 50
183.9999999999999
 51
270.0
  0
ARC
  5
179
330
12C
100
AcDbEntity
  8
AM_4
100
AcDbCircle
 10
-0.8776246627057356
 20
-1.3209449
 30
0.0
 40
0.0590551000000004
100
AcDbArc
 50
270.0
 51
356.0000000000003
  0
LINE
  5
17A
330
12C
100
AcDbEntity
  8
AM_4
100
AcDbLine
 10
-0.8776246627057355
 20
-1.38
 30
0.0
 11
-0.9409448999999996
 21
-1.38
 31
0.0
  0
ARC
  5
17B
330
12C
100
AcDbEntity
  8
AM_4
100
AcDbCircle
 10
-0.9409448999999995
 20
-1.439055100000001
 30
0.0
 40
0.0590551000000004
100
AcDbArc
 50
90.0
 51
180.0
  0
LINE
  5
17C
330
12C
100
AcDbEntity
  8
AM_4
100
AcDbLine
 10
-0.9999999999999999
 20
-2.13
 30
0.0
 11
-0.9999999999999999
 21
-1.4390551
 31
0.0
  0
LINE
  5
17D
330
12C
100
AcDbEntity
  8
AM_4
100
AcDbLine
 10
-0.9999999999999999
 20
-2.13
 30
0.0
 11
1.0
 21
-2.13
 31
0.0
  0
LINE
  5
17E
330
12C
100
AcDbEntity
  8
AM_4
100
AcDbLine
 10
1.0
 20
-2.13
 30
0.0
 11
1.0
 21
-1.4390551
 31
0.0
  0
ARC
  5
17F
330
12C
100
AcDbEntity
  8
AM_4
100
AcDbCircle
 10
0.9409449000000002
 20
-1.4390551
 30
0.0
 40
0.0590551
100
AcDbArc
 50
0.0
 51
90.0
  0
LINE
  5
180
330
12C
100
AcDbEntity
  8
AM_4
100
AcDbLine
 10
0.9409449000000002
 20
-1.38
 30
0.0
 11
0.8776246627057354
 21
-1.38
 31
0.0
  0
LINE
  5
181
330
12C
100
AcDbEntity
  8
AM_4
100
AcDbLine
 10
-0.7526280790988567
 20
-0.3800000000000001
 30
0.0
 11
0.7526280790988565
 21
-0.3799999999999998
 31
0.0
  0
LINE
  5
182
330
12C
100
AcDbEntity
  8
AM_4
100
AcDbLine
 10
0.5778110492400799
 20
2.120000000000001
 30
0.0
 11
-0.5778110492400808
 21
2.120000000000001
 31
0.0
  0
ENDBLK
  5
12F
330
12C
100
AcDbEntity
  8
0
100
AcDbBlockEnd
  0
ENDSEC
  0
SECTION
  2
ENTITIES
  0
INSERT
  5
6F
330
1F
100
AcDbEntity
  8
0
100
AcDbBlockReference
  2
1_128754_2
 10
0.0
 20
0.0
 30
0.0
  0
POINT
  5
184
330
1F
100
AcDbEntity
  8
ConnectionPoints
100
AcDbPoint
 10
0.0000000000000001
 20
1.567526671205874
 30
1.567526671205874
  0
POINT
  5
185
330
1F
100
AcDbEntity
  8
ConnectionPoints
100
AcDbPoint
 10
-1.26
 20
0.0
 30
0.0000000000000001
  0
POINT
  5
186
330
1F
100
AcDbEntity
  8
ConnectionPoints
100
AcDbPoint
 10
0.0000000000000001
 20
1.567526671205874
 30
1.567526671205874
  0
ENDSEC
  0
SECTION
  2
OBJECTS
  0
DICTIONARY
  5
C
330
0
100
AcDbDictionary
281
     1
  3
ACAD_DETAILVIEWSTYLE
350
18E
  3
ACAD_GROUP
350
D
  3
ACAD_LAYOUT
350
1A
  3
ACAD_MATERIAL
350
43
  3
ACAD_MLEADERSTYLE
350
6B
  3
ACAD_MLINESTYLE
350
17
  3
ACAD_PLOTSETTINGS
350
19
  3
ACAD_PLOTSTYLENAME
350
E
  3
ACAD_SCALELIST
350
47
  3
ACAD_SECTIONVIEWSTYLE
350
18F
  3
ACAD_TABLESTYLE
350
69
  3
ACAD_VISUALSTYLE
350
2A
  3
ACDB_RECOMPOSE_DATA
350
18B
  3
AcDbVariableDictionary
350
187
  0
SUN
  5
6D
330
29
100
AcDbSun
 90
        1
290
     0
 63
     7
421
 16777215
 40
1.0
291
     1
 91
  2455826
 92
 54000000
292
     0
 70
     2
 71
   256
280
     1
  0
DICTIONARY
  5
18E
102
{ACAD_REACTORS
330
C
102
}
330
C
100
AcDbDictionary
281
     1
  0
DICTIONARY
  5
D
102
{ACAD_REACTORS
330
C
102
}
330
C
100
AcDbDictionary
281
     1
  0
DICTIONARY
  5
1A
102
{ACAD_REACTORS
330
C
102
}
330
C
100
AcDbDictionary
281
     1
  3
Layout1
350
1E
  3
Layout2
350
26
  3
Model
350
22
  0
DICTIONARY
  5
43
102
{ACAD_REACTORS
330
C
102
}
330
C
100
AcDbDictionary
281
     1
  3
ByBlock
350
45
  3
ByLayer
350
44
  3
Global
350
46
  0
DICTIONARY
  5
6B
102
{ACAD_REACTORS
330
C
102
}
330
C
100
AcDbDictionary
281
     1
  3
Standard
350
6C
  0
DICTIONARY
  5
17
102
{ACAD_REACTORS
330
C
102
}
330
C
100
AcDbDictionary
281
     1
  3
Standard
350
18
  0
DICTIONARY
  5
19
102
{ACAD_REACTORS
330
C
102
}
330
C
100
AcDbDictionary
281
     1
  0
ACDBDICTIONARYWDFLT
  5
E
102
{ACAD_REACTORS
330
C
102
}
330
C
100
AcDbDictionary
281
     1
  3
Normal
350
F
100
AcDbDictionaryWithDefault
340
F
  0
DICTIONARY
  5
47
102
{ACAD_REACTORS
330
C
102
}
330
C
100
AcDbDictionary
281
     1
  3
A0
350
48
  3
A1
350
49
  3
A2
350
4A
  3
A3
350
4B
  3
A4
350
4C
  3
A5
350
4D
  3
A6
350
4E
  3
A7
350
4F
  3
A8
350
50
  3
A9
350
51
  3
B0
350
52
  3
B1
350
53
  3
B2
350
54
  3
B3
350
55
  3
B4
350
56
  3
B5
350
57
  3
B6
350
58
  3
B7
350
59
  3
B8
350
5A
  3
B9
350
5B
  3
C0
350
5C
  3
C1
350
5D
  3
C2
350
5E
  3
C3
350
5F
  3
C4
350
60
  3
C5
350
61
  3
C6
350
62
  3
C7
350
63
  3
C8
350
64
  3
C9
350
65
  3
D0
350
66
  3
D1
350
67
  3
D2
350
68
  0
DICTIONARY
  5
18F
102
{ACAD_REACTORS
330
C
102
}
330
C
100
AcDbDictionary
281
     1
  0
DICTIONARY
  5
69
102
{ACAD_REACTORS
330
C
102
}
330
C
100
AcDbDictionary
281
     1
  3
Standard
350
6A
  0
DICTIONARY
  5
2A
102
{ACAD_REACTORS
330
C
102
}
330
C
100
AcDbDictionary
281
     1
  3
2dWireframe
350
2F
  3
Basic
350
32
  3
Brighten
350
36
  3
ColorChange
350
3A
  3
Conceptual
350
34
  3
Dim
350
35
  3
EdgeColorOff
350
3D
  3
Facepattern
350
39
  3
Flat
350
2B
  3
FlatWithEdges
350
2C
  3
Gouraud
350
2D
  3
GouraudWithEdges
350
2E
  3
Hidden
350
31
  3
JitterOff
350
3B
  3
Linepattern
350
38
  3
OverhangOff
350
3C
  3
Realistic
350
33
  3
Shaded
350
42
  3
Shaded with edges
350
41
  3
Shades of Gray
350
3E
  3
Sketchy
350
3F
  3
Thicken
350
37
  3
Wireframe
350
30
  3
X-Ray
350
40
  0
XRECORD
  5
18B
102
{ACAD_REACTORS
330
C
102
}
330
C
100
AcDbXrecord
280
     1
 90
        1
330
6A
  0
DICTIONARY
  5
187
102
{ACAD_REACTORS
330
C
102
}
330
C
100
AcDbDictionary
281
     1
  3
CANNOSCALE
350
188
  3
CMLEADERSTYLE
350
18D
  3
CTABLESTYLE
350
18C
  0
LAYOUT
  5
1E
102
{ACAD_REACTORS
330
1A
102
}
330
1A
100
AcDbPlotSettings
  1

  2
none_device
  4

  6

 40
0.0
 41
0.0
 42
0.0
 43
0.0
 44
0.0
 45
0.0
 46
0.0
 47
0.0
 48
0.0
 49
0.0
140
0.0
141
0.0
142
1.0
143
1.0
 70
   688
 72
     0
 73
     0
 74
     5
  7

 75
    16
 76
     0
 77
     2
 78
   300
147
1.0
148
0.0
149
0.0
100
AcDbLayout
  1
Layout1
 70
     1
 71
     1
 10
0.0
 20
0.0
 11
12.0
 21
9.0
 12
0.0
 22
0.0
 32
0.0
 14
1.000000000000000E+20
 24
1.000000000000000E+20
 34
1.000000000000000E+20
 15
-1.000000000000000E+20
 25
-1.000000000000000E+20
 35
-1.000000000000000E+20
146
0.0
 13
0.0
 23
0.0
 33
0.0
 16
1.0
 26
0.0
 36
0.0
 17
0.0
 27
1.0
 37
0.0
 76
     0
330
1B
  0
LAYOUT
  5
26
102
{ACAD_REACTORS
330
1A
102
}
330
1A
100
AcDbPlotSettings
  1

  2
none_device
  4

  6

 40
0.0
 41
0.0
 42
0.0
 43
0.0
 44
0.0
 45
0.0
 46
0.0
 47
0.0
 48
0.0
 49
0.0
140
0.0
141
0.0
142
1.0
143
1.0
 70
   688
 72
     0
 73
     0
 74
     5
  7

 75
    16
 76
     0
 77
     2
 78
   300
147
1.0
148
0.0
149
0.0
100
AcDbLayout
  1
Layout2
 70
     1
 71
     2
 10
0.0
 20
0.0
 11
0.0
 21
0.0
 12
0.0
 22
0.0
 32
0.0
 14
0.0
 24
0.0
 34
0.0
 15
0.0
 25
0.0
 35
0.0
146
0.0
 13
0.0
 23
0.0
 33
0.0
 16
1.0
 26
0.0
 36
0.0
 17
0.0
 27
1.0
 37
0.0
 76
     0
330
23
  0
LAYOUT
  5
22
102
{ACAD_REACTORS
330
1A
102
}
330
1A
100
AcDbPlotSettings
  1

  2
none_device
  4
Letter_(8.50_x_11.00_Inches)
  6

 40
6.35
 41
6.35
 42
6.35000508
 43
6.35000508
 44
215.9
 45
279.4
 46
0.0
 47
0.0
 48
0.0
 49
0.0
140
0.0
141
0.0
142
1.0
143
1.0
 70
  1712
 72
     0
 73
     0
 74
     0
  7

 75
     0
 76
     0
 77
     2
 78
   300
147
1.0
148
0.0
149
0.0
100
AcDbLayout
  1
Model
 70
     1
 71
     0
 10
0.0
 20
0.0
 11
12.0
 21
9.0
 12
0.0
 22
0.0
 32
0.0
 14
1.000000000000000E+20
 24
1.000000000000000E+20
 34
1.000000000000000E+20
 15
-1.000000000000000E+20
 25
-1.000000000000000E+20
 35
-1.000000000000000E+20
146
0.0
 13
0.0
 23
0.0
 33
0.0
 16
1.0
 26
0.0
 36
0.0
 17
0.0
 27
1.0
 37
0.0
 76
     0
330
1F
331
29
  0
MATERIAL
  5
45
102
{ACAD_REACTORS
330
43
102
}
330
43
100
AcDbMaterial
  1
ByBlock
 72
     1
 94
      127
  0
MATERIAL
  5
44
102
{ACAD_REACTORS
330
43
102
}
330
43
100
AcDbMaterial
  1
ByLayer
 72
     1
 94
      127
  0
MATERIAL
  5
46
102
{ACAD_REACTORS
330
43
102
}
330
43
100
AcDbMaterial
  1
Global
 72
     1
 94
      127
  0
MLEADERSTYLE
  5
6C
102
{ACAD_REACTORS
330
6B
102
}
330
6B
100
AcDbMLeaderStyle
179
     2
170
     2
171
     1
172
     0
 90
        2
 40
0.0
 41
0.0
173
     1
 91
-1056964608
340
14
 92
       -2
290
     1
 42
0.09
291
     1
 43
0.36
  3
Standard
341
0
 44
0.18
300

342
11
174
     1
178
     6
175
     1
176
     0
 93
-1056964608
 45
0.18
292
     0
297
     0
 46
0.18
343
0
 94
-1056964608
 47
1.0
 49
1.0
140
1.0
293
     1
141
0.0
294
     1
177
     0
142
1.0
295
     0
296
     0
143
0.125
271
     0
272
     9
273
     9
298
     0
  0
MLINESTYLE
  5
18
102
{ACAD_REACTORS
330
17
102
}
330
17
100
AcDbMlineStyle
  2
Standard
 70
     0
  3

 62
   256
 51
90.0
 52
90.0
 71
     2
 49
0.5
 62
   256
  6
BYLAYER
 49
-0.5
 62
   256
  6
BYLAYER
  0
ACDBPLACEHOLDER
  5
F
102
{ACAD_REACTORS
330
E
102
}
330
E
  0
SCALE
  5
48
102
{ACAD_REACTORS
330
47
102
}
330
47
100
AcDbScale
 70
     0
300
1:1
140
1.0
141
1.0
290
     1
  0
SCALE
  5
49
102
{ACAD_REACTORS
330
47
102
}
330
47
100
AcDbScale
 70
     0
300
1:2
140
1.0
141
2.0
290
     0
  0
SCALE
  5
4A
102
{ACAD_REACTORS
330
47
102
}
330
47
100
AcDbScale
 70
     0
300
1:4
140
1.0
141
4.0
290
     0
  0
SCALE
  5
4B
102
{ACAD_REACTORS
330
47
102
}
330
47
100
AcDbScale
 70
     0
300
1:5
140
1.0
141
5.0
290
     0
  0
SCALE
  5
4C
102
{ACAD_REACTORS
330
47
102
}
330
47
100
AcDbScale
 70
     0
300
1:8
140
1.0
141
8.0
290
     0
  0
SCALE
  5
4D
102
{ACAD_REACTORS
330
47
102
}
330
47
100
AcDbScale
 70
     0
300
1:10
140
1.0
141
10.0
290
     0
  0
SCALE
  5
4E
102
{ACAD_REACTORS
330
47
102
}
330
47
100
AcDbScale
 70
     0
300
1:16
140
1.0
141
16.0
290
     0
  0
SCALE
  5
4F
102
{ACAD_REACTORS
330
47
102
}
330
47
100
AcDbScale
 70
     0
300
1:20
140
1.0
141
20.0
290
     0
  0
SCALE
  5
50
102
{ACAD_REACTORS
330
47
102
}
330
47
100
AcDbScale
 70
     0
300
1:30
140
1.0
141
30.0
290
     0
  0
SCALE
  5
51
102
{ACAD_REACTORS
330
47
102
}
330
47
100
AcDbScale
 70
     0
300
1:40
140
1.0
141
40.0
290
     0
  0
SCALE
  5
52
102
{ACAD_REACTORS
330
47
102
}
330
47
100
AcDbScale
 70
     0
300
1:50
140
1.0
141
50.0
290
     0
  0
SCALE
  5
53
102
{ACAD_REACTORS
330
47
102
}
330
47
100
AcDbScale
 70
     0
300
1:100
140
1.0
141
100.0
290
     0
  0
SCALE
  5
54
102
{ACAD_REACTORS
330
47
102
}
330
47
100
AcDbScale
 70
     0
300
2:1
140
2.0
141
1.0
290
     0
  0
SCALE
  5
55
102
{ACAD_REACTORS
330
47
102
}
330
47
100
AcDbScale
 70
     0
300
4:1
140
4.0
141
1.0
290
     0
  0
SCALE
  5
56
102
{ACAD_REACTORS
330
47
102
}
330
47
100
AcDbScale
 70
     0
300
8:1
140
8.0
141
1.0
290
     0
  0
SCALE
  5
57
102
{ACAD_REACTORS
330
47
102
}
330
47
100
AcDbScale
 70
     0
300
10:1
140
10.0
141
1.0
290
     0
  0
SCALE
  5
58
102
{ACAD_REACTORS
330
47
102
}
330
47
100
AcDbScale
 70
     0
300
100:1
140
100.0
141
1.0
290
     0
  0
SCALE
  5
59
102
{ACAD_REACTORS
330
47
102
}
330
47
100
AcDbScale
 70
     0
300
1/128" = 1'-0"
140
0.0078125
141
12.0
290
     0
  0
SCALE
  5
5A
102
{ACAD_REACTORS
330
47
102
}
330
47
100
AcDbScale
 70
     0
300
1/64" = 1'-0"
140
0.015625
141
12.0
290
     0
  0
SCALE
  5
5B
102
{ACAD_REACTORS
330
47
102
}
330
47
100
AcDbScale
 70
     0
300
1/32" = 1'-0"
140
0.03125
141
12.0
290
     0
  0
SCALE
  5
5C
102
{ACAD_REACTORS
330
47
102
}
330
47
100
AcDbScale
 70
     0
300
1/16" = 1'-0"
140
0.0625
141
12.0
290
     0
  0
SCALE
  5
5D
102
{ACAD_REACTORS
330
47
102
}
330
47
100
AcDbScale
 70
     0
300
3/32" = 1'-0"
140
0.09375
141
12.0
290
     0
  0
SCALE
  5
5E
102
{ACAD_REACTORS
330
47
102
}
330
47
100
AcDbScale
 70
     0
300
1/8" = 1'-0"
140
0.125
141
12.0
290
     0
  0
SCALE
  5
5F
102
{ACAD_REACTORS
330
47
102
}
330
47
100
AcDbScale
 70
     0
300
3/16" = 1'-0"
140
0.1875
141
12.0
290
     0
  0
SCALE
  5
60
102
{ACAD_REACTORS
330
47
102
}
330
47
100
AcDbScale
 70
     0
300
1/4" = 1'-0"
140
0.25
141
12.0
290
     0
  0
SCALE
  5
61
102
{ACAD_REACTORS
330
47
102
}
330
47
100
AcDbScale
 70
     0
300
3/8" = 1'-0"
140
0.375
141
12.0
290
     0
  0
SCALE
  5
62
102
{ACAD_REACTORS
330
47
102
}
330
47
100
AcDbScale
 70
     0
300
1/2" = 1'-0"
140
0.5
141
12.0
290
     0
  0
SCALE
  5
63
102
{ACAD_REACTORS
330
47
102
}
330
47
100
AcDbScale
 70
     0
300
3/4" = 1'-0"
140
0.75
141
12.0
290
     0
  0
SCALE
  5
64
102
{ACAD_REACTORS
330
47
102
}
330
47
100
AcDbScale
 70
     0
300
1" = 1'-0"
140
1.0
141
12.0
290
     0
  0
SCALE
  5
65
102
{ACAD_REACTORS
330
47
102
}
330
47
100
AcDbScale
 70
     0
300
1-1/2" = 1'-0"
140
1.5
141
12.0
290
     0
  0
SCALE
  5
66
102
{ACAD_REACTORS
330
47
102
}
330
47
100
AcDbScale
 70
     0
300
3" = 1'-0"
140
3.0
141
12.0
290
     0
  0
SCALE
  5
67
102
{ACAD_REACTORS
330
47
102
}
330
47
100
AcDbScale
 70
     0
300
6" = 1'-0"
140
6.0
141
12.0
290
     0
  0
SCALE
  5
68
102
{ACAD_REACTORS
330
47
102
}
330
47
100
AcDbScale
 70
     0
300
1'-0" = 1'-0"
140
12.0
141
12.0
290
     0
  0
TABLESTYLE
  5
6A
102
{ACAD_REACTORS
330
69
102
}
102
{ACAD_XDICTIONARY
360
189
102
}
330
69
100
AcDbTableStyle
  3
Standard
 70
     0
 71
     0
 40
0.06
 41
0.06
280
     0
281
     0
  7
Standard
140
0.18
170
     2
 62
     0
 63
   257
283
     0
 90
        4
 91
        0
  1

274
    -2
284
     1
 64
     0
275
    -2
285
     1
 65
     0
276
    -2
286
     1
 66
     0
277
    -2
287
     1
 67
     0
278
    -2
288
     1
 68
     0
279
    -2
289
     1
 69
     0
  7
Standard
140
0.25
170
     5
 62
     0
 63
   257
283
     0
 90
        4
 91
        0
  1

274
    -2
284
     1
 64
     0
275
    -2
285
     1
 65
     0
276
    -2
286
     1
 66
     0
277
    -2
287
     1
 67
     0
278
    -2
288
     1
 68
     0
279
    -2
289
     1
 69
     0
  7
Standard
140
0.18
170
     5
 62
     0
 63
   257
283
     0
 90
        4
 91
        0
  1

274
    -2
284
     1
 64
     0
275
    -2
285
     1
 65
     0
276
    -2
286
     1
 66
     0
277
    -2
287
     1
 67
     0
278
    -2
288
     1
 68
     0
279
    -2
289
     1
 69
     0
  0
VISUALSTYLE
  5
2F
102
{ACAD_REACTORS
330
2A
102
}
330
2A
100
AcDbVisualStyle
  2
2dWireframe
 70
     4
177
     3
291
     0
 70
    58
 90
        0
176
     1
 90
        2
176
     1
 90
        0
176
     1
 90
        0
176
     1
 40
0.6
176
     1
 40
30.0
176
     1
 62
     7
420
 16777215
176
     1
 90
        1
176
     1
 90
        4
176
     1
 62
     7
176
     1
 62
   257
176
     1
 90
        1
176
     1
 90
        1
176
     1
 40
1.0
176
     1
 90
        0
176
     1
 62
   257
176
     1
 40
1.0
176
     1
 90
        1
176
     1
 90
        6
176
     1
 90
        2
176
     1
 62
     7
176
     1
 90
        5
176
     1
 90
        0
176
     1
 90
        0
176
     1
290
     0
176
     1
 90
        1
176
     1
 40
0.0
176
     1
 90
        0
176
     1
290
     1
176
     1
290
     1
176
     1
290
     0
176
     1
290
     0
176
     1
290
     0
176
     1
290
     0
176
     1
290
     0
176
     1
290
     0
176
     1
290
     0
176
     1
 90
       50
176
     1
 40
0.0
176
     1
 40
1.0
176
     1
 90
        0
176
     1
 62
    18
420
        0
176
     1
 90
       50
176
     1
 90
        3
176
     1
 62
     5
420
      255
176
     1
290
     0
176
     1
 90
       50
176
     1
 90
       50
176
     1
 90
       50
176
     1
290
     0
176
     1
 90
       50
176
     1
 62
   256
176
     0
 40
1.0
176
     0
 90
        2
176
     1
  1
strokes_ogs.tif
176
     1
290
     0
176
     1
 40
1.0
176
     1
 40
1.0
176
     1
  0
VISUALSTYLE
  5
32
102
{ACAD_REACTORS
330
2A
102
}
330
2A
100
AcDbVisualStyle
  2
Basic
 70
     7
177
     3
291
     1
 70
    58
 90
        1
176
     1
 90
        0
176
     1
 90
        1
176
     1
 90
        0
176
     1
 40
0.6
176
     1
 40
30.0
176
     1
 62
     7
420
 16777215
176
     1
 90
        0
176
     1
 90
        4
176
     1
 62
     7
176
     1
 62
   257
176
     1
 90
        1
176
     1
 90
        1
176
     1
 40
1.0
176
     1
 90
        8
176
     1
 62
     7
176
     1
 40
1.0
176
     1
 90
        1
176
     1
 90
        6
176
     1
 90
        2
176
     1
 62
     7
176
     1
 90
        5
176
     1
 90
        0
176
     1
 90
        0
176
     1
290
     0
176
     1
 90
        1
176
     1
 40
0.0
176
     1
 90
        0
176
     1
290
     0
176
     1
290
     1
176
     1
290
     1
176
     1
290
     0
176
     1
290
     0
176
     1
290
     0
176
     1
290
     0
176
     1
290
     0
176
     1
290
     0
176
     1
 90
       50
176
     1
 40
0.0
176
     1
 40
1.0
176
     1
 90
        0
176
     1
 62
    18
420
        0
176
     1
 90
       50
176
     1
 90
        3
176
     1
 62
     5
420
      255
176
     1
290
     0
176
     1
 90
       50
176
     1
 90
       50
176
     1
 90
       50
176
     1
290
     0
176
     1
 90
       50
176
     1
 62
   256
176
     0
 40
1.0
176
     0
 90
        2
176
     1
  1
strokes_ogs.tif
176
     1
290
     0
176
     1
 40
1.0
176
     1
 40
1.0
176
     1
  0
VISUALSTYLE
  5
36
102
{ACAD_REACTORS
330
2A
102
}
330
2A
100
AcDbVisualStyle
  2
Brighten
 70
    12
177
     3
291
     1
 70
    58
 90
        2
176
     1
 90
        2
176
     1
 90
        0
176
     1
 90
        0
176
     1
 40
0.6
176
     1
 40
30.0
176
     1
 62
     7
420
 16777215
176
     1
 90
        1
176
     1
 90
        4
176
     1
 62
     7
176
     1
 62
   257
176
     1
 90
        1
176
     1
 90
        1
176
     1
 40
1.0
176
     1
 90
        8
176
     1
 62
     7
176
     1
 40
1.0
176
     1
 90
        1
176
     1
 90
        6
176
     1
 90
        2
176
     1
 62
     7
176
     1
 90
        5
176
     1
 90
        0
176
     1
 90
        0
176
     1
290
     0
176
     1
 90
        1
176
     1
 40
50.0
176
     1
 90
        0
176
     1
290
     0
176
     1
290
     1
176
     1
290
     1
176
     1
290
     0
176
     1
290
     0
176
     1
290
     0
176
     1
290
     0
176
     1
290
     0
176
     1
290
     0
176
     1
 90
       50
176
     1
 40
0.0
176
     1
 40
1.0
176
     1
 90
        0
176
     1
 62
    18
420
        0
176
     1
 90
       50
176
     1
 90
        3
176
     1
 62
     5
420
      255
176
     1
290
     0
176
     1
 90
       50
176
     1
 90
       50
176
     1
 90
       50
176
     1
290
     0
176
     1
 90
       50
176
     1
 62
   256
176
     0
 40
1.0
176
     0
 90
        2
176
     1
  1
strokes_ogs.tif
176
     1
290
     0
176
     1
 40
1.0
176
     1
 40
1.0
176
     1
  0
VISUALSTYLE
  5
3A
102
{ACAD_REACTORS
330
2A
102
}
330
2A
100
AcDbVisualStyle
  2
ColorChange
 70
    16
177
     3
291
     1
 70
    58
 90
        2
176
     1
 90
        2
176
     1
 90
        3
176
     1
 90
        0
176
     1
 40
0.6
176
     1
 40
30.0
176
     1
 62
     8
420
  8421504
176
     1
 90
        1
176
     1
 90
        4
176
     1
 62
     7
176
     1
 62
   257
176
     1
 90
        1
176
     1
 90
        1
176
     1
 40
1.0
176
     1
 90
        8
176
     1
 62
     8
420
  8421504
176
     1
 40
1.0
176
     1
 90
        1
176
     1
 90
        6
176
     1
 90
        2
176
     1
 62
     7
176
     1
 90
        5
176
     1
 90
        0
176
     1
 90
        0
176
     1
290
     0
176
     1
 90
        1
176
     1
 40
0.0
176
     1
 90
        0
176
     1
290
     0
176
     1
290
     1
176
     1
290
     1
176
     1
290
     0
176
     1
290
     0
176
     1
290
     0
176
     1
290
     0
176
     1
290
     0
176
     1
290
     0
176
     1
 90
       50
176
     1
 40
0.0
176
     1
 40
1.0
176
     1
 90
        0
176
     1
 62
    18
420
        0
176
     1
 90
       50
176
     1
 90
        3
176
     1
 62
     5
420
      255
176
     1
290
     0
176
     1
 90
       50
176
     1
 90
       50
176
     1
 90
       50
176
     1
290
     0
176
     1
 90
       50
176
     1
 62
   256
176
     0
 40
1.0
176
     0
 90
        2
176
     1
  1
strokes_ogs.tif
176
     1
290
     0
176
     1
 40
1.0
176
     1
 40
1.0
176
     1
  0
VISUALSTYLE
  5
34
102
{ACAD_REACTORS
330
2A
102
}
330
2A
100
AcDbVisualStyle
  2
Conceptual
 70
     9
177
     3
291
     0
 70
    58
 90
        3
176
     1
 90
        2
176
     1
 90
        0
176
     1
 90
        0
176
     1
 40
0.6
176
     1
 40
30.0
176
     1
 62
     7
420
 16777215
176
     1
 90
        2
176
     1
 90
        2
176
     1
 62
     7
176
     1
 62
   257
176
     1
 90
        1
176
     1
 90
        1
176
     1
 40
179.0
176
     1
 90
        8
176
     1
 62
     7
176
     1
 40
1.0
176
     1
 90
        1
176
     1
 90
        6
176
     1
 90
        2
176
     1
 62
     7
176
     1
 90
        3
176
     1
 90
        0
176
     1
 90
        0
176
     1
290
     0
176
     1
 90
        1
176
     1
 40
0.0
176
     1
 90
        0
176
     1
290
     0
176
     1
290
     1
176
     1
290
     1
176
     1
290
     0
176
     1
290
     0
176
     1
290
     0
176
     1
290
     0
176
     1
290
     0
176
     1
290
     0
176
     1
 90
       50
176
     1
 40
0.0
176
     1
 40
1.0
176
     1
 90
        0
176
     1
 62
    18
420
        0
176
     1
 90
       50
176
     1
 90
        3
176
     1
 62
     5
420
      255
176
     1
290
     0
176
     1
 90
       50
176
     1
 90
       50
176
     1
 90
       50
176
     1
290
     0
176
     1
 90
       50
176
     1
 62
   256
176
     0
 40
1.0
176
     0
 90
        2
176
     1
  1
strokes_ogs.tif
176
     1
290
     0
176
     1
 40
1.0
176
     1
 40
1.0
176
     1
  0
VISUALSTYLE
  5
35
102
{ACAD_REACTORS
330
2A
102
}
330
2A
100
AcDbVisualStyle
  2
Dim
 70
    11
177
     3
291
     1
 70
    58
 90
        2
176
     1
 90
        2
176
     1
 90
        0
176
     1
 90
        0
176
     1
 40
0.6
176
     1
 40
30.0
176
     1
 62
     7
420
 16777215
176
     1
 90
        1
176
     1
 90
        4
176
     1
 62
     7
176
     1
 62
   257
176
     1
 90
        1
176
     1
 90
        1
176
     1
 40
1.0
176
     1
 90
        8
176
     1
 62
     7
176
     1
 40
1.0
176
     1
 90
        1
176
     1
 90
        6
176
     1
 90
        2
176
     1
 62
     7
176
     1
 90
        5
176
     1
 90
        0
176
     1
 90
        0
176
     1
290
     0
176
     1
 90
        1
176
     1
 40
-50.0
176
     1
 90
        0
176
     1
290
     0
176
     1
290
     1
176
     1
290
     1
176
     1
290
     0
176
     1
290
     0
176
     1
290
     0
176
     1
290
     0
176
     1
290
     0
176
     1
290
     0
176
     1
 90
       50
176
     1
 40
0.0
176
     1
 40
1.0
176
     1
 90
        0
176
     1
 62
    18
420
        0
176
     1
 90
       50
176
     1
 90
        3
176
     1
 62
     5
420
      255
176
     1
290
     0
176
     1
 90
       50
176
     1
 90
       50
176
     1
 90
       50
176
     1
290
     0
176
     1
 90
       50
176
     1
 62
   256
176
     0
 40
1.0
176
     0
 90
        2
176
     1
  1
strokes_ogs.tif
176
     1
290
     0
176
     1
 40
1.0
176
     1
 40
1.0
176
     1
  0
VISUALSTYLE
  5
3D
102
{ACAD_REACTORS
330
2A
102
}
330
2A
100
AcDbVisualStyle
  2
EdgeColorOff
 70
    22
177
     3
291
     1
 70
    58
 90
        2
176
     0
 90
        2
176
     0
 90
        0
176
     0
 90
        0
176
     0
 40
0.6
176
     0
 40
30.0
176
     0
 62
     7
420
 16777215
176
     0
 90
        1
176
     0
 90
        4
176
     0
 62
     7
176
     0
 62
   257
176
     0
 90
        1
176
     0
 90
        1
176
     0
 40
1.0
176
     0
 90
        8
176
     2
 62
     7
176
     0
 40
1.0
176
     0
 90
        1
176
     0
 90
        6
176
     0
 90
        2
176
     0
 62
     7
176
     0
 90
        5
176
     0
 90
        0
176
     0
 90
        0
176
     0
290
     0
176
     0
 90
        1
176
     0
 40
0.0
176
     0
 90
        0
176
     0
290
     0
176
     0
290
     1
176
     0
290
     1
176
     0
290
     0
176
     0
290
     0
176
     0
290
     0
176
     0
290
     0
176
     0
290
     0
176
     0
290
     0
176
     0
 90
       50
176
     0
 40
0.0
176
     0
 40
1.0
176
     0
 90
        0
176
     0
 62
    18
420
        0
176
     0
 90
       50
176
     0
 90
        3
176
     0
 62
     5
420
      255
176
     0
290
     0
176
     0
 90
       50
176
     0
 90
       50
176
     0
 90
       50
176
     0
290
     0
176
     0
 90
       50
176
     0
 62
   256
176
     0
 40
1.0
176
     0
 90
        2
176
     0
  1
strokes_ogs.tif
176
     0
290
     0
176
     0
 40
1.0
176
     0
 40
1.0
176
     0
  0
VISUALSTYLE
  5
39
102
{ACAD_REACTORS
330
2A
102
}
330
2A
100
AcDbVisualStyle
  2
Facepattern
 70
    15
177
     3
291
     1
 70
    58
 90
        2
176
     1
 90
        2
176
     1
 90
        0
176
     1
 90
        0
176
     1
 40
0.6
176
     1
 40
30.0
176
     1
 62
     7
420
 16777215
176
     1
 90
        1
176
     1
 90
        4
176
     1
 62
     7
176
     1
 62
   257
176
     1
 90
        1
176
     1
 90
        1
176
     1
 40
1.0
176
     1
 90
        8
176
     1
 62
     7
176
     1
 40
1.0
176
     1
 90
        1
176
     1
 90
        6
176
     1
 90
        2
176
     1
 62
     7
176
     1
 90
        5
176
     1
 90
        0
176
     1
 90
        0
176
     1
290
     0
176
     1
 90
        1
176
     1
 40
0.0
176
     1
 90
        0
176
     1
290
     0
176
     1
290
     1
176
     1
290
     1
176
     1
290
     0
176
     1
290
     0
176
     1
290
     0
176
     1
290
     0
176
     1
290
     0
176
     1
290
     0
176
     1
 90
       50
176
     1
 40
0.0
176
     1
 40
1.0
176
     1
 90
        0
176
     1
 62
    18
420
        0
176
     1
 90
       50
176
     1
 90
        3
176
     1
 62
     5
420
      255
176
     1
290
     0
176
     1
 90
       50
176
     1
 90
       50
176
     1
 90
       50
176
     1
290
     0
176
     1
 90
       50
176
     1
 62
   256
176
     0
 40
1.0
176
     0
 90
        2
176
     1
  1
strokes_ogs.tif
176
     1
290
     0
176
     1
 40
1.0
176
     1
 40
1.0
176
     1
  0
VISUALSTYLE
  5
2B
102
{ACAD_REACTORS
330
2A
102
}
330
2A
100
AcDbVisualStyle
  2
Flat
 70
     0
177
     3
291
     1
 70
    58
 90
        2
176
     1
 90
        1
176
     1
 90
        1
176
     1
 90
        2
176
     1
 40
0.6
176
     1
 40
30.0
176
     1
 62
     7
420
 16777215
176
     1
 90
        0
176
     1
 90
        0
176
     1
 62
     7
176
     1
 62
   257
176
     1
 90
        1
176
     1
 90
        1
176
     1
 40
1.0
176
     1
 90
        8
176
     1
 62
     7
176
     1
 40
1.0
176
     1
 90
        1
176
     1
 90
        6
176
     1
 90
        2
176
     1
 62
     7
176
     1
 90
        5
176
     1
 90
        0
176
     1
 90
        0
176
     1
290
     0
176
     1
 90
       13
176
     1
 40
0.0
176
     1
 90
        0
176
     1
290
     0
176
     1
290
     1
176
     1
290
     1
176
     1
290
     0
176
     1
290
     0
176
     1
290
     0
176
     1
290
     0
176
     1
290
     0
176
     1
290
     0
176
     1
 90
       50
176
     1
 40
0.0
176
     1
 40
1.0
176
     1
 90
        0
176
     1
 62
    18
420
        0
176
     1
 90
       50
176
     1
 90
        3
176
     1
 62
     5
420
      255
176
     1
290
     0
176
     1
 90
       50
176
     1
 90
       50
176
     1
 90
       50
176
     1
290
     0
176
     1
 90
       50
176
     1
 62
   256
176
     0
 40
1.0
176
     0
 90
        2
176
     1
  1
strokes_ogs.tif
176
     1
290
     0
176
     1
 40
1.0
176
     1
 40
1.0
176
     1
  0
VISUALSTYLE
  5
2C
102
{ACAD_REACTORS
330
2A
102
}
330
2A
100
AcDbVisualStyle
  2
FlatWithEdges
 70
     1
177
     3
291
     1
 70
    58
 90
        2
176
     1
 90
        1
176
     1
 90
        1
176
     1
 90
        2
176
     1
 40
0.6
176
     1
 40
30.0
176
     1
 62
     7
420
 16777215
176
     1
 90
        1
176
     1
 90
        0
176
     1
 62
     7
176
     1
 62
   257
176
     1
 90
        1
176
     1
 90
        1
176
     1
 40
1.0
176
     1
 90
        0
176
     1
 62
   257
176
     1
 40
1.0
176
     1
 90
        1
176
     1
 90
        6
176
     1
 90
        2
176
     1
 62
     7
176
     1
 90
        5
176
     1
 90
        0
176
     1
 90
        0
176
     1
290
     0
176
     1
 90
       13
176
     1
 40
0.0
176
     1
 90
        0
176
     1
290
     0
176
     1
290
     1
176
     1
290
     1
176
     1
290
     0
176
     1
290
     0
176
     1
290
     0
176
     1
290
     0
176
     1
290
     0
176
     1
290
     0
176
     1
 90
       50
176
     1
 40
0.0
176
     1
 40
1.0
176
     1
 90
        0
176
     1
 62
    18
420
        0
176
     1
 90
       50
176
     1
 90
        3
176
     1
 62
     5
420
      255
176
     1
290
     0
176
     1
 90
       50
176
     1
 90
       50
176
     1
 90
       50
176
     1
290
     0
176
     1
 90
       50
176
     1
 62
   256
176
     0
 40
1.0
176
     0
 90
        2
176
     1
  1
strokes_ogs.tif
176
     1
290
     0
176
     1
 40
1.0
176
     1
 40
1.0
176
     1
  0
VISUALSTYLE
  5
2D
102
{ACAD_REACTORS
330
2A
102
}
330
2A
100
AcDbVisualStyle
  2
Gouraud
 70
     2
177
     3
291
     1
 70
    58
 90
        2
176
     1
 90
        2
176
     1
 90
        1
176
     1
 90
        2
176
     1
 40
0.6
176
     1
 40
30.0
176
     1
 62
     7
420
 16777215
176
     1
 90
        0
176
     1
 90
        0
176
     1
 62
     7
176
     1
 62
   257
176
     1
 90
        1
176
     1
 90
        1
176
     1
 40
1.0
176
     1
 90
        0
176
     1
 62
     7
176
     1
 40
1.0
176
     1
 90
        1
176
     1
 90
        6
176
     1
 90
        2
176
     1
 62
     7
176
     1
 90
        5
176
     1
 90
        0
176
     1
 90
        0
176
     1
290
     0
176
     1
 90
       13
176
     1
 40
0.0
176
     1
 90
        0
176
     1
290
     0
176
     1
290
     1
176
     1
290
     1
176
     1
290
     0
176
     1
290
     0
176
     1
290
     0
176
     1
290
     0
176
     1
290
     0
176
     1
290
     0
176
     1
 90
       50
176
     1
 40
0.0
176
     1
 40
1.0
176
     1
 90
        0
176
     1
 62
    18
420
        0
176
     1
 90
       50
176
     1
 90
        3
176
     1
 62
     5
420
      255
176
     1
290
     0
176
     1
 90
       50
176
     1
 90
       50
176
     1
 90
       50
176
     1
290
     0
176
     1
 90
       50
176
     1
 62
   256
176
     0
 40
1.0
176
     0
 90
        2
176
     1
  1
strokes_ogs.tif
176
     1
290
     0
176
     1
 40
1.0
176
     1
 40
1.0
176
     1
  0
VISUALSTYLE
  5
2E
102
{ACAD_REACTORS
330
2A
102
}
330
2A
100
AcDbVisualStyle
  2
GouraudWithEdges
 70
     3
177
     3
291
     1
 70
    58
 90
        2
176
     1
 90
        2
176
     1
 90
        1
176
     1
 90
        2
176
     1
 40
0.6
176
     1
 40
30.0
176
     1
 62
     7
420
 16777215
176
     1
 90
        1
176
     1
 90
        0
176
     1
 62
     7
176
     1
 62
   257
176
     1
 90
        1
176
     1
 90
        1
176
     1
 40
1.0
176
     1
 90
        0
176
     1
 62
   257
176
     1
 40
1.0
176
     1
 90
        1
176
     1
 90
        6
176
     1
 90
        2
176
     1
 62
     7
176
     1
 90
        5
176
     1
 90
        0
176
     1
 90
        0
176
     1
290
     0
176
     1
 90
       13
176
     1
 40
0.0
176
     1
 90
        0
176
     1
290
     0
176
     1
290
     1
176
     1
290
     1
176
     1
290
     0
176
     1
290
     0
176
     1
290
     0
176
     1
290
     0
176
     1
290
     0
176
     1
290
     0
176
     1
 90
       50
176
     1
 40
0.0
176
     1
 40
1.0
176
     1
 90
        0
176
     1
 62
    18
420
        0
176
     1
 90
       50
176
     1
 90
        3
176
     1
 62
     5
420
      255
176
     1
290
     0
176
     1
 90
       50
176
     1
 90
       50
176
     1
 90
       50
176
     1
290
     0
176
     1
 90
       50
176
     1
 62
   256
176
     0
 40
1.0
176
     0
 90
        2
176
     1
  1
strokes_ogs.tif
176
     1
290
     0
176
     1
 40
1.0
176
     1
 40
1.0
176
     1
  0
VISUALSTYLE
  5
31
102
{ACAD_REACTORS
330
2A
102
}
330
2A
100
AcDbVisualStyle
  2
Hidden
 70
     6
177
     3
291
     0
 70
    58
 90
        1
176
     1
 90
        2
176
     1
 90
        2
176
     1
 90
        0
176
     1
 40
0.6
176
     1
 40
30.0
176
     1
 62
     7
420
 16777215
176
     1
 90
        2
176
     1
 90
        2
176
     1
 62
     7
176
     1
 62
   257
176
     1
 90
        2
176
     1
 90
        1
176
     1
 40
40.0
176
     1
 90
        0
176
     1
 62
   257
176
     1
 40
1.0
176
     1
 90
        1
176
     1
 90
        6
176
     1
 90
        2
176
     1
 62
     7
176
     1
 90
        3
176
     1
 90
        0
176
     1
 90
        0
176
     1
290
     0
176
     1
 90
        1
176
     1
 40
0.0
176
     1
 90
        0
176
     1
290
     0
176
     1
290
     1
176
     1
290
     1
176
     1
290
     0
176
     1
290
     0
176
     1
290
     0
176
     1
290
     0
176
     1
290
     0
176
     1
290
     0
176
     1
 90
       50
176
     1
 40
0.0
176
     1
 40
1.0
176
     1
 90
        0
176
     1
 62
    18
420
        0
176
     1
 90
       50
176
     1
 90
        3
176
     1
 62
     5
420
      255
176
     1
290
     0
176
     1
 90
       50
176
     1
 90
       50
176
     1
 90
       50
176
     1
290
     0
176
     1
 90
       50
176
     1
 62
   256
176
     0
 40
1.0
176
     0
 90
        2
176
     1
  1
strokes_ogs.tif
176
     1
290
     0
176
     1
 40
1.0
176
     1
 40
1.0
176
     1
  0
VISUALSTYLE
  5
3B
102
{ACAD_REACTORS
330
2A
102
}
330
2A
100
AcDbVisualStyle
  2
JitterOff
 70
    20
177
     3
291
     1
 70
    58
 90
        2
176
     0
 90
        2
176
     0
 90
        0
176
     0
 90
        0
176
     0
 40
0.6
176
     0
 40
30.0
176
     0
 62
     7
420
 16777215
176
     0
 90
        1
176
     0
 90
        4
176
     0
 62
     7
176
     0
 62
   257
176
     0
 90
        1
176
     0
 90
        1
176
     0
 40
1.0
176
     0
 90
       10
176
     2
 62
     7
176
     0
 40
1.0
176
     0
 90
        1
176
     0
 90
        6
176
     0
 90
        2
176
     0
 62
     7
176
     0
 90
        5
176
     0
 90
        0
176
     0
 90
        0
176
     0
290
     0
176
     0
 90
        1
176
     0
 40
0.0
176
     0
 90
        0
176
     0
290
     0
176
     0
290
     1
176
     0
290
     1
176
     0
290
     0
176
     0
290
     0
176
     0
290
     0
176
     0
290
     0
176
     0
290
     0
176
     0
290
     0
176
     0
 90
       50
176
     0
 40
0.0
176
     0
 40
1.0
176
     0
 90
        0
176
     0
 62
    18
420
        0
176
     0
 90
       50
176
     0
 90
        3
176
     0
 62
     5
420
      255
176
     0
290
     0
176
     0
 90
       50
176
     0
 90
       50
176
     0
 90
       50
176
     0
290
     0
176
     0
 90
       50
176
     0
 62
   256
176
     0
 40
1.0
176
     0
 90
        2
176
     0
  1
strokes_ogs.tif
176
     0
290
     0
176
     0
 40
1.0
176
     0
 40
1.0
176
     0
  0
VISUALSTYLE
  5
38
102
{ACAD_REACTORS
330
2A
102
}
330
2A
100
AcDbVisualStyle
  2
Linepattern
 70
    14
177
     3
291
     1
 70
    58
 90
        2
176
     1
 90
        2
176
     1
 90
        0
176
     1
 90
        0
176
     1
 40
0.6
176
     1
 40
30.0
176
     1
 62
     7
420
 16777215
176
     1
 90
        1
176
     1
 90
        4
176
     1
 62
     7
176
     1
 62
   257
176
     1
 90
        7
176
     1
 90
        7
176
     1
 40
1.0
176
     1
 90
        8
176
     1
 62
     7
176
     1
 40
1.0
176
     1
 90
        1
176
     1
 90
        6
176
     1
 90
        2
176
     1
 62
     7
176
     1
 90
        5
176
     1
 90
        0
176
     1
 90
        0
176
     1
290
     0
176
     1
 90
        1
176
     1
 40
0.0
176
     1
 90
        0
176
     1
290
     0
176
     1
290
     1
176
     1
290
     1
176
     1
290
     0
176
     1
290
     0
176
     1
290
     0
176
     1
290
     0
176
     1
290
     0
176
     1
290
     0
176
     1
 90
       50
176
     1
 40
0.0
176
     1
 40
1.0
176
     1
 90
        0
176
     1
 62
    18
420
        0
176
     1
 90
       50
176
     1
 90
        3
176
     1
 62
     5
420
      255
176
     1
290
     0
176
     1
 90
       50
176
     1
 90
       50
176
     1
 90
       50
176
     1
290
     0
176
     1
 90
       50
176
     1
 62
   256
176
     0
 40
1.0
176
     0
 90
        2
176
     1
  1
strokes_ogs.tif
176
     1
290
     0
176
     1
 40
1.0
176
     1
 40
1.0
176
     1
  0
VISUALSTYLE
  5
3C
102
{ACAD_REACTORS
330
2A
102
}
330
2A
100
AcDbVisualStyle
  2
OverhangOff
 70
    21
177
     3
291
     1
 70
    58
 90
        2
176
     0
 90
        2
176
     0
 90
        0
176
     0
 90
        0
176
     0
 40
0.6
176
     0
 40
30.0
176
     0
 62
     7
420
 16777215
176
     0
 90
        1
176
     0
 90
        4
176
     0
 62
     7
176
     0
 62
   257
176
     0
 90
        1
176
     0
 90
        1
176
     0
 40
1.0
176
     0
 90
        9
176
     2
 62
     7
176
     0
 40
1.0
176
     0
 90
        1
176
     0
 90
        6
176
     0
 90
        2
176
     0
 62
     7
176
     0
 90
        5
176
     0
 90
        0
176
     0
 90
        0
176
     0
290
     0
176
     0
 90
        1
176
     0
 40
0.0
176
     0
 90
        0
176
     0
290
     0
176
     0
290
     1
176
     0
290
     1
176
     0
290
     0
176
     0
290
     0
176
     0
290
     0
176
     0
290
     0
176
     0
290
     0
176
     0
290
     0
176
     0
 90
       50
176
     0
 40
0.0
176
     0
 40
1.0
176
     0
 90
        0
176
     0
 62
    18
420
        0
176
     0
 90
       50
176
     0
 90
        3
176
     0
 62
     5
420
      255
176
     0
290
     0
176
     0
 90
       50
176
     0
 90
       50
176
     0
 90
       50
176
     0
290
     0
176
     0
 90
       50
176
     0
 62
   256
176
     0
 40
1.0
176
     0
 90
        2
176
     0
  1
strokes_ogs.tif
176
     0
290
     0
176
     0
 40
1.0
176
     0
 40
1.0
176
     0
  0
VISUALSTYLE
  5
33
102
{ACAD_REACTORS
330
2A
102
}
330
2A
100
AcDbVisualStyle
  2
Realistic
 70
     8
177
     3
291
     0
 70
    58
 90
        2
176
     1
 90
        3
176
     1
 90
        0
176
     1
 90
        2
176
     1
 40
0.6
176
     1
 40
30.0
176
     1
 62
     7
420
 16777215
176
     1
 90
        0
176
     1
 90
        0
176
     1
 62
     7
176
     1
 62
   257
176
     1
 90
        1
176
     1
 90
        1
176
     1
 40
1.0
176
     1
 90
        8
176
     1
 62
   257
176
     1
 40
1.0
176
     1
 90
        1
176
     1
 90
        6
176
     1
 90
        2
176
     1
 62
     7
176
     1
 90
        3
176
     1
 90
        0
176
     1
 90
        0
176
     1
290
     0
176
     1
 90
       13
176
     1
 40
0.0
176
     1
 90
        0
176
     1
290
     0
176
     1
290
     1
176
     1
290
     1
176
     1
290
     0
176
     1
290
     0
176
     1
290
     0
176
     1
290
     0
176
     1
290
     0
176
     1
290
     0
176
     1
 90
       50
176
     1
 40
0.0
176
     1
 40
1.0
176
     1
 90
        0
176
     1
 62
    18
420
        0
176
     1
 90
       50
176
     1
 90
        3
176
     1
 62
     5
420
      255
176
     1
290
     0
176
     1
 90
       50
176
     1
 90
       50
176
     1
 90
       50
176
     1
290
     0
176
     1
 90
       50
176
     1
 62
   256
176
     0
 40
1.0
176
     0
 90
        2
176
     1
  1
strokes_ogs.tif
176
     1
290
     0
176
     1
 40
1.0
176
     1
 40
1.0
176
     1
  0
VISUALSTYLE
  5
42
102
{ACAD_REACTORS
330
2A
102
}
330
2A
100
AcDbVisualStyle
  2
Shaded
 70
    27
177
     3
291
     0
 70
    58
 90
        2
176
     1
 90
        2
176
     1
 90
        1
176
     1
 90
        2
176
     1
 40
0.6
176
     1
 40
30.0
176
     1
 62
     7
420
 16777215
176
     1
 90
        0
176
     1
 90
        4
176
     1
 62
     7
176
     1
 62
   257
176
     1
 90
        1
176
     1
 90
        1
176
     1
 40
1.0
176
     1
 90
        8
176
     1
 62
   257
176
     1
 40
1.0
176
     1
 90
        1
176
     1
 90
        6
176
     1
 90
        2
176
     1
 62
     8
420
  7895160
176
     1
 90
        3
176
     1
 90
        0
176
     1
 90
        0
176
     1
290
     0
176
     1
 90
        5
176
     1
 40
0.0
176
     1
 90
        0
176
     1
290
     0
176
     1
290
     1
176
     1
290
     1
176
     1
290
     0
176
     1
290
     0
176
     1
290
     0
176
     1
290
     0
176
     1
290
     0
176
     1
290
     0
176
     1
 90
       50
176
     1
 40
0.0
176
     1
 40
1.0
176
     1
 90
        0
176
     1
 62
    18
420
        0
176
     1
 90
       50
176
     1
 90
        3
176
     1
 62
     5
420
      255
176
     1
290
     0
176
     1
 90
       50
176
     1
 90
       50
176
     1
 90
       50
176
     1
290
     0
176
     1
 90
       50
176
     1
 62
   256
176
     0
 40
1.0
176
     0
 90
        2
176
     1
  1
strokes_ogs.tif
176
     1
290
     0
176
     1
 40
1.0
176
     1
 40
1.0
176
     1
  0
VISUALSTYLE
  5
41
102
{ACAD_REACTORS
330
2A
102
}
330
2A
100
AcDbVisualStyle
  2
Shaded with edges
 70
    26
177
     3
291
     0
 70
    58
 90
        2
176
     1
 90
        2
176
     1
 90
        1
176
     1
 90
        2
176
     1
 40
0.6
176
     1
 40
30.0
176
     1
 62
     7
420
 16777215
176
     1
 90
        1
176
     1
 90
       10
176
     1
 62
     7
176
     1
 62
   257
176
     1
 90
        2
176
     1
 90
        1
176
     1
 40
1.0
176
     1
 90
        8
176
     1
 62
   257
176
     1
 40
1.0
176
     1
 90
        1
176
     1
 90
        6
176
     1
 90
        2
176
     1
 62
     7
176
     1
 90
        3
176
     1
 90
        0
176
     1
 90
        0
176
     1
290
     0
176
     1
 90
        5
176
     1
 40
0.0
176
     1
 90
        0
176
     1
290
     0
176
     1
290
     1
176
     1
290
     1
176
     1
290
     0
176
     1
290
     0
176
     1
290
     0
176
     1
290
     0
176
     1
290
     0
176
     1
290
     0
176
     1
 90
       50
176
     1
 40
0.0
176
     1
 40
1.0
176
     1
 90
        0
176
     1
 62
    18
420
        0
176
     1
 90
       50
176
     1
 90
        3
176
     1
 62
     5
420
      255
176
     1
290
     0
176
     1
 90
       50
176
     1
 90
       50
176
     1
 90
       50
176
     1
290
     0
176
     1
 90
       50
176
     1
 62
   256
176
     0
 40
1.0
176
     0
 90
        2
176
     1
  1
strokes_ogs.tif
176
     1
290
     0
176
     1
 40
1.0
176
     1
 40
1.0
176
     1
  0
VISUALSTYLE
  5
3E
102
{ACAD_REACTORS
330
2A
102
}
330
2A
100
AcDbVisualStyle
  2
Shades of Gray
 70
    23
177
     3
291
     0
 70
    58
 90
        2
176
     1
 90
        2
176
     1
 90
        3
176
     1
 90
        0
176
     1
 40
0.6
176
     1
 40
30.0
176
     1
 62
     7
420
 16777215
176
     1
 90
        2
176
     1
 90
        2
176
     1
 62
     7
176
     1
 62
     7
176
     1
 90
        1
176
     1
 90
        1
176
     1
 40
40.0
176
     1
 90
        8
176
     1
 62
     7
176
     1
 40
1.0
176
     1
 90
        1
176
     1
 90
        6
176
     1
 90
        2
176
     1
 62
     7
176
     1
 90
        3
176
     1
 90
        0
176
     1
 90
        0
176
     1
290
     0
176
     1
 90
        1
176
     1
 40
0.0
176
     1
 90
        0
176
     1
290
     0
176
     1
290
     1
176
     1
290
     1
176
     1
290
     0
176
     1
290
     0
176
     1
290
     0
176
     1
290
     0
176
     1
290
     0
176
     1
290
     0
176
     1
 90
       50
176
     1
 40
0.0
176
     1
 40
1.0
176
     1
 90
        0
176
     1
 62
    18
420
        0
176
     1
 90
       50
176
     1
 90
        3
176
     1
 62
     5
420
      255
176
     1
290
     0
176
     1
 90
       50
176
     1
 90
       50
176
     1
 90
       50
176
     1
290
     0
176
     1
 90
       50
176
     1
 62
   256
176
     0
 40
1.0
176
     0
 90
        2
176
     1
  1
strokes_ogs.tif
176
     1
290
     0
176
     1
 40
1.0
176
     1
 40
1.0
176
     1
  0
VISUALSTYLE
  5
3F
102
{ACAD_REACTORS
330
2A
102
}
330
2A
100
AcDbVisualStyle
  2
Sketchy
 70
    24
177
     3
291
     0
 70
    58
 90
        1
176
     1
 90
        2
176
     1
 90
        2
176
     1
 90
        0
176
     1
 40
0.6
176
     1
 40
30.0
176
     1
 62
     7
420
 16777215
176
     1
 90
        2
176
     1
 90
        2
176
     1
 62
     7
176
     1
 62
     7
176
     1
 90
        1
176
     1
 90
        1
176
     1
 40
40.0
176
     1
 90
       11
176
     1
 62
     7
176
     1
 40
1.0
176
     1
 90
        1
176
     1
 90
        6
176
     1
 90
        2
176
     1
 62
     7
176
     1
 90
        6
176
     1
 90
        0
176
     1
 90
        0
176
     1
290
     0
176
     1
 90
        1
176
     1
 40
0.0
176
     1
 90
        0
176
     1
290
     0
176
     1
290
     1
176
     1
290
     1
176
     1
290
     0
176
     1
290
     0
176
     1
290
     0
176
     1
290
     0
176
     1
290
     0
176
     1
290
     0
176
     1
 90
       50
176
     1
 40
0.0
176
     1
 40
1.0
176
     1
 90
        0
176
     1
 62
    18
420
        0
176
     1
 90
       50
176
     1
 90
        3
176
     1
 62
     5
420
      255
176
     1
290
     0
176
     1
 90
       50
176
     1
 90
       50
176
     1
 90
       50
176
     1
290
     0
176
     1
 90
       50
176
     1
 62
   256
176
     0
 40
1.0
176
     0
 90
        2
176
     1
  1
strokes_ogs.tif
176
     1
290
     0
176
     1
 40
1.0
176
     1
 40
1.0
176
     1
  0
VISUALSTYLE
  5
37
102
{ACAD_REACTORS
330
2A
102
}
330
2A
100
AcDbVisualStyle
  2
Thicken
 70
    13
177
     3
291
     1
 70
    58
 90
        2
176
     1
 90
        2
176
     1
 90
        0
176
     1
 90
        0
176
     1
 40
0.6
176
     1
 40
30.0
176
     1
 62
     7
420
 16777215
176
     1
 90
        1
176
     1
 90
        4
176
     1
 62
     7
176
     1
 62
   257
176
     1
 90
        1
176
     1
 90
        1
176
     1
 40
1.0
176
     1
 90
       12
176
     1
 62
     7
176
     1
 40
1.0
176
     1
 90
        1
176
     1
 90
        6
176
     1
 90
        2
176
     1
 62
     7
176
     1
 90
        5
176
     1
 90
        0
176
     1
 90
        0
176
     1
290
     0
176
     1
 90
        1
176
     1
 40
0.0
176
     1
 90
        0
176
     1
290
     0
176
     1
290
     1
176
     1
290
     1
176
     1
290
     0
176
     1
290
     0
176
     1
290
     0
176
     1
290
     0
176
     1
290
     0
176
     1
290
     0
176
     1
 90
       50
176
     1
 40
0.0
176
     1
 40
1.0
176
     1
 90
        0
176
     1
 62
    18
420
        0
176
     1
 90
       50
176
     1
 90
        3
176
     1
 62
     5
420
      255
176
     1
290
     0
176
     1
 90
       50
176
     1
 90
       50
176
     1
 90
       50
176
     1
290
     0
176
     1
 90
       50
176
     1
 62
   256
176
     0
 40
1.0
176
     0
 90
        2
176
     1
  1
strokes_ogs.tif
176
     1
290
     0
176
     1
 40
1.0
176
     1
 40
1.0
176
     1
  0
VISUALSTYLE
  5
30
102
{ACAD_REACTORS
330
2A
102
}
330
2A
100
AcDbVisualStyle
  2
Wireframe
 70
     5
177
     3
291
     0
 70
    58
 90
        0
176
     1
 90
        2
176
     1
 90
        0
176
     1
 90
        0
176
     1
 40
0.6
176
     1
 40
30.0
176
     1
 62
     7
420
 16777215
176
     1
 90
        1
176
     1
 90
        4
176
     1
 62
     7
176
     1
 62
   257
176
     1
 90
        1
176
     1
 90
        1
176
     1
 40
1.0
176
     1
 90
        0
176
     1
 62
   257
176
     1
 40
1.0
176
     1
 90
        1
176
     1
 90
        6
176
     1
 90
        2
176
     1
 62
     7
176
     1
 90
        3
176
     1
 90
        0
176
     1
 90
        0
176
     1
290
     0
176
     1
 90
        1
176
     1
 40
0.0
176
     1
 90
        0
176
     1
290
     0
176
     1
290
     1
176
     1
290
     1
176
     1
290
     0
176
     1
290
     0
176
     1
290
     0
176
     1
290
     0
176
     1
290
     0
176
     1
290
     0
176
     1
 90
       50
176
     1
 40
0.0
176
     1
 40
1.0
176
     1
 90
        0
176
     1
 62
    18
420
        0
176
     1
 90
       50
176
     1
 90
        3
176
     1
 62
     5
420
      255
176
     1
290
     0
176
     1
 90
       50
176
     1
 90
       50
176
     1
 90
       50
176
     1
290
     0
176
     1
 90
       50
176
     1
 62
   256
176
     0
 40
1.0
176
     0
 90
        2
176
     1
  1
strokes_ogs.tif
176
     1
290
     0
176
     1
 40
1.0
176
     1
 40
1.0
176
     1
  0
VISUALSTYLE
  5
40
102
{ACAD_REACTORS
330
2A
102
}
330
2A
100
AcDbVisualStyle
  2
X-Ray
 70
    25
177
     3
291
     0
 70
    58
 90
        2
176
     1
 90
        2
176
     1
 90
        1
176
     1
 90
        1
176
     1
 40
0.5
176
     1
 40
30.0
176
     1
 62
     7
420
 16777215
176
     1
 90
        1
176
     1
 90
        0
176
     1
 62
     7
176
     1
 62
   257
176
     1
 90
        1
176
     1
 90
        1
176
     1
 40
1.0
176
     1
 90
        8
176
     1
 62
     7
176
     1
 40
1.0
176
     1
 90
        1
176
     1
 90
        6
176
     1
 90
        2
176
     1
 62
     7
176
     1
 90
        3
176
     1
 90
        0
176
     1
 90
        0
176
     1
290
     0
176
     1
 90
       13
176
     1
 40
0.0
176
     1
 90
        0
176
     1
290
     0
176
     1
290
     1
176
     1
290
     1
176
     1
290
     0
176
     1
290
     0
176
     1
290
     0
176
     1
290
     0
176
     1
290
     0
176
     1
290
     0
176
     1
 90
       50
176
     1
 40
0.0
176
     1
 40
1.0
176
     1
 90
        0
176
     1
 62
    18
420
        0
176
     1
 90
       50
176
     1
 90
        3
176
     1
 62
     5
420
      255
176
     1
290
     0
176
     1
 90
       50
176
     1
 90
       50
176
     1
 90
       50
176
     1
290
     0
176
     1
 90
       50
176
     1
 62
   256
176
     0
 40
1.0
176
     0
 90
        2
176
     1
  1
strokes_ogs.tif
176
     1
290
     0
176
     1
 40
1.0
176
     1
 40
1.0
176
     1
  0
DICTIONARYVAR
  5
188
102
{ACAD_REACTORS
330
187
102
}
330
187
100
DictionaryVariables
280
     0
  1
1:1
  0
DICTIONARYVAR
  5
18D
102
{ACAD_REACTORS
330
187
102
}
330
187
100
DictionaryVariables
280
     0
  1
Standard
  0
DICTIONARYVAR
  5
18C
102
{ACAD_REACTORS
330
187
102
}
330
187
100
DictionaryVariables
280
     0
  1
Standard
  0
DICTIONARY
  5
189
330
6A
100
AcDbDictionary
280
     1
281
     1
  3
ACAD_ROUNDTRIP_2008_TABLESTYLE_CELLSTYLEMAP
360
18A
  0
CELLSTYLEMAP
  5
18A
102
{ACAD_REACTORS
330
189
102
}
330
189
100
AcDbCellStyleMap
 90
        3
300
CELLSTYLE
  1
TABLEFORMAT_BEGIN
 90
        5
170
     1
 91
        0
 92
    32768
 62
   257
 93
        1
300
CONTENTFORMAT
  1
CONTENTFORMAT_BEGIN
 90
        0
 91
        0
 92
        4
 93
        0
300

 40
0.0
140
1.0
 94
        5
 62
     0
340
11
144
0.25
309
CONTENTFORMAT_END
171
     1
301
MARGIN
  1
CELLMARGIN_BEGIN
 40
0.06
 40
0.06
 40
0.06
 40
0.06
 40
0.06
 40
0.06
309
CELLMARGIN_END
 94
        6
 95
        1
302
GRIDFORMAT
  1
GRIDFORMAT_BEGIN
 90
        0
 91
        1
 62
     0
 92
       -2
340
14
 93
        0
 40
0.045
309
GRIDFORMAT_END
 95
        2
302
GRIDFORMAT
  1
GRIDFORMAT_BEGIN
 90
        0
 91
        1
 62
     0
 92
       -2
340
14
 93
        0
 40
0.045
309
GRIDFORMAT_END
 95
        4
302
GRIDFORMAT
  1
GRIDFORMAT_BEGIN
 90
        0
 91
        1
 62
     0
 92
       -2
340
14
 93
        0
 40
0.045
309
GRIDFORMAT_END
 95
        8
302
GRIDFORMAT
  1
GRIDFORMAT_BEGIN
 90
        0
 91
        1
 62
     0
 92
       -2
340
14
 93
        0
 40
0.045
309
GRIDFORMAT_END
 95
       16
302
GRIDFORMAT
  1
GRIDFORMAT_BEGIN
 90
        0
 91
        1
 62
     0
 92
       -2
340
14
 93
        0
 40
0.045
309
GRIDFORMAT_END
 95
       32
302
GRIDFORMAT
  1
GRIDFORMAT_BEGIN
 90
        0
 91
        1
 62
     0
 92
       -2
340
14
 93
        0
 40
0.045
309
GRIDFORMAT_END
309
TABLEFORMAT_END
  1
CELLSTYLE_BEGIN
 90
        1
 91
        1
300
_TITLE
309
CELLSTYLE_END
300
CELLSTYLE
  1
TABLEFORMAT_BEGIN
 90
        5
170
     1
 91
        0
 92
        0
 62
   257
 93
        1
300
CONTENTFORMAT
  1
CONTENTFORMAT_BEGIN
 90
        0
 91
        0
 92
        4
 93
        0
300

 40
0.0
140
1.0
 94
        5
 62
     0
340
11
144
0.18
309
CONTENTFORMAT_END
171
     1
301
MARGIN
  1
CELLMARGIN_BEGIN
 40
0.06
 40
0.06
 40
0.06
 40
0.06
 40
0.06
 40
0.06
309
CELLMARGIN_END
 94
        6
 95
        1
302
GRIDFORMAT
  1
GRIDFORMAT_BEGIN
 90
        0
 91
        1
 62
     0
 92
       -2
340
14
 93
        0
 40
0.045
309
GRIDFORMAT_END
 95
        2
302
GRIDFORMAT
  1
GRIDFORMAT_BEGIN
 90
        0
 91
        1
 62
     0
 92
       -2
340
14
 93
        0
 40
0.045
309
GRIDFORMAT_END
 95
        4
302
GRIDFORMAT
  1
GRIDFORMAT_BEGIN
 90
        0
 91
        1
 62
     0
 92
       -2
340
14
 93
        0
 40
0.045
309
GRIDFORMAT_END
 95
        8
302
GRIDFORMAT
  1
GRIDFORMAT_BEGIN
 90
        0
 91
        1
 62
     0
 92
       -2
340
14
 93
        0
 40
0.045
309
GRIDFORMAT_END
 95
       16
302
GRIDFORMAT
  1
GRIDFORMAT_BEGIN
 90
        0
 91
        1
 62
     0
 92
       -2
340
14
 93
        0
 40
0.045
309
GRIDFORMAT_END
 95
       32
302
GRIDFORMAT
  1
GRIDFORMAT_BEGIN
 90
        0
 91
        1
 62
     0
 92
       -2
340
14
 93
        0
 40
0.045
309
GRIDFORMAT_END
309
TABLEFORMAT_END
  1
CELLSTYLE_BEGIN
 90
        2
 91
        1
300
_HEADER
309
CELLSTYLE_END
300
CELLSTYLE
  1
TABLEFORMAT_BEGIN
 90
        5
170
     1
 91
        0
 92
        0
 62
   257
 93
        1
300
CONTENTFORMAT
  1
CONTENTFORMAT_BEGIN
 90
        0
 91
        0
 92
        4
 93
        0
300

 40
0.0
140
1.0
 94
        2
 62
     0
340
11
144
0.18
309
CONTENTFORMAT_END
171
     1
301
MARGIN
  1
CELLMARGIN_BEGIN
 40
0.06
 40
0.06
 40
0.06
 40
0.06
 40
0.06
 40
0.06
309
CELLMARGIN_END
 94
        6
 95
        1
302
GRIDFORMAT
  1
GRIDFORMAT_BEGIN
 90
        0
 91
        1
 62
     0
 92
       -2
340
14
 93
        0
 40
0.045
309
GRIDFORMAT_END
 95
        2
302
GRIDFORMAT
  1
GRIDFORMAT_BEGIN
 90
        0
 91
        1
 62
     0
 92
       -2
340
14
 93
        0
 40
0.045
309
GRIDFORMAT_END
 95
        4
302
GRIDFORMAT
  1
GRIDFORMAT_BEGIN
 90
        0
 91
        1
 62
     0
 92
       -2
340
14
 93
        0
 40
0.045
309
GRIDFORMAT_END
 95
        8
302
GRIDFORMAT
  1
GRIDFORMAT_BEGIN
 90
        0
 91
        1
 62
     0
 92
       -2
340
14
 93
        0
 40
0.045
309
GRIDFORMAT_END
 95
       16
302
GRIDFORMAT
  1
GRIDFORMAT_BEGIN
 90
        0
 91
        1
 62
     0
 92
       -2
340
14
 93
        0
 40
0.045
309
GRIDFORMAT_END
 95
       32
302
GRIDFORMAT
  1
GRIDFORMAT_BEGIN
 90
        0
 91
        1
 62
     0
 92
       -2
340
14
 93
        0
 40
0.045
309
GRIDFORMAT_END
309
TABLEFORMAT_END
  1
CELLSTYLE_BEGIN
 90
        3
 91
        2
300
_DATA
309
CELLSTYLE_END
  0
ENDSEC
  0
EOF