0
SECTION
  2
HEADER
  9
$ACADVER
  1
AC1027
  9
$ACADMAINTVER
 70
     8
  9
$DWGCODEPAGE
  3
ANSI_1252
  9
$REQUIREDVERSIONS
160
                 0
  9
$COMMENTS
  1
File was created by Cadenas
  9
$CUSTOMPROPERTYTAG
  1
NN
  9
$CUSTOMPROPERTY
  1
D-Lok Two-Bolt Pillow Block Inch Bore
  9
$CUSTOMPROPERTYTAG
  1
NT
  9
$CUSTOMPROPERTY
  1
DL Normal Duty Pillow Blocks
  9
$CUSTOMPROPERTYTAG
  1
NB
  9
$CUSTOMPROPERTY
  1
128700
  9
$CUSTOMPROPERTYTAG
  1
NBSYN
  9
$CUSTOMPROPERTY
  1
$PN.
  9
$CUSTOMPROPERTYTAG
  1
LINA
  9
$CUSTOMPROPERTY
  1
128700
  9
$CUSTOMPROPERTYTAG
  1
SERIES
  9
$CUSTOMPROPERTY
  1
204
  9
$CUSTOMPROPERTYTAG
  1
SS
  9
$CUSTOMPROPERTY
  1
3/4
  9
$CUSTOMPROPERTYTAG
  1
PN
  9
$CUSTOMPROPERTY
  1
128700
  9
$CUSTOMPROPERTYTAG
  1
DESCRIPTION
  9
$CUSTOMPROPERTY
  1
P2B-DL-012
  9
$CUSTOMPROPERTYTAG
  1
WEIGHT
  9
$CUSTOMPROPERTY
  1
2.1
  9
$CUSTOMPROPERTYTAG
  1
A
  9
$CUSTOMPROPERTY
  1
1.28
  9
$CUSTOMPROPERTYTAG
  1
B
  9
$CUSTOMPROPERTY
  1
5.25
  9
$CUSTOMPROPERTYTAG
  1
C
  9
$CUSTOMPROPERTY
  1
1.34
  9
$CUSTOMPROPERTYTAG
  1
DMIN
  9
$CUSTOMPROPERTY
  1
3.38
  9
$CUSTOMPROPERTYTAG
  1
DMAX
  9
$CUSTOMPROPERTY
  1
4.19
  9
$CUSTOMPROPERTYTAG
  1
F
  9
$CUSTOMPROPERTY
  1
3/8
  9
$CUSTOMPROPERTYTAG
  1
G
  9
$CUSTOMPROPERTY
  1
0.85
  9
$CUSTOMPROPERTYTAG
  1
H
  9
$CUSTOMPROPERTY
  1
0.53
  9
$CUSTOMPROPERTYTAG
  1
J
  9
$CUSTOMPROPERTY
  1
2.56
  9
$CUSTOMPROPERTYTAG
  1
L
  9
$CUSTOMPROPERTY
  1
1.71
  9
$CUSTOMPROPERTYTAG
  1
M
  9
$CUSTOMPROPERTY
  1
1.31
  9
$CUSTOMPROPERTYTAG
  1
R
  9
$CUSTOMPROPERTY
  1
0.50
  9
$CUSTOMPROPERTYTAG
  1
S
  9
$CUSTOMPROPERTY
  1
0.78
  9
$CUSTOMPROPERTYTAG
  1
U
  9
$CUSTOMPROPERTY
  1
2.25
  9
$CUSTOMPROPERTYTAG
  1
V
  9
$CUSTOMPROPERTY
  1
4.50
  9
$CUSTOMPROPERTYTAG
  1
W
  9
$CUSTOMPROPERTY
  1
0.50
  9
$CUSTOMPROPERTYTAG
  1
X
  9
$CUSTOMPROPERTY
  1
0.12
  9
$CUSTOMPROPERTYTAG
  1
COMPANY
  9
$CUSTOMPROPERTY
  1
baldor
  9
$INSBASE
 10
0.0
 20
0.0
 30
0.0
  9
$EXTMIN
 10
1.000000000000000E+20
 20
1.000000000000000E+20
 30
1.000000000000000E+20
  9
$EXTMAX
 10
-1.000000000000000E+20
 20
-1.000000000000000E+20
 30
-1.000000000000000E+20
  9
$LIMMIN
 10
0.0
 20
0.0
  9
$LIMMAX
 10
12.0
 20
9.0
  9
$ORTHOMODE
 70
     0
  9
$REGENMODE
 70
     1
  9
$FILLMODE
 70
     1
  9
$QTEXTMODE
 70
     0
  9
$MIRRTEXT
 70
     1
  9
$LTSCALE
 40
1.0
  9
$ATTMODE
 70
     1
  9
$TEXTSIZE
 40
0.2
  9
$TRACEWID
 40
0.05
  9
$TEXTSTYLE
  7
Standard
  9
$CLAYER
  8
0
  9
$CELTYPE
  6
ByLayer
  9
$CECOLOR
 62
   256
  9
$CELTSCALE
 40
1.0
  9
$DISPSILH
 70
     0
  9
$DIMSCALE
 40
1.0
  9
$DIMASZ
 40
0.18
  9
$DIMEXO
 40
0.0625
  9
$DIMDLI
 40
0.38
  9
$DIMRND
 40
0.0
  9
$DIMDLE
 40
0.0
  9
$DIMEXE
 40
0.18
  9
$DIMTP
 40
0.0
  9
$DIMTM
 40
0.0
  9
$DIMTXT
 40
0.18
  9
$DIMCEN
 40
0.09
  9
$DIMTSZ
 40
0.0
  9
$DIMTOL
 70
     0
  9
$DIMLIM
 70
     0
  9
$DIMTIH
 70
     1
  9
$DIMTOH
 70
     1
  9
$DIMSE1
 70
     0
  9
$DIMSE2
 70
     0
  9
$DIMTAD
 70
     0
  9
$DIMZIN
 70
     0
  9
$DIMBLK
  1

  9
$DIMASO
 70
     1
  9
$DIMSHO
 70
     1
  9
$DIMPOST
  1

  9
$DIMAPOST
  1

  9
$DIMALT
 70
     0
  9
$DIMALTD
 70
     2
  9
$DIMALTF
 40
25.4
  9
$DIMLFAC
 40
1.0
  9
$DIMTOFL
 70
     0
  9
$DIMTVP
 40
0.0
  9
$DIMTIX
 70
     0
  9
$DIMSOXD
 70
     0
  9
$DIMSAH
 70
     0
  9
$DIMBLK1
  1

  9
$DIMBLK2
  1

  9
$DIMSTYLE
  2
Standard
  9
$DIMCLRD
 70
     0
  9
$DIMCLRE
 70
     0
  9
$DIMCLRT
 70
     0
  9
$DIMTFAC
 40
1.0
  9
$DIMGAP
 40
0.09
  9
$DIMJUST
 70
     0
  9
$DIMSD1
 70
     0
  9
$DIMSD2
 70
     0
  9
$DIMTOLJ
 70
     1
  9
$DIMTZIN
 70
     0
  9
$DIMALTZ
 70
     0
  9
$DIMALTTZ
 70
     0
  9
$DIMUPT
 70
     0
  9
$DIMDEC
 70
     4
  9
$DIMTDEC
 70
     4
  9
$DIMALTU
 70
     2
  9
$DIMALTTD
 70
     2
  9
$DIMTXSTY
  7
Standard
  9
$DIMAUNIT
 70
     0
  9
$DIMADEC
 70
     0
  9
$DIMALTRND
 40
0.0
  9
$DIMAZIN
 70
     0
  9
$DIMDSEP
 70
    46
  9
$DIMATFIT
 70
     3
  9
$DIMFRAC
 70
     0
  9
$DIMLDRBLK
  1

  9
$DIMLUNIT
 70
     2
  9
$DIMLWD
 70
    -2
  9
$DIMLWE
 70
    -2
  9
$DIMTMOVE
 70
     0
  9
$DIMFXL
 40
1.0
  9
$DIMFXLON
 70
     0
  9
$DIMJOGANG
 40
0.7853981633974483
  9
$DIMTFILL
 70
     0
  9
$DIMTFILLCLR
 70
     0
  9
$DIMARCSYM
 70
     0
  9
$DIMLTYPE
  6

  9
$DIMLTEX1
  6

  9
$DIMLTEX2
  6

  9
$DIMTXTDIRECTION
 70
     0
  9
$LUNITS
 70
     2
  9
$LUPREC
 70
     4
  9
$SKETCHINC
 40
0.1
  9
$FILLETRAD
 40
0.5
  9
$AUNITS
 70
     0
  9
$AUPREC
 70
     0
  9
$MENU
  1
.
  9
$ELEVATION
 40
0.0
  9
$PELEVATION
 40
0.0
  9
$THICKNESS
 40
0.0
  9
$LIMCHECK
 70
     0
  9
$CHAMFERA
 40
0.0
  9
$CHAMFERB
 40
0.0
  9
$CHAMFERC
 40
0.0
  9
$CHAMFERD
 40
0.0
  9
$SKPOLY
 70
     0
  9
$TDCREATE
 40
2458169.002206528
  9
$TDUCREATE
 40
2458168.960539861
  9
$TDUPDATE
 40
2458169.002206713
  9
$TDUUPDATE
 40
2458168.960540046
  9
$TDINDWG
 40
0.0000000116
  9
$TDUSRTIMER
 40
0.0000000116
  9
$USRTIMER
 70
     1
  9
$ANGBASE
 50
0.0
  9
$ANGDIR
 70
     0
  9
$PDMODE
 70
     0
  9
$PDSIZE
 40
0.0
  9
$PLINEWID
 40
0.0
  9
$SPLFRAME
 70
     0
  9
$SPLINETYPE
 70
     6
  9
$SPLINESEGS
 70
     8
  9
$HANDSEED
  5
17C
  9
$SURFTAB1
 70
     6
  9
$SURFTAB2
 70
     6
  9
$SURFTYPE
 70
     6
  9
$SURFU
 70
     6
  9
$SURFV
 70
     6
  9
$UCSBASE
  2

  9
$UCSNAME
  2

  9
$UCSORG
 10
0.0
 20
0.0
 30
0.0
  9
$UCSXDIR
 10
1.0
 20
0.0
 30
0.0
  9
$UCSYDIR
 10
0.0
 20
1.0
 30
0.0
  9
$UCSORTHOREF
  2

  9
$UCSORTHOVIEW
 70
     0
  9
$UCSORGTOP
 10
0.0
 20
0.0
 30
0.0
  9
$UCSORGBOTTOM
 10
0.0
 20
0.0
 30
0.0
  9
$UCSORGLEFT
 10
0.0
 20
0.0
 30
0.0
  9
$UCSORGRIGHT
 10
0.0
 20
0.0
 30
0.0
  9
$UCSORGFRONT
 10
0.0
 20
0.0
 30
0.0
  9
$UCSORGBACK
 10
0.0
 20
0.0
 30
0.0
  9
$PUCSBASE
  2

  9
$PUCSNAME
  2

  9
$PUCSORG
 10
0.0
 20
0.0
 30
0.0
  9
$PUCSXDIR
 10
1.0
 20
0.0
 30
0.0
  9
$PUCSYDIR
 10
0.0
 20
1.0
 30
0.0
  9
$PUCSORTHOREF
  2

  9
$PUCSORTHOVIEW
 70
     0
  9
$PUCSORGTOP
 10
0.0
 20
0.0
 30
0.0
  9
$PUCSORGBOTTOM
 10
0.0
 20
0.0
 30
0.0
  9
$PUCSORGLEFT
 10
0.0
 20
0.0
 30
0.0
  9
$PUCSORGRIGHT
 10
0.0
 20
0.0
 30
0.0
  9
$PUCSORGFRONT
 10
0.0
 20
0.0
 30
0.0
  9
$PUCSORGBACK
 10
0.0
 20
0.0
 30
0.0
  9
$USERI1
 70
     0
  9
$USERI2
 70
     0
  9
$USERI3
 70
     0
  9
$USERI4
 70
     0
  9
$USERI5
 70
     0
  9
$USERR1
 40
0.0
  9
$USERR2
 40
0.0
  9
$USERR3
 40
0.0
  9
$USERR4
 40
0.0
  9
$USERR5
 40
0.0
  9
$WORLDVIEW
 70
     1
  9
$SHADEDGE
 70
     3
  9
$SHADEDIF
 70
    70
  9
$TILEMODE
 70
     1
  9
$MAXACTVP
 70
    64
  9
$PINSBASE
 10
0.0
 20
0.0
 30
0.0
  9
$PLIMCHECK
 70
     0
  9
$PEXTMIN
 10
1.000000000000000E+20
 20
1.000000000000000E+20
 30
1.000000000000000E+20
  9
$PEXTMAX
 10
-1.000000000000000E+20
 20
-1.000000000000000E+20
 30
-1.000000000000000E+20
  9
$PLIMMIN
 10
0.0
 20
0.0
  9
$PLIMMAX
 10
12.0
 20
9.0
  9
$UNITMODE
 70
     0
  9
$VISRETAIN
 70
     1
  9
$PLINEGEN
 70
     0
  9
$PSLTSCALE
 70
     1
  9
$TREEDEPTH
 70
  3020
  9
$CMLSTYLE
  2
Standard
  9
$CMLJUST
 70
     0
  9
$CMLSCALE
 40
1.0
  9
$PROXYGRAPHICS
 70
     1
  9
$MEASUREMENT
 70
     0
  9
$CELWEIGHT
370
    -1
  9
$ENDCAPS
280
     0
  9
$JOINSTYLE
280
     0
  9
$LWDISPLAY
290
     0
  9
$INSUNITS
 70
     1
  9
$HYPERLINKBASE
  1

  9
$STYLESHEET
  1

  9
$XEDIT
290
     1
  9
$CEPSNTYPE
380
     0
  9
$PSTYLEMODE
290
     1
  9
$FINGERPRINTGUID
  2
{1FFF46DE-7981-4AB1-92F6-2F3E0D192D24}
  9
$VERSIONGUID
  2
{FAEB1C32-E019-11D5-929B-00C0DF256EC4}
  9
$EXTNAMES
290
     1
  9
$PSVPSCALE
 40
0.0
  9
$OLESTARTUP
290
     0
  9
$SORTENTS
280
   127
  9
$INDEXCTL
280
     0
  9
$HIDETEXT
280
     1
  9
$XCLIPFRAME
280
     2
  9
$HALOGAP
280
     0
  9
$OBSCOLOR
 70
   257
  9
$OBSLTYPE
280
     0
  9
$INTERSECTIONDISPLAY
280
     0
  9
$INTERSECTIONCOLOR
 70
   257
  9
$DIMASSOC
280
     2
  9
$PROJECTNAME
  1

  9
$CAMERADISPLAY
290
     0
  9
$LENSLENGTH
 40
50.0
  9
$CAMERAHEIGHT
 40
0.0
  9
$STEPSPERSEC
 40
2.0
  9
$STEPSIZE
 40
6.0
  9
$3DDWFPREC
 40
2.0
  9
$PSOLWIDTH
 40
0.25
  9
$PSOLHEIGHT
 40
4.0
  9
$LOFTANG1
 40
1.570796326794897
  9
$LOFTANG2
 40
1.570796326794897
  9
$LOFTMAG1
 40
0.0
  9
$LOFTMAG2
 40
0.0
  9
$LOFTPARAM
 70
     7
  9
$LOFTNORMALS
280
     1
  9
$LATITUDE
 40
37.795
  9
$LONGITUDE
 40
-122.394
  9
$NORTHDIRECTION
 40
0.0
  9
$TIMEZONE
 70
 -8000
  9
$LIGHTGLYPHDISPLAY
280
     1
  9
$TILEMODELIGHTSYNCH
280
     1
  9
$CMATERIAL
347
44
  9
$SOLIDHIST
280
     0
  9
$SHOWHIST
280
     1
  9
$DWFFRAME
280
     2
  9
$DGNFRAME
280
     2
  9
$REALWORLDSCALE
290
     1
  9
$INTERFERECOLOR
 62
   256
  9
$CSHADOW
280
     0
  9
$SHADOWPLANELOCATION
 40
0.0
  0
ENDSEC
  0
SECTION
  2
CLASSES
  0
CLASS
  1
ACDBDICTIONARYWDFLT
  2
AcDbDictionaryWithDefault
  3
ObjectDBX Classes
 90
        0
 91
        4
280
     0
281
     0
  0
CLASS
  1
VISUALSTYLE
  2
AcDbVisualStyle
  3
ObjectDBX Classes
 90
     4095
 91
        4
280
     0
281
     0
  0
CLASS
  1
MATERIAL
  2
AcDbMaterial
  3
ObjectDBX Classes
 90
     1153
 91
        4
280
     0
281
     0
  0
CLASS
  1
SCALE
  2
AcDbScale
  3
ObjectDBX Classes
 90
     1153
 91
        4
280
     0
281
     0
  0
CLASS
  1
TABLESTYLE
  2
AcDbTableStyle
  3
ObjectDBX Classes
 90
     4095
 91
        4
280
     0
281
     0
  0
CLASS
  1
MLEADERSTYLE
  2
AcDbMLeaderStyle
  3
ACDB_MLEADERSTYLE_CLASS
 90
     4095
 91
        4
280
     0
281
     0
  0
CLASS
  1
SUN
  2
AcDbSun
  3
SCENEOE
 90
     1153
 91
        4
280
     0
281
     0
  0
CLASS
  1
DICTIONARYVAR
  2
AcDbDictionaryVar
  3
ObjectDBX Classes
 90
        0
 91
        4
280
     0
281
     0
  0
CLASS
  1
CELLSTYLEMAP
  2
AcDbCellStyleMap
  3
ObjectDBX Classes
 90
     1152
 91
        4
280
     0
281
     0
  0
ENDSEC
  0
SECTION
  2
TABLES
  0
TABLE
  2
VPORT
  5
8
330
0
100
AcDbSymbolTable
 70
     1
  0
VPORT
  5
29
330
8
100
AcDbSymbolTableRecord
100
AcDbViewportTableRecord
  2
*Active
 70
     0
 10
0.0
 20
0.0
 11
1.0
 21
1.0
 12
0.0
 22
1.609
 13
0.0
 23
0.0
 14
0.5
 24
0.5
 15
0.5
 25
0.5
 16
0.0
 26
0.0
 36
1.0
 17
0.0
 27
0.0
 37
0.0
 40
3.28236
 41
1.631448104412679
 42
50.0
 43
0.0
 44
0.0
 50
0.0
 51
0.0
 71
     0
 72
   100
 73
     1
 74
     3
 75
     0
 76
     0
 77
     0
 78
     0
281
     0
 65
     1
110
0.0
120
0.0
130
0.0
111
1.0
121
0.0
131
0.0
112
0.0
122
1.0
132
0.0
 79
     0
146
0.0
348
2F
 60
     3
 61
     5
292
     1
282
     1
141
0.0
142
0.0
 63
   250
361
6D
  0
ENDTAB
  0
TABLE
  2
LTYPE
  5
5
330
0
100
AcDbSymbolTable
 70
     3
  0
LTYPE
  5
14
330
5
100
AcDbSymbolTableRecord
100
AcDbLinetypeTableRecord
  2
ByBlock
 70
     0
  3

 72
    65
 73
     0
 40
0.0
  0
LTYPE
  5
15
330
5
100
AcDbSymbolTableRecord
100
AcDbLinetypeTableRecord
  2
ByLayer
 70
     0
  3

 72
    65
 73
     0
 40
0.0
  0
LTYPE
  5
16
330
5
100
AcDbSymbolTableRecord
100
AcDbLinetypeTableRecord
  2
Continuous
 70
     0
  3
Solid line
 72
    65
 73
     0
 40
0.0
  0
LTYPE
  5
A1
330
5
100
AcDbSymbolTableRecord
100
AcDbLinetypeTableRecord
  2
Dashed
 70
     0
  3

 72
    65
 73
     2
 40
2.0
 49
1.0
 74
     0
 49
-1.0
 74
     0
  0
LTYPE
  5
AF
330
5
100
AcDbSymbolTableRecord
100
AcDbLinetypeTableRecord
  2
Center
 70
     0
  3

 72
    65
 73
     4
 40
1.5
 49
0.45
 74
     0
 49
-0.5
 74
     0
 49
0.05
 74
     0
 49
-0.5
 74
     0
  0
ENDTAB
  0
TABLE
  2
LAYER
  5
2
330
0
100
AcDbSymbolTable
 70
     7
  0
LAYER
  5
10
330
2
100
AcDbSymbolTableRecord
100
AcDbLayerTableRecord
  2
0
 70
     0
 62
     7
  6
Continuous
370
    -3
390
F
347
46
348
0
  0
LAYER
  5
72
330
2
100
AcDbSymbolTableRecord
100
AcDbLayerTableRecord
  2
AM_6
 70
     0
 62
    -2
  6
Continuous
370
    35
390
F
347
46
348
0
  0
LAYER
  5
A2
330
2
100
AcDbSymbolTableRecord
100
AcDbLayerTableRecord
  2
AM_9
 70
     0
 62
     6
  6
Dashed
370
    25
390
F
347
46
348
0
  0
LAYER
  5
A9
330
2
100
AcDbSymbolTableRecord
100
AcDbLayerTableRecord
  2
AM_5
 70
     0
 62
     3
  6
Continuous
370
    25
390
F
347
46
348
0
  0
LAYER
  5
B0
330
2
100
AcDbSymbolTableRecord
100
AcDbLayerTableRecord
  2
AM_7
 70
     0
 62
     7
  6
Center
370
    25
390
F
347
46
348
0
  0
LAYER
  5
B2
330
2
100
AcDbSymbolTableRecord
100
AcDbLayerTableRecord
  2
AM_4
 70
     0
 62
     7
  6
Continuous
370
    50
390
F
347
46
348
0
  0
LAYER
  5
16D
330
2
100
AcDbSymbolTableRecord
100
AcDbLayerTableRecord
  2
ConnectionPoints
 70
     0
 62
     7
  6
Continuous
370
    50
390
F
347
46
348
0
  0
ENDTAB
  0
TABLE
  2
STYLE
  5
3
330
0
100
AcDbSymbolTable
 70
     1
  0
STYLE
  5
11
330
3
100
AcDbSymbolTableRecord
100
AcDbTextStyleTableRecord
  2
Standard
 70
     0
 40
0.0
 41
1.0
 50
0.0
 71
     0
 42
0.2
  3
txt
  4

  0
ENDTAB
  0
TABLE
  2
VIEW
  5
6
330
0
100
AcDbSymbolTable
 70
     0
  0
ENDTAB
  0
TABLE
  2
UCS
  5
7
330
0
100
AcDbSymbolTable
 70
     0
  0
ENDTAB
  0
TABLE
  2
APPID
  5
9
330
0
100
AcDbSymbolTable
 70
     1
  0
APPID
  5
12
330
9
100
AcDbSymbolTableRecord
100
AcDbRegAppTableRecord
  2
ACAD
 70
     0
  0
ENDTAB
  0
TABLE
  2
DIMSTYLE
  5
A
330
0
100
AcDbSymbolTable
 70
     1
100
AcDbDimStyleTable
  0
DIMSTYLE
105
27
330
A
100
AcDbSymbolTableRecord
100
AcDbDimStyleTableRecord
  2
Standard
 70
     0
178
     0
340
11
  0
ENDTAB
  0
TABLE
  2
BLOCK_RECORD
  5
1
330
0
100
AcDbSymbolTable
 70
     5
  0
BLOCK_RECORD
  5
1F
330
1
100
AcDbSymbolTableRecord
100
AcDbBlockTableRecord
  2
*Model_Space
340
22
 70
     0
280
     1
281
     0
  0
BLOCK_RECORD
  5
1B
330
1
100
AcDbSymbolTableRecord
100
AcDbBlockTableRecord
  2
*Paper_Space
340
1E
 70
     0
280
     1
281
     0
  0
BLOCK_RECORD
  5
23
330
1
100
AcDbSymbolTableRecord
100
AcDbBlockTableRecord
  2
*Paper_Space0
340
26
 70
     0
280
     1
281
     0
  0
BLOCK_RECORD
  5
6E
330
1
100
AcDbSymbolTableRecord
100
AcDbBlockTableRecord
  2
1_128700_0
340
0
102
{BLKREFS
331
6F
102
}
 70
     0
280
     1
281
     0
  0
BLOCK_RECORD
  5
8F
330
1
100
AcDbSymbolTableRecord
100
AcDbBlockTableRecord
  2
2_405020c_Inch_0_in_128700_0
340
0
102
{BLKREFS
331
90
102
}
 70
     0
280
     1
281
     0
  0
BLOCK_RECORD
  5
D4
330
1
100
AcDbSymbolTableRecord
100
AcDbBlockTableRecord
  2
3_128646_0_in_128700_0
340
0
102
{BLKREFS
331
D5
102
}
 70
     0
280
     1
281
     0
  0
BLOCK_RECORD
  5
F8
330
1
100
AcDbSymbolTableRecord
100
AcDbBlockTableRecord
  2
4_128700h_0_in_128700_0
340
0
102
{BLKREFS
331
F9
102
}
 70
     0
280
     1
281
     0
  0
ENDTAB
  0
ENDSEC
  0
SECTION
  2
BLOCKS
  0
BLOCK
  5
20
330
1F
100
AcDbEntity
  8
0
100
AcDbBlockBegin
  2
*Model_Space
 70
     0
 10
0.0
 20
0.0
 30
0.0
  3
*Model_Space
  1

  0
ENDBLK
  5
21
330
1F
100
AcDbEntity
  8
0
100
AcDbBlockEnd
  0
BLOCK
  5
1C
330
1B
100
AcDbEntity
 67
     1
  8
0
100
AcDbBlockBegin
  2
*Paper_Space
 70
     0
 10
0.0
 20
0.0
 30
0.0
  3
*Paper_Space
  1

  0
ENDBLK
  5
1D
330
1B
100
AcDbEntity
 67
     1
  8
0
100
AcDbBlockEnd
  0
BLOCK
  5
24
330
23
100
AcDbEntity
  8
0
100
AcDbBlockBegin
  2
*Paper_Space0
 70
     0
 10
0.0
 20
0.0
 30
0.0
  3
*Paper_Space0
  1

  0
ENDBLK
  5
25
330
23
100
AcDbEntity
  8
0
100
AcDbBlockEnd
  0
BLOCK
  5
70
330
6E
100
AcDbEntity
  8
0
100
AcDbBlockBegin
  2
1_128700_0
 70
     2
 10
0.0
 20
0.0
 30
0.0
  3
1_128700_0
  1

  0
ATTDEF
  5
73
330
6E
100
AcDbEntity
  8
AM_6
100
AcDbText
 10
7.625
 20
3.218
 30
0.0
 40
0.5
  1
D-Lok Two-Bolt Pillow Block Inch Bore
100
AcDbAttributeDefinition
  3

  2
NN
 70
     8
280
     0
  0
ATTDEF
  5
74
330
6E
100
AcDbEntity
  8
AM_6
100
AcDbText
 10
7.625
 20
2.718
 30
0.0
 40
0.5
  1
DL Normal Duty Pillow Blocks
100
AcDbAttributeDefinition
  3

  2
NT
 70
     8
280
     0
  0
ATTDEF
  5
75
330
6E
100
AcDbEntity
  8
AM_6
100
AcDbText
 10
7.625
 20
2.218
 30
0.0
 40
0.5
  1
128700
100
AcDbAttributeDefinition
  3

  2
NB
 70
     8
280
     0
  0
ATTDEF
  5
76
330
6E
100
AcDbEntity
  8
AM_6
100
AcDbText
 10
7.625
 20
1.718
 30
0.0
 40
0.5
  1
$PN.
100
AcDbAttributeDefinition
  3

  2
NBSYN
 70
     8
280
     0
  0
ATTDEF
  5
77
330
6E
100
AcDbEntity
  8
AM_6
100
AcDbText
 10
7.625
 20
1.218
 30
0.0
 40
0.5
  1
128700
100
AcDbAttributeDefinition
  3

  2
LINA
 70
     8
280
     0
  0
ATTDEF
  5
78
330
6E
100
AcDbEntity
  8
AM_6
100
AcDbText
 10
7.625
 20
0.7180000000000004
 30
0.0
 40
0.5
  1
204
100
AcDbAttributeDefinition
  3

  2
SERIES
 70
     8
280
     0
  0
ATTDEF
  5
79
330
6E
100
AcDbEntity
  8
AM_6
100
AcDbText
 10
7.625
 20
0.2180000000000004
 30
0.0
 40
0.5
  1
3/4
100
AcDbAttributeDefinition
  3

  2
SS
 70
     8
280
     0
  0
ATTDEF
  5
7A
330
6E
100
AcDbEntity
  8
AM_6
100
AcDbText
 10
7.625
 20
-0.2819999999999996
 30
0.0
 40
0.5
  1
128700
100
AcDbAttributeDefinition
  3

  2
PN
 70
     8
280
     0
  0
ATTDEF
  5
7B
330
6E
100
AcDbEntity
  8
AM_6
100
AcDbText
 10
7.625
 20
-0.7819999999999996
 30
0.0
 40
0.5
  1
P2B-DL-012
100
AcDbAttributeDefinition
  3

  2
DESCRIPTION
 70
     8
280
     0
  0
ATTDEF
  5
7C
330
6E
100
AcDbEntity
  8
AM_6
100
AcDbText
 10
7.625
 20
-1.282
 30
0.0
 40
0.5
  1
2.1
100
AcDbAttributeDefinition
  3

  2
WEIGHT
 70
     8
280
     0
  0
ATTDEF
  5
7D
330
6E
100
AcDbEntity
  8
AM_6
100
AcDbText
 10
7.625
 20
-1.782
 30
0.0
 40
0.5
  1
1.28
100
AcDbAttributeDefinition
  3

  2
A
 70
     8
280
     0
  0
ATTDEF
  5
7E
330
6E
100
AcDbEntity
  8
AM_6
100
AcDbText
 10
7.625
 20
-2.282
 30
0.0
 40
0.5
  1
5.25
100
AcDbAttributeDefinition
  3

  2
B
 70
     8
280
     0
  0
ATTDEF
  5
7F
330
6E
100
AcDbEntity
  8
AM_6
100
AcDbText
 10
7.625
 20
-2.782
 30
0.0
 40
0.5
  1
1.34
100
AcDbAttributeDefinition
  3

  2
C
 70
     8
280
     0
  0
ATTDEF
  5
80
330
6E
100
AcDbEntity
  8
AM_6
100
AcDbText
 10
7.625
 20
-3.282
 30
0.0
 40
0.5
  1
3.38
100
AcDbAttributeDefinition
  3

  2
DMIN
 70
     8
280
     0
  0
ATTDEF
  5
81
330
6E
100
AcDbEntity
  8
AM_6
100
AcDbText
 10
7.625
 20
-3.782
 30
0.0
 40
0.5
  1
4.19
100
AcDbAttributeDefinition
  3

  2
DMAX
 70
     8
280
     0
  0
ATTDEF
  5
82
330
6E
100
AcDbEntity
  8
AM_6
100
AcDbText
 10
7.625
 20
-4.282
 30
0.0
 40
0.5
  1
3/8
100
AcDbAttributeDefinition
  3

  2
F
 70
     8
280
     0
  0
ATTDEF
  5
83
330
6E
100
AcDbEntity
  8
AM_6
100
AcDbText
 10
7.625
 20
-4.782
 30
0.0
 40
0.5
  1
0.85
100
AcDbAttributeDefinition
  3

  2
G
 70
     8
280
     0
  0
ATTDEF
  5
84
330
6E
100
AcDbEntity
  8
AM_6
100
AcDbText
 10
7.625
 20
-5.282
 30
0.0
 40
0.5
  1
0.53
100
AcDbAttributeDefinition
  3

  2
H
 70
     8
280
     0
  0
ATTDEF
  5
85
330
6E
100
AcDbEntity
  8
AM_6
100
AcDbText
 10
7.625
 20
-5.782
 30
0.0
 40
0.5
  1
2.56
100
AcDbAttributeDefinition
  3

  2
J
 70
     8
280
     0
  0
ATTDEF
  5
86
330
6E
100
AcDbEntity
  8
AM_6
100
AcDbText
 10
7.625
 20
-6.282
 30
0.0
 40
0.5
  1
1.71
100
AcDbAttributeDefinition
  3

  2
L
 70
     8
280
     0
  0
ATTDEF
  5
87
330
6E
100
AcDbEntity
  8
AM_6
100
AcDbText
 10
7.625
 20
-6.782
 30
0.0
 40
0.5
  1
1.31
100
AcDbAttributeDefinition
  3

  2
M
 70
     8
280
     0
  0
ATTDEF
  5
88
330
6E
100
AcDbEntity
  8
AM_6
100
AcDbText
 10
7.625
 20
-7.282
 30
0.0
 40
0.5
  1
0.50
100
AcDbAttributeDefinition
  3

  2
R
 70
     8
280
     0
  0
ATTDEF
  5
89
330
6E
100
AcDbEntity
  8
AM_6
100
AcDbText
 10
7.625
 20
-7.782
 30
0.0
 40
0.5
  1
0.78
100
AcDbAttributeDefinition
  3

  2
S
 70
     8
280
     0
  0
ATTDEF
  5
8A
330
6E
100
AcDbEntity
  8
AM_6
100
AcDbText
 10
7.625
 20
-8.282
 30
0.0
 40
0.5
  1
2.25
100
AcDbAttributeDefinition
  3

  2
U
 70
     8
280
     0
  0
ATTDEF
  5
8B
330
6E
100
AcDbEntity
  8
AM_6
100
AcDbText
 10
7.625
 20
-8.782
 30
0.0
 40
0.5
  1
4.50
100
AcDbAttributeDefinition
  3

  2
V
 70
     8
280
     0
  0
ATTDEF
  5
8C
330
6E
100
AcDbEntity
  8
AM_6
100
AcDbText
 10
7.625
 20
-9.282
 30
0.0
 40
0.5
  1
0.50
100
AcDbAttributeDefinition
  3

  2
W
 70
     8
280
     0
  0
ATTDEF
  5
8D
330
6E
100
AcDbEntity
  8
AM_6
100
AcDbText
 10
7.625
 20
-9.782
 30
0.0
 40
0.5
  1
0.12
100
AcDbAttributeDefinition
  3

  2
X
 70
     8
280
     0
  0
ATTDEF
  5
8E
330
6E
100
AcDbEntity
  8
AM_6
100
AcDbText
 10
7.625
 20
-10.282
 30
0.0
 40
0.5
  1
baldor
100
AcDbAttributeDefinition
  3

  2
COMPANY
 70
     8
280
     0
  0
INSERT
  5
90
330
6E
100
AcDbEntity
  8
0
100
AcDbBlockReference
  2
2_405020c_Inch_0_in_128700_0
 10
0.0
 20
0.0
 30
0.0
  0
INSERT
  5
D5
330
6E
100
AcDbEntity
  8
0
100
AcDbBlockReference
  2
3_128646_0_in_128700_0
 10
0.0
 20
0.0
 30
0.0
  0
INSERT
  5
F9
330
6E
100
AcDbEntity
  8
0
100
AcDbBlockReference
  2
4_128700h_0_in_128700_0
 10
0.0
 20
0.0
 30
0.0
  0
ENDBLK
  5
71
330
6E
100
AcDbEntity
  8
0
100
AcDbBlockEnd
  0
BLOCK
  5
91
330
8F
100
AcDbEntity
  8
0
100
AcDbBlockBegin
  2
2_405020c_Inch_0_in_128700_0
 70
     2
 10
0.0
 20
0.0
 30
0.0
  3
2_405020c_Inch_0_in_128700_0
  1

  0
ATTDEF
  5
93
330
8F
100
AcDbEntity
  8
AM_6
100
AcDbText
 10
6.19228225983739
 20
2.50228225983739
 30
0.0
 40
0.5
  1
405020C -Inch
100
AcDbAttributeDefinition
  3

  2
NN
 70
     8
280
     0
  0
ATTDEF
  5
94
330
8F
100
AcDbEntity
  8
AM_6
100
AcDbText
 10
6.19228225983739
 20
2.00228225983739
 30
0.0
 40
0.5
  1
Grease fitting
100
AcDbAttributeDefinition
  3

  2
NT
 70
     8
280
     0
  0
ATTDEF
  5
95
330
8F
100
AcDbEntity
  8
AM_6
100
AcDbText
 10
6.19228225983739
 20
1.50228225983739
 30
0.0
 40
0.5
  1
405020c-Inch
100
AcDbAttributeDefinition
  3

  2
NB
 70
     8
280
     0
  0
ATTDEF
  5
96
330
8F
100
AcDbEntity
  8
AM_6
100
AcDbText
 10
6.19228225983739
 20
1.00228225983739
 30
0.0
 40
0.5
  1
$MN.-Inch
100
AcDbAttributeDefinition
  3

  2
NBSYN
 70
     8
280
     0
  0
ATTDEF
  5
97
330
8F
100
AcDbEntity
  8
AM_6
100
AcDbText
 10
6.19228225983739
 20
0.5022822598373904
 30
0.0
 40
0.5
  1
405020c
100
AcDbAttributeDefinition
  3

  2
LINA
 70
     8
280
     0
  0
ATTDEF
  5
98
330
8F
100
AcDbEntity
  8
AM_6
100
AcDbText
 10
6.19228225983739
 20
0.0022822598373904
 30
0.0
 40
0.5
  1
405020c
100
AcDbAttributeDefinition
  3

  2
MN
 70
     8
280
     0
  0
ATTDEF
  5
99
330
8F
100
AcDbEntity
  8
AM_6
100
AcDbText
 10
6.19228225983739
 20
-0.4977177401626096
 30
0.0
 40
0.5
  1
0.230
100
AcDbAttributeDefinition
  3

  2
NDR
 70
     8
280
     0
  0
ATTDEF
  5
9A
330
8F
100
AcDbEntity
  8
AM_6
100
AcDbText
 10
6.19228225983739
 20
-0.9977177401626096
 30
0.0
 40
0.5
  1
0.210
100
AcDbAttributeDefinition
  3

  2
KDR
 70
     8
280
     0
  0
ATTDEF
  5
9B
330
8F
100
AcDbEntity
  8
AM_6
100
AcDbText
 10
6.19228225983739
 20
-1.49771774016261
 30
0.0
 40
0.5
  1
0.157
100
AcDbAttributeDefinition
  3

  2
BZE
 70
     8
280
     0
  0
ATTDEF
  5
9C
330
8F
100
AcDbEntity
  8
AM_6
100
AcDbText
 10
6.19228225983739
 20
-1.99771774016261
 30
0.0
 40
0.5
  1
9/32
100
AcDbAttributeDefinition
  3

  2
WAF
 70
     8
280
     0
  0
ATTDEF
  5
9D
330
8F
100
AcDbEntity
  8
AM_6
100
AcDbText
 10
6.19228225983739
 20
-2.49771774016261
 30
0.0
 40
0.5
  1
0.2813
100
AcDbAttributeDefinition
  3

  2
WAF1
 70
     8
280
     0
  0
ATTDEF
  5
9E
330
8F
100
AcDbEntity
  8
AM_6
100
AcDbText
 10
6.19228225983739
 20
-2.99771774016261
 30
0.0
 40
0.5
  1
0.545
100
AcDbAttributeDefinition
  3

  2
BL
 70
     8
280
     0
  0
ATTDEF
  5
9F
330
8F
100
AcDbEntity
  8
AM_6
100
AcDbText
 10
6.19228225983739
 20
-3.49771774016261
 30
0.0
 40
0.5
  1
0.200
100
AcDbAttributeDefinition
  3

  2
TL
 70
     8
280
     0
  0
ATTDEF
  5
A0
330
8F
100
AcDbEntity
  8
AM_6
100
AcDbText
 10
6.19228225983739
 20
-3.99771774016261
 30
0.0
 40
0.5
  1
baldor
100
AcDbAttributeDefinition
  3

  2
COMPANY
 70
     8
280
     0
  0
LINE
  5
A3
330
8F
100
AcDbEntity
  8
AM_9
100
AcDbLine
 10
0.8132354640792532
 20
1.981688776412497
 30
0.0
 11
0.8278409482368245
 21
1.981688776412497
 31
0.0
  0
LINE
  5
A4
330
8F
100
AcDbEntity
  8
AM_9
100
AcDbLine
 10
0.6716887764124967
 20
2.137840948236825
 30
0.0
 11
0.6716887764124967
 21
2.123235464079253
 31
0.0
  0
LINE
  5
A5
330
8F
100
AcDbEntity
  8
AM_9
100
AcDbLine
 10
0.8132354640792532
 20
1.981688776412497
 30
0.0
 11
0.6716887764124967
 21
2.123235464079253
 31
0.0
  0
LINE
  5
A6
330
8F
100
AcDbEntity
  8
AM_9
100
AcDbLine
 10
0.8278409482368245
 20
1.981688776412497
 30
0.0
 11
0.9622057343499586
 21
2.107909847529192
 31
0.0
  0
LINE
  5
A7
330
8F
100
AcDbEntity
  8
AM_9
100
AcDbLine
 10
0.7979098475291918
 20
2.272205734349959
 30
0.0
 11
0.6716887764124967
 21
2.137840948236825
 31
0.0
  0
LINE
  5
A8
330
8F
100
AcDbEntity
  8
AM_9
100
AcDbLine
 10
0.8278409482368245
 20
1.981688776412497
 30
0.0
 11
0.6716887764124967
 21
2.137840948236825
 31
0.0
  0
LINE
  5
AA
330
8F
100
AcDbEntity
  8
AM_5
100
AcDbLine
 10
0.9457169510508504
 20
2.106140693260768
 30
0.0
 11
0.8132354640792531
 21
1.981688776412497
 31
0.0
  0
LINE
  5
AB
330
8F
100
AcDbEntity
  8
AM_5
100
AcDbLine
 10
0.9604050338625613
 20
2.110076353188528
 30
0.0
 11
0.9457169510508504
 21
2.106140693260768
 31
0.0
  0
LINE
  5
AC
330
8F
100
AcDbEntity
  8
AM_5
100
AcDbLine
 10
0.7890661732766666
 20
2.262791471034952
 30
0.0
 11
0.952791471034951
 21
2.099066173276667
 31
0.0
  0
LINE
  5
AD
330
8F
100
AcDbEntity
  8
AM_5
100
AcDbLine
 10
0.7961406932607675
 20
2.25571695105085
 30
0.0
 11
0.6716887764124967
 21
2.123235464079253
 31
0.0
  0
LINE
  5
AE
330
8F
100
AcDbEntity
  8
AM_5
100
AcDbLine
 10
0.8000763531885272
 20
2.270405033862562
 30
0.0
 11
0.7961406932607678
 21
2.25571695105085
 31
0.0
  0
LINE
  5
B1
330
8F
100
AcDbEntity
  8
AM_7
100
AcDbLine
 10
1.147103975779877
 20
2.457103975779877
 30
0.0
 11
0.7231934604585415
 21
2.033193460458541
 31
0.0
  0
LINE
  5
B3
330
8F
100
AcDbEntity
  8
AM_4
100
AcDbLine
 10
1.184974090408716
 20
2.380696541576371
 30
0.0
 11
1.070696541576371
 21
2.494974090408716
 31
0.0
  0
ARC
  5
B4
330
8F
100
AcDbEntity
  8
AM_4
100
AcDbCircle
 10
1.053018872046707
 20
2.477296420879051
 30
0.0
 40
0.0250000000000012
100
AcDbArc
 50
45.00000000000288
 51
111.9999999999988
  0
ARC
  5
B5
330
8F
100
AcDbEntity
  8
AM_4
100
AcDbCircle
 10
1.167296420879051
 20
2.363018872046707
 30
0.0
 40
0.0250000000000007
100
AcDbArc
 50
338.0000000000011
 51
44.99999999999928
  0
ARC
  5
B6
330
8F
100
AcDbEntity
  8
AM_4
100
AcDbCircle
 10
0.8758633055594643
 20
2.390478497336175
 30
0.0
 40
0.0499999999999994
100
AcDbArc
 50
270.0
 51
340.0000000000003
  0
ARC
  5
B7
330
8F
100
AcDbEntity
  8
AM_4
100
AcDbCircle
 10
1.080478497336175
 20
2.185863305559464
 30
0.0
 40
0.0499999999999998
100
AcDbArc
 50
110.0
 51
180.0
  0
LINE
  5
B8
330
8F
100
AcDbEntity
  8
AM_4
100
AcDbLine
 10
0.9622057343499586
 20
2.107909847529192
 30
0.0
 11
0.9661509785413945
 21
2.111615974424975
 31
0.0
  0
LINE
  5
B9
330
8F
100
AcDbEntity
  8
AM_4
100
AcDbLine
 10
0.8016159744249743
 20
2.276150978541394
 30
0.0
 11
0.7979098475291918
 21
2.272205734349959
 31
0.0
  0
LINE
  5
BA
330
8F
100
AcDbEntity
  8
AM_4
100
AcDbLine
 10
0.9833380452570722
 20
2.094428907709296
 30
0.0
 11
0.7844289077092966
 21
2.293338045257073
 31
0.0
  0
LINE
  5
BB
330
8F
100
AcDbEntity
  8
AM_4
100
AcDbLine
 10
0.8315693597883996
 20
2.340478497336176
 30
0.0
 11
0.7844289077092966
 21
2.293338045257073
 31
0.0
  0
LINE
  5
BC
330
8F
100
AcDbEntity
  8
AM_4
100
AcDbLine
 10
0.9833380452570722
 20
2.094428907709296
 30
0.0
 11
1.030478497336175
 21
2.1415693597884
 31
0.0
  0
LINE
  5
BD
330
8F
100
AcDbEntity
  8
AM_4
100
AcDbLine
 10
1.063377490169892
 20
2.232847936598759
 30
0.0
 11
1.134246087578071
 21
2.258641996599532
 31
0.0
  0
LINE
  5
BE
330
8F
100
AcDbEntity
  8
AM_4
100
AcDbLine
 10
0.9486419965995314
 20
2.444246087578071
 30
0.0
 11
0.9228479365987592
 21
2.373377490169892
 31
0.0
  0
LINE
  5
BF
330
8F
100
AcDbEntity
  8
AM_4
100
AcDbLine
 10
1.063377490169892
 20
2.232847936598759
 30
0.0
 11
0.9228479365987592
 21
2.373377490169892
 31
0.0
  0
LINE
  5
C0
330
8F
100
AcDbEntity
  8
AM_4
100
AcDbLine
 10
1.043653707211309
 20
2.500476017243222
 30
0.0
 11
0.9768962979680312
 21
2.473504273140127
 31
0.0
  0
LINE
  5
C1
330
8F
100
AcDbEntity
  8
AM_4
100
AcDbLine
 10
1.163504273140127
 20
2.286896297968032
 30
0.0
 11
1.190476017243222
 21
2.353653707211309
 31
0.0
  0
LINE
  5
C2
330
8F
100
AcDbEntity
  8
AM_4
100
AcDbLine
 10
1.190476017243222
 20
2.353653707211309
 30
0.0
 11
1.043653707211309
 21
2.500476017243222
 31
0.0
  0
ARC
  5
C3
330
8F
100
AcDbEntity
  8
AM_4
100
AcDbCircle
 10
0.9956266276388226
 20
2.427145080411792
 30
0.0
 40
0.0499999999999947
100
AcDbArc
 50
111.9999999999972
 51
160.0000000000027
  0
ARC
  5
C4
330
8F
100
AcDbEntity
  8
AM_4
100
AcDbCircle
 10
1.117145080411792
 20
2.305626627638823
 30
0.0
 40
0.0499999999999951
100
AcDbArc
 50
289.9999999999973
 51
338.0000000000026
  0
LINE
  5
C5
330
8F
100
AcDbEntity
  8
AM_4
100
AcDbLine
 10
1.163504273140127
 20
2.286896297968032
 30
0.0
 11
0.9768962979680312
 21
2.473504273140127
 31
0.0
  0
LINE
  5
C6
330
8F
100
AcDbEntity
  8
AM_4
100
AcDbLine
 10
1.134246087578071
 20
2.258641996599532
 30
0.0
 11
0.9486419965995314
 21
2.444246087578071
 31
0.0
  0
LINE
  5
C7
330
8F
100
AcDbEntity
  8
AM_4
100
AcDbLine
 10
1.030478497336175
 20
2.1415693597884
 30
0.0
 11
0.8315693597883996
 21
2.340478497336176
 31
0.0
  0
LINE
  5
C8
330
8F
100
AcDbEntity
  8
AM_4
100
AcDbLine
 10
0.8758633055594638
 20
2.340478497336176
 30
0.0
 11
0.8315693597883996
 21
2.340478497336176
 31
0.0
  0
LINE
  5
C9
330
8F
100
AcDbEntity
  8
AM_4
100
AcDbLine
 10
1.030478497336175
 20
2.1415693597884
 30
0.0
 11
1.030478497336175
 21
2.185863305559464
 31
0.0
  0
LINE
  5
CA
330
8F
100
AcDbEntity
  8
AM_4
100
AcDbLine
 10
1.030478497336175
 20
2.185863305559464
 30
0.0
 11
0.8758633055594638
 21
2.340478497336176
 31
0.0
  0
LWPOLYLINE
  5
CB
330
8F
100
AcDbEntity
  8
AM_4
100
AcDbPolyline
 90
        3
 70
     0
 43
0.0
 10
0.8341561920962405
 20
2.243610760870129
 10
0.810380699177682
 20
2.269562552338514
 10
0.7885514869899413
 20
2.297460624537717
  0
LWPOLYLINE
  5
CC
330
8F
100
AcDbEntity
  8
AM_4
100
AcDbPolyline
 90
        3
 70
     0
 43
0.0
 10
0.827446780507755
 20
2.336355918055531
 10
0.8552234458936036
 20
2.314628886315239
 10
0.8812966441753436
 20
2.290751212949232
  0
LWPOLYLINE
  5
CD
330
8F
100
AcDbEntity
  8
AM_4
100
AcDbPolyline
 90
        3
 70
     0
 43
0.0
 10
0.8880060557638292
 20
2.198006055763829
 10
0.8602293903779805
 20
2.219733087504121
 10
0.8341561920962405
 20
2.243610760870129
  0
LINE
  5
CE
330
8F
100
AcDbEntity
  8
AM_4
100
AcDbLine
 10
0.9269013492816429
 20
2.236901349281643
 30
0.0
 11
0.8880060557638292
 21
2.198006055763829
 31
0.0
  0
LWPOLYLINE
  5
CF
330
8F
100
AcDbEntity
  8
AM_4
100
AcDbPolyline
 90
        3
 70
     0
 43
0.0
 10
0.9336107608701284
 20
2.144156192096241
 10
0.90983526795157
 20
2.170107983564626
 10
0.8880060557638292
 20
2.198006055763829
  0
LWPOLYLINE
  5
D0
330
8F
100
AcDbEntity
  8
AM_4
100
AcDbPolyline
 90
        3
 70
     0
 43
0.0
 10
0.9874606245377171
 20
2.098551486989941
 10
0.9596839591518684
 20
2.120278518730233
 10
0.9336107608701284
 20
2.144156192096241
  0
LWPOLYLINE
  5
D1
330
8F
100
AcDbEntity
  8
AM_4
100
AcDbPolyline
 90
        3
 70
     0
 43
0.0
 10
0.9807512129492316
 20
2.191296644175344
 10
1.00452670586779
 20
2.165344852706959
 10
1.026355918055531
 20
2.137446780507755
  0
LWPOLYLINE
  5
D2
330
8F
100
AcDbEntity
  8
AM_4
100
AcDbPolyline
 90
        3
 70
     0
 43
0.0
 10
0.8812966441753436
 20
2.290751212949232
 10
0.9050721370939021
 20
2.264799421480846
 10
0.9269013492816429
 20
2.236901349281643
  0
LWPOLYLINE
  5
D3
330
8F
100
AcDbEntity
  8
AM_4
100
AcDbPolyline
 90
        3
 70
     0
 43
0.0
 10
0.9269013492816429
 20
2.236901349281643
 10
0.9546780146674916
 20
2.215174317541351
 10
0.9807512129492316
 20
2.191296644175344
  0
ENDBLK
  5
92
330
8F
100
AcDbEntity
  8
0
100
AcDbBlockEnd
  0
BLOCK
  5
D6
330
D4
100
AcDbEntity
  8
0
100
AcDbBlockBegin
  2
3_128646_0_in_128700_0
 70
     2
 10
0.0
 20
0.0
 30
0.0
  3
3_128646_0_in_128700_0
  1

  0
ATTDEF
  5
D8
330
D4
100
AcDbEntity
  8
AM_6
100
AcDbText
 10
5.924606741939277
 20
2.227384891961929
 30
0.0
 40
0.5
  1
D-Lok Insert Inch Bore
100
AcDbAttributeDefinition
  3

  2
NN
 70
     8
280
     0
  0
ATTDEF
  5
D9
330
D4
100
AcDbEntity
  8
AM_6
100
AcDbText
 10
5.924606741939277
 20
1.727384891961929
 30
0.0
 40
0.5
  1
D-LOK
100
AcDbAttributeDefinition
  3

  2
NT
 70
     8
280
     0
  0
ATTDEF
  5
DA
330
D4
100
AcDbEntity
  8
AM_6
100
AcDbText
 10
5.924606741939277
 20
1.227384891961929
 30
0.0
 40
0.5
  1
128646
100
AcDbAttributeDefinition
  3

  2
NB
 70
     8
280
     0
  0
ATTDEF
  5
DB
330
D4
100
AcDbEntity
  8
AM_6
100
AcDbText
 10
5.924606741939277
 20
0.727384891961929
 30
0.0
 40
0.5
  1
$PN.
100
AcDbAttributeDefinition
  3

  2
NBSYN
 70
     8
280
     0
  0
ATTDEF
  5
DC
330
D4
100
AcDbEntity
  8
AM_6
100
AcDbText
 10
5.924606741939277
 20
0.227384891961929
 30
0.0
 40
0.5
  1
128646
100
AcDbAttributeDefinition
  3

  2
LINA
 70
     8
280
     0
  0
ATTDEF
  5
DD
330
D4
100
AcDbEntity
  8
AM_6
100
AcDbText
 10
5.924606741939277
 20
-0.272615108038071
 30
0.0
 40
0.5
  1
204
100
AcDbAttributeDefinition
  3

  2
SERIES
 70
     8
280
     0
  0
ATTDEF
  5
DE
330
D4
100
AcDbEntity
  8
AM_6
100
AcDbText
 10
5.924606741939277
 20
-0.772615108038071
 30
0.0
 40
0.5
  1
3/4
100
AcDbAttributeDefinition
  3

  2
SS
 70
     8
280
     0
  0
ATTDEF
  5
DF
330
D4
100
AcDbEntity
  8
AM_6
100
AcDbText
 10
5.924606741939277
 20
-1.272615108038071
 30
0.0
 40
0.5
  1
128646
100
AcDbAttributeDefinition
  3

  2
PN
 70
     8
280
     0
  0
ATTDEF
  5
E0
330
D4
100
AcDbEntity
  8
AM_6
100
AcDbText
 10
5.924606741939277
 20
-1.772615108038071
 30
0.0
 40
0.5
  1
INS-DL-012
100
AcDbAttributeDefinition
  3

  2
DESCRIPTION
 70
     8
280
     0
  0
ATTDEF
  5
E1
330
D4
100
AcDbEntity
  8
AM_6
100
AcDbText
 10
5.924606741939277
 20
-2.272615108038071
 30
0.0
 40
0.5
  1
0.6
100
AcDbAttributeDefinition
  3

  2
WEIGHT
 70
     8
280
     0
  0
ATTDEF
  5
E2
330
D4
100
AcDbEntity
  8
AM_6
100
AcDbText
 10
5.924606741939277
 20
-2.772615108038071
 30
0.0
 40
0.5
  1
1.28
100
AcDbAttributeDefinition
  3

  2
A
 70
     8
280
     0
  0
ATTDEF
  5
E3
330
D4
100
AcDbEntity
  8
AM_6
100
AcDbText
 10
5.924606741939277
 20
-3.272615108038071
 30
0.0
 40
0.5
  1
0.58
100
AcDbAttributeDefinition
  3

  2
C
 70
     8
280
     0
  0
ATTDEF
  5
E4
330
D4
100
AcDbEntity
  8
AM_6
100
AcDbText
 10
5.924606741939277
 20
-3.772615108038071
 30
0.0
 40
0.5
  1
1.8504
100
AcDbAttributeDefinition
  3

  2
D
 70
     8
280
     0
  0
ATTDEF
  5
E5
330
D4
100
AcDbEntity
  8
AM_6
100
AcDbText
 10
5.924606741939277
 20
-4.272615108038071
 30
0.0
 40
0.5
  1
0.15
100
AcDbAttributeDefinition
  3

  2
J
 70
     8
280
     0
  0
ATTDEF
  5
E6
330
D4
100
AcDbEntity
  8
AM_6
100
AcDbText
 10
5.924606741939277
 20
-4.772615108038071
 30
0.0
 40
0.5
  1
1.71
100
AcDbAttributeDefinition
  3

  2
L
 70
     8
280
     0
  0
ATTDEF
  5
E7
330
D4
100
AcDbEntity
  8
AM_6
100
AcDbText
 10
5.924606741939277
 20
-5.272615108038071
 30
0.0
 40
0.5
  1
#8-32
100
AcDbAttributeDefinition
  3

  2
N
 70
     8
280
     0
  0
ATTDEF
  5
E8
330
D4
100
AcDbEntity
  8
AM_6
100
AcDbText
 10
5.924606741939277
 20
-5.772615108038071
 30
0.0
 40
0.5
  1
0.50
100
AcDbAttributeDefinition
  3

  2
W
 70
     8
280
     0
  0
ATTDEF
  5
E9
330
D4
100
AcDbEntity
  8
AM_6
100
AcDbText
 10
5.924606741939277
 20
-6.272615108038071
 30
0.0
 40
0.5
  1
0.78
100
AcDbAttributeDefinition
  3

  2
Y
 70
     8
280
     0
  0
ATTDEF
  5
EA
330
D4
100
AcDbEntity
  8
AM_6
100
AcDbText
 10
5.924606741939277
 20
-6.772615108038071
 30
0.0
 40
0.5
  1
1.12
100
AcDbAttributeDefinition
  3

  2
Z
 70
     8
280
     0
  0
ATTDEF
  5
EB
330
D4
100
AcDbEntity
  8
AM_6
100
AcDbText
 10
5.924606741939277
 20
-7.272615108038071
 30
0.0
 40
0.5
  1
baldor
100
AcDbAttributeDefinition
  3

  2
COMPANY
 70
     8
280
     0
  0
CIRCLE
  5
EC
330
D4
100
AcDbEntity
  8
AM_9
100
AcDbCircle
 10
0.0
 20
1.31
 30
0.0
 40
0.5258
  0
ARC
  5
ED
330
D4
100
AcDbEntity
  8
AM_9
100
AcDbCircle
 10
0.0
 20
1.31
 30
0.0
 40
0.9252
100
AcDbArc
 50
172.9722784942908
 51
7.027721505709297
  0
CIRCLE
  5
EE
330
D4
100
AcDbEntity
  8
AM_9
100
AcDbCircle
 10
0.0
 20
1.31
 30
0.0
 40
0.8752
  0
CIRCLE
  5
EF
330
D4
100
AcDbEntity
  8
AM_9
100
AcDbCircle
 10
0.0
 20
1.31
 30
0.0
 40
0.5600000000000004
  0
CIRCLE
  5
F0
330
D4
100
AcDbEntity
  8
AM_4
100
AcDbCircle
 10
0.0
 20
1.31
 30
0.0
 40
0.917384891961929
  0
CIRCLE
  5
F1
330
D4
100
AcDbEntity
  8
AM_4
100
AcDbCircle
 10
0.0
 20
1.31
 30
0.0
 40
0.907521371649175
  0
CIRCLE
  5
F2
330
D4
100
AcDbEntity
  8
AM_4
100
AcDbCircle
 10
0.0
 20
1.31
 30
0.0
 40
0.8566113709062414
  0
CIRCLE
  5
F3
330
D4
100
AcDbEntity
  8
AM_4
100
AcDbCircle
 10
0.0
 20
1.31
 30
0.0
 40
0.885318185823121
  0
CIRCLE
  5
F4
330
D4
100
AcDbEntity
  8
AM_4
100
AcDbCircle
 10
0.0
 20
1.31
 30
0.0
 40
0.855
  0
CIRCLE
  5
F5
330
D4
100
AcDbEntity
  8
AM_4
100
AcDbCircle
 10
0.0
 20
1.31
 30
0.0
 40
0.3749999999999999
  0
CIRCLE
  5
F6
330
D4
100
AcDbEntity
  8
AM_4
100
AcDbCircle
 10
0.0
 20
1.31
 30
0.0
 40
0.4092000000000001
  0
CIRCLE
  5
F7
330
D4
100
AcDbEntity
  8
AM_4
100
AcDbCircle
 10
0.0
 20
1.31
 30
0.0
 40
0.8208
  0
ENDBLK
  5
D7
330
D4
100
AcDbEntity
  8
0
100
AcDbBlockEnd
  0
BLOCK
  5
FA
330
F8
100
AcDbEntity
  8
0
100
AcDbBlockBegin
  2
4_128700h_0_in_128700_0
 70
     2
 10
0.0
 20
0.0
 30
0.0
  3
4_128700h_0_in_128700_0
  1

  0
ATTDEF
  5
FC
330
F8
100
AcDbEntity
  8
AM_6
100
AcDbText
 10
7.625
 20
3.218
 30
0.0
 40
0.5
  1
P2B-DL - Inch - Housing
100
AcDbAttributeDefinition
  3

  2
NN
 70
     8
280
     0
  0
ATTDEF
  5
FD
330
F8
100
AcDbEntity
  8
AM_6
100
AcDbText
 10
7.625
 20
2.718
 30
0.0
 40
0.5
  1
DL Normal Duty Pillow Blocks
100
AcDbAttributeDefinition
  3

  2
NT
 70
     8
280
     0
  0
ATTDEF
  5
FE
330
F8
100
AcDbEntity
  8
AM_6
100
AcDbText
 10
7.625
 20
2.218
 30
0.0
 40
0.5
  1
128700h
100
AcDbAttributeDefinition
  3

  2
NB
 70
     8
280
     0
  0
ATTDEF
  5
FF
330
F8
100
AcDbEntity
  8
AM_6
100
AcDbText
 10
7.625
 20
1.718
 30
0.0
 40
0.5
  1
$PN.h
100
AcDbAttributeDefinition
  3

  2
NBSYN
 70
     8
280
     0
  0
ATTDEF
  5
100
330
F8
100
AcDbEntity
  8
AM_6
100
AcDbText
 10
7.625
 20
1.218
 30
0.0
 40
0.5
  1
128700
100
AcDbAttributeDefinition
  3

  2
LINA
 70
     8
280
     0
  0
ATTDEF
  5
101
330
F8
100
AcDbEntity
  8
AM_6
100
AcDbText
 10
7.625
 20
0.7180000000000004
 30
0.0
 40
0.5
  1
204
100
AcDbAttributeDefinition
  3

  2
SERIES
 70
     8
280
     0
  0
ATTDEF
  5
102
330
F8
100
AcDbEntity
  8
AM_6
100
AcDbText
 10
7.625
 20
0.2180000000000004
 30
0.0
 40
0.5
  1
3/4
100
AcDbAttributeDefinition
  3

  2
SS
 70
     8
280
     0
  0
ATTDEF
  5
103
330
F8
100
AcDbEntity
  8
AM_6
100
AcDbText
 10
7.625
 20
-0.2819999999999996
 30
0.0
 40
0.5
  1
0.75000
100
AcDbAttributeDefinition
  3

  2
SS1
 70
     8
280
     0
  0
ATTDEF
  5
104
330
F8
100
AcDbEntity
  8
AM_6
100
AcDbText
 10
7.625
 20
-0.7819999999999996
 30
0.0
 40
0.5
  1
128700
100
AcDbAttributeDefinition
  3

  2
PN
 70
     8
280
     0
  0
ATTDEF
  5
105
330
F8
100
AcDbEntity
  8
AM_6
100
AcDbText
 10
7.625
 20
-1.282
 30
0.0
 40
0.5
  1
P2B-DL-012
100
AcDbAttributeDefinition
  3

  2
DESCRIPTION
 70
     8
280
     0
  0
ATTDEF
  5
106
330
F8
100
AcDbEntity
  8
AM_6
100
AcDbText
 10
7.625
 20
-1.782
 30
0.0
 40
0.5
  1
2.1
100
AcDbAttributeDefinition
  3

  2
WEIGHT
 70
     8
280
     0
  0
ATTDEF
  5
107
330
F8
100
AcDbEntity
  8
AM_6
100
AcDbText
 10
7.625
 20
-2.282
 30
0.0
 40
0.5
  1
1.850400
100
AcDbAttributeDefinition
  3

  2
BOD
 70
     8
280
     0
  0
ATTDEF
  5
108
330
F8
100
AcDbEntity
  8
AM_6
100
AcDbText
 10
7.625
 20
-2.782
 30
0.0
 40
0.5
  1
1.28
100
AcDbAttributeDefinition
  3

  2
A
 70
     8
280
     0
  0
ATTDEF
  5
109
330
F8
100
AcDbEntity
  8
AM_6
100
AcDbText
 10
7.625
 20
-3.282
 30
0.0
 40
0.5
  1
1.280000
100
AcDbAttributeDefinition
  3

  2
A1
 70
     8
280
     0
  0
ATTDEF
  5
10A
330
F8
100
AcDbEntity
  8
AM_6
100
AcDbText
 10
7.625
 20
-3.782
 30
0.0
 40
0.5
  1
5.25
100
AcDbAttributeDefinition
  3

  2
B
 70
     8
280
     0
  0
ATTDEF
  5
10B
330
F8
100
AcDbEntity
  8
AM_6
100
AcDbText
 10
7.625
 20
-4.282
 30
0.0
 40
0.5
  1
5.250000
100
AcDbAttributeDefinition
  3

  2
B1
 70
     8
280
     0
  0
ATTDEF
  5
10C
330
F8
100
AcDbEntity
  8
AM_6
100
AcDbText
 10
7.625
 20
-4.782
 30
0.0
 40
0.5
  1
1.34
100
AcDbAttributeDefinition
  3

  2
C
 70
     8
280
     0
  0
ATTDEF
  5
10D
330
F8
100
AcDbEntity
  8
AM_6
100
AcDbText
 10
7.625
 20
-5.282
 30
0.0
 40
0.5
  1
1.340000
100
AcDbAttributeDefinition
  3

  2
C1
 70
     8
280
     0
  0
ATTDEF
  5
10E
330
F8
100
AcDbEntity
  8
AM_6
100
AcDbText
 10
7.625
 20
-5.782
 30
0.0
 40
0.5
  1
3.38
100
AcDbAttributeDefinition
  3

  2
DMIN
 70
     8
280
     0
  0
ATTDEF
  5
10F
330
F8
100
AcDbEntity
  8
AM_6
100
AcDbText
 10
7.625
 20
-6.282
 30
0.0
 40
0.5
  1
3.380000
100
AcDbAttributeDefinition
  3

  2
DMIN1
 70
     8
280
     0
  0
ATTDEF
  5
110
330
F8
100
AcDbEntity
  8
AM_6
100
AcDbText
 10
7.625
 20
-6.782
 30
0.0
 40
0.5
  1
4.19
100
AcDbAttributeDefinition
  3

  2
DMAX
 70
     8
280
     0
  0
ATTDEF
  5
111
330
F8
100
AcDbEntity
  8
AM_6
100
AcDbText
 10
7.625
 20
-7.282
 30
0.0
 40
0.5
  1
4.190000
100
AcDbAttributeDefinition
  3

  2
DMAX1
 70
     8
280
     0
  0
ATTDEF
  5
112
330
F8
100
AcDbEntity
  8
AM_6
100
AcDbText
 10
7.625
 20
-7.782
 30
0.0
 40
0.5
  1
3/8
100
AcDbAttributeDefinition
  3

  2
F
 70
     8
280
     0
  0
ATTDEF
  5
113
330
F8
100
AcDbEntity
  8
AM_6
100
AcDbText
 10
7.625
 20
-8.282
 30
0.0
 40
0.5
  1
0.375000
100
AcDbAttributeDefinition
  3

  2
F1
 70
     8
280
     0
  0
ATTDEF
  5
114
330
F8
100
AcDbEntity
  8
AM_6
100
AcDbText
 10
7.625
 20
-8.782
 30
0.0
 40
0.5
  1
0.85
100
AcDbAttributeDefinition
  3

  2
G
 70
     8
280
     0
  0
ATTDEF
  5
115
330
F8
100
AcDbEntity
  8
AM_6
100
AcDbText
 10
7.625
 20
-9.282
 30
0.0
 40
0.5
  1
0.850000
100
AcDbAttributeDefinition
  3

  2
G1
 70
     8
280
     0
  0
ATTDEF
  5
116
330
F8
100
AcDbEntity
  8
AM_6
100
AcDbText
 10
7.625
 20
-9.782
 30
0.0
 40
0.5
  1
0.53
100
AcDbAttributeDefinition
  3

  2
H
 70
     8
280
     0
  0
ATTDEF
  5
117
330
F8
100
AcDbEntity
  8
AM_6
100
AcDbText
 10
7.625
 20
-10.282
 30
0.0
 40
0.5
  1
0.530000
100
AcDbAttributeDefinition
  3

  2
H1
 70
     8
280
     0
  0
ATTDEF
  5
118
330
F8
100
AcDbEntity
  8
AM_6
100
AcDbText
 10
7.625
 20
-10.782
 30
0.0
 40
0.5
  1
2.56
100
AcDbAttributeDefinition
  3

  2
J
 70
     8
280
     0
  0
ATTDEF
  5
119
330
F8
100
AcDbEntity
  8
AM_6
100
AcDbText
 10
7.625
 20
-11.282
 30
0.0
 40
0.5
  1
2.560000
100
AcDbAttributeDefinition
  3

  2
J1
 70
     8
280
     0
  0
ATTDEF
  5
11A
330
F8
100
AcDbEntity
  8
AM_6
100
AcDbText
 10
7.625
 20
-11.782
 30
0.0
 40
0.5
  1
1.71
100
AcDbAttributeDefinition
  3

  2
L
 70
     8
280
     0
  0
ATTDEF
  5
11B
330
F8
100
AcDbEntity
  8
AM_6
100
AcDbText
 10
7.625
 20
-12.282
 30
0.0
 40
0.5
  1
1.710000
100
AcDbAttributeDefinition
  3

  2
L1
 70
     8
280
     0
  0
ATTDEF
  5
11C
330
F8
100
AcDbEntity
  8
AM_6
100
AcDbText
 10
7.625
 20
-12.782
 30
0.0
 40
0.5
  1
1.31
100
AcDbAttributeDefinition
  3

  2
M
 70
     8
280
     0
  0
ATTDEF
  5
11D
330
F8
100
AcDbEntity
  8
AM_6
100
AcDbText
 10
7.625
 20
-13.282
 30
0.0
 40
0.5
  1
1.310000
100
AcDbAttributeDefinition
  3

  2
M1
 70
     8
280
     0
  0
ATTDEF
  5
11E
330
F8
100
AcDbEntity
  8
AM_6
100
AcDbText
 10
7.625
 20
-13.782
 30
0.0
 40
0.5
  1
0.50
100
AcDbAttributeDefinition
  3

  2
R
 70
     8
280
     0
  0
ATTDEF
  5
11F
330
F8
100
AcDbEntity
  8
AM_6
100
AcDbText
 10
7.625
 20
-14.282
 30
0.0
 40
0.5
  1
0.500000
100
AcDbAttributeDefinition
  3

  2
R1
 70
     8
280
     0
  0
ATTDEF
  5
120
330
F8
100
AcDbEntity
  8
AM_6
100
AcDbText
 10
7.625
 20
-14.782
 30
0.0
 40
0.5
  1
0.78
100
AcDbAttributeDefinition
  3

  2
S
 70
     8
280
     0
  0
ATTDEF
  5
121
330
F8
100
AcDbEntity
  8
AM_6
100
AcDbText
 10
7.625
 20
-15.282
 30
0.0
 40
0.5
  1
0.780000
100
AcDbAttributeDefinition
  3

  2
S1
 70
     8
280
     0
  0
ATTDEF
  5
122
330
F8
100
AcDbEntity
  8
AM_6
100
AcDbText
 10
7.625
 20
-15.782
 30
0.0
 40
0.5
  1
2.25
100
AcDbAttributeDefinition
  3

  2
U
 70
     8
280
     0
  0
ATTDEF
  5
123
330
F8
100
AcDbEntity
  8
AM_6
100
AcDbText
 10
7.625
 20
-16.282
 30
0.0
 40
0.5
  1
2.250000
100
AcDbAttributeDefinition
  3

  2
U1
 70
     8
280
     0
  0
ATTDEF
  5
124
330
F8
100
AcDbEntity
  8
AM_6
100
AcDbText
 10
7.625
 20
-16.782
 30
0.0
 40
0.5
  1
4.50
100
AcDbAttributeDefinition
  3

  2
V
 70
     8
280
     0
  0
ATTDEF
  5
125
330
F8
100
AcDbEntity
  8
AM_6
100
AcDbText
 10
7.625
 20
-17.282
 30
0.0
 40
0.5
  1
4.500000
100
AcDbAttributeDefinition
  3

  2
V1
 70
     8
280
     0
  0
ATTDEF
  5
126
330
F8
100
AcDbEntity
  8
AM_6
100
AcDbText
 10
7.625
 20
-17.782
 30
0.0
 40
0.5
  1
0.50
100
AcDbAttributeDefinition
  3

  2
W
 70
     8
280
     0
  0
ATTDEF
  5
127
330
F8
100
AcDbEntity
  8
AM_6
100
AcDbText
 10
7.625
 20
-18.282
 30
0.0
 40
0.5
  1
0.500000
100
AcDbAttributeDefinition
  3

  2
W1
 70
     8
280
     0
  0
ATTDEF
  5
128
330
F8
100
AcDbEntity
  8
AM_6
100
AcDbText
 10
7.625
 20
-18.782
 30
0.0
 40
0.5
  1
0.12
100
AcDbAttributeDefinition
  3

  2
X
 70
     8
280
     0
  0
ATTDEF
  5
129
330
F8
100
AcDbEntity
  8
AM_6
100
AcDbText
 10
7.625
 20
-19.282
 30
0.0
 40
0.5
  1
0.120000
100
AcDbAttributeDefinition
  3

  2
X1
 70
     8
280
     0
  0
ATTDEF
  5
12A
330
F8
100
AcDbEntity
  8
AM_6
100
AcDbText
 10
7.625
 20
-19.782
 30
0.0
 40
0.5
  1
1390
100
AcDbAttributeDefinition
  3

  2
CAPS
 70
     8
280
     0
  0
ATTDEF
  5
12B
330
F8
100
AcDbEntity
  8
AM_6
100
AcDbText
 10
7.625
 20
-20.282
 30
0.0
 40
0.5
  1
2899
100
AcDbAttributeDefinition
  3

  2
CAPD
 70
     8
280
     0
  0
ATTDEF
  5
12C
330
F8
100
AcDbEntity
  8
AM_6
100
AcDbText
 10
7.625
 20
-20.782
 30
0.0
 40
0.5
  1
baldor
100
AcDbAttributeDefinition
  3

  2
COMPANY
 70
     8
280
     0
  0
LINE
  5
12D
330
F8
100
AcDbEntity
  8
AM_9
100
AcDbLine
 10
1.6335402
 20
0.53
 30
0.0
 11
1.6335402
 21
0.35333351
 31
0.0
  0
LINE
  5
12E
330
F8
100
AcDbEntity
  8
AM_9
100
AcDbLine
 10
1.5548
 20
0.53
 30
0.0
 11
1.5548
 21
0.35333351
 31
0.0
  0
LINE
  5
12F
330
F8
100
AcDbEntity
  8
AM_9
100
AcDbLine
 10
-2.625
 20
0.35333351
 30
0.0
 11
-1.5548
 21
0.35333351
 31
0.0
  0
LINE
  5
130
330
F8
100
AcDbEntity
  8
AM_9
100
AcDbLine
 10
-1.5548
 20
0.53
 30
0.0
 11
-1.5548
 21
0.35333351
 31
0.0
  0
LINE
  5
131
330
F8
100
AcDbEntity
  8
AM_9
100
AcDbLine
 10
-1.633540199999999
 20
0.53
 30
0.0
 11
-1.633540199999999
 21
0.35333351
 31
0.0
  0
LINE
  5
132
330
F8
100
AcDbEntity
  8
AM_9
100
AcDbLine
 10
2.625
 20
0.35333351
 30
0.0
 11
1.5548
 21
0.35333351
 31
0.0
  0
LINE
  5
133
330
F8
100
AcDbEntity
  8
AM_9
100
AcDbLine
 10
2.095
 20
0.53
 30
0.0
 11
2.095
 21
0.0
 31
0.0
  0
LINE
  5
134
330
F8
100
AcDbEntity
  8
AM_9
100
AcDbLine
 10
2.2825
 20
0.0
 30
0.0
 11
2.2825
 21
0.53
 31
0.0
  0
LINE
  5
135
330
F8
100
AcDbEntity
  8
AM_9
100
AcDbLine
 10
-2.095
 20
0.53
 30
0.0
 11
-2.095
 21
0.0
 31
0.0
  0
LINE
  5
136
330
F8
100
AcDbEntity
  8
AM_9
100
AcDbLine
 10
-2.2825
 20
0.53
 30
0.0
 11
-2.2825
 21
0.0
 31
0.0
  0
LINE
  5
137
330
F8
100
AcDbEntity
  8
AM_9
100
AcDbLine
 10
-1.69
 20
0.53
 30
0.0
 11
-1.69
 21
0.0
 31
0.0
  0
LINE
  5
138
330
F8
100
AcDbEntity
  8
AM_9
100
AcDbLine
 10
-1.5025
 20
0.0
 30
0.0
 11
-1.5025
 21
0.53
 31
0.0
  0
LINE
  5
139
330
F8
100
AcDbEntity
  8
AM_9
100
AcDbLine
 10
1.69
 20
0.53
 30
0.0
 11
1.69
 21
0.0
 31
0.0
  0
LINE
  5
13A
330
F8
100
AcDbEntity
  8
AM_9
100
AcDbLine
 10
1.5025
 20
0.53
 30
0.0
 11
1.5025
 21
0.0
 31
0.0
  0
LINE
  5
13B
330
F8
100
AcDbEntity
  8
AM_9
100
AcDbLine
 10
1.16
 20
1.774972753237428
 30
0.0
 11
1.16
 21
0.53
 31
0.0
  0
LINE
  5
13C
330
F8
100
AcDbEntity
  8
AM_9
100
AcDbLine
 10
-1.16
 20
0.53
 30
0.0
 11
-1.16
 21
1.774972753237428
 31
0.0
  0
LINE
  5
13D
330
F8
100
AcDbEntity
  8
AM_9
100
AcDbLine
 10
2.19
 20
0.53
 30
0.0
 11
2.19
 21
0.477
 31
0.0
  0
LINE
  5
13E
330
F8
100
AcDbEntity
  8
AM_9
100
AcDbLine
 10
2.31
 20
0.477
 30
0.0
 11
2.31
 21
0.53
 31
0.0
  0
LINE
  5
13F
330
F8
100
AcDbEntity
  8
AM_9
100
AcDbLine
 10
2.19
 20
0.477
 30
0.0
 11
2.31
 21
0.477
 31
0.0
  0
LINE
  5
140
330
F8
100
AcDbEntity
  8
AM_9
100
AcDbLine
 10
-2.31
 20
0.53
 30
0.0
 11
-2.31
 21
0.477
 31
0.0
  0
LINE
  5
141
330
F8
100
AcDbEntity
  8
AM_9
100
AcDbLine
 10
-2.19
 20
0.477
 30
0.0
 11
-2.19
 21
0.53
 31
0.0
  0
LINE
  5
142
330
F8
100
AcDbEntity
  8
AM_9
100
AcDbLine
 10
-2.31
 20
0.477
 30
0.0
 11
-2.19
 21
0.477
 31
0.0
  0
LINE
  5
143
330
F8
100
AcDbEntity
  8
AM_7
100
AcDbLine
 10
1.69
 20
0.402
 30
0.0
 11
1.69
 21
3.218
 31
0.0
  0
LINE
  5
144
330
F8
100
AcDbEntity
  8
AM_7
100
AcDbLine
 10
-1.69
 20
0.402
 30
0.0
 11
-1.69
 21
3.218
 31
0.0
  0
LINE
  5
145
330
F8
100
AcDbEntity
  8
AM_7
100
AcDbLine
 10
-2.25
 20
0.4717
 30
0.0
 11
-2.25
 21
0.5883
 31
0.0
  0
LINE
  5
146
330
F8
100
AcDbEntity
  8
AM_7
100
AcDbLine
 10
2.25
 20
0.4717
 30
0.0
 11
2.25
 21
0.5883
 31
0.0
  0
LINE
  5
147
330
F8
100
AcDbEntity
  8
AM_7
100
AcDbLine
 10
-0.9714600000000002
 20
1.31
 30
0.0
 11
0.97146
 21
1.31
 31
0.0
  0
LINE
  5
148
330
F8
100
AcDbEntity
  8
AM_7
100
AcDbLine
 10
-0.0000000000000001
 20
0.33854
 30
0.0
 11
-0.0000000000000001
 21
2.28146
 31
0.0
  0
ARC
  5
149
330
F8
100
AcDbEntity
  8
AM_4
100
AcDbCircle
 10
-0.996194900000003
 20
0.1176113900000384
 30
0.0
 40
0.0590550999999616
100
AcDbArc
 50
90.0
 51
98.57475873454946
  0
ARC
  5
14A
330
F8
100
AcDbEntity
  8
AM_4
100
AcDbCircle
 10
0.9961949000000002
 20
0.1176113900000037
 30
0.0
 40
0.0590550999999963
100
AcDbArc
 50
81.42524126545246
 51
90.0
  0
LINE
  5
14B
330
F8
100
AcDbEntity
  8
AM_4
100
AcDbLine
 10
0.9961948999999996
 20
0.17666649
 30
0.0
 11
-0.9961949
 21
0.17666649
 31
0.0
  0
ARC
  5
14C
330
F8
100
AcDbEntity
  8
AM_4
100
AcDbCircle
 10
-0.0000000000000001
 20
1.31
 30
0.0
 40
0.9252
100
AcDbArc
 50
172.9722784942908
 51
7.027721505709349
  0
LWPOLYLINE
  5
14D
330
F8
100
AcDbEntity
  8
AM_4
100
AcDbPolyline
 90
        7
 70
     0
 43
0.0
 10
1.05
 20
0.1419530425733156
 10
1.049375118221686
 20
0.1432895757985456
 10
1.046642526613259
 20
0.1483122337196639
 10
1.037129409340965
 20
0.1601774654712563
 10
1.02458225432709
 20
0.1693961652753473
 10
1.012242950900642
 20
0.1744441701387579
 10
1.005
 20
0.1760063816516819
  0
LINE
  5
14E
330
F8
100
AcDbEntity
  8
AM_4
100
AcDbLine
 10
1.005
 20
1.423197807604387
 30
0.0
 11
1.005
 21
0.1760063816516819
 31
0.0
  0
LWPOLYLINE
  5
14F
330
F8
100
AcDbEntity
  8
AM_4
100
AcDbPolyline
 90
        8
 70
     0
 43
0.0
 10
-1.004999999999999
 20
0.176006381651682
 10
-1.018227618158051
 20
0.1724024856869627
 10
-1.029465048749459
 20
0.1664028035704184
 10
-1.041616867184929
 20
0.1553519481975308
 10
-1.045902250967669
 20
0.1494676995859303
 10
-1.048810187299889
 20
0.1444281082623111
 10
-1.049891038072427
 20
0.1421924719964633
 10
-1.05
 20
0.141953042573316
  0
LINE
  5
150
330
F8
100
AcDbEntity
  8
AM_4
100
AcDbLine
 10
-1.004999999999999
 20
1.423197807604385
 30
0.0
 11
-1.004999999999999
 21
0.1760063816516821
 31
0.0
  0
LINE
  5
151
330
F8
100
AcDbEntity
  8
AM_4
100
AcDbLine
 10
-1.192676396754801
 20
1.684196489326109
 30
0.0
 11
-1.554800000000001
 21
0.529999999999999
 31
0.0
  0
LINE
  5
152
330
F8
100
AcDbEntity
  8
AM_4
100
AcDbLine
 10
1.5548
 20
0.5299999999999992
 30
0.0
 11
1.192676396754801
 21
1.684196489326108
 31
0.0
  0
LWPOLYLINE
  5
153
330
F8
100
AcDbEntity
  8
AM_4
100
AcDbPolyline
 90
       31
 70
     0
 43
0.0
 10
1.192676396754801
 20
1.684196489326108
 10
1.155524530025517
 20
1.786721155927978
 10
1.109578423897951
 20
1.885617686681133
 10
1.055187755982752
 20
1.980133419271182
 10
0.9927664721047363
 20
2.069549031902955
 10
0.9227896359252183
 20
2.153184017773702
 10
0.8457898134206931
 20
2.230401864140762
 10
0.762353019734184
 20
2.30061489656787
 10
0.6731142592461589
 20
2.363288751482468
 10
0.5787526928077682
 20
2.417946443005147
 10
0.4799864689166801
 20
2.464171993100204
 10
0.377567258173382
 20
2.501613597419665
 10
0.2722745326140407
 20
2.5299863027468
 10
0.1649096334576489
 20
2.549074175662162
 10
0.0562896724154851
 20
2.558731945927291
 10
-0.0527586870223939
 20
2.558886112078949
 10
-0.1614055209954664
 20
2.549535500819635
 10
-0.2688239614944451
 20
2.530751275947085
 10
-0.3741964893261052
 20
2.502676396754802
 10
-0.4767211559279756
 20
2.465524530025519
 10
-0.5756176866811302
 20
2.419578423897953
 10
-0.6701334192711794
 20
2.365187755982753
 10
-0.7595490319029532
 20
2.302766472104738
 10
-0.8431840177737006
 20
2.23278963592522
 10
-0.9204018641407602
 20
2.155789813420696
 10
-0.9906148965678682
 20
2.072353019734187
 10
-1.053288751482466
 20
1.983114259246161
 10
-1.107946443005146
 20
1.888752692807771
 10
-1.154171993100203
 20
1.789986468916683
 10
-1.191613597419664
 20
1.687567258173385
 10
-1.192676396754801
 20
1.684196489326109
  0
LINE
  5
154
330
F8
100
AcDbEntity
  8
AM_4
100
AcDbLine
 10
-1.05
 20
0.1419530425733156
 30
0.0
 11
-1.05
 21
1.014168774916181
 31
0.0
  0
LWPOLYLINE
  5
155
330
F8
100
AcDbEntity
  8
AM_4
100
AcDbPolyline
 90
       19
 70
     0
 43
0.0
 10
-1.004999998658895
 20
1.423197807604385
 10
-1.008922007087643
 20
1.421641329708195
 10
-1.012814166674281
 20
1.416983739631382
 10
-1.016646855734205
 20
1.409260484446761
 10
-1.020390905189429
 20
1.398530342789716
 10
-1.024017820562878
 20
1.384874977517292
 10
-1.027499998838569
 20
1.368398314204549
 10
-1.030810938537228
 20
1.349225750208178
 10
-1.033925441408548
 20
1.327503200316901
 10
-1.03681980420509
 20
1.303395986251826
 10
-1.039471999078308
 20
1.277087578468322
 10
-1.041861841223779
 20
1.248778199835072
 10
-1.043971142499747
 20
1.218683301817145
 10
-1.045783849849874
 20
1.187031924760254
 10
-1.047286167476681
 20
1.154064954755426
 10
-1.048466661835904
 20
1.120033290350399
 10
-1.049316348652669
 20
1.085195933060175
 10
-1.049828761297243
 20
1.049818016209104
 10
-1.05
 20
1.014168787106194
  0
LINE
  5
156
330
F8
100
AcDbEntity
  8
AM_4
100
AcDbLine
 10
-1.004999999999999
 20
1.423197807604385
 30
0.0
 11
-0.9182490383079966
 21
1.423197807604385
 31
0.0
  0
LWPOLYLINE
  5
157
330
F8
100
AcDbEntity
  8
AM_4
100
AcDbPolyline
 90
       35
 70
     0
 43
0.0
 10
0.9182490383079964
 20
1.423197807604387
 10
0.9048889844911032
 20
1.502797732732156
 10
0.8846421791153254
 20
1.580930350699379
 10
0.8576627125949277
 20
1.657001025105562
 10
0.8241559149607774
 20
1.730430812185743
 10
0.7843767931748283
 20
1.800660866922126
 10
0.738628090373162
 20
1.8671566961921
 10
0.687257981807921
 20
1.929412226583641
 10
0.6306574250234062
 20
1.986953655919552
 10
0.5692571844330986
 20
2.039343059178122
 10
0.5035245529423695
 20
2.086181721366966
 10
0.4339597955673112
 20
2.127113171984871
 10
0.361092342115897
 20
2.161825897977548
 10
0.2854767579074632
 20
2.190055714540076
 10
0.2076885231957744
 20
2.211587775722784
 10
0.1283196534168067
 20
2.22625820953866
 10
0.0479741935938119
 20
2.233955365128113
 10
-0.0327363788100418
 20
2.234620662489437
 10
-0.1131978076043852
 20
2.228249038307997
 10
-0.1927977327321541
 20
2.214888984491103
 10
-0.2709303506993775
 20
2.194642179115326
 10
-0.3470010251055601
 20
2.167662712594928
 10
-0.4204308121857419
 20
2.134155914960778
 10
-0.4906608669221248
 20
2.094376793174829
 10
-0.5571566961920987
 20
2.048628090373163
 10
-0.6194122265836395
 20
1.997257981807922
 10
-0.6769536559195506
 20
1.940657425023407
 10
-0.7293430591781206
 20
1.8792571844331
 10
-0.7761817213669654
 20
1.813524552942371
 10
-0.8171131719848702
 20
1.743959795567313
 10
-0.8518258979775474
 20
1.671092342115899
 10
-0.8800557145400755
 20
1.595476757907465
 10
-0.9015877757227844
 20
1.517688523195776
 10
-0.9162582095386594
 20
1.438319653416808
 10
-0.9182490383079964
 20
1.423197807604386
  0
LINE
  5
158
330
F8
100
AcDbEntity
  8
AM_4
100
AcDbLine
 10
0.9182490383079963
 20
1.423197807604387
 30
0.0
 11
1.005
 21
1.423197807604387
 31
0.0
  0
LWPOLYLINE
  5
159
330
F8
100
AcDbEntity
  8
AM_4
100
AcDbPolyline
 90
       19
 70
     0
 43
0.0
 10
1.05
 20
1.014168774916182
 10
1.049828761414128
 20
1.049818004065479
 10
1.049316348885549
 20
1.085195921055356
 10
1.048466662183008
 20
1.120033278575751
 10
1.047286167935366
 20
1.154064943300562
 10
1.045783850416649
 20
1.187031913712351
 10
1.0439711431703
 20
1.218683291260285
 10
1.041861841993005
 20
1.248778189849598
 10
1.039471999940354
 20
1.277087569130231
 10
1.036819805153395
 20
1.303395977632186
 10
1.033925442435894
 20
1.327503192481312
 10
1.030810939635797
 20
1.349225743216274
 10
1.0275
 20
1.368398308109543
 10
1.024017821778331
 20
1.384874972365571
 10
1.020390906449655
 20
1.398530338620487
 10
1.016646857029613
 20
1.409260481291755
 10
1.012814167995012
 20
1.416983737514611
 10
1.008922008423645
 20
1.421641328645767
 10
1.005000001341104
 20
1.423197807604387
  0
LINE
  5
15A
330
F8
100
AcDbEntity
  8
AM_4
100
AcDbLine
 10
1.05
 20
1.014168774916182
 30
0.0
 11
1.05
 21
0.1419530425733158
 31
0.0
  0
LINE
  5
15B
330
F8
100
AcDbEntity
  8
AM_4
100
AcDbLine
 10
-2.625
 20
0.0
 30
0.0
 11
-1.05525
 21
0.0
 31
0.0
  0
LWPOLYLINE
  5
15C
330
F8
100
AcDbEntity
  8
AM_4
100
AcDbPolyline
 90
       10
 70
     0
 43
0.0
 10
-1.060126265717189
 20
0.529999999999999
 10
-1.057921601538174
 20
0.5545861764287195
 10
-1.055961073340921
 20
0.5808253412225799
 10
-1.054259601928809
 20
0.6085177984938581
 10
-1.052830136526661
 20
0.6374527919215569
 10
-1.051683556229322
 20
0.6674101087342647
 10
-1.050828587205179
 20
0.6981617556623142
 10
-1.050271736284751
 20
0.729473694104231
 10
-1.050017241439778
 20
0.7611076213018069
 10
-1.05
 20
0.771781605989026
  0
LINE
  5
15D
330
F8
100
AcDbEntity
  8
AM_4
100
AcDbLine
 10
-1.06012626571719
 20
0.529999999999999
 30
0.0
 11
-1.060126265717189
 21
0.0
 31
0.0
  0
LINE
  5
15E
330
F8
100
AcDbEntity
  8
AM_4
100
AcDbLine
 10
-1.05525
 20
0.11761139
 30
0.0
 11
-1.05525
 21
0.0
 31
0.0
  0
LWPOLYLINE
  5
15F
330
F8
100
AcDbEntity
  8
AM_4
100
AcDbPolyline
 90
        6
 70
     0
 43
0.0
 10
-1.05525
 20
0.11761139
 10
-1.054633330606276
 20
0.1261234205618295
 10
-1.052980836978585
 20
0.1338244155496768
 10
-1.051409118287663
 20
0.1385612094477288
 10
-1.050243957233606
 20
0.141406436715001
 10
-1.05
 20
0.1419530425733158
  0
LINE
  5
160
330
F8
100
AcDbEntity
  8
AM_4
100
AcDbLine
 10
-2.565944900000001
 20
0.53
 30
0.0
 11
-1.06012626571719
 21
0.529999999999999
 31
0.0
  0
LINE
  5
161
330
F8
100
AcDbEntity
  8
AM_4
100
AcDbLine
 10
-2.4899
 20
0.0
 30
0.0
 11
-2.4899
 21
0.5300000000000001
 31
0.0
  0
LWPOLYLINE
  5
162
330
F8
100
AcDbEntity
  8
AM_4
100
AcDbPolyline
 90
       19
 70
     0
 43
0.0
 10
-2.625
 20
0.4709448999999992
 10
-2.624775277515277
 20
0.4760918911035365
 10
-2.62410282033491
 20
0.4811997104969377
 10
-2.622987746264083
 20
0.4862294845904332
 10
-2.621438541689773
 20
0.4911429337661112
 10
-2.619466996994228
 20
0.4959026637089227
 10
-2.61708811682303
 20
0.5004724499999996
 10
-2.61432000589069
 20
0.5048175138063543
 10
-2.611183731192835
 20
0.5089047865687992
 10
-2.607703161673649
 20
0.5127031616736495
 10
-2.603904786568799
 20
0.5161837311928353
 10
-2.599817513806354
 20
0.5193200058906907
 10
-2.595472449999999
 20
0.5220881168230304
 10
-2.590902663708922
 20
0.5244669969942279
 10
-2.586142933766111
 20
0.5264385416897739
 10
-2.581229484590433
 20
0.5279877462640835
 10
-2.576199710496938
 20
0.5291028203349113
 10
-2.571091891103536
 20
0.5297752775152779
 10
-2.565944900000001
 20
0.53
  0
LINE
  5
163
330
F8
100
AcDbEntity
  8
AM_4
100
AcDbLine
 10
-2.625
 20
0.0
 30
0.0
 11
-2.625
 21
0.4709449
 31
0.0
  0
LINE
  5
164
330
F8
100
AcDbEntity
  8
AM_4
100
AcDbLine
 10
1.060126265717189
 20
0.529999999999999
 30
0.0
 11
2.5659449
 21
0.53
 31
0.0
  0
LWPOLYLINE
  5
165
330
F8
100
AcDbEntity
  8
AM_4
100
AcDbPolyline
 90
       19
 70
     0
 43
0.0
 10
2.5659449
 20
0.5299999999999999
 10
2.571091891103537
 20
0.5297752775152778
 10
2.576199710496938
 20
0.5291028203349112
 10
2.581229484590434
 20
0.5279877462640834
 10
2.586142933766111
 20
0.5264385416897738
 10
2.590902663708923
 20
0.5244669969942279
 10
2.595472449999999
 20
0.5220881168230304
 10
2.599817513806354
 20
0.5193200058906907
 10
2.603904786568799
 20
0.5161837311928354
 10
2.607703161673649
 20
0.5127031616736496
 10
2.611183731192836
 20
0.5089047865687994
 10
2.614320005890691
 20
0.5048175138063546
 10
2.617088116823031
 20
0.50047245
 10
2.619466996994228
 20
0.4959026637089231
 10
2.621438541689773
 20
0.4911429337661116
 10
2.622987746264084
 20
0.4862294845904337
 10
2.624102820334911
 20
0.4811997104969382
 10
2.624775277515278
 20
0.4760918911035371
 10
2.625
 20
0.4709448999999999
  0
LINE
  5
166
330
F8
100
AcDbEntity
  8
AM_4
100
AcDbLine
 10
2.4899
 20
0.53
 30
0.0
 11
2.4899
 21
0.0
 31
0.0
  0
LINE
  5
167
330
F8
100
AcDbEntity
  8
AM_4
100
AcDbLine
 10
1.05525
 20
0.0
 30
0.0
 11
2.625
 21
0.0
 31
0.0
  0
LINE
  5
168
330
F8
100
AcDbEntity
  8
AM_4
100
AcDbLine
 10
2.625
 20
0.4709448999999997
 30
0.0
 11
2.625
 21
0.0
 31
0.0
  0
LWPOLYLINE
  5
169
330
F8
100
AcDbEntity
  8
AM_4
100
AcDbPolyline
 90
       10
 70
     0
 43
0.0
 10
1.05
 20
0.771781605989028
 10
1.05015221207633
 20
0.7400934023007641
 10
1.050607689879512
 20
0.7086463649764286
 10
1.051362966948437
 20
0.6776798249582998
 10
1.052412295168564
 20
0.6474294563140236
 10
1.053747688518534
 20
0.6181254826146553
 10
1.055358983848622
 20
0.5899909247942698
 10
1.05723391822844
 20
0.563239903825991
 10
1.059358222275241
 20
0.5380760111320955
 10
1.060126265717189
 20
0.5299999999999991
  0
LWPOLYLINE
  5
16A
330
F8
100
AcDbEntity
  8
AM_4
100
AcDbPolyline
 90
        7
 70
     0
 43
0.0
 10
1.05
 20
0.1419530425733159
 10
1.050406315414419
 20
0.1410341839148033
 10
1.051461853866094
 20
0.1384216914483956
 10
1.052855624205924
 20
0.1342567247359033
 10
1.054275683680616
 20
0.1282944327807602
 10
1.055183890892964
 20
0.1204049163449463
 10
1.05525
 20
0.1176113900000001
  0
LINE
  5
16B
330
F8
100
AcDbEntity
  8
AM_4
100
AcDbLine
 10
1.05525
 20
0.0
 30
0.0
 11
1.05525
 21
0.11761139
 31
0.0
  0
LINE
  5
16C
330
F8
100
AcDbEntity
  8
AM_4
100
AcDbLine
 10
1.060126265717189
 20
0.0
 30
0.0
 11
1.060126265717189
 21
0.529999999999999
 31
0.0
  0
ENDBLK
  5
FB
330
F8
100
AcDbEntity
  8
0
100
AcDbBlockEnd
  0
ENDSEC
  0
SECTION
  2
ENTITIES
  0
INSERT
  5
6F
330
1F
100
AcDbEntity
  8
0
100
AcDbBlockReference
  2
1_128700_0
 10
0.0
 20
0.0
 30
0.0
  0
POINT
  5
16E
330
1F
100
AcDbEntity
  8
ConnectionPoints
100
AcDbPoint
 10
0.0
 20
1.31
 30
0.78
  0
POINT
  5
16F
330
1F
100
AcDbEntity
  8
ConnectionPoints
100
AcDbPoint
 10
0.0
 20
1.31
 30
-0.5
  0
POINT
  5
170
330
1F
100
AcDbEntity
  8
ConnectionPoints
100
AcDbPoint
 10
0.0
 20
1.31
 30
0.0
  0
POINT
  5
171
330
1F
100
AcDbEntity
  8
ConnectionPoints
100
AcDbPoint
 10
0.0
 20
1.31
 30
0.78
  0
POINT
  5
172
330
1F
100
AcDbEntity
  8
ConnectionPoints
100
AcDbPoint
 10
0.8838834764831844
 20
2.193883476483184
 30
0.0
  0
ENDSEC
  0
SECTION
  2
OBJECTS
  0
DICTIONARY
  5
C
330
0
100
AcDbDictionary
281
     1
  3
ACAD_DETAILVIEWSTYLE
350
17A
  3
ACAD_GROUP
350
D
  3
ACAD_LAYOUT
350
1A
  3
ACAD_MATERIAL
350
43
  3
ACAD_MLEADERSTYLE
350
6B
  3
ACAD_MLINESTYLE
350
17
  3
ACAD_PLOTSETTINGS
350
19
  3
ACAD_PLOTSTYLENAME
350
E
  3
ACAD_SCALELIST
350
47
  3
ACAD_SECTIONVIEWSTYLE
350
17B
  3
ACAD_TABLESTYLE
350
69
  3
ACAD_VISUALSTYLE
350
2A
  3
ACDB_RECOMPOSE_DATA
350
177
  3
AcDbVariableDictionary
350
173
  0
SUN
  5
6D
330
29
100
AcDbSun
 90
        1
290
     0
 63
     7
421
 16777215
 40
1.0
291
     1
 91
  2455826
 92
 54000000
292
     0
 70
     2
 71
   256
280
     1
  0
DICTIONARY
  5
17A
102
{ACAD_REACTORS
330
C
102
}
330
C
100
AcDbDictionary
281
     1
  0
DICTIONARY
  5
D
102
{ACAD_REACTORS
330
C
102
}
330
C
100
AcDbDictionary
281
     1
  0
DICTIONARY
  5
1A
102
{ACAD_REACTORS
330
C
102
}
330
C
100
AcDbDictionary
281
     1
  3
Layout1
350
1E
  3
Layout2
350
26
  3
Model
350
22
  0
DICTIONARY
  5
43
102
{ACAD_REACTORS
330
C
102
}
330
C
100
AcDbDictionary
281
     1
  3
ByBlock
350
45
  3
ByLayer
350
44
  3
Global
350
46
  0
DICTIONARY
  5
6B
102
{ACAD_REACTORS
330
C
102
}
330
C
100
AcDbDictionary
281
     1
  3
Standard
350
6C
  0
DICTIONARY
  5
17
102
{ACAD_REACTORS
330
C
102
}
330
C
100
AcDbDictionary
281
     1
  3
Standard
350
18
  0
DICTIONARY
  5
19
102
{ACAD_REACTORS
330
C
102
}
330
C
100
AcDbDictionary
281
     1
  0
ACDBDICTIONARYWDFLT
  5
E
102
{ACAD_REACTORS
330
C
102
}
330
C
100
AcDbDictionary
281
     1
  3
Normal
350
F
100
AcDbDictionaryWithDefault
340
F
  0
DICTIONARY
  5
47
102
{ACAD_REACTORS
330
C
102
}
330
C
100
AcDbDictionary
281
     1
  3
A0
350
48
  3
A1
350
49
  3
A2
350
4A
  3
A3
350
4B
  3
A4
350
4C
  3
A5
350
4D
  3
A6
350
4E
  3
A7
350
4F
  3
A8
350
50
  3
A9
350
51
  3
B0
350
52
  3
B1
350
53
  3
B2
350
54
  3
B3
350
55
  3
B4
350
56
  3
B5
350
57
  3
B6
350
58
  3
B7
350
59
  3
B8
350
5A
  3
B9
350
5B
  3
C0
350
5C
  3
C1
350
5D
  3
C2
350
5E
  3
C3
350
5F
  3
C4
350
60
  3
C5
350
61
  3
C6
350
62
  3
C7
350
63
  3
C8
350
64
  3
C9
350
65
  3
D0
350
66
  3
D1
350
67
  3
D2
350
68
  0
DICTIONARY
  5
17B
102
{ACAD_REACTORS
330
C
102
}
330
C
100
AcDbDictionary
281
     1
  0
DICTIONARY
  5
69
102
{ACAD_REACTORS
330
C
102
}
330
C
100
AcDbDictionary
281
     1
  3
Standard
350
6A
  0
DICTIONARY
  5
2A
102
{ACAD_REACTORS
330
C
102
}
330
C
100
AcDbDictionary
281
     1
  3
2dWireframe
350
2F
  3
Basic
350
32
  3
Brighten
350
36
  3
ColorChange
350
3A
  3
Conceptual
350
34
  3
Dim
350
35
  3
EdgeColorOff
350
3D
  3
Facepattern
350
39
  3
Flat
350
2B
  3
FlatWithEdges
350
2C
  3
Gouraud
350
2D
  3
GouraudWithEdges
350
2E
  3
Hidden
350
31
  3
JitterOff
350
3B
  3
Linepattern
350
38
  3
OverhangOff
350
3C
  3
Realistic
350
33
  3
Shaded
350
42
  3
Shaded with edges
350
41
  3
Shades of Gray
350
3E
  3
Sketchy
350
3F
  3
Thicken
350
37
  3
Wireframe
350
30
  3
X-Ray
350
40
  0
XRECORD
  5
177
102
{ACAD_REACTORS
330
C
102
}
330
C
100
AcDbXrecord
280
     1
 90
        1
330
6A
  0
DICTIONARY
  5
173
102
{ACAD_REACTORS
330
C
102
}
330
C
100
AcDbDictionary
281
     1
  3
CANNOSCALE
350
174
  3
CMLEADERSTYLE
350
179
  3
CTABLESTYLE
350
178
  0
LAYOUT
  5
1E
102
{ACAD_REACTORS
330
1A
102
}
330
1A
100
AcDbPlotSettings
  1

  2
none_device
  4

  6

 40
0.0
 41
0.0
 42
0.0
 43
0.0
 44
0.0
 45
0.0
 46
0.0
 47
0.0
 48
0.0
 49
0.0
140
0.0
141
0.0
142
1.0
143
1.0
 70
   688
 72
     0
 73
     0
 74
     5
  7

 75
    16
 76
     0
 77
     2
 78
   300
147
1.0
148
0.0
149
0.0
100
AcDbLayout
  1
Layout1
 70
     1
 71
     1
 10
0.0
 20
0.0
 11
12.0
 21
9.0
 12
0.0
 22
0.0
 32
0.0
 14
1.000000000000000E+20
 24
1.000000000000000E+20
 34
1.000000000000000E+20
 15
-1.000000000000000E+20
 25
-1.000000000000000E+20
 35
-1.000000000000000E+20
146
0.0
 13
0.0
 23
0.0
 33
0.0
 16
1.0
 26
0.0
 36
0.0
 17
0.0
 27
1.0
 37
0.0
 76
     0
330
1B
  0
LAYOUT
  5
26
102
{ACAD_REACTORS
330
1A
102
}
330
1A
100
AcDbPlotSettings
  1

  2
none_device
  4

  6

 40
0.0
 41
0.0
 42
0.0
 43
0.0
 44
0.0
 45
0.0
 46
0.0
 47
0.0
 48
0.0
 49
0.0
140
0.0
141
0.0
142
1.0
143
1.0
 70
   688
 72
     0
 73
     0
 74
     5
  7

 75
    16
 76
     0
 77
     2
 78
   300
147
1.0
148
0.0
149
0.0
100
AcDbLayout
  1
Layout2
 70
     1
 71
     2
 10
0.0
 20
0.0
 11
0.0
 21
0.0
 12
0.0
 22
0.0
 32
0.0
 14
0.0
 24
0.0
 34
0.0
 15
0.0
 25
0.0
 35
0.0
146
0.0
 13
0.0
 23
0.0
 33
0.0
 16
1.0
 26
0.0
 36
0.0
 17
0.0
 27
1.0
 37
0.0
 76
     0
330
23
  0
LAYOUT
  5
22
102
{ACAD_REACTORS
330
1A
102
}
330
1A
100
AcDbPlotSettings
  1

  2
none_device
  4
Letter_(8.50_x_11.00_Inches)
  6

 40
6.35
 41
6.35
 42
6.35000508
 43
6.35000508
 44
215.9
 45
279.4
 46
0.0
 47
0.0
 48
0.0
 49
0.0
140
0.0
141
0.0
142
1.0
143
1.0
 70
  1712
 72
     0
 73
     0
 74
     0
  7

 75
     0
 76
     0
 77
     2
 78
   300
147
1.0
148
0.0
149
0.0
100
AcDbLayout
  1
Model
 70
     1
 71
     0
 10
0.0
 20
0.0
 11
12.0
 21
9.0
 12
0.0
 22
0.0
 32
0.0
 14
1.000000000000000E+20
 24
1.000000000000000E+20
 34
1.000000000000000E+20
 15
-1.000000000000000E+20
 25
-1.000000000000000E+20
 35
-1.000000000000000E+20
146
0.0
 13
0.0
 23
0.0
 33
0.0
 16
1.0
 26
0.0
 36
0.0
 17
0.0
 27
1.0
 37
0.0
 76
     0
330
1F
331
29
  0
MATERIAL
  5
45
102
{ACAD_REACTORS
330
43
102
}
330
43
100
AcDbMaterial
  1
ByBlock
 72
     1
 94
      127
  0
MATERIAL
  5
44
102
{ACAD_REACTORS
330
43
102
}
330
43
100
AcDbMaterial
  1
ByLayer
 72
     1
 94
      127
  0
MATERIAL
  5
46
102
{ACAD_REACTORS
330
43
102
}
330
43
100
AcDbMaterial
  1
Global
 72
     1
 94
      127
  0
MLEADERSTYLE
  5
6C
102
{ACAD_REACTORS
330
6B
102
}
330
6B
100
AcDbMLeaderStyle
179
     2
170
     2
171
     1
172
     0
 90
        2
 40
0.0
 41
0.0
173
     1
 91
-1056964608
340
14
 92
       -2
290
     1
 42
0.09
291
     1
 43
0.36
  3
Standard
341
0
 44
0.18
300

342
11
174
     1
178
     6
175
     1
176
     0
 93
-1056964608
 45
0.18
292
     0
297
     0
 46
0.18
343
0
 94
-1056964608
 47
1.0
 49
1.0
140
1.0
293
     1
141
0.0
294
     1
177
     0
142
1.0
295
     0
296
     0
143
0.125
271
     0
272
     9
273
     9
298
     0
  0
MLINESTYLE
  5
18
102
{ACAD_REACTORS
330
17
102
}
330
17
100
AcDbMlineStyle
  2
Standard
 70
     0
  3

 62
   256
 51
90.0
 52
90.0
 71
     2
 49
0.5
 62
   256
  6
BYLAYER
 49
-0.5
 62
   256
  6
BYLAYER
  0
ACDBPLACEHOLDER
  5
F
102
{ACAD_REACTORS
330
E
102
}
330
E
  0
SCALE
  5
48
102
{ACAD_REACTORS
330
47
102
}
330
47
100
AcDbScale
 70
     0
300
1:1
140
1.0
141
1.0
290
     1
  0
SCALE
  5
49
102
{ACAD_REACTORS
330
47
102
}
330
47
100
AcDbScale
 70
     0
300
1:2
140
1.0
141
2.0
290
     0
  0
SCALE
  5
4A
102
{ACAD_REACTORS
330
47
102
}
330
47
100
AcDbScale
 70
     0
300
1:4
140
1.0
141
4.0
290
     0
  0
SCALE
  5
4B
102
{ACAD_REACTORS
330
47
102
}
330
47
100
AcDbScale
 70
     0
300
1:5
140
1.0
141
5.0
290
     0
  0
SCALE
  5
4C
102
{ACAD_REACTORS
330
47
102
}
330
47
100
AcDbScale
 70
     0
300
1:8
140
1.0
141
8.0
290
     0
  0
SCALE
  5
4D
102
{ACAD_REACTORS
330
47
102
}
330
47
100
AcDbScale
 70
     0
300
1:10
140
1.0
141
10.0
290
     0
  0
SCALE
  5
4E
102
{ACAD_REACTORS
330
47
102
}
330
47
100
AcDbScale
 70
     0
300
1:16
140
1.0
141
16.0
290
     0
  0
SCALE
  5
4F
102
{ACAD_REACTORS
330
47
102
}
330
47
100
AcDbScale
 70
     0
300
1:20
140
1.0
141
20.0
290
     0
  0
SCALE
  5
50
102
{ACAD_REACTORS
330
47
102
}
330
47
100
AcDbScale
 70
     0
300
1:30
140
1.0
141
30.0
290
     0
  0
SCALE
  5
51
102
{ACAD_REACTORS
330
47
102
}
330
47
100
AcDbScale
 70
     0
300
1:40
140
1.0
141
40.0
290
     0
  0
SCALE
  5
52
102
{ACAD_REACTORS
330
47
102
}
330
47
100
AcDbScale
 70
     0
300
1:50
140
1.0
141
50.0
290
     0
  0
SCALE
  5
53
102
{ACAD_REACTORS
330
47
102
}
330
47
100
AcDbScale
 70
     0
300
1:100
140
1.0
141
100.0
290
     0
  0
SCALE
  5
54
102
{ACAD_REACTORS
330
47
102
}
330
47
100
AcDbScale
 70
     0
300
2:1
140
2.0
141
1.0
290
     0
  0
SCALE
  5
55
102
{ACAD_REACTORS
330
47
102
}
330
47
100
AcDbScale
 70
     0
300
4:1
140
4.0
141
1.0
290
     0
  0
SCALE
  5
56
102
{ACAD_REACTORS
330
47
102
}
330
47
100
AcDbScale
 70
     0
300
8:1
140
8.0
141
1.0
290
     0
  0
SCALE
  5
57
102
{ACAD_REACTORS
330
47
102
}
330
47
100
AcDbScale
 70
     0
300
10:1
140
10.0
141
1.0
290
     0
  0
SCALE
  5
58
102
{ACAD_REACTORS
330
47
102
}
330
47
100
AcDbScale
 70
     0
300
100:1
140
100.0
141
1.0
290
     0
  0
SCALE
  5
59
102
{ACAD_REACTORS
330
47
102
}
330
47
100
AcDbScale
 70
     0
300
1/128" = 1'-0"
140
0.0078125
141
12.0
290
     0
  0
SCALE
  5
5A
102
{ACAD_REACTORS
330
47
102
}
330
47
100
AcDbScale
 70
     0
300
1/64" = 1'-0"
140
0.015625
141
12.0
290
     0
  0
SCALE
  5
5B
102
{ACAD_REACTORS
330
47
102
}
330
47
100
AcDbScale
 70
     0
300
1/32" = 1'-0"
140
0.03125
141
12.0
290
     0
  0
SCALE
  5
5C
102
{ACAD_REACTORS
330
47
102
}
330
47
100
AcDbScale
 70
     0
300
1/16" = 1'-0"
140
0.0625
141
12.0
290
     0
  0
SCALE
  5
5D
102
{ACAD_REACTORS
330
47
102
}
330
47
100
AcDbScale
 70
     0
300
3/32" = 1'-0"
140
0.09375
141
12.0
290
     0
  0
SCALE
  5
5E
102
{ACAD_REACTORS
330
47
102
}
330
47
100
AcDbScale
 70
     0
300
1/8" = 1'-0"
140
0.125
141
12.0
290
     0
  0
SCALE
  5
5F
102
{ACAD_REACTORS
330
47
102
}
330
47
100
AcDbScale
 70
     0
300
3/16" = 1'-0"
140
0.1875
141
12.0
290
     0
  0
SCALE
  5
60
102
{ACAD_REACTORS
330
47
102
}
330
47
100
AcDbScale
 70
     0
300
1/4" = 1'-0"
140
0.25
141
12.0
290
     0
  0
SCALE
  5
61
102
{ACAD_REACTORS
330
47
102
}
330
47
100
AcDbScale
 70
     0
300
3/8" = 1'-0"
140
0.375
141
12.0
290
     0
  0
SCALE
  5
62
102
{ACAD_REACTORS
330
47
102
}
330
47
100
AcDbScale
 70
     0
300
1/2" = 1'-0"
140
0.5
141
12.0
290
     0
  0
SCALE
  5
63
102
{ACAD_REACTORS
330
47
102
}
330
47
100
AcDbScale
 70
     0
300
3/4" = 1'-0"
140
0.75
141
12.0
290
     0
  0
SCALE
  5
64
102
{ACAD_REACTORS
330
47
102
}
330
47
100
AcDbScale
 70
     0
300
1" = 1'-0"
140
1.0
141
12.0
290
     0
  0
SCALE
  5
65
102
{ACAD_REACTORS
330
47
102
}
330
47
100
AcDbScale
 70
     0
300
1-1/2" = 1'-0"
140
1.5
141
12.0
290
     0
  0
SCALE
  5
66
102
{ACAD_REACTORS
330
47
102
}
330
47
100
AcDbScale
 70
     0
300
3" = 1'-0"
140
3.0
141
12.0
290
     0
  0
SCALE
  5
67
102
{ACAD_REACTORS
330
47
102
}
330
47
100
AcDbScale
 70
     0
300
6" = 1'-0"
140
6.0
141
12.0
290
     0
  0
SCALE
  5
68
102
{ACAD_REACTORS
330
47
102
}
330
47
100
AcDbScale
 70
     0
300
1'-0" = 1'-0"
140
12.0
141
12.0
290
     0
  0
TABLESTYLE
  5
6A
102
{ACAD_REACTORS
330
69
102
}
102
{ACAD_XDICTIONARY
360
175
102
}
330
69
100
AcDbTableStyle
  3
Standard
 70
     0
 71
     0
 40
0.06
 41
0.06
280
     0
281
     0
  7
Standard
140
0.18
170
     2
 62
     0
 63
   257
283
     0
 90
        4
 91
        0
  1

274
    -2
284
     1
 64
     0
275
    -2
285
     1
 65
     0
276
    -2
286
     1
 66
     0
277
    -2
287
     1
 67
     0
278
    -2
288
     1
 68
     0
279
    -2
289
     1
 69
     0
  7
Standard
140
0.25
170
     5
 62
     0
 63
   257
283
     0
 90
        4
 91
        0
  1

274
    -2
284
     1
 64
     0
275
    -2
285
     1
 65
     0
276
    -2
286
     1
 66
     0
277
    -2
287
     1
 67
     0
278
    -2
288
     1
 68
     0
279
    -2
289
     1
 69
     0
  7
Standard
140
0.18
170
     5
 62
     0
 63
   257
283
     0
 90
        4
 91
        0
  1

274
    -2
284
     1
 64
     0
275
    -2
285
     1
 65
     0
276
    -2
286
     1
 66
     0
277
    -2
287
     1
 67
     0
278
    -2
288
     1
 68
     0
279
    -2
289
     1
 69
     0
  0
VISUALSTYLE
  5
2F
102
{ACAD_REACTORS
330
2A
102
}
330
2A
100
AcDbVisualStyle
  2
2dWireframe
 70
     4
177
     3
291
     0
 70
    58
 90
        0
176
     1
 90
        2
176
     1
 90
        0
176
     1
 90
        0
176
     1
 40
0.6
176
     1
 40
30.0
176
     1
 62
     7
420
 16777215
176
     1
 90
        1
176
     1
 90
        4
176
     1
 62
     7
176
     1
 62
   257
176
     1
 90
        1
176
     1
 90
        1
176
     1
 40
1.0
176
     1
 90
        0
176
     1
 62
   257
176
     1
 40
1.0
176
     1
 90
        1
176
     1
 90
        6
176
     1
 90
        2
176
     1
 62
     7
176
     1
 90
        5
176
     1
 90
        0
176
     1
 90
        0
176
     1
290
     0
176
     1
 90
        1
176
     1
 40
0.0
176
     1
 90
        0
176
     1
290
     1
176
     1
290
     1
176
     1
290
     0
176
     1
290
     0
176
     1
290
     0
176
     1
290
     0
176
     1
290
     0
176
     1
290
     0
176
     1
290
     0
176
     1
 90
       50
176
     1
 40
0.0
176
     1
 40
1.0
176
     1
 90
        0
176
     1
 62
    18
420
        0
176
     1
 90
       50
176
     1
 90
        3
176
     1
 62
     5
420
      255
176
     1
290
     0
176
     1
 90
       50
176
     1
 90
       50
176
     1
 90
       50
176
     1
290
     0
176
     1
 90
       50
176
     1
 62
   256
176
     0
 40
1.0
176
     0
 90
        2
176
     1
  1
strokes_ogs.tif
176
     1
290
     0
176
     1
 40
1.0
176
     1
 40
1.0
176
     1
  0
VISUALSTYLE
  5
32
102
{ACAD_REACTORS
330
2A
102
}
330
2A
100
AcDbVisualStyle
  2
Basic
 70
     7
177
     3
291
     1
 70
    58
 90
        1
176
     1
 90
        0
176
     1
 90
        1
176
     1
 90
        0
176
     1
 40
0.6
176
     1
 40
30.0
176
     1
 62
     7
420
 16777215
176
     1
 90
        0
176
     1
 90
        4
176
     1
 62
     7
176
     1
 62
   257
176
     1
 90
        1
176
     1
 90
        1
176
     1
 40
1.0
176
     1
 90
        8
176
     1
 62
     7
176
     1
 40
1.0
176
     1
 90
        1
176
     1
 90
        6
176
     1
 90
        2
176
     1
 62
     7
176
     1
 90
        5
176
     1
 90
        0
176
     1
 90
        0
176
     1
290
     0
176
     1
 90
        1
176
     1
 40
0.0
176
     1
 90
        0
176
     1
290
     0
176
     1
290
     1
176
     1
290
     1
176
     1
290
     0
176
     1
290
     0
176
     1
290
     0
176
     1
290
     0
176
     1
290
     0
176
     1
290
     0
176
     1
 90
       50
176
     1
 40
0.0
176
     1
 40
1.0
176
     1
 90
        0
176
     1
 62
    18
420
        0
176
     1
 90
       50
176
     1
 90
        3
176
     1
 62
     5
420
      255
176
     1
290
     0
176
     1
 90
       50
176
     1
 90
       50
176
     1
 90
       50
176
     1
290
     0
176
     1
 90
       50
176
     1
 62
   256
176
     0
 40
1.0
176
     0
 90
        2
176
     1
  1
strokes_ogs.tif
176
     1
290
     0
176
     1
 40
1.0
176
     1
 40
1.0
176
     1
  0
VISUALSTYLE
  5
36
102
{ACAD_REACTORS
330
2A
102
}
330
2A
100
AcDbVisualStyle
  2
Brighten
 70
    12
177
     3
291
     1
 70
    58
 90
        2
176
     1
 90
        2
176
     1
 90
        0
176
     1
 90
        0
176
     1
 40
0.6
176
     1
 40
30.0
176
     1
 62
     7
420
 16777215
176
     1
 90
        1
176
     1
 90
        4
176
     1
 62
     7
176
     1
 62
   257
176
     1
 90
        1
176
     1
 90
        1
176
     1
 40
1.0
176
     1
 90
        8
176
     1
 62
     7
176
     1
 40
1.0
176
     1
 90
        1
176
     1
 90
        6
176
     1
 90
        2
176
     1
 62
     7
176
     1
 90
        5
176
     1
 90
        0
176
     1
 90
        0
176
     1
290
     0
176
     1
 90
        1
176
     1
 40
50.0
176
     1
 90
        0
176
     1
290
     0
176
     1
290
     1
176
     1
290
     1
176
     1
290
     0
176
     1
290
     0
176
     1
290
     0
176
     1
290
     0
176
     1
290
     0
176
     1
290
     0
176
     1
 90
       50
176
     1
 40
0.0
176
     1
 40
1.0
176
     1
 90
        0
176
     1
 62
    18
420
        0
176
     1
 90
       50
176
     1
 90
        3
176
     1
 62
     5
420
      255
176
     1
290
     0
176
     1
 90
       50
176
     1
 90
       50
176
     1
 90
       50
176
     1
290
     0
176
     1
 90
       50
176
     1
 62
   256
176
     0
 40
1.0
176
     0
 90
        2
176
     1
  1
strokes_ogs.tif
176
     1
290
     0
176
     1
 40
1.0
176
     1
 40
1.0
176
     1
  0
VISUALSTYLE
  5
3A
102
{ACAD_REACTORS
330
2A
102
}
330
2A
100
AcDbVisualStyle
  2
ColorChange
 70
    16
177
     3
291
     1
 70
    58
 90
        2
176
     1
 90
        2
176
     1
 90
        3
176
     1
 90
        0
176
     1
 40
0.6
176
     1
 40
30.0
176
     1
 62
     8
420
  8421504
176
     1
 90
        1
176
     1
 90
        4
176
     1
 62
     7
176
     1
 62
   257
176
     1
 90
        1
176
     1
 90
        1
176
     1
 40
1.0
176
     1
 90
        8
176
     1
 62
     8
420
  8421504
176
     1
 40
1.0
176
     1
 90
        1
176
     1
 90
        6
176
     1
 90
        2
176
     1
 62
     7
176
     1
 90
        5
176
     1
 90
        0
176
     1
 90
        0
176
     1
290
     0
176
     1
 90
        1
176
     1
 40
0.0
176
     1
 90
        0
176
     1
290
     0
176
     1
290
     1
176
     1
290
     1
176
     1
290
     0
176
     1
290
     0
176
     1
290
     0
176
     1
290
     0
176
     1
290
     0
176
     1
290
     0
176
     1
 90
       50
176
     1
 40
0.0
176
     1
 40
1.0
176
     1
 90
        0
176
     1
 62
    18
420
        0
176
     1
 90
       50
176
     1
 90
        3
176
     1
 62
     5
420
      255
176
     1
290
     0
176
     1
 90
       50
176
     1
 90
       50
176
     1
 90
       50
176
     1
290
     0
176
     1
 90
       50
176
     1
 62
   256
176
     0
 40
1.0
176
     0
 90
        2
176
     1
  1
strokes_ogs.tif
176
     1
290
     0
176
     1
 40
1.0
176
     1
 40
1.0
176
     1
  0
VISUALSTYLE
  5
34
102
{ACAD_REACTORS
330
2A
102
}
330
2A
100
AcDbVisualStyle
  2
Conceptual
 70
     9
177
     3
291
     0
 70
    58
 90
        3
176
     1
 90
        2
176
     1
 90
        0
176
     1
 90
        0
176
     1
 40
0.6
176
     1
 40
30.0
176
     1
 62
     7
420
 16777215
176
     1
 90
        2
176
     1
 90
        2
176
     1
 62
     7
176
     1
 62
   257
176
     1
 90
        1
176
     1
 90
        1
176
     1
 40
179.0
176
     1
 90
        8
176
     1
 62
     7
176
     1
 40
1.0
176
     1
 90
        1
176
     1
 90
        6
176
     1
 90
        2
176
     1
 62
     7
176
     1
 90
        3
176
     1
 90
        0
176
     1
 90
        0
176
     1
290
     0
176
     1
 90
        1
176
     1
 40
0.0
176
     1
 90
        0
176
     1
290
     0
176
     1
290
     1
176
     1
290
     1
176
     1
290
     0
176
     1
290
     0
176
     1
290
     0
176
     1
290
     0
176
     1
290
     0
176
     1
290
     0
176
     1
 90
       50
176
     1
 40
0.0
176
     1
 40
1.0
176
     1
 90
        0
176
     1
 62
    18
420
        0
176
     1
 90
       50
176
     1
 90
        3
176
     1
 62
     5
420
      255
176
     1
290
     0
176
     1
 90
       50
176
     1
 90
       50
176
     1
 90
       50
176
     1
290
     0
176
     1
 90
       50
176
     1
 62
   256
176
     0
 40
1.0
176
     0
 90
        2
176
     1
  1
strokes_ogs.tif
176
     1
290
     0
176
     1
 40
1.0
176
     1
 40
1.0
176
     1
  0
VISUALSTYLE
  5
35
102
{ACAD_REACTORS
330
2A
102
}
330
2A
100
AcDbVisualStyle
  2
Dim
 70
    11
177
     3
291
     1
 70
    58
 90
        2
176
     1
 90
        2
176
     1
 90
        0
176
     1
 90
        0
176
     1
 40
0.6
176
     1
 40
30.0
176
     1
 62
     7
420
 16777215
176
     1
 90
        1
176
     1
 90
        4
176
     1
 62
     7
176
     1
 62
   257
176
     1
 90
        1
176
     1
 90
        1
176
     1
 40
1.0
176
     1
 90
        8
176
     1
 62
     7
176
     1
 40
1.0
176
     1
 90
        1
176
     1
 90
        6
176
     1
 90
        2
176
     1
 62
     7
176
     1
 90
        5
176
     1
 90
        0
176
     1
 90
        0
176
     1
290
     0
176
     1
 90
        1
176
     1
 40
-50.0
176
     1
 90
        0
176
     1
290
     0
176
     1
290
     1
176
     1
290
     1
176
     1
290
     0
176
     1
290
     0
176
     1
290
     0
176
     1
290
     0
176
     1
290
     0
176
     1
290
     0
176
     1
 90
       50
176
     1
 40
0.0
176
     1
 40
1.0
176
     1
 90
        0
176
     1
 62
    18
420
        0
176
     1
 90
       50
176
     1
 90
        3
176
     1
 62
     5
420
      255
176
     1
290
     0
176
     1
 90
       50
176
     1
 90
       50
176
     1
 90
       50
176
     1
290
     0
176
     1
 90
       50
176
     1
 62
   256
176
     0
 40
1.0
176
     0
 90
        2
176
     1
  1
strokes_ogs.tif
176
     1
290
     0
176
     1
 40
1.0
176
     1
 40
1.0
176
     1
  0
VISUALSTYLE
  5
3D
102
{ACAD_REACTORS
330
2A
102
}
330
2A
100
AcDbVisualStyle
  2
EdgeColorOff
 70
    22
177
     3
291
     1
 70
    58
 90
        2
176
     0
 90
        2
176
     0
 90
        0
176
     0
 90
        0
176
     0
 40
0.6
176
     0
 40
30.0
176
     0
 62
     7
420
 16777215
176
     0
 90
        1
176
     0
 90
        4
176
     0
 62
     7
176
     0
 62
   257
176
     0
 90
        1
176
     0
 90
        1
176
     0
 40
1.0
176
     0
 90
        8
176
     2
 62
     7
176
     0
 40
1.0
176
     0
 90
        1
176
     0
 90
        6
176
     0
 90
        2
176
     0
 62
     7
176
     0
 90
        5
176
     0
 90
        0
176
     0
 90
        0
176
     0
290
     0
176
     0
 90
        1
176
     0
 40
0.0
176
     0
 90
        0
176
     0
290
     0
176
     0
290
     1
176
     0
290
     1
176
     0
290
     0
176
     0
290
     0
176
     0
290
     0
176
     0
290
     0
176
     0
290
     0
176
     0
290
     0
176
     0
 90
       50
176
     0
 40
0.0
176
     0
 40
1.0
176
     0
 90
        0
176
     0
 62
    18
420
        0
176
     0
 90
       50
176
     0
 90
        3
176
     0
 62
     5
420
      255
176
     0
290
     0
176
     0
 90
       50
176
     0
 90
       50
176
     0
 90
       50
176
     0
290
     0
176
     0
 90
       50
176
     0
 62
   256
176
     0
 40
1.0
176
     0
 90
        2
176
     0
  1
strokes_ogs.tif
176
     0
290
     0
176
     0
 40
1.0
176
     0
 40
1.0
176
     0
  0
VISUALSTYLE
  5
39
102
{ACAD_REACTORS
330
2A
102
}
330
2A
100
AcDbVisualStyle
  2
Facepattern
 70
    15
177
     3
291
     1
 70
    58
 90
        2
176
     1
 90
        2
176
     1
 90
        0
176
     1
 90
        0
176
     1
 40
0.6
176
     1
 40
30.0
176
     1
 62
     7
420
 16777215
176
     1
 90
        1
176
     1
 90
        4
176
     1
 62
     7
176
     1
 62
   257
176
     1
 90
        1
176
     1
 90
        1
176
     1
 40
1.0
176
     1
 90
        8
176
     1
 62
     7
176
     1
 40
1.0
176
     1
 90
        1
176
     1
 90
        6
176
     1
 90
        2
176
     1
 62
     7
176
     1
 90
        5
176
     1
 90
        0
176
     1
 90
        0
176
     1
290
     0
176
     1
 90
        1
176
     1
 40
0.0
176
     1
 90
        0
176
     1
290
     0
176
     1
290
     1
176
     1
290
     1
176
     1
290
     0
176
     1
290
     0
176
     1
290
     0
176
     1
290
     0
176
     1
290
     0
176
     1
290
     0
176
     1
 90
       50
176
     1
 40
0.0
176
     1
 40
1.0
176
     1
 90
        0
176
     1
 62
    18
420
        0
176
     1
 90
       50
176
     1
 90
        3
176
     1
 62
     5
420
      255
176
     1
290
     0
176
     1
 90
       50
176
     1
 90
       50
176
     1
 90
       50
176
     1
290
     0
176
     1
 90
       50
176
     1
 62
   256
176
     0
 40
1.0
176
     0
 90
        2
176
     1
  1
strokes_ogs.tif
176
     1
290
     0
176
     1
 40
1.0
176
     1
 40
1.0
176
     1
  0
VISUALSTYLE
  5
2B
102
{ACAD_REACTORS
330
2A
102
}
330
2A
100
AcDbVisualStyle
  2
Flat
 70
     0
177
     3
291
     1
 70
    58
 90
        2
176
     1
 90
        1
176
     1
 90
        1
176
     1
 90
        2
176
     1
 40
0.6
176
     1
 40
30.0
176
     1
 62
     7
420
 16777215
176
     1
 90
        0
176
     1
 90
        0
176
     1
 62
     7
176
     1
 62
   257
176
     1
 90
        1
176
     1
 90
        1
176
     1
 40
1.0
176
     1
 90
        8
176
     1
 62
     7
176
     1
 40
1.0
176
     1
 90
        1
176
     1
 90
        6
176
     1
 90
        2
176
     1
 62
     7
176
     1
 90
        5
176
     1
 90
        0
176
     1
 90
        0
176
     1
290
     0
176
     1
 90
       13
176
     1
 40
0.0
176
     1
 90
        0
176
     1
290
     0
176
     1
290
     1
176
     1
290
     1
176
     1
290
     0
176
     1
290
     0
176
     1
290
     0
176
     1
290
     0
176
     1
290
     0
176
     1
290
     0
176
     1
 90
       50
176
     1
 40
0.0
176
     1
 40
1.0
176
     1
 90
        0
176
     1
 62
    18
420
        0
176
     1
 90
       50
176
     1
 90
        3
176
     1
 62
     5
420
      255
176
     1
290
     0
176
     1
 90
       50
176
     1
 90
       50
176
     1
 90
       50
176
     1
290
     0
176
     1
 90
       50
176
     1
 62
   256
176
     0
 40
1.0
176
     0
 90
        2
176
     1
  1
strokes_ogs.tif
176
     1
290
     0
176
     1
 40
1.0
176
     1
 40
1.0
176
     1
  0
VISUALSTYLE
  5
2C
102
{ACAD_REACTORS
330
2A
102
}
330
2A
100
AcDbVisualStyle
  2
FlatWithEdges
 70
     1
177
     3
291
     1
 70
    58
 90
        2
176
     1
 90
        1
176
     1
 90
        1
176
     1
 90
        2
176
     1
 40
0.6
176
     1
 40
30.0
176
     1
 62
     7
420
 16777215
176
     1
 90
        1
176
     1
 90
        0
176
     1
 62
     7
176
     1
 62
   257
176
     1
 90
        1
176
     1
 90
        1
176
     1
 40
1.0
176
     1
 90
        0
176
     1
 62
   257
176
     1
 40
1.0
176
     1
 90
        1
176
     1
 90
        6
176
     1
 90
        2
176
     1
 62
     7
176
     1
 90
        5
176
     1
 90
        0
176
     1
 90
        0
176
     1
290
     0
176
     1
 90
       13
176
     1
 40
0.0
176
     1
 90
        0
176
     1
290
     0
176
     1
290
     1
176
     1
290
     1
176
     1
290
     0
176
     1
290
     0
176
     1
290
     0
176
     1
290
     0
176
     1
290
     0
176
     1
290
     0
176
     1
 90
       50
176
     1
 40
0.0
176
     1
 40
1.0
176
     1
 90
        0
176
     1
 62
    18
420
        0
176
     1
 90
       50
176
     1
 90
        3
176
     1
 62
     5
420
      255
176
     1
290
     0
176
     1
 90
       50
176
     1
 90
       50
176
     1
 90
       50
176
     1
290
     0
176
     1
 90
       50
176
     1
 62
   256
176
     0
 40
1.0
176
     0
 90
        2
176
     1
  1
strokes_ogs.tif
176
     1
290
     0
176
     1
 40
1.0
176
     1
 40
1.0
176
     1
  0
VISUALSTYLE
  5
2D
102
{ACAD_REACTORS
330
2A
102
}
330
2A
100
AcDbVisualStyle
  2
Gouraud
 70
     2
177
     3
291
     1
 70
    58
 90
        2
176
     1
 90
        2
176
     1
 90
        1
176
     1
 90
        2
176
     1
 40
0.6
176
     1
 40
30.0
176
     1
 62
     7
420
 16777215
176
     1
 90
        0
176
     1
 90
        0
176
     1
 62
     7
176
     1
 62
   257
176
     1
 90
        1
176
     1
 90
        1
176
     1
 40
1.0
176
     1
 90
        0
176
     1
 62
     7
176
     1
 40
1.0
176
     1
 90
        1
176
     1
 90
        6
176
     1
 90
        2
176
     1
 62
     7
176
     1
 90
        5
176
     1
 90
        0
176
     1
 90
        0
176
     1
290
     0
176
     1
 90
       13
176
     1
 40
0.0
176
     1
 90
        0
176
     1
290
     0
176
     1
290
     1
176
     1
290
     1
176
     1
290
     0
176
     1
290
     0
176
     1
290
     0
176
     1
290
     0
176
     1
290
     0
176
     1
290
     0
176
     1
 90
       50
176
     1
 40
0.0
176
     1
 40
1.0
176
     1
 90
        0
176
     1
 62
    18
420
        0
176
     1
 90
       50
176
     1
 90
        3
176
     1
 62
     5
420
      255
176
     1
290
     0
176
     1
 90
       50
176
     1
 90
       50
176
     1
 90
       50
176
     1
290
     0
176
     1
 90
       50
176
     1
 62
   256
176
     0
 40
1.0
176
     0
 90
        2
176
     1
  1
strokes_ogs.tif
176
     1
290
     0
176
     1
 40
1.0
176
     1
 40
1.0
176
     1
  0
VISUALSTYLE
  5
2E
102
{ACAD_REACTORS
330
2A
102
}
330
2A
100
AcDbVisualStyle
  2
GouraudWithEdges
 70
     3
177
     3
291
     1
 70
    58
 90
        2
176
     1
 90
        2
176
     1
 90
        1
176
     1
 90
        2
176
     1
 40
0.6
176
     1
 40
30.0
176
     1
 62
     7
420
 16777215
176
     1
 90
        1
176
     1
 90
        0
176
     1
 62
     7
176
     1
 62
   257
176
     1
 90
        1
176
     1
 90
        1
176
     1
 40
1.0
176
     1
 90
        0
176
     1
 62
   257
176
     1
 40
1.0
176
     1
 90
        1
176
     1
 90
        6
176
     1
 90
        2
176
     1
 62
     7
176
     1
 90
        5
176
     1
 90
        0
176
     1
 90
        0
176
     1
290
     0
176
     1
 90
       13
176
     1
 40
0.0
176
     1
 90
        0
176
     1
290
     0
176
     1
290
     1
176
     1
290
     1
176
     1
290
     0
176
     1
290
     0
176
     1
290
     0
176
     1
290
     0
176
     1
290
     0
176
     1
290
     0
176
     1
 90
       50
176
     1
 40
0.0
176
     1
 40
1.0
176
     1
 90
        0
176
     1
 62
    18
420
        0
176
     1
 90
       50
176
     1
 90
        3
176
     1
 62
     5
420
      255
176
     1
290
     0
176
     1
 90
       50
176
     1
 90
       50
176
     1
 90
       50
176
     1
290
     0
176
     1
 90
       50
176
     1
 62
   256
176
     0
 40
1.0
176
     0
 90
        2
176
     1
  1
strokes_ogs.tif
176
     1
290
     0
176
     1
 40
1.0
176
     1
 40
1.0
176
     1
  0
VISUALSTYLE
  5
31
102
{ACAD_REACTORS
330
2A
102
}
330
2A
100
AcDbVisualStyle
  2
Hidden
 70
     6
177
     3
291
     0
 70
    58
 90
        1
176
     1
 90
        2
176
     1
 90
        2
176
     1
 90
        0
176
     1
 40
0.6
176
     1
 40
30.0
176
     1
 62
     7
420
 16777215
176
     1
 90
        2
176
     1
 90
        2
176
     1
 62
     7
176
     1
 62
   257
176
     1
 90
        2
176
     1
 90
        1
176
     1
 40
40.0
176
     1
 90
        0
176
     1
 62
   257
176
     1
 40
1.0
176
     1
 90
        1
176
     1
 90
        6
176
     1
 90
        2
176
     1
 62
     7
176
     1
 90
        3
176
     1
 90
        0
176
     1
 90
        0
176
     1
290
     0
176
     1
 90
        1
176
     1
 40
0.0
176
     1
 90
        0
176
     1
290
     0
176
     1
290
     1
176
     1
290
     1
176
     1
290
     0
176
     1
290
     0
176
     1
290
     0
176
     1
290
     0
176
     1
290
     0
176
     1
290
     0
176
     1
 90
       50
176
     1
 40
0.0
176
     1
 40
1.0
176
     1
 90
        0
176
     1
 62
    18
420
        0
176
     1
 90
       50
176
     1
 90
        3
176
     1
 62
     5
420
      255
176
     1
290
     0
176
     1
 90
       50
176
     1
 90
       50
176
     1
 90
       50
176
     1
290
     0
176
     1
 90
       50
176
     1
 62
   256
176
     0
 40
1.0
176
     0
 90
        2
176
     1
  1
strokes_ogs.tif
176
     1
290
     0
176
     1
 40
1.0
176
     1
 40
1.0
176
     1
  0
VISUALSTYLE
  5
3B
102
{ACAD_REACTORS
330
2A
102
}
330
2A
100
AcDbVisualStyle
  2
JitterOff
 70
    20
177
     3
291
     1
 70
    58
 90
        2
176
     0
 90
        2
176
     0
 90
        0
176
     0
 90
        0
176
     0
 40
0.6
176
     0
 40
30.0
176
     0
 62
     7
420
 16777215
176
     0
 90
        1
176
     0
 90
        4
176
     0
 62
     7
176
     0
 62
   257
176
     0
 90
        1
176
     0
 90
        1
176
     0
 40
1.0
176
     0
 90
       10
176
     2
 62
     7
176
     0
 40
1.0
176
     0
 90
        1
176
     0
 90
        6
176
     0
 90
        2
176
     0
 62
     7
176
     0
 90
        5
176
     0
 90
        0
176
     0
 90
        0
176
     0
290
     0
176
     0
 90
        1
176
     0
 40
0.0
176
     0
 90
        0
176
     0
290
     0
176
     0
290
     1
176
     0
290
     1
176
     0
290
     0
176
     0
290
     0
176
     0
290
     0
176
     0
290
     0
176
     0
290
     0
176
     0
290
     0
176
     0
 90
       50
176
     0
 40
0.0
176
     0
 40
1.0
176
     0
 90
        0
176
     0
 62
    18
420
        0
176
     0
 90
       50
176
     0
 90
        3
176
     0
 62
     5
420
      255
176
     0
290
     0
176
     0
 90
       50
176
     0
 90
       50
176
     0
 90
       50
176
     0
290
     0
176
     0
 90
       50
176
     0
 62
   256
176
     0
 40
1.0
176
     0
 90
        2
176
     0
  1
strokes_ogs.tif
176
     0
290
     0
176
     0
 40
1.0
176
     0
 40
1.0
176
     0
  0
VISUALSTYLE
  5
38
102
{ACAD_REACTORS
330
2A
102
}
330
2A
100
AcDbVisualStyle
  2
Linepattern
 70
    14
177
     3
291
     1
 70
    58
 90
        2
176
     1
 90
        2
176
     1
 90
        0
176
     1
 90
        0
176
     1
 40
0.6
176
     1
 40
30.0
176
     1
 62
     7
420
 16777215
176
     1
 90
        1
176
     1
 90
        4
176
     1
 62
     7
176
     1
 62
   257
176
     1
 90
        7
176
     1
 90
        7
176
     1
 40
1.0
176
     1
 90
        8
176
     1
 62
     7
176
     1
 40
1.0
176
     1
 90
        1
176
     1
 90
        6
176
     1
 90
        2
176
     1
 62
     7
176
     1
 90
        5
176
     1
 90
        0
176
     1
 90
        0
176
     1
290
     0
176
     1
 90
        1
176
     1
 40
0.0
176
     1
 90
        0
176
     1
290
     0
176
     1
290
     1
176
     1
290
     1
176
     1
290
     0
176
     1
290
     0
176
     1
290
     0
176
     1
290
     0
176
     1
290
     0
176
     1
290
     0
176
     1
 90
       50
176
     1
 40
0.0
176
     1
 40
1.0
176
     1
 90
        0
176
     1
 62
    18
420
        0
176
     1
 90
       50
176
     1
 90
        3
176
     1
 62
     5
420
      255
176
     1
290
     0
176
     1
 90
       50
176
     1
 90
       50
176
     1
 90
       50
176
     1
290
     0
176
     1
 90
       50
176
     1
 62
   256
176
     0
 40
1.0
176
     0
 90
        2
176
     1
  1
strokes_ogs.tif
176
     1
290
     0
176
     1
 40
1.0
176
     1
 40
1.0
176
     1
  0
VISUALSTYLE
  5
3C
102
{ACAD_REACTORS
330
2A
102
}
330
2A
100
AcDbVisualStyle
  2
OverhangOff
 70
    21
177
     3
291
     1
 70
    58
 90
        2
176
     0
 90
        2
176
     0
 90
        0
176
     0
 90
        0
176
     0
 40
0.6
176
     0
 40
30.0
176
     0
 62
     7
420
 16777215
176
     0
 90
        1
176
     0
 90
        4
176
     0
 62
     7
176
     0
 62
   257
176
     0
 90
        1
176
     0
 90
        1
176
     0
 40
1.0
176
     0
 90
        9
176
     2
 62
     7
176
     0
 40
1.0
176
     0
 90
        1
176
     0
 90
        6
176
     0
 90
        2
176
     0
 62
     7
176
     0
 90
        5
176
     0
 90
        0
176
     0
 90
        0
176
     0
290
     0
176
     0
 90
        1
176
     0
 40
0.0
176
     0
 90
        0
176
     0
290
     0
176
     0
290
     1
176
     0
290
     1
176
     0
290
     0
176
     0
290
     0
176
     0
290
     0
176
     0
290
     0
176
     0
290
     0
176
     0
290
     0
176
     0
 90
       50
176
     0
 40
0.0
176
     0
 40
1.0
176
     0
 90
        0
176
     0
 62
    18
420
        0
176
     0
 90
       50
176
     0
 90
        3
176
     0
 62
     5
420
      255
176
     0
290
     0
176
     0
 90
       50
176
     0
 90
       50
176
     0
 90
       50
176
     0
290
     0
176
     0
 90
       50
176
     0
 62
   256
176
     0
 40
1.0
176
     0
 90
        2
176
     0
  1
strokes_ogs.tif
176
     0
290
     0
176
     0
 40
1.0
176
     0
 40
1.0
176
     0
  0
VISUALSTYLE
  5
33
102
{ACAD_REACTORS
330
2A
102
}
330
2A
100
AcDbVisualStyle
  2
Realistic
 70
     8
177
     3
291
     0
 70
    58
 90
        2
176
     1
 90
        3
176
     1
 90
        0
176
     1
 90
        2
176
     1
 40
0.6
176
     1
 40
30.0
176
     1
 62
     7
420
 16777215
176
     1
 90
        0
176
     1
 90
        0
176
     1
 62
     7
176
     1
 62
   257
176
     1
 90
        1
176
     1
 90
        1
176
     1
 40
1.0
176
     1
 90
        8
176
     1
 62
   257
176
     1
 40
1.0
176
     1
 90
        1
176
     1
 90
        6
176
     1
 90
        2
176
     1
 62
     7
176
     1
 90
        3
176
     1
 90
        0
176
     1
 90
        0
176
     1
290
     0
176
     1
 90
       13
176
     1
 40
0.0
176
     1
 90
        0
176
     1
290
     0
176
     1
290
     1
176
     1
290
     1
176
     1
290
     0
176
     1
290
     0
176
     1
290
     0
176
     1
290
     0
176
     1
290
     0
176
     1
290
     0
176
     1
 90
       50
176
     1
 40
0.0
176
     1
 40
1.0
176
     1
 90
        0
176
     1
 62
    18
420
        0
176
     1
 90
       50
176
     1
 90
        3
176
     1
 62
     5
420
      255
176
     1
290
     0
176
     1
 90
       50
176
     1
 90
       50
176
     1
 90
       50
176
     1
290
     0
176
     1
 90
       50
176
     1
 62
   256
176
     0
 40
1.0
176
     0
 90
        2
176
     1
  1
strokes_ogs.tif
176
     1
290
     0
176
     1
 40
1.0
176
     1
 40
1.0
176
     1
  0
VISUALSTYLE
  5
42
102
{ACAD_REACTORS
330
2A
102
}
330
2A
100
AcDbVisualStyle
  2
Shaded
 70
    27
177
     3
291
     0
 70
    58
 90
        2
176
     1
 90
        2
176
     1
 90
        1
176
     1
 90
        2
176
     1
 40
0.6
176
     1
 40
30.0
176
     1
 62
     7
420
 16777215
176
     1
 90
        0
176
     1
 90
        4
176
     1
 62
     7
176
     1
 62
   257
176
     1
 90
        1
176
     1
 90
        1
176
     1
 40
1.0
176
     1
 90
        8
176
     1
 62
   257
176
     1
 40
1.0
176
     1
 90
        1
176
     1
 90
        6
176
     1
 90
        2
176
     1
 62
     8
420
  7895160
176
     1
 90
        3
176
     1
 90
        0
176
     1
 90
        0
176
     1
290
     0
176
     1
 90
        5
176
     1
 40
0.0
176
     1
 90
        0
176
     1
290
     0
176
     1
290
     1
176
     1
290
     1
176
     1
290
     0
176
     1
290
     0
176
     1
290
     0
176
     1
290
     0
176
     1
290
     0
176
     1
290
     0
176
     1
 90
       50
176
     1
 40
0.0
176
     1
 40
1.0
176
     1
 90
        0
176
     1
 62
    18
420
        0
176
     1
 90
       50
176
     1
 90
        3
176
     1
 62
     5
420
      255
176
     1
290
     0
176
     1
 90
       50
176
     1
 90
       50
176
     1
 90
       50
176
     1
290
     0
176
     1
 90
       50
176
     1
 62
   256
176
     0
 40
1.0
176
     0
 90
        2
176
     1
  1
strokes_ogs.tif
176
     1
290
     0
176
     1
 40
1.0
176
     1
 40
1.0
176
     1
  0
VISUALSTYLE
  5
41
102
{ACAD_REACTORS
330
2A
102
}
330
2A
100
AcDbVisualStyle
  2
Shaded with edges
 70
    26
177
     3
291
     0
 70
    58
 90
        2
176
     1
 90
        2
176
     1
 90
        1
176
     1
 90
        2
176
     1
 40
0.6
176
     1
 40
30.0
176
     1
 62
     7
420
 16777215
176
     1
 90
        1
176
     1
 90
       10
176
     1
 62
     7
176
     1
 62
   257
176
     1
 90
        2
176
     1
 90
        1
176
     1
 40
1.0
176
     1
 90
        8
176
     1
 62
   257
176
     1
 40
1.0
176
     1
 90
        1
176
     1
 90
        6
176
     1
 90
        2
176
     1
 62
     7
176
     1
 90
        3
176
     1
 90
        0
176
     1
 90
        0
176
     1
290
     0
176
     1
 90
        5
176
     1
 40
0.0
176
     1
 90
        0
176
     1
290
     0
176
     1
290
     1
176
     1
290
     1
176
     1
290
     0
176
     1
290
     0
176
     1
290
     0
176
     1
290
     0
176
     1
290
     0
176
     1
290
     0
176
     1
 90
       50
176
     1
 40
0.0
176
     1
 40
1.0
176
     1
 90
        0
176
     1
 62
    18
420
        0
176
     1
 90
       50
176
     1
 90
        3
176
     1
 62
     5
420
      255
176
     1
290
     0
176
     1
 90
       50
176
     1
 90
       50
176
     1
 90
       50
176
     1
290
     0
176
     1
 90
       50
176
     1
 62
   256
176
     0
 40
1.0
176
     0
 90
        2
176
     1
  1
strokes_ogs.tif
176
     1
290
     0
176
     1
 40
1.0
176
     1
 40
1.0
176
     1
  0
VISUALSTYLE
  5
3E
102
{ACAD_REACTORS
330
2A
102
}
330
2A
100
AcDbVisualStyle
  2
Shades of Gray
 70
    23
177
     3
291
     0
 70
    58
 90
        2
176
     1
 90
        2
176
     1
 90
        3
176
     1
 90
        0
176
     1
 40
0.6
176
     1
 40
30.0
176
     1
 62
     7
420
 16777215
176
     1
 90
        2
176
     1
 90
        2
176
     1
 62
     7
176
     1
 62
     7
176
     1
 90
        1
176
     1
 90
        1
176
     1
 40
40.0
176
     1
 90
        8
176
     1
 62
     7
176
     1
 40
1.0
176
     1
 90
        1
176
     1
 90
        6
176
     1
 90
        2
176
     1
 62
     7
176
     1
 90
        3
176
     1
 90
        0
176
     1
 90
        0
176
     1
290
     0
176
     1
 90
        1
176
     1
 40
0.0
176
     1
 90
        0
176
     1
290
     0
176
     1
290
     1
176
     1
290
     1
176
     1
290
     0
176
     1
290
     0
176
     1
290
     0
176
     1
290
     0
176
     1
290
     0
176
     1
290
     0
176
     1
 90
       50
176
     1
 40
0.0
176
     1
 40
1.0
176
     1
 90
        0
176
     1
 62
    18
420
        0
176
     1
 90
       50
176
     1
 90
        3
176
     1
 62
     5
420
      255
176
     1
290
     0
176
     1
 90
       50
176
     1
 90
       50
176
     1
 90
       50
176
     1
290
     0
176
     1
 90
       50
176
     1
 62
   256
176
     0
 40
1.0
176
     0
 90
        2
176
     1
  1
strokes_ogs.tif
176
     1
290
     0
176
     1
 40
1.0
176
     1
 40
1.0
176
     1
  0
VISUALSTYLE
  5
3F
102
{ACAD_REACTORS
330
2A
102
}
330
2A
100
AcDbVisualStyle
  2
Sketchy
 70
    24
177
     3
291
     0
 70
    58
 90
        1
176
     1
 90
        2
176
     1
 90
        2
176
     1
 90
        0
176
     1
 40
0.6
176
     1
 40
30.0
176
     1
 62
     7
420
 16777215
176
     1
 90
        2
176
     1
 90
        2
176
     1
 62
     7
176
     1
 62
     7
176
     1
 90
        1
176
     1
 90
        1
176
     1
 40
40.0
176
     1
 90
       11
176
     1
 62
     7
176
     1
 40
1.0
176
     1
 90
        1
176
     1
 90
        6
176
     1
 90
        2
176
     1
 62
     7
176
     1
 90
        6
176
     1
 90
        0
176
     1
 90
        0
176
     1
290
     0
176
     1
 90
        1
176
     1
 40
0.0
176
     1
 90
        0
176
     1
290
     0
176
     1
290
     1
176
     1
290
     1
176
     1
290
     0
176
     1
290
     0
176
     1
290
     0
176
     1
290
     0
176
     1
290
     0
176
     1
290
     0
176
     1
 90
       50
176
     1
 40
0.0
176
     1
 40
1.0
176
     1
 90
        0
176
     1
 62
    18
420
        0
176
     1
 90
       50
176
     1
 90
        3
176
     1
 62
     5
420
      255
176
     1
290
     0
176
     1
 90
       50
176
     1
 90
       50
176
     1
 90
       50
176
     1
290
     0
176
     1
 90
       50
176
     1
 62
   256
176
     0
 40
1.0
176
     0
 90
        2
176
     1
  1
strokes_ogs.tif
176
     1
290
     0
176
     1
 40
1.0
176
     1
 40
1.0
176
     1
  0
VISUALSTYLE
  5
37
102
{ACAD_REACTORS
330
2A
102
}
330
2A
100
AcDbVisualStyle
  2
Thicken
 70
    13
177
     3
291
     1
 70
    58
 90
        2
176
     1
 90
        2
176
     1
 90
        0
176
     1
 90
        0
176
     1
 40
0.6
176
     1
 40
30.0
176
     1
 62
     7
420
 16777215
176
     1
 90
        1
176
     1
 90
        4
176
     1
 62
     7
176
     1
 62
   257
176
     1
 90
        1
176
     1
 90
        1
176
     1
 40
1.0
176
     1
 90
       12
176
     1
 62
     7
176
     1
 40
1.0
176
     1
 90
        1
176
     1
 90
        6
176
     1
 90
        2
176
     1
 62
     7
176
     1
 90
        5
176
     1
 90
        0
176
     1
 90
        0
176
     1
290
     0
176
     1
 90
        1
176
     1
 40
0.0
176
     1
 90
        0
176
     1
290
     0
176
     1
290
     1
176
     1
290
     1
176
     1
290
     0
176
     1
290
     0
176
     1
290
     0
176
     1
290
     0
176
     1
290
     0
176
     1
290
     0
176
     1
 90
       50
176
     1
 40
0.0
176
     1
 40
1.0
176
     1
 90
        0
176
     1
 62
    18
420
        0
176
     1
 90
       50
176
     1
 90
        3
176
     1
 62
     5
420
      255
176
     1
290
     0
176
     1
 90
       50
176
     1
 90
       50
176
     1
 90
       50
176
     1
290
     0
176
     1
 90
       50
176
     1
 62
   256
176
     0
 40
1.0
176
     0
 90
        2
176
     1
  1
strokes_ogs.tif
176
     1
290
     0
176
     1
 40
1.0
176
     1
 40
1.0
176
     1
  0
VISUALSTYLE
  5
30
102
{ACAD_REACTORS
330
2A
102
}
330
2A
100
AcDbVisualStyle
  2
Wireframe
 70
     5
177
     3
291
     0
 70
    58
 90
        0
176
     1
 90
        2
176
     1
 90
        0
176
     1
 90
        0
176
     1
 40
0.6
176
     1
 40
30.0
176
     1
 62
     7
420
 16777215
176
     1
 90
        1
176
     1
 90
        4
176
     1
 62
     7
176
     1
 62
   257
176
     1
 90
        1
176
     1
 90
        1
176
     1
 40
1.0
176
     1
 90
        0
176
     1
 62
   257
176
     1
 40
1.0
176
     1
 90
        1
176
     1
 90
        6
176
     1
 90
        2
176
     1
 62
     7
176
     1
 90
        3
176
     1
 90
        0
176
     1
 90
        0
176
     1
290
     0
176
     1
 90
        1
176
     1
 40
0.0
176
     1
 90
        0
176
     1
290
     0
176
     1
290
     1
176
     1
290
     1
176
     1
290
     0
176
     1
290
     0
176
     1
290
     0
176
     1
290
     0
176
     1
290
     0
176
     1
290
     0
176
     1
 90
       50
176
     1
 40
0.0
176
     1
 40
1.0
176
     1
 90
        0
176
     1
 62
    18
420
        0
176
     1
 90
       50
176
     1
 90
        3
176
     1
 62
     5
420
      255
176
     1
290
     0
176
     1
 90
       50
176
     1
 90
       50
176
     1
 90
       50
176
     1
290
     0
176
     1
 90
       50
176
     1
 62
   256
176
     0
 40
1.0
176
     0
 90
        2
176
     1
  1
strokes_ogs.tif
176
     1
290
     0
176
     1
 40
1.0
176
     1
 40
1.0
176
     1
  0
VISUALSTYLE
  5
40
102
{ACAD_REACTORS
330
2A
102
}
330
2A
100
AcDbVisualStyle
  2
X-Ray
 70
    25
177
     3
291
     0
 70
    58
 90
        2
176
     1
 90
        2
176
     1
 90
        1
176
     1
 90
        1
176
     1
 40
0.5
176
     1
 40
30.0
176
     1
 62
     7
420
 16777215
176
     1
 90
        1
176
     1
 90
        0
176
     1
 62
     7
176
     1
 62
   257
176
     1
 90
        1
176
     1
 90
        1
176
     1
 40
1.0
176
     1
 90
        8
176
     1
 62
     7
176
     1
 40
1.0
176
     1
 90
        1
176
     1
 90
        6
176
     1
 90
        2
176
     1
 62
     7
176
     1
 90
        3
176
     1
 90
        0
176
     1
 90
        0
176
     1
290
     0
176
     1
 90
       13
176
     1
 40
0.0
176
     1
 90
        0
176
     1
290
     0
176
     1
290
     1
176
     1
290
     1
176
     1
290
     0
176
     1
290
     0
176
     1
290
     0
176
     1
290
     0
176
     1
290
     0
176
     1
290
     0
176
     1
 90
       50
176
     1
 40
0.0
176
     1
 40
1.0
176
     1
 90
        0
176
     1
 62
    18
420
        0
176
     1
 90
       50
176
     1
 90
        3
176
     1
 62
     5
420
      255
176
     1
290
     0
176
     1
 90
       50
176
     1
 90
       50
176
     1
 90
       50
176
     1
290
     0
176
     1
 90
       50
176
     1
 62
   256
176
     0
 40
1.0
176
     0
 90
        2
176
     1
  1
strokes_ogs.tif
176
     1
290
     0
176
     1
 40
1.0
176
     1
 40
1.0
176
     1
  0
DICTIONARYVAR
  5
174
102
{ACAD_REACTORS
330
173
102
}
330
173
100
DictionaryVariables
280
     0
  1
1:1
  0
DICTIONARYVAR
  5
179
102
{ACAD_REACTORS
330
173
102
}
330
173
100
DictionaryVariables
280
     0
  1
Standard
  0
DICTIONARYVAR
  5
178
102
{ACAD_REACTORS
330
173
102
}
330
173
100
DictionaryVariables
280
     0
  1
Standard
  0
DICTIONARY
  5
175
330
6A
100
AcDbDictionary
280
     1
281
     1
  3
ACAD_ROUNDTRIP_2008_TABLESTYLE_CELLSTYLEMAP
360
176
  0
CELLSTYLEMAP
  5
176
102
{ACAD_REACTORS
330
175
102
}
330
175
100
AcDbCellStyleMap
 90
        3
300
CELLSTYLE
  1
TABLEFORMAT_BEGIN
 90
        5
170
     1
 91
        0
 92
    32768
 62
   257
 93
        1
300
CONTENTFORMAT
  1
CONTENTFORMAT_BEGIN
 90
        0
 91
        0
 92
        4
 93
        0
300

 40
0.0
140
1.0
 94
        5
 62
     0
340
11
144
0.25
309
CONTENTFORMAT_END
171
     1
301
MARGIN
  1
CELLMARGIN_BEGIN
 40
0.06
 40
0.06
 40
0.06
 40
0.06
 40
0.06
 40
0.06
309
CELLMARGIN_END
 94
        6
 95
        1
302
GRIDFORMAT
  1
GRIDFORMAT_BEGIN
 90
        0
 91
        1
 62
     0
 92
       -2
340
14
 93
        0
 40
0.045
309
GRIDFORMAT_END
 95
        2
302
GRIDFORMAT
  1
GRIDFORMAT_BEGIN
 90
        0
 91
        1
 62
     0
 92
       -2
340
14
 93
        0
 40
0.045
309
GRIDFORMAT_END
 95
        4
302
GRIDFORMAT
  1
GRIDFORMAT_BEGIN
 90
        0
 91
        1
 62
     0
 92
       -2
340
14
 93
        0
 40
0.045
309
GRIDFORMAT_END
 95
        8
302
GRIDFORMAT
  1
GRIDFORMAT_BEGIN
 90
        0
 91
        1
 62
     0
 92
       -2
340
14
 93
        0
 40
0.045
309
GRIDFORMAT_END
 95
       16
302
GRIDFORMAT
  1
GRIDFORMAT_BEGIN
 90
        0
 91
        1
 62
     0
 92
       -2
340
14
 93
        0
 40
0.045
309
GRIDFORMAT_END
 95
       32
302
GRIDFORMAT
  1
GRIDFORMAT_BEGIN
 90
        0
 91
        1
 62
     0
 92
       -2
340
14
 93
        0
 40
0.045
309
GRIDFORMAT_END
309
TABLEFORMAT_END
  1
CELLSTYLE_BEGIN
 90
        1
 91
        1
300
_TITLE
309
CELLSTYLE_END
300
CELLSTYLE
  1
TABLEFORMAT_BEGIN
 90
        5
170
     1
 91
        0
 92
        0
 62
   257
 93
        1
300
CONTENTFORMAT
  1
CONTENTFORMAT_BEGIN
 90
        0
 91
        0
 92
        4
 93
        0
300

 40
0.0
140
1.0
 94
        5
 62
     0
340
11
144
0.18
309
CONTENTFORMAT_END
171
     1
301
MARGIN
  1
CELLMARGIN_BEGIN
 40
0.06
 40
0.06
 40
0.06
 40
0.06
 40
0.06
 40
0.06
309
CELLMARGIN_END
 94
        6
 95
        1
302
GRIDFORMAT
  1
GRIDFORMAT_BEGIN
 90
        0
 91
        1
 62
     0
 92
       -2
340
14
 93
        0
 40
0.045
309
GRIDFORMAT_END
 95
        2
302
GRIDFORMAT
  1
GRIDFORMAT_BEGIN
 90
        0
 91
        1
 62
     0
 92
       -2
340
14
 93
        0
 40
0.045
309
GRIDFORMAT_END
 95
        4
302
GRIDFORMAT
  1
GRIDFORMAT_BEGIN
 90
        0
 91
        1
 62
     0
 92
       -2
340
14
 93
        0
 40
0.045
309
GRIDFORMAT_END
 95
        8
302
GRIDFORMAT
  1
GRIDFORMAT_BEGIN
 90
        0
 91
        1
 62
     0
 92
       -2
340
14
 93
        0
 40
0.045
309
GRIDFORMAT_END
 95
       16
302
GRIDFORMAT
  1
GRIDFORMAT_BEGIN
 90
        0
 91
        1
 62
     0
 92
       -2
340
14
 93
        0
 40
0.045
309
GRIDFORMAT_END
 95
       32
302
GRIDFORMAT
  1
GRIDFORMAT_BEGIN
 90
        0
 91
        1
 62
     0
 92
       -2
340
14
 93
        0
 40
0.045
309
GRIDFORMAT_END
309
TABLEFORMAT_END
  1
CELLSTYLE_BEGIN
 90
        2
 91
        1
300
_HEADER
309
CELLSTYLE_END
300
CELLSTYLE
  1
TABLEFORMAT_BEGIN
 90
        5
170
     1
 91
        0
 92
        0
 62
   257
 93
        1
300
CONTENTFORMAT
  1
CONTENTFORMAT_BEGIN
 90
        0
 91
        0
 92
        4
 93
        0
300

 40
0.0
140
1.0
 94
        2
 62
     0
340
11
144
0.18
309
CONTENTFORMAT_END
171
     1
301
MARGIN
  1
CELLMARGIN_BEGIN
 40
0.06
 40
0.06
 40
0.06
 40
0.06
 40
0.06
 40
0.06
309
CELLMARGIN_END
 94
        6
 95
        1
302
GRIDFORMAT
  1
GRIDFORMAT_BEGIN
 90
        0
 91
        1
 62
     0
 92
       -2
340
14
 93
        0
 40
0.045
309
GRIDFORMAT_END
 95
        2
302
GRIDFORMAT
  1
GRIDFORMAT_BEGIN
 90
        0
 91
        1
 62
     0
 92
       -2
340
14
 93
        0
 40
0.045
309
GRIDFORMAT_END
 95
        4
302
GRIDFORMAT
  1
GRIDFORMAT_BEGIN
 90
        0
 91
        1
 62
     0
 92
       -2
340
14
 93
        0
 40
0.045
309
GRIDFORMAT_END
 95
        8
302
GRIDFORMAT
  1
GRIDFORMAT_BEGIN
 90
        0
 91
        1
 62
     0
 92
       -2
340
14
 93
        0
 40
0.045
309
GRIDFORMAT_END
 95
       16
302
GRIDFORMAT
  1
GRIDFORMAT_BEGIN
 90
        0
 91
        1
 62
     0
 92
       -2
340
14
 93
        0
 40
0.045
309
GRIDFORMAT_END
 95
       32
302
GRIDFORMAT
  1
GRIDFORMAT_BEGIN
 90
        0
 91
        1
 62
     0
 92
       -2
340
14
 93
        0
 40
0.045
309
GRIDFORMAT_END
309
TABLEFORMAT_END
  1
CELLSTYLE_BEGIN
 90
        3
 91
        2
300
_DATA
309
CELLSTYLE_END
  0
ENDSEC
  0
EOF