0
SECTION
  2
HEADER
  9
$ACADVER
  1
AC1027
  9
$ACADMAINTVER
 70
     8
  9
$DWGCODEPAGE
  3
ANSI_1252
  9
$REQUIREDVERSIONS
160
                 0
  9
$COMMENTS
  1
File was created by Cadenas
  9
$CUSTOMPROPERTYTAG
  1
NN
  9
$CUSTOMPROPERTY
  1
D-Lok Medium Duty Air-Handling Two-Bolt Pillow Block Inch Bore
  9
$CUSTOMPROPERTYTAG
  1
NT
  9
$CUSTOMPROPERTY
  1
DLMAH Medium Duty Air Handling Pillow Blocks
  9
$CUSTOMPROPERTYTAG
  1
NB
  9
$CUSTOMPROPERTY
  1
128479
  9
$CUSTOMPROPERTYTAG
  1
NBSYN
  9
$CUSTOMPROPERTY
  1
$PN.
  9
$CUSTOMPROPERTYTAG
  1
LINA
  9
$CUSTOMPROPERTY
  1
128479
  9
$CUSTOMPROPERTYTAG
  1
SERIES
  9
$CUSTOMPROPERTY
  1
210
  9
$CUSTOMPROPERTYTAG
  1
SS
  9
$CUSTOMPROPERTY
  1
1-3/4
  9
$CUSTOMPROPERTYTAG
  1
PN
  9
$CUSTOMPROPERTY
  1
128479
  9
$CUSTOMPROPERTYTAG
  1
DESCRIPTION
  9
$CUSTOMPROPERTY
  1
P2B-DLMAH-112
  9
$CUSTOMPROPERTYTAG
  1
WEIGHT
  9
$CUSTOMPROPERTY
  1
10.1
  9
$CUSTOMPROPERTYTAG
  1
A
  9
$CUSTOMPROPERTY
  1
2.01
  9
$CUSTOMPROPERTYTAG
  1
B
  9
$CUSTOMPROPERTY
  1
8.13
  9
$CUSTOMPROPERTYTAG
  1
C
  9
$CUSTOMPROPERTY
  1
2.25
  9
$CUSTOMPROPERTYTAG
  1
DMIN
  9
$CUSTOMPROPERTY
  1
6.00
  9
$CUSTOMPROPERTYTAG
  1
DMAX
  9
$CUSTOMPROPERTY
  1
6.68
  9
$CUSTOMPROPERTYTAG
  1
F
  9
$CUSTOMPROPERTY
  1
5/8
  9
$CUSTOMPROPERTYTAG
  1
G
  9
$CUSTOMPROPERTY
  1
1.08
  9
$CUSTOMPROPERTYTAG
  1
H
  9
$CUSTOMPROPERTY
  1
0.81
  9
$CUSTOMPROPERTYTAG
  1
J
  9
$CUSTOMPROPERTY
  1
4.60
  9
$CUSTOMPROPERTYTAG
  1
L
  9
$CUSTOMPROPERTY
  1
3.24
  9
$CUSTOMPROPERTYTAG
  1
M
  9
$CUSTOMPROPERTY
  1
2.31
  9
$CUSTOMPROPERTYTAG
  1
R
  9
$CUSTOMPROPERTY
  1
0.75
  9
$CUSTOMPROPERTYTAG
  1
S
  9
$CUSTOMPROPERTY
  1
1.26
  9
$CUSTOMPROPERTYTAG
  1
U
  9
$CUSTOMPROPERTY
  1
3.69
  9
$CUSTOMPROPERTYTAG
  1
V
  9
$CUSTOMPROPERTY
  1
7.38
  9
$CUSTOMPROPERTYTAG
  1
W
  9
$CUSTOMPROPERTY
  1
0.81
  9
$CUSTOMPROPERTYTAG
  1
X
  9
$CUSTOMPROPERTY
  1
0.12
  9
$CUSTOMPROPERTYTAG
  1
COMPANY
  9
$CUSTOMPROPERTY
  1
baldor
  9
$INSBASE
 10
0.0
 20
0.0
 30
0.0
  9
$EXTMIN
 10
1.000000000000000E+20
 20
1.000000000000000E+20
 30
1.000000000000000E+20
  9
$EXTMAX
 10
-1.000000000000000E+20
 20
-1.000000000000000E+20
 30
-1.000000000000000E+20
  9
$LIMMIN
 10
0.0
 20
0.0
  9
$LIMMAX
 10
12.0
 20
9.0
  9
$ORTHOMODE
 70
     0
  9
$REGENMODE
 70
     1
  9
$FILLMODE
 70
     1
  9
$QTEXTMODE
 70
     0
  9
$MIRRTEXT
 70
     1
  9
$LTSCALE
 40
1.0
  9
$ATTMODE
 70
     1
  9
$TEXTSIZE
 40
0.2
  9
$TRACEWID
 40
0.05
  9
$TEXTSTYLE
  7
Standard
  9
$CLAYER
  8
0
  9
$CELTYPE
  6
ByLayer
  9
$CECOLOR
 62
   256
  9
$CELTSCALE
 40
1.0
  9
$DISPSILH
 70
     0
  9
$DIMSCALE
 40
1.0
  9
$DIMASZ
 40
0.18
  9
$DIMEXO
 40
0.0625
  9
$DIMDLI
 40
0.38
  9
$DIMRND
 40
0.0
  9
$DIMDLE
 40
0.0
  9
$DIMEXE
 40
0.18
  9
$DIMTP
 40
0.0
  9
$DIMTM
 40
0.0
  9
$DIMTXT
 40
0.18
  9
$DIMCEN
 40
0.09
  9
$DIMTSZ
 40
0.0
  9
$DIMTOL
 70
     0
  9
$DIMLIM
 70
     0
  9
$DIMTIH
 70
     1
  9
$DIMTOH
 70
     1
  9
$DIMSE1
 70
     0
  9
$DIMSE2
 70
     0
  9
$DIMTAD
 70
     0
  9
$DIMZIN
 70
     0
  9
$DIMBLK
  1

  9
$DIMASO
 70
     1
  9
$DIMSHO
 70
     1
  9
$DIMPOST
  1

  9
$DIMAPOST
  1

  9
$DIMALT
 70
     0
  9
$DIMALTD
 70
     2
  9
$DIMALTF
 40
25.4
  9
$DIMLFAC
 40
1.0
  9
$DIMTOFL
 70
     0
  9
$DIMTVP
 40
0.0
  9
$DIMTIX
 70
     0
  9
$DIMSOXD
 70
     0
  9
$DIMSAH
 70
     0
  9
$DIMBLK1
  1

  9
$DIMBLK2
  1

  9
$DIMSTYLE
  2
Standard
  9
$DIMCLRD
 70
     0
  9
$DIMCLRE
 70
     0
  9
$DIMCLRT
 70
     0
  9
$DIMTFAC
 40
1.0
  9
$DIMGAP
 40
0.09
  9
$DIMJUST
 70
     0
  9
$DIMSD1
 70
     0
  9
$DIMSD2
 70
     0
  9
$DIMTOLJ
 70
     1
  9
$DIMTZIN
 70
     0
  9
$DIMALTZ
 70
     0
  9
$DIMALTTZ
 70
     0
  9
$DIMUPT
 70
     0
  9
$DIMDEC
 70
     4
  9
$DIMTDEC
 70
     4
  9
$DIMALTU
 70
     2
  9
$DIMALTTD
 70
     2
  9
$DIMTXSTY
  7
Standard
  9
$DIMAUNIT
 70
     0
  9
$DIMADEC
 70
     0
  9
$DIMALTRND
 40
0.0
  9
$DIMAZIN
 70
     0
  9
$DIMDSEP
 70
    46
  9
$DIMATFIT
 70
     3
  9
$DIMFRAC
 70
     0
  9
$DIMLDRBLK
  1

  9
$DIMLUNIT
 70
     2
  9
$DIMLWD
 70
    -2
  9
$DIMLWE
 70
    -2
  9
$DIMTMOVE
 70
     0
  9
$DIMFXL
 40
1.0
  9
$DIMFXLON
 70
     0
  9
$DIMJOGANG
 40
0.7853981633974483
  9
$DIMTFILL
 70
     0
  9
$DIMTFILLCLR
 70
     0
  9
$DIMARCSYM
 70
     0
  9
$DIMLTYPE
  6

  9
$DIMLTEX1
  6

  9
$DIMLTEX2
  6

  9
$DIMTXTDIRECTION
 70
     0
  9
$LUNITS
 70
     2
  9
$LUPREC
 70
     4
  9
$SKETCHINC
 40
0.1
  9
$FILLETRAD
 40
0.5
  9
$AUNITS
 70
     0
  9
$AUPREC
 70
     0
  9
$MENU
  1
.
  9
$ELEVATION
 40
0.0
  9
$PELEVATION
 40
0.0
  9
$THICKNESS
 40
0.0
  9
$LIMCHECK
 70
     0
  9
$CHAMFERA
 40
0.0
  9
$CHAMFERB
 40
0.0
  9
$CHAMFERC
 40
0.0
  9
$CHAMFERD
 40
0.0
  9
$SKPOLY
 70
     0
  9
$TDCREATE
 40
2458169.001177245
  9
$TDUCREATE
 40
2458168.959510579
  9
$TDUPDATE
 40
2458169.001177419
  9
$TDUUPDATE
 40
2458168.959510752
  9
$TDINDWG
 40
0.0000000116
  9
$TDUSRTIMER
 40
0.0000000116
  9
$USRTIMER
 70
     1
  9
$ANGBASE
 50
0.0
  9
$ANGDIR
 70
     0
  9
$PDMODE
 70
     0
  9
$PDSIZE
 40
0.0
  9
$PLINEWID
 40
0.0
  9
$SPLFRAME
 70
     0
  9
$SPLINETYPE
 70
     6
  9
$SPLINESEGS
 70
     8
  9
$HANDSEED
  5
1BD
  9
$SURFTAB1
 70
     6
  9
$SURFTAB2
 70
     6
  9
$SURFTYPE
 70
     6
  9
$SURFU
 70
     6
  9
$SURFV
 70
     6
  9
$UCSBASE
  2

  9
$UCSNAME
  2

  9
$UCSORG
 10
0.0
 20
0.0
 30
0.0
  9
$UCSXDIR
 10
1.0
 20
0.0
 30
0.0
  9
$UCSYDIR
 10
0.0
 20
1.0
 30
0.0
  9
$UCSORTHOREF
  2

  9
$UCSORTHOVIEW
 70
     0
  9
$UCSORGTOP
 10
0.0
 20
0.0
 30
0.0
  9
$UCSORGBOTTOM
 10
0.0
 20
0.0
 30
0.0
  9
$UCSORGLEFT
 10
0.0
 20
0.0
 30
0.0
  9
$UCSORGRIGHT
 10
0.0
 20
0.0
 30
0.0
  9
$UCSORGFRONT
 10
0.0
 20
0.0
 30
0.0
  9
$UCSORGBACK
 10
0.0
 20
0.0
 30
0.0
  9
$PUCSBASE
  2

  9
$PUCSNAME
  2

  9
$PUCSORG
 10
0.0
 20
0.0
 30
0.0
  9
$PUCSXDIR
 10
1.0
 20
0.0
 30
0.0
  9
$PUCSYDIR
 10
0.0
 20
1.0
 30
0.0
  9
$PUCSORTHOREF
  2

  9
$PUCSORTHOVIEW
 70
     0
  9
$PUCSORGTOP
 10
0.0
 20
0.0
 30
0.0
  9
$PUCSORGBOTTOM
 10
0.0
 20
0.0
 30
0.0
  9
$PUCSORGLEFT
 10
0.0
 20
0.0
 30
0.0
  9
$PUCSORGRIGHT
 10
0.0
 20
0.0
 30
0.0
  9
$PUCSORGFRONT
 10
0.0
 20
0.0
 30
0.0
  9
$PUCSORGBACK
 10
0.0
 20
0.0
 30
0.0
  9
$USERI1
 70
     0
  9
$USERI2
 70
     0
  9
$USERI3
 70
     0
  9
$USERI4
 70
     0
  9
$USERI5
 70
     0
  9
$USERR1
 40
0.0
  9
$USERR2
 40
0.0
  9
$USERR3
 40
0.0
  9
$USERR4
 40
0.0
  9
$USERR5
 40
0.0
  9
$WORLDVIEW
 70
     1
  9
$SHADEDGE
 70
     3
  9
$SHADEDIF
 70
    70
  9
$TILEMODE
 70
     1
  9
$MAXACTVP
 70
    64
  9
$PINSBASE
 10
0.0
 20
0.0
 30
0.0
  9
$PLIMCHECK
 70
     0
  9
$PEXTMIN
 10
1.000000000000000E+20
 20
1.000000000000000E+20
 30
1.000000000000000E+20
  9
$PEXTMAX
 10
-1.000000000000000E+20
 20
-1.000000000000000E+20
 30
-1.000000000000000E+20
  9
$PLIMMIN
 10
0.0
 20
0.0
  9
$PLIMMAX
 10
12.0
 20
9.0
  9
$UNITMODE
 70
     0
  9
$VISRETAIN
 70
     1
  9
$PLINEGEN
 70
     0
  9
$PSLTSCALE
 70
     1
  9
$TREEDEPTH
 70
  3020
  9
$CMLSTYLE
  2
Standard
  9
$CMLJUST
 70
     0
  9
$CMLSCALE
 40
1.0
  9
$PROXYGRAPHICS
 70
     1
  9
$MEASUREMENT
 70
     0
  9
$CELWEIGHT
370
    -1
  9
$ENDCAPS
280
     0
  9
$JOINSTYLE
280
     0
  9
$LWDISPLAY
290
     0
  9
$INSUNITS
 70
     1
  9
$HYPERLINKBASE
  1

  9
$STYLESHEET
  1

  9
$XEDIT
290
     1
  9
$CEPSNTYPE
380
     0
  9
$PSTYLEMODE
290
     1
  9
$FINGERPRINTGUID
  2
{A02A099C-45A1-4531-B7BC-7D1D23D8ACFF}
  9
$VERSIONGUID
  2
{FAEB1C32-E019-11D5-929B-00C0DF256EC4}
  9
$EXTNAMES
290
     1
  9
$PSVPSCALE
 40
0.0
  9
$OLESTARTUP
290
     0
  9
$SORTENTS
280
   127
  9
$INDEXCTL
280
     0
  9
$HIDETEXT
280
     1
  9
$XCLIPFRAME
280
     2
  9
$HALOGAP
280
     0
  9
$OBSCOLOR
 70
   257
  9
$OBSLTYPE
280
     0
  9
$INTERSECTIONDISPLAY
280
     0
  9
$INTERSECTIONCOLOR
 70
   257
  9
$DIMASSOC
280
     2
  9
$PROJECTNAME
  1

  9
$CAMERADISPLAY
290
     0
  9
$LENSLENGTH
 40
50.0
  9
$CAMERAHEIGHT
 40
0.0
  9
$STEPSPERSEC
 40
2.0
  9
$STEPSIZE
 40
6.0
  9
$3DDWFPREC
 40
2.0
  9
$PSOLWIDTH
 40
0.25
  9
$PSOLHEIGHT
 40
4.0
  9
$LOFTANG1
 40
1.570796326794897
  9
$LOFTANG2
 40
1.570796326794897
  9
$LOFTMAG1
 40
0.0
  9
$LOFTMAG2
 40
0.0
  9
$LOFTPARAM
 70
     7
  9
$LOFTNORMALS
280
     1
  9
$LATITUDE
 40
37.795
  9
$LONGITUDE
 40
-122.394
  9
$NORTHDIRECTION
 40
0.0
  9
$TIMEZONE
 70
 -8000
  9
$LIGHTGLYPHDISPLAY
280
     1
  9
$TILEMODELIGHTSYNCH
280
     1
  9
$CMATERIAL
347
44
  9
$SOLIDHIST
280
     0
  9
$SHOWHIST
280
     1
  9
$DWFFRAME
280
     2
  9
$DGNFRAME
280
     2
  9
$REALWORLDSCALE
290
     1
  9
$INTERFERECOLOR
 62
   256
  9
$CSHADOW
280
     0
  9
$SHADOWPLANELOCATION
 40
0.0
  0
ENDSEC
  0
SECTION
  2
CLASSES
  0
CLASS
  1
ACDBDICTIONARYWDFLT
  2
AcDbDictionaryWithDefault
  3
ObjectDBX Classes
 90
        0
 91
        4
280
     0
281
     0
  0
CLASS
  1
VISUALSTYLE
  2
AcDbVisualStyle
  3
ObjectDBX Classes
 90
     4095
 91
        4
280
     0
281
     0
  0
CLASS
  1
MATERIAL
  2
AcDbMaterial
  3
ObjectDBX Classes
 90
     1153
 91
        4
280
     0
281
     0
  0
CLASS
  1
SCALE
  2
AcDbScale
  3
ObjectDBX Classes
 90
     1153
 91
        4
280
     0
281
     0
  0
CLASS
  1
TABLESTYLE
  2
AcDbTableStyle
  3
ObjectDBX Classes
 90
     4095
 91
        4
280
     0
281
     0
  0
CLASS
  1
MLEADERSTYLE
  2
AcDbMLeaderStyle
  3
ACDB_MLEADERSTYLE_CLASS
 90
     4095
 91
        4
280
     0
281
     0
  0
CLASS
  1
SUN
  2
AcDbSun
  3
SCENEOE
 90
     1153
 91
        4
280
     0
281
     0
  0
CLASS
  1
DICTIONARYVAR
  2
AcDbDictionaryVar
  3
ObjectDBX Classes
 90
        0
 91
        4
280
     0
281
     0
  0
CLASS
  1
CELLSTYLEMAP
  2
AcDbCellStyleMap
  3
ObjectDBX Classes
 90
     1152
 91
        4
280
     0
281
     0
  0
ENDSEC
  0
SECTION
  2
TABLES
  0
TABLE
  2
VPORT
  5
8
330
0
100
AcDbSymbolTable
 70
     1
  0
VPORT
  5
29
330
8
100
AcDbSymbolTableRecord
100
AcDbViewportTableRecord
  2
*Active
 70
     0
 10
0.0
 20
0.0
 11
1.0
 21
1.0
 12
0.0
 22
-0.0614999999999997
 13
0.0
 23
0.0
 14
0.5
 24
0.5
 15
0.5
 25
0.5
 16
0.0
 26
0.0
 36
1.0
 17
0.0
 27
0.0
 37
0.0
 40
2.649960000000001
 41
3.12933025404157
 42
50.0
 43
0.0
 44
0.0
 50
0.0
 51
0.0
 71
     0
 72
   100
 73
     1
 74
     3
 75
     0
 76
     0
 77
     0
 78
     0
281
     0
 65
     1
110
0.0
120
0.0
130
0.0
111
1.0
121
0.0
131
0.0
112
0.0
122
1.0
132
0.0
 79
     0
146
0.0
348
2F
 60
     3
 61
     5
292
     1
282
     1
141
0.0
142
0.0
 63
   250
361
6D
  0
ENDTAB
  0
TABLE
  2
LTYPE
  5
5
330
0
100
AcDbSymbolTable
 70
     3
  0
LTYPE
  5
14
330
5
100
AcDbSymbolTableRecord
100
AcDbLinetypeTableRecord
  2
ByBlock
 70
     0
  3

 72
    65
 73
     0
 40
0.0
  0
LTYPE
  5
15
330
5
100
AcDbSymbolTableRecord
100
AcDbLinetypeTableRecord
  2
ByLayer
 70
     0
  3

 72
    65
 73
     0
 40
0.0
  0
LTYPE
  5
16
330
5
100
AcDbSymbolTableRecord
100
AcDbLinetypeTableRecord
  2
Continuous
 70
     0
  3
Solid line
 72
    65
 73
     0
 40
0.0
  0
LTYPE
  5
A1
330
5
100
AcDbSymbolTableRecord
100
AcDbLinetypeTableRecord
  2
Dashed
 70
     0
  3

 72
    65
 73
     2
 40
2.0
 49
1.0
 74
     0
 49
-1.0
 74
     0
  0
LTYPE
  5
164
330
5
100
AcDbSymbolTableRecord
100
AcDbLinetypeTableRecord
  2
Center
 70
     0
  3

 72
    65
 73
     4
 40
1.5
 49
0.45
 74
     0
 49
-0.5
 74
     0
 49
0.05
 74
     0
 49
-0.5
 74
     0
  0
ENDTAB
  0
TABLE
  2
LAYER
  5
2
330
0
100
AcDbSymbolTable
 70
     6
  0
LAYER
  5
10
330
2
100
AcDbSymbolTableRecord
100
AcDbLayerTableRecord
  2
0
 70
     0
 62
     7
  6
Continuous
370
    -3
390
F
347
46
348
0
  0
LAYER
  5
72
330
2
100
AcDbSymbolTableRecord
100
AcDbLayerTableRecord
  2
AM_6
 70
     0
 62
    -2
  6
Continuous
370
    35
390
F
347
46
348
0
  0
LAYER
  5
A2
330
2
100
AcDbSymbolTableRecord
100
AcDbLayerTableRecord
  2
AM_9
 70
     0
 62
     6
  6
Dashed
370
    25
390
F
347
46
348
0
  0
LAYER
  5
C2
330
2
100
AcDbSymbolTableRecord
100
AcDbLayerTableRecord
  2
AM_4
 70
     0
 62
     7
  6
Continuous
370
    50
390
F
347
46
348
0
  0
LAYER
  5
165
330
2
100
AcDbSymbolTableRecord
100
AcDbLayerTableRecord
  2
AM_7
 70
     0
 62
     7
  6
Center
370
    25
390
F
347
46
348
0
  0
LAYER
  5
1AE
330
2
100
AcDbSymbolTableRecord
100
AcDbLayerTableRecord
  2
ConnectionPoints
 70
     0
 62
     7
  6
Continuous
370
    50
390
F
347
46
348
0
  0
ENDTAB
  0
TABLE
  2
STYLE
  5
3
330
0
100
AcDbSymbolTable
 70
     1
  0
STYLE
  5
11
330
3
100
AcDbSymbolTableRecord
100
AcDbTextStyleTableRecord
  2
Standard
 70
     0
 40
0.0
 41
1.0
 50
0.0
 71
     0
 42
0.2
  3
txt
  4

  0
ENDTAB
  0
TABLE
  2
VIEW
  5
6
330
0
100
AcDbSymbolTable
 70
     0
  0
ENDTAB
  0
TABLE
  2
UCS
  5
7
330
0
100
AcDbSymbolTable
 70
     0
  0
ENDTAB
  0
TABLE
  2
APPID
  5
9
330
0
100
AcDbSymbolTable
 70
     1
  0
APPID
  5
12
330
9
100
AcDbSymbolTableRecord
100
AcDbRegAppTableRecord
  2
ACAD
 70
     0
  0
ENDTAB
  0
TABLE
  2
DIMSTYLE
  5
A
330
0
100
AcDbSymbolTable
 70
     1
100
AcDbDimStyleTable
  0
DIMSTYLE
105
27
330
A
100
AcDbSymbolTableRecord
100
AcDbDimStyleTableRecord
  2
Standard
 70
     0
178
     0
340
11
  0
ENDTAB
  0
TABLE
  2
BLOCK_RECORD
  5
1
330
0
100
AcDbSymbolTable
 70
     5
  0
BLOCK_RECORD
  5
1F
330
1
100
AcDbSymbolTableRecord
100
AcDbBlockTableRecord
  2
*Model_Space
340
22
 70
     0
280
     1
281
     0
  0
BLOCK_RECORD
  5
1B
330
1
100
AcDbSymbolTableRecord
100
AcDbBlockTableRecord
  2
*Paper_Space
340
1E
 70
     0
280
     1
281
     0
  0
BLOCK_RECORD
  5
23
330
1
100
AcDbSymbolTableRecord
100
AcDbBlockTableRecord
  2
*Paper_Space0
340
26
 70
     0
280
     1
281
     0
  0
BLOCK_RECORD
  5
6E
330
1
100
AcDbSymbolTableRecord
100
AcDbBlockTableRecord
  2
1_128479_4
340
0
102
{BLKREFS
331
6F
102
}
 70
     0
280
     1
281
     0
  0
BLOCK_RECORD
  5
8F
330
1
100
AcDbSymbolTableRecord
100
AcDbBlockTableRecord
  2
2_405020c_Inch_0_in_128479_4
340
0
102
{BLKREFS
331
90
102
}
 70
     0
280
     1
281
     0
  0
BLOCK_RECORD
  5
E7
330
1
100
AcDbSymbolTableRecord
100
AcDbBlockTableRecord
  2
3_128673_0_in_128479_4
340
0
102
{BLKREFS
331
E8
102
}
 70
     0
280
     1
281
     0
  0
BLOCK_RECORD
  5
129
330
1
100
AcDbSymbolTableRecord
100
AcDbBlockTableRecord
  2
4_128479h_0_in_128479_4
340
0
102
{BLKREFS
331
12A
102
}
 70
     0
280
     1
281
     0
  0
ENDTAB
  0
ENDSEC
  0
SECTION
  2
BLOCKS
  0
BLOCK
  5
20
330
1F
100
AcDbEntity
  8
0
100
AcDbBlockBegin
  2
*Model_Space
 70
     0
 10
0.0
 20
0.0
 30
0.0
  3
*Model_Space
  1

  0
ENDBLK
  5
21
330
1F
100
AcDbEntity
  8
0
100
AcDbBlockEnd
  0
BLOCK
  5
1C
330
1B
100
AcDbEntity
 67
     1
  8
0
100
AcDbBlockBegin
  2
*Paper_Space
 70
     0
 10
0.0
 20
0.0
 30
0.0
  3
*Paper_Space
  1

  0
ENDBLK
  5
1D
330
1B
100
AcDbEntity
 67
     1
  8
0
100
AcDbBlockEnd
  0
BLOCK
  5
24
330
23
100
AcDbEntity
  8
0
100
AcDbBlockBegin
  2
*Paper_Space0
 70
     0
 10
0.0
 20
0.0
 30
0.0
  3
*Paper_Space0
  1

  0
ENDBLK
  5
25
330
23
100
AcDbEntity
  8
0
100
AcDbBlockEnd
  0
BLOCK
  5
70
330
6E
100
AcDbEntity
  8
0
100
AcDbBlockBegin
  2
1_128479_4
 70
     2
 10
0.0
 20
0.0
 30
0.0
  3
1_128479_4
  1

  0
ATTDEF
  5
73
330
6E
100
AcDbEntity
  8
AM_6
100
AcDbText
 10
9.065000000000001
 20
1.2375
 30
0.0
 40
0.5
  1
D-Lok Medium Duty Air-Handling Two-Bolt Pillow Block Inch Bore
100
AcDbAttributeDefinition
  3

  2
NN
 70
     8
280
     0
  0
ATTDEF
  5
74
330
6E
100
AcDbEntity
  8
AM_6
100
AcDbText
 10
9.065000000000001
 20
0.7375000000000003
 30
0.0
 40
0.5
  1
DLMAH Medium Duty Air Handling Pillow Blocks
100
AcDbAttributeDefinition
  3

  2
NT
 70
     8
280
     0
  0
ATTDEF
  5
75
330
6E
100
AcDbEntity
  8
AM_6
100
AcDbText
 10
9.065000000000001
 20
0.2375000000000003
 30
0.0
 40
0.5
  1
128479
100
AcDbAttributeDefinition
  3

  2
NB
 70
     8
280
     0
  0
ATTDEF
  5
76
330
6E
100
AcDbEntity
  8
AM_6
100
AcDbText
 10
9.065000000000001
 20
-0.2624999999999997
 30
0.0
 40
0.5
  1
$PN.
100
AcDbAttributeDefinition
  3

  2
NBSYN
 70
     8
280
     0
  0
ATTDEF
  5
77
330
6E
100
AcDbEntity
  8
AM_6
100
AcDbText
 10
9.065000000000001
 20
-0.7624999999999997
 30
0.0
 40
0.5
  1
128479
100
AcDbAttributeDefinition
  3

  2
LINA
 70
     8
280
     0
  0
ATTDEF
  5
78
330
6E
100
AcDbEntity
  8
AM_6
100
AcDbText
 10
9.065000000000001
 20
-1.2625
 30
0.0
 40
0.5
  1
210
100
AcDbAttributeDefinition
  3

  2
SERIES
 70
     8
280
     0
  0
ATTDEF
  5
79
330
6E
100
AcDbEntity
  8
AM_6
100
AcDbText
 10
9.065000000000001
 20
-1.7625
 30
0.0
 40
0.5
  1
1-3/4
100
AcDbAttributeDefinition
  3

  2
SS
 70
     8
280
     0
  0
ATTDEF
  5
7A
330
6E
100
AcDbEntity
  8
AM_6
100
AcDbText
 10
9.065000000000001
 20
-2.2625
 30
0.0
 40
0.5
  1
128479
100
AcDbAttributeDefinition
  3

  2
PN
 70
     8
280
     0
  0
ATTDEF
  5
7B
330
6E
100
AcDbEntity
  8
AM_6
100
AcDbText
 10
9.065000000000001
 20
-2.7625
 30
0.0
 40
0.5
  1
P2B-DLMAH-112
100
AcDbAttributeDefinition
  3

  2
DESCRIPTION
 70
     8
280
     0
  0
ATTDEF
  5
7C
330
6E
100
AcDbEntity
  8
AM_6
100
AcDbText
 10
9.065000000000001
 20
-3.2625
 30
0.0
 40
0.5
  1
10.1
100
AcDbAttributeDefinition
  3

  2
WEIGHT
 70
     8
280
     0
  0
ATTDEF
  5
7D
330
6E
100
AcDbEntity
  8
AM_6
100
AcDbText
 10
9.065000000000001
 20
-3.7625
 30
0.0
 40
0.5
  1
2.01
100
AcDbAttributeDefinition
  3

  2
A
 70
     8
280
     0
  0
ATTDEF
  5
7E
330
6E
100
AcDbEntity
  8
AM_6
100
AcDbText
 10
9.065000000000001
 20
-4.262499999999999
 30
0.0
 40
0.5
  1
8.13
100
AcDbAttributeDefinition
  3

  2
B
 70
     8
280
     0
  0
ATTDEF
  5
7F
330
6E
100
AcDbEntity
  8
AM_6
100
AcDbText
 10
9.065000000000001
 20
-4.762499999999999
 30
0.0
 40
0.5
  1
2.25
100
AcDbAttributeDefinition
  3

  2
C
 70
     8
280
     0
  0
ATTDEF
  5
80
330
6E
100
AcDbEntity
  8
AM_6
100
AcDbText
 10
9.065000000000001
 20
-5.262499999999999
 30
0.0
 40
0.5
  1
6.00
100
AcDbAttributeDefinition
  3

  2
DMIN
 70
     8
280
     0
  0
ATTDEF
  5
81
330
6E
100
AcDbEntity
  8
AM_6
100
AcDbText
 10
9.065000000000001
 20
-5.762499999999999
 30
0.0
 40
0.5
  1
6.68
100
AcDbAttributeDefinition
  3

  2
DMAX
 70
     8
280
     0
  0
ATTDEF
  5
82
330
6E
100
AcDbEntity
  8
AM_6
100
AcDbText
 10
9.065000000000001
 20
-6.262499999999999
 30
0.0
 40
0.5
  1
5/8
100
AcDbAttributeDefinition
  3

  2
F
 70
     8
280
     0
  0
ATTDEF
  5
83
330
6E
100
AcDbEntity
  8
AM_6
100
AcDbText
 10
9.065000000000001
 20
-6.762499999999999
 30
0.0
 40
0.5
  1
1.08
100
AcDbAttributeDefinition
  3

  2
G
 70
     8
280
     0
  0
ATTDEF
  5
84
330
6E
100
AcDbEntity
  8
AM_6
100
AcDbText
 10
9.065000000000001
 20
-7.262499999999999
 30
0.0
 40
0.5
  1
0.81
100
AcDbAttributeDefinition
  3

  2
H
 70
     8
280
     0
  0
ATTDEF
  5
85
330
6E
100
AcDbEntity
  8
AM_6
100
AcDbText
 10
9.065000000000001
 20
-7.762499999999999
 30
0.0
 40
0.5
  1
4.60
100
AcDbAttributeDefinition
  3

  2
J
 70
     8
280
     0
  0
ATTDEF
  5
86
330
6E
100
AcDbEntity
  8
AM_6
100
AcDbText
 10
9.065000000000001
 20
-8.2625
 30
0.0
 40
0.5
  1
3.24
100
AcDbAttributeDefinition
  3

  2
L
 70
     8
280
     0
  0
ATTDEF
  5
87
330
6E
100
AcDbEntity
  8
AM_6
100
AcDbText
 10
9.065000000000001
 20
-8.7625
 30
0.0
 40
0.5
  1
2.31
100
AcDbAttributeDefinition
  3

  2
M
 70
     8
280
     0
  0
ATTDEF
  5
88
330
6E
100
AcDbEntity
  8
AM_6
100
AcDbText
 10
9.065000000000001
 20
-9.2625
 30
0.0
 40
0.5
  1
0.75
100
AcDbAttributeDefinition
  3

  2
R
 70
     8
280
     0
  0
ATTDEF
  5
89
330
6E
100
AcDbEntity
  8
AM_6
100
AcDbText
 10
9.065000000000001
 20
-9.7625
 30
0.0
 40
0.5
  1
1.26
100
AcDbAttributeDefinition
  3

  2
S
 70
     8
280
     0
  0
ATTDEF
  5
8A
330
6E
100
AcDbEntity
  8
AM_6
100
AcDbText
 10
9.065000000000001
 20
-10.2625
 30
0.0
 40
0.5
  1
3.69
100
AcDbAttributeDefinition
  3

  2
U
 70
     8
280
     0
  0
ATTDEF
  5
8B
330
6E
100
AcDbEntity
  8
AM_6
100
AcDbText
 10
9.065000000000001
 20
-10.7625
 30
0.0
 40
0.5
  1
7.38
100
AcDbAttributeDefinition
  3

  2
V
 70
     8
280
     0
  0
ATTDEF
  5
8C
330
6E
100
AcDbEntity
  8
AM_6
100
AcDbText
 10
9.065000000000001
 20
-11.2625
 30
0.0
 40
0.5
  1
0.81
100
AcDbAttributeDefinition
  3

  2
W
 70
     8
280
     0
  0
ATTDEF
  5
8D
330
6E
100
AcDbEntity
  8
AM_6
100
AcDbText
 10
9.065000000000001
 20
-11.7625
 30
0.0
 40
0.5
  1
0.12
100
AcDbAttributeDefinition
  3

  2
X
 70
     8
280
     0
  0
ATTDEF
  5
8E
330
6E
100
AcDbEntity
  8
AM_6
100
AcDbText
 10
9.065000000000001
 20
-12.2625
 30
0.0
 40
0.5
  1
baldor
100
AcDbAttributeDefinition
  3

  2
COMPANY
 70
     8
280
     0
  0
INSERT
  5
90
330
6E
100
AcDbEntity
  8
0
100
AcDbBlockReference
  2
2_405020c_Inch_0_in_128479_4
 10
0.0
 20
0.0
 30
0.0
  0
INSERT
  5
E8
330
6E
100
AcDbEntity
  8
0
100
AcDbBlockReference
  2
3_128673_0_in_128479_4
 10
0.0
 20
0.0
 30
0.0
  0
INSERT
  5
12A
330
6E
100
AcDbEntity
  8
0
100
AcDbBlockReference
  2
4_128479h_0_in_128479_4
 10
0.0
 20
0.0
 30
0.0
  0
ENDBLK
  5
71
330
6E
100
AcDbEntity
  8
0
100
AcDbBlockEnd
  0
BLOCK
  5
91
330
8F
100
AcDbEntity
  8
0
100
AcDbBlockBegin
  2
2_405020c_Inch_0_in_128479_4
 70
     2
 10
0.0
 20
0.0
 30
0.0
  3
2_405020c_Inch_0_in_128479_4
  1

  0
ATTDEF
  5
93
330
8F
100
AcDbEntity
  8
AM_6
100
AcDbText
 10
6.927686519949514
 20
0.162408630723042
 30
0.0
 40
0.5
  1
405020C -Inch
100
AcDbAttributeDefinition
  3

  2
NN
 70
     8
280
     0
  0
ATTDEF
  5
94
330
8F
100
AcDbEntity
  8
AM_6
100
AcDbText
 10
6.927686519949514
 20
-0.337591369276958
 30
0.0
 40
0.5
  1
Grease fitting
100
AcDbAttributeDefinition
  3

  2
NT
 70
     8
280
     0
  0
ATTDEF
  5
95
330
8F
100
AcDbEntity
  8
AM_6
100
AcDbText
 10
6.927686519949514
 20
-0.8375913692769581
 30
0.0
 40
0.5
  1
405020c-Inch
100
AcDbAttributeDefinition
  3

  2
NB
 70
     8
280
     0
  0
ATTDEF
  5
96
330
8F
100
AcDbEntity
  8
AM_6
100
AcDbText
 10
6.927686519949514
 20
-1.337591369276958
 30
0.0
 40
0.5
  1
$MN.-Inch
100
AcDbAttributeDefinition
  3

  2
NBSYN
 70
     8
280
     0
  0
ATTDEF
  5
97
330
8F
100
AcDbEntity
  8
AM_6
100
AcDbText
 10
6.927686519949514
 20
-1.837591369276958
 30
0.0
 40
0.5
  1
405020c
100
AcDbAttributeDefinition
  3

  2
LINA
 70
     8
280
     0
  0
ATTDEF
  5
98
330
8F
100
AcDbEntity
  8
AM_6
100
AcDbText
 10
6.927686519949514
 20
-2.337591369276958
 30
0.0
 40
0.5
  1
405020c
100
AcDbAttributeDefinition
  3

  2
MN
 70
     8
280
     0
  0
ATTDEF
  5
99
330
8F
100
AcDbEntity
  8
AM_6
100
AcDbText
 10
6.927686519949514
 20
-2.837591369276958
 30
0.0
 40
0.5
  1
0.230
100
AcDbAttributeDefinition
  3

  2
NDR
 70
     8
280
     0
  0
ATTDEF
  5
9A
330
8F
100
AcDbEntity
  8
AM_6
100
AcDbText
 10
6.927686519949514
 20
-3.337591369276958
 30
0.0
 40
0.5
  1
0.210
100
AcDbAttributeDefinition
  3

  2
KDR
 70
     8
280
     0
  0
ATTDEF
  5
9B
330
8F
100
AcDbEntity
  8
AM_6
100
AcDbText
 10
6.927686519949514
 20
-3.837591369276958
 30
0.0
 40
0.5
  1
0.157
100
AcDbAttributeDefinition
  3

  2
BZE
 70
     8
280
     0
  0
ATTDEF
  5
9C
330
8F
100
AcDbEntity
  8
AM_6
100
AcDbText
 10
6.927686519949514
 20
-4.337591369276958
 30
0.0
 40
0.5
  1
9/32
100
AcDbAttributeDefinition
  3

  2
WAF
 70
     8
280
     0
  0
ATTDEF
  5
9D
330
8F
100
AcDbEntity
  8
AM_6
100
AcDbText
 10
6.927686519949514
 20
-4.837591369276958
 30
0.0
 40
0.5
  1
0.2813
100
AcDbAttributeDefinition
  3

  2
WAF1
 70
     8
280
     0
  0
ATTDEF
  5
9E
330
8F
100
AcDbEntity
  8
AM_6
100
AcDbText
 10
6.927686519949514
 20
-5.337591369276958
 30
0.0
 40
0.5
  1
0.545
100
AcDbAttributeDefinition
  3

  2
BL
 70
     8
280
     0
  0
ATTDEF
  5
9F
330
8F
100
AcDbEntity
  8
AM_6
100
AcDbText
 10
6.927686519949514
 20
-5.837591369276958
 30
0.0
 40
0.5
  1
0.200
100
AcDbAttributeDefinition
  3

  2
TL
 70
     8
280
     0
  0
ATTDEF
  5
A0
330
8F
100
AcDbEntity
  8
AM_6
100
AcDbText
 10
6.927686519949514
 20
-6.337591369276958
 30
0.0
 40
0.5
  1
baldor
100
AcDbAttributeDefinition
  3

  2
COMPANY
 70
     8
280
     0
  0
ELLIPSE
  5
A3
330
8F
100
AcDbEntity
  8
AM_9
100
AcDbEllipse
 10
1.477853172679884
 20
0.0000000000000002
 30
0.0
 11
-1.838598171376523E-17
 21
-0.1000886227036577
 31
0.0
210
0.0
220
0.0
230
1.0
 40
0.7071067811865474
 41
0.0
 42
6.283185307179586
  0
LINE
  5
A4
330
8F
100
AcDbEntity
  8
AM_9
100
AcDbLine
 10
1.76174697048954
 20
0.0812043153615211
 30
0.0
 11
1.722851676971726
 21
0.0812043153615211
 31
0.0
  0
LINE
  5
A5
330
8F
100
AcDbEntity
  8
AM_9
100
AcDbLine
 10
1.76174697048954
 20
-0.0812043153615206
 30
0.0
 11
1.722851676971726
 21
-0.0812043153615206
 31
0.0
  0
LWPOLYLINE
  5
A6
330
8F
100
AcDbEntity
  8
AM_9
100
AcDbPolyline
 90
        3
 70
     0
 43
0.0
 10
1.718729097691082
 20
0.0000000000000002
 10
1.719817246965995
 20
-0.0406021576807602
 10
1.722851676971726
 20
-0.0812043153615206
  0
LWPOLYLINE
  5
A7
330
8F
100
AcDbEntity
  8
AM_9
100
AcDbPolyline
 90
        4
 70
     0
 43
0.0
 10
1.722851676971726
 20
0.0812043153615211
 10
1.721226456315139
 20
0.0623017518439034
 10
1.719378640134114
 20
0.0312428256208206
 10
1.718729097691082
 20
0.0000000000000002
  0
LWPOLYLINE
  5
A8
330
8F
100
AcDbEntity
  8
AM_9
100
AcDbPolyline
 90
        3
 70
     0
 43
0.0
 10
1.669001813304138
 20
0.1218064730422816
 10
1.694953604772523
 20
0.1015053942019013
 10
1.722851676971726
 20
0.0812043153615211
  0
LWPOLYLINE
  5
A9
330
8F
100
AcDbEntity
  8
AM_9
100
AcDbPolyline
 90
        3
 70
     0
 43
0.0
 10
1.722851676971726
 20
-0.0812043153615206
 10
1.695075011585878
 20
-0.1014141150849083
 10
1.669001813304138
 20
-0.1218064730422811
  0
LWPOLYLINE
  5
AA
330
8F
100
AcDbEntity
  8
AM_9
100
AcDbPolyline
 90
        3
 70
     0
 43
0.0
 10
1.76174697048954
 20
0.0812043153615211
 10
1.740019938749248
 20
0.1014141150849088
 10
1.728106977835723
 20
0.1118189926816821
  0
LWPOLYLINE
  5
AB
330
8F
100
AcDbEntity
  8
AM_9
100
AcDbPolyline
 90
        4
 70
     0
 43
0.0
 10
1.765869549770185
 20
0.0000000000000002
 10
1.765223779835103
 20
0.0311508759219518
 10
1.763372191146127
 20
0.0623017518439034
 10
1.76174697048954
 20
0.0812043153615211
  0
LWPOLYLINE
  5
AC
330
8F
100
AcDbEntity
  8
AM_9
100
AcDbPolyline
 90
        3
 70
     0
 43
0.0
 10
1.728105827864736
 20
-0.1118199743330276
 10
1.7399177583018
 20
-0.1015053942019008
 10
1.76174697048954
 20
-0.0812043153615206
  0
LINE
  5
AD
330
8F
100
AcDbEntity
  8
AM_9
100
AcDbLine
 10
1.765866364890556
 20
-0.0021745811836422
 30
0.0
 11
1.765869549770185
 21
0.0000000000000002
 31
0.0
  0
LWPOLYLINE
  5
AE
330
8F
100
AcDbEntity
  8
AM_9
100
AcDbPolyline
 90
        3
 70
     0
 43
0.0
 10
1.76174697048954
 20
-0.0812043153615206
 10
1.764771787312319
 20
-0.0407847159147452
 10
1.765866364890556
 20
-0.0021745811836422
  0
LWPOLYLINE
  5
AF
330
8F
100
AcDbEntity
  8
AM_9
100
AcDbPolyline
 90
        3
 70
     0
 43
0.0
 10
1.669001813304138
 20
-0.1218064730422811
 10
1.645226320385579
 20
-0.1421075518826613
 10
1.623397108197839
 20
-0.1624086307230415
  0
LWPOLYLINE
  5
B0
330
8F
100
AcDbEntity
  8
AM_9
100
AcDbPolyline
 90
        3
 70
     0
 43
0.0
 10
1.623397108197839
 20
0.162408630723042
 10
1.64512413993813
 20
0.1421988309996543
 10
1.669001813304138
 20
0.1218064730422816
  0
LINE
  5
B1
330
8F
100
AcDbEntity
  8
AM_9
100
AcDbLine
 10
1.48271591514217
 20
-0.1103623268442184
 30
0.0
 11
1.616701501964697
 21
-0.1162868989298538
 31
0.0
  0
LINE
  5
B2
330
8F
100
AcDbEntity
  8
AM_9
100
AcDbLine
 10
1.616701501964697
 20
0.1162868989298543
 30
0.0
 11
1.48271591514217
 21
0.1103623268442189
 31
0.0
  0
ELLIPSE
  5
B3
330
8F
100
AcDbEntity
  8
AM_9
100
AcDbEllipse
 10
1.666414980996294
 20
0.0000000000000008
 30
0.0
 11
8.612328615003840E-18
 21
0.1406500000000013
 31
0.0
210
0.0
220
0.0
230
1.0
 40
0.707106781186557
 41
3.798906696793631
 42
5.625871263975744
  0
ELLIPSE
  5
B4
330
8F
100
AcDbEntity
  8
AM_9
100
AcDbEllipse
 10
1.688561953881834
 20
0.0000000000000006
 30
0.0
 11
6.694498085252771E-18
 21
0.1093294505797711
 31
0.0
210
0.0
220
0.0
230
1.0
 40
0.7071067811865202
 41
5.429086804864217
 42
5.928986666165931
  0
ELLIPSE
  5
B5
330
8F
100
AcDbEntity
  8
AM_9
100
AcDbEllipse
 10
1.688561953881824
 20
0.0000000000000024
 30
0.0
 11
6.694498085252955E-18
 21
0.1093294505797741
 31
0.0
210
0.0
220
0.0
230
1.0
 40
0.7071067811865678
 41
3.495791294603549
 42
3.98275746480688
  0
ELLIPSE
  5
B6
330
8F
100
AcDbEntity
  8
AM_9
100
AcDbEllipse
 10
1.688561953882055
 20
-0.0000000000000603
 30
0.0
 11
6.694498085244469E-18
 21
0.1093294505796355
 31
0.0
210
0.0
220
0.0
230
1.0
 40
0.7071067811854067
 41
4.187607233294059
 42
5.210423113507375
  0
LWPOLYLINE
  5
B7
330
8F
100
AcDbEntity
  8
AM_9
100
AcDbPolyline
 90
       11
 70
     0
 43
0.0
 10
1.713561953881829
 20
0.094684789639099
 10
1.715378832194503
 20
0.0946109902979008
 10
1.720415283716394
 20
0.0936468422042026
 10
1.725298498457007
 20
0.091691421540622
 10
1.730321501582771
 20
0.088674154348555
 10
1.735474445682949
 20
0.0845053269871149
 10
1.741104604265492
 20
0.0785971437086139
 10
1.746504678137591
 20
0.071359267300142
 10
1.751517918028085
 20
0.0628482888033022
 10
1.755984468646976
 20
0.0531674954103518
 10
1.759164994476184
 20
0.0443612660348177
  0
LWPOLYLINE
  5
B8
330
8F
100
AcDbEntity
  8
AM_9
100
AcDbPolyline
 90
       14
 70
     0
 43
0.0
 10
1.759070245306444
 20
-0.0446565702630295
 10
1.755938176466622
 20
-0.0532815441426092
 10
1.7514860847602
 20
-0.0629091331624881
 10
1.746525077935766
 20
-0.0713285077532642
 10
1.741244632829008
 20
-0.0784303533289132
 10
1.735853613590189
 20
-0.0841537095705579
 10
1.73054590383233
 20
-0.0885156065795569
 10
1.725467131980051
 20
-0.0916065687267785
 10
1.720658848600137
 20
-0.0935726246835564
 10
1.715953154461304
 20
-0.0945570525071468
 10
1.710747020262855
 20
-0.0945078856196434
 10
1.705808337395884
 20
-0.0933601400280409
 10
1.700905265056342
 20
-0.0912145282604299
 10
1.695913668727041
 20
-0.0880341771345374
  0
LWPOLYLINE
  5
B9
330
8F
100
AcDbEntity
  8
AM_9
100
AcDbPolyline
 90
        3
 70
     0
 43
0.0
 10
1.707629179784006
 20
0.0939047510733014
 10
1.70773035199789
 20
0.0939309046258903
 10
1.713561953881829
 20
0.094684789639099
  0
LINE
  5
BA
330
8F
100
AcDbEntity
  8
AM_9
100
AcDbLine
 10
1.695776670420515
 20
0.0879326483348418
 30
0.0
 11
1.697056594969182
 21
0.0888512723584961
 31
0.0
  0
ELLIPSE
  5
BB
330
8F
100
AcDbEntity
  8
AM_9
100
AcDbEllipse
 10
1.728503765818335
 20
0.0000000000000001
 30
0.0
 11
6.084620899749634E-18
 21
0.09936940028726624
 31
0.0
210
0.0
220
0.0
230
1.0
 40
0.7071067811865476
 41
2.656480407116014
 42
6.283185307179586
  0
ELLIPSE
  5
BC
330
8F
100
AcDbEntity
  8
AM_9
100
AcDbEllipse
 10
1.776835094522811
 20
0.0000000000000001
 30
0.0
 11
8.036249332247515E-18
 21
0.1312419113468906
 31
0.0
210
0.0
220
0.0
230
1.0
 40
0.7071067811865501
 41
2.667195599006408
 42
6.283185307179586
  0
ELLIPSE
  5
BD
330
8F
100
AcDbEntity
  8
AM_9
100
AcDbEllipse
 10
1.85245591466063
 20
-0.0000000000002732
 30
0.0
 11
6.357083428150032E-18
 21
0.1038190510533499
 31
0.0
210
0.0
220
0.0
230
1.0
 40
0.7071067811890189
 41
-0.530364346037044
 42
-0.4544831586566112
  0
ELLIPSE
  5
BE
330
8F
100
AcDbEntity
  8
AM_9
100
AcDbEllipse
 10
1.805591337988088
 20
0.0000000000000001
 30
0.0
 11
8.079715312105978E-18
 21
0.1319517646676804
 31
0.0
210
0.0
220
0.0
230
1.0
 40
0.7071067811865486
 41
3.588968238954306
 42
5.844803532225579
  0
ELLIPSE
  5
BF
330
8F
100
AcDbEntity
  8
AM_9
100
AcDbEllipse
 10
1.619274528917194
 20
-0.0000000000000004
 30
0.0
 11
8.612328615003827E-18
 21
0.1406500000000011
 31
0.0
210
0.0
220
0.0
230
1.0
 40
0.7071067811865454
 41
0.0
 42
6.283185307179586
  0
ELLIPSE
  5
C0
330
8F
100
AcDbEntity
  8
AM_9
100
AcDbEllipse
 10
1.619274528917194
 20
0.0000000000000004
 30
0.0
 11
7.124004163867299E-18
 21
0.1163438171532773
 31
0.0
210
0.0
220
0.0
230
1.0
 40
0.707106781186548
 41
0.0
 42
6.283185307179586
  0
ELLIPSE
  5
C1
330
8F
100
AcDbEntity
  8
AM_9
100
AcDbEllipse
 10
1.48515591475867
 20
0.0000000000000001
 30
0.0
 11
6.761045944280092E-18
 21
0.110416259593989
 31
0.0
210
0.0
220
0.0
230
1.0
 40
0.7071067811865481
 41
0.0
 42
6.283185307179586
  0
LINE
  5
C3
330
8F
100
AcDbEntity
  8
AM_4
100
AcDbLine
 10
1.728106977835723
 20
0.1118189926816821
 30
0.0
 11
1.716142265383241
 21
0.1218064730422815
 31
0.0
  0
LINE
  5
C4
330
8F
100
AcDbEntity
  8
AM_4
100
AcDbLine
 10
1.716142265383241
 20
-0.121806473042281
 30
0.0
 11
1.728105827864736
 21
-0.1118199743330276
 31
0.0
  0
LWPOLYLINE
  5
C5
330
8F
100
AcDbEntity
  8
AM_4
100
AcDbPolyline
 90
        3
 70
     0
 43
0.0
 10
1.716142265383241
 20
0.1218064730422815
 10
1.690190473914855
 20
0.1421075518826617
 10
1.662292401715652
 20
0.162408630723042
  0
LWPOLYLINE
  5
C6
330
8F
100
AcDbEntity
  8
AM_4
100
AcDbPolyline
 90
        3
 70
     0
 43
0.0
 10
1.662292401715652
 20
-0.1624086307230415
 10
1.690069067101501
 20
-0.1421988309996538
 10
1.716142265383241
 20
-0.121806473042281
  0
LWPOLYLINE
  5
C7
330
8F
100
AcDbEntity
  8
AM_4
100
AcDbPolyline
 90
        3
 70
     0
 43
0.0
 10
1.56954724453025
 20
-0.121806473042281
 10
1.545771751611691
 20
-0.1015053942019008
 10
1.523942539423951
 20
-0.0812043153615206
  0
LWPOLYLINE
  5
C8
330
8F
100
AcDbEntity
  8
AM_4
100
AcDbPolyline
 90
        3
 70
     0
 43
0.0
 10
1.623397108197839
 20
-0.1624086307230415
 10
1.59562044281199
 20
-0.1421988309996538
 10
1.56954724453025
 20
-0.121806473042281
  0
LINE
  5
C9
330
8F
100
AcDbEntity
  8
AM_4
100
AcDbLine
 10
1.662292401715652
 20
-0.1624086307230415
 30
0.0
 11
1.623397108197839
 21
-0.1624086307230415
 31
0.0
  0
LWPOLYLINE
  5
CA
330
8F
100
AcDbEntity
  8
AM_4
100
AcDbPolyline
 90
        3
 70
     0
 43
0.0
 10
1.616687696609353
 20
-0.1218064730422811
 10
1.640463189527911
 20
-0.1421075518826613
 10
1.662292401715652
 20
-0.1624086307230415
  0
LWPOLYLINE
  5
CB
330
8F
100
AcDbEntity
  8
AM_4
100
AcDbPolyline
 90
        4
 70
     0
 43
0.0
 10
1.519819960143306
 20
0.0000000000000002
 10
1.520465730078388
 20
0.0311508759219518
 10
1.522317318767364
 20
0.0623017518439034
 10
1.523942539423951
 20
0.0812043153615211
  0
LWPOLYLINE
  5
CC
330
8F
100
AcDbEntity
  8
AM_4
100
AcDbPolyline
 90
        3
 70
     0
 43
0.0
 10
1.523942539423951
 20
-0.0812043153615206
 10
1.520917722601172
 20
-0.0407847159147452
 10
1.519819960143306
 20
0.0000000000000002
  0
LINE
  5
CD
330
8F
100
AcDbEntity
  8
AM_4
100
AcDbLine
 10
1.562837832941764
 20
-0.0812043153615206
 30
0.0
 11
1.523942539423951
 21
-0.0812043153615206
 31
0.0
  0
LWPOLYLINE
  5
CE
330
8F
100
AcDbEntity
  8
AM_4
100
AcDbPolyline
 90
        4
 70
     0
 43
0.0
 10
1.562837832941764
 20
0.0812043153615211
 10
1.564463053598351
 20
0.0623017518439034
 10
1.566310869779377
 20
0.0312428256208206
 10
1.566960412222409
 20
0.0000000000000002
  0
LINE
  5
CF
330
8F
100
AcDbEntity
  8
AM_4
100
AcDbLine
 10
1.662292401715652
 20
0.162408630723042
 30
0.0
 11
1.623397108197839
 21
0.162408630723042
 31
0.0
  0
LWPOLYLINE
  5
D0
330
8F
100
AcDbEntity
  8
AM_4
100
AcDbPolyline
 90
        3
 70
     0
 43
0.0
 10
1.56954724453025
 20
0.1218064730422815
 10
1.595499035998635
 20
0.1421075518826617
 10
1.623397108197839
 20
0.162408630723042
  0
LWPOLYLINE
  5
D1
330
8F
100
AcDbEntity
  8
AM_4
100
AcDbPolyline
 90
        3
 70
     0
 43
0.0
 10
1.523942539423951
 20
0.0812043153615211
 10
1.545669571164243
 20
0.1014141150849088
 10
1.56954724453025
 20
0.1218064730422815
  0
LINE
  5
D2
330
8F
100
AcDbEntity
  8
AM_4
100
AcDbLine
 10
1.562837832941764
 20
0.0812043153615211
 30
0.0
 11
1.523942539423951
 21
0.0812043153615211
 31
0.0
  0
LWPOLYLINE
  5
D3
330
8F
100
AcDbEntity
  8
AM_4
100
AcDbPolyline
 90
        3
 70
     0
 43
0.0
 10
1.616687696609353
 20
0.1218064730422815
 10
1.590735905140968
 20
0.1015053942019013
 10
1.562837832941764
 20
0.0812043153615211
  0
LWPOLYLINE
  5
D4
330
8F
100
AcDbEntity
  8
AM_4
100
AcDbPolyline
 90
        3
 70
     0
 43
0.0
 10
1.662292401715652
 20
0.162408630723042
 10
1.64056536997536
 20
0.1421988309996543
 10
1.616687696609353
 20
0.1218064730422815
  0
LWPOLYLINE
  5
D5
330
8F
100
AcDbEntity
  8
AM_4
100
AcDbPolyline
 90
        3
 70
     0
 43
0.0
 10
1.566960412222409
 20
0.0000000000000002
 10
1.565872262947496
 20
-0.0406021576807602
 10
1.562837832941764
 20
-0.0812043153615206
  0
LWPOLYLINE
  5
D6
330
8F
100
AcDbEntity
  8
AM_4
100
AcDbPolyline
 90
        3
 70
     0
 43
0.0
 10
1.562837832941764
 20
-0.0812043153615206
 10
1.590614498327613
 20
-0.1014141150849083
 10
1.616687696609353
 20
-0.1218064730422811
  0
ELLIPSE
  5
D7
330
8F
100
AcDbEntity
  8
AM_4
100
AcDbEllipse
 10
1.6664149809963
 20
-0.0000000000000013
 30
0.0
 11
8.612328615003921E-18
 21
0.1406500000000026
 31
0.0
210
0.0
220
0.0
230
1.0
 40
0.707106781186555
 41
5.625871263975793
 42
10.08209200397319
  0
ELLIPSE
  5
D8
330
8F
100
AcDbEntity
  8
AM_4
100
AcDbEllipse
 10
1.688561953881821
 20
-0.0000000000000048
 30
0.0
 11
6.694498085253099E-18
 21
0.1093294505797765
 31
0.0
210
0.0
220
0.0
230
1.0
 40
0.7071067811865587
 41
5.928986666165806
 42
9.778976601783192
  0
LINE
  5
D9
330
8F
100
AcDbEntity
  8
AM_4
100
AcDbLine
 10
1.695738762304674
 20
-0.0879044185632921
 30
0.0
 11
1.733560790018715
 21
-0.1160995625890068
 31
0.0
  0
LINE
  5
DA
330
8F
100
AcDbEntity
  8
AM_4
100
AcDbLine
 10
1.733560790018715
 20
0.1160995625890073
 30
0.0
 11
1.695738762304674
 21
0.0879044185632926
 31
0.0
  0
ELLIPSE
  5
DB
330
8F
100
AcDbEntity
  8
AM_4
100
AcDbEllipse
 10
1.728503765818335
 20
0.0000000000000003
 30
0.0
 11
6.084620899749644E-18
 21
0.0993694002872664
 31
0.0
210
0.0
220
0.0
230
1.0
 40
0.7071067811865397
 41
0.4851122464737809
 42
2.656480407116012
  0
LWPOLYLINE
  5
DC
330
8F
100
AcDbEntity
  8
AM_4
100
AcDbPolyline
 90
        7
 70
     0
 43
0.0
 10
1.791776906459317
 20
0.1359265219950582
 10
1.782032123876371
 20
0.1354146954458913
 10
1.769618257499629
 20
0.1332562425169338
 10
1.757608991018234
 20
0.1294763401036264
 10
1.746111523673634
 20
0.1241420957363588
 10
1.735220960109372
 20
0.117312617198137
 10
1.733486015635569
 20
0.1160437702262383
  0
LWPOLYLINE
  5
DD
330
8F
100
AcDbEntity
  8
AM_4
100
AcDbPolyline
 90
       12
 70
     0
 43
0.0
 10
1.733464484980101
 20
-0.1160276865851678
 10
1.733787452113598
 20
-0.1162680700721565
 10
1.745471180509327
 20
-0.1237911512414522
 10
1.757734284323825
 20
-0.1295248640001302
 10
1.770354893649695
 20
-0.133432663179169
 10
1.783128101648304
 20
-0.1355235313165645
 10
1.7958708168798
 20
-0.1358363446781978
 10
1.808422887815374
 20
-0.1344269209648684
 10
1.820627662765606
 20
-0.1313639125520765
 10
1.832366418228556
 20
-0.1267174864222197
 10
1.843539963846987
 20
-0.1205503256573859
 10
1.846166321329046
 20
-0.1188236358776013
  0
LWPOLYLINE
  5
DE
330
8F
100
AcDbEntity
  8
AM_4
100
AcDbPolyline
 90
        7
 70
     0
 43
0.0
 10
1.845969247153414
 20
0.1189571386976016
 10
1.843396866897042
 20
0.1206411940486951
 10
1.831364957511972
 20
0.1271835540758128
 10
1.818877828861281
 20
0.131909757408774
 10
1.806148925550032
 20
0.1348104260894449
 10
1.794203417722937
 20
0.1358948496539433
 10
1.791776906459317
 20
0.1359265219950582
  0
ELLIPSE
  5
DF
330
8F
100
AcDbEntity
  8
AM_4
100
AcDbEllipse
 10
1.776835094522811
 20
0.0000000000000002
 30
0.0
 11
8.036249332247505E-18
 21
0.1312419113468905
 31
0.0
210
0.0
220
0.0
230
1.0
 40
0.7071067811865526
 41
0.48559286447707
 42
2.65557166202283
  0
ELLIPSE
  5
E0
330
8F
100
AcDbEntity
  8
AM_4
100
AcDbEllipse
 10
1.863226368426552
 20
0.0000000000000003
 30
0.0
 11
-1.484390032546748E-17
 21
-0.08080642971672804
 31
0.0
210
0.0
220
0.0
230
1.0
 40
0.7071067811865489
 41
0.0
 42
6.283185307179586
  0
LWPOLYLINE
  5
E1
330
8F
100
AcDbEntity
  8
AM_4
100
AcDbPolyline
 90
       19
 70
     0
 43
0.0
 10
1.883855089227425
 20
-0.0938434731818074
 10
1.888966462555714
 20
-0.0901194975329267
 10
1.897419355572808
 20
-0.0824280796281796
 10
1.905070710689023
 20
-0.0733592626745823
 10
1.9117849627281
 20
-0.0630375888175774
 10
1.91743330546078
 20
-0.0516342473569503
 10
1.921909931039065
 20
-0.0393548247313929
 10
1.925138632302561
 20
-0.0264231568427788
 10
1.927072460839954
 20
-0.0130624086009962
 10
1.927686519949514
 20
0.0005153276836002
 10
1.926970162864981
 20
0.0141022750667615
 10
1.924924476319782
 20
0.0274912960819002
 10
1.921561133625614
 20
0.0404776810445018
 10
1.916901535514191
 20
0.0528587420732248
 10
1.910979839877666
 20
0.064427638650482
 10
1.903856717925803
 20
0.0749619133664981
 10
1.895632628898392
 20
0.0842331999153423
 10
1.886460369852873
 20
0.0920239058125154
 10
1.884852779756904
 20
0.0931653202036069
  0
ELLIPSE
  5
E2
330
8F
100
AcDbEntity
  8
AM_4
100
AcDbEllipse
 10
1.805591337988086
 20
-0.0000000000000013
 30
0.0
 11
8.079715312106048E-18
 21
0.1319517646676815
 31
0.0
210
0.0
220
0.0
230
1.0
 40
0.7071067811865492
 41
5.844803532225563
 42
9.863159735723414
  0
ELLIPSE
  5
E3
330
8F
100
AcDbEntity
  8
AM_4
100
AcDbEllipse
 10
1.852455914661282
 20
0.0000000000000021
 30
0.0
 11
6.357083428130882E-18
 21
0.1038190510530372
 31
0.0
210
0.0
220
0.0
230
1.0
 40
0.7071067811865356
 41
5.844803532225654
 42
9.863159735723295
  0
LINE
  5
E4
330
8F
100
AcDbEntity
  8
AM_4
100
AcDbLine
 10
1.883617101194408
 20
0.0940018950300906
 30
0.0
 11
1.8451965309703
 21
0.1194743720494003
 31
0.0
  0
LINE
  5
E5
330
8F
100
AcDbEntity
  8
AM_4
100
AcDbLine
 10
1.8451965309703
 20
-0.1194743720493998
 30
0.0
 11
1.883617101194408
 21
-0.0940018950300901
 31
0.0
  0
ELLIPSE
  5
E6
330
8F
100
AcDbEntity
  8
AM_4
100
AcDbEllipse
 10
1.852455914661423
 20
0.0000000000004196
 30
0.0
 11
6.357083428102278E-18
 21
0.1038190510525701
 31
0.0
210
0.0
220
0.0
230
1.0
 40
0.7071067811864279
 41
-0.4544831586512785
 42
-0.438381774953954
  0
ENDBLK
  5
92
330
8F
100
AcDbEntity
  8
0
100
AcDbBlockEnd
  0
BLOCK
  5
E9
330
E7
100
AcDbEntity
  8
0
100
AcDbBlockBegin
  2
3_128673_0_in_128479_4
 70
     2
 10
0.0
 20
0.0
 30
0.0
  3
3_128673_0_in_128479_4
  1

  0
ATTDEF
  5
EB
330
E7
100
AcDbEntity
  8
AM_6
100
AcDbText
 10
6.770932289101488
 20
0.7499999999999998
 30
0.0
 40
0.5
  1
D-Lok Medium Duty Insert Inch Bore
100
AcDbAttributeDefinition
  3

  2
NN
 70
     8
280
     0
  0
ATTDEF
  5
EC
330
E7
100
AcDbEntity
  8
AM_6
100
AcDbText
 10
6.770932289101488
 20
0.2499999999999998
 30
0.0
 40
0.5
  1
D-LOK
100
AcDbAttributeDefinition
  3

  2
NT
 70
     8
280
     0
  0
ATTDEF
  5
ED
330
E7
100
AcDbEntity
  8
AM_6
100
AcDbText
 10
6.770932289101488
 20
-0.2500000000000002
 30
0.0
 40
0.5
  1
128673
100
AcDbAttributeDefinition
  3

  2
NB
 70
     8
280
     0
  0
ATTDEF
  5
EE
330
E7
100
AcDbEntity
  8
AM_6
100
AcDbText
 10
6.770932289101488
 20
-0.7500000000000002
 30
0.0
 40
0.5
  1
$PN.
100
AcDbAttributeDefinition
  3

  2
NBSYN
 70
     8
280
     0
  0
ATTDEF
  5
EF
330
E7
100
AcDbEntity
  8
AM_6
100
AcDbText
 10
6.770932289101488
 20
-1.25
 30
0.0
 40
0.5
  1
128673
100
AcDbAttributeDefinition
  3

  2
LINA
 70
     8
280
     0
  0
ATTDEF
  5
F0
330
E7
100
AcDbEntity
  8
AM_6
100
AcDbText
 10
6.770932289101488
 20
-1.75
 30
0.0
 40
0.5
  1
210
100
AcDbAttributeDefinition
  3

  2
SERIES
 70
     8
280
     0
  0
ATTDEF
  5
F1
330
E7
100
AcDbEntity
  8
AM_6
100
AcDbText
 10
6.770932289101488
 20
-2.25
 30
0.0
 40
0.5
  1
1-3/4
100
AcDbAttributeDefinition
  3

  2
SS
 70
     8
280
     0
  0
ATTDEF
  5
F2
330
E7
100
AcDbEntity
  8
AM_6
100
AcDbText
 10
6.770932289101488
 20
-2.75
 30
0.0
 40
0.5
  1
128673
100
AcDbAttributeDefinition
  3

  2
PN
 70
     8
280
     0
  0
ATTDEF
  5
F3
330
E7
100
AcDbEntity
  8
AM_6
100
AcDbText
 10
6.770932289101488
 20
-3.25
 30
0.0
 40
0.5
  1
INS-DLM-112
100
AcDbAttributeDefinition
  3

  2
DESCRIPTION
 70
     8
280
     0
  0
ATTDEF
  5
F4
330
E7
100
AcDbEntity
  8
AM_6
100
AcDbText
 10
6.770932289101488
 20
-3.75
 30
0.0
 40
0.5
  1
3.0
100
AcDbAttributeDefinition
  3

  2
WEIGHT
 70
     8
280
     0
  0
ATTDEF
  5
F5
330
E7
100
AcDbEntity
  8
AM_6
100
AcDbText
 10
6.770932289101488
 20
-4.25
 30
0.0
 40
0.5
  1
2.01
100
AcDbAttributeDefinition
  3

  2
A
 70
     8
280
     0
  0
ATTDEF
  5
F6
330
E7
100
AcDbEntity
  8
AM_6
100
AcDbText
 10
6.770932289101488
 20
-4.75
 30
0.0
 40
0.5
  1
0.87
100
AcDbAttributeDefinition
  3

  2
C
 70
     8
280
     0
  0
ATTDEF
  5
F7
330
E7
100
AcDbEntity
  8
AM_6
100
AcDbText
 10
6.770932289101488
 20
-5.25
 30
0.0
 40
0.5
  1
3.5433
100
AcDbAttributeDefinition
  3

  2
D
 70
     8
280
     0
  0
ATTDEF
  5
F8
330
E7
100
AcDbEntity
  8
AM_6
100
AcDbText
 10
6.770932289101488
 20
-5.75
 30
0.0
 40
0.5
  1
0.25
100
AcDbAttributeDefinition
  3

  2
J
 70
     8
280
     0
  0
ATTDEF
  5
F9
330
E7
100
AcDbEntity
  8
AM_6
100
AcDbText
 10
6.770932289101488
 20
-6.25
 30
0.0
 40
0.5
  1
3.24
100
AcDbAttributeDefinition
  3

  2
L
 70
     8
280
     0
  0
ATTDEF
  5
FA
330
E7
100
AcDbEntity
  8
AM_6
100
AcDbText
 10
6.770932289101488
 20
-6.75
 30
0.0
 40
0.5
  1
1/4-28
100
AcDbAttributeDefinition
  3

  2
N
 70
     8
280
     0
  0
ATTDEF
  5
FB
330
E7
100
AcDbEntity
  8
AM_6
100
AcDbText
 10
6.770932289101488
 20
-7.25
 30
0.0
 40
0.5
  1
0.75
100
AcDbAttributeDefinition
  3

  2
W
 70
     8
280
     0
  0
ATTDEF
  5
FC
330
E7
100
AcDbEntity
  8
AM_6
100
AcDbText
 10
6.770932289101488
 20
-7.75
 30
0.0
 40
0.5
  1
1.26
100
AcDbAttributeDefinition
  3

  2
Y
 70
     8
280
     0
  0
ATTDEF
  5
FD
330
E7
100
AcDbEntity
  8
AM_6
100
AcDbText
 10
6.770932289101488
 20
-8.25
 30
0.0
 40
0.5
  1
2.43
100
AcDbAttributeDefinition
  3

  2
Z
 70
     8
280
     0
  0
ATTDEF
  5
FE
330
E7
100
AcDbEntity
  8
AM_6
100
AcDbText
 10
6.770932289101488
 20
-8.75
 30
0.0
 40
0.5
  1
baldor
100
AcDbAttributeDefinition
  3

  2
COMPANY
 70
     8
280
     0
  0
LINE
  5
FF
330
E7
100
AcDbEntity
  8
AM_9
100
AcDbLine
 10
0.875
 20
-1.1952
 30
0.0
 11
0.875
 21
0.6851999999999999
 31
0.0
  0
LINE
  5
100
330
E7
100
AcDbEntity
  8
AM_9
100
AcDbLine
 10
-0.875
 20
0.6851999999999999
 30
0.0
 11
-0.875
 21
-1.1952
 31
0.0
  0
LINE
  5
101
330
E7
100
AcDbEntity
  8
AM_9
100
AcDbLine
 10
0.875
 20
0.6851999999999999
 30
0.0
 11
0.9397999999999999
 21
0.7499999999999998
 31
0.0
  0
LINE
  5
102
330
E7
100
AcDbEntity
  8
AM_9
100
AcDbLine
 10
-0.9397999999999999
 20
0.7499999999999998
 30
0.0
 11
-0.875
 21
0.6851999999999999
 31
0.0
  0
LINE
  5
103
330
E7
100
AcDbEntity
  8
AM_9
100
AcDbLine
 10
-0.875
 20
-1.1952
 30
0.0
 11
-0.9397999999999999
 21
-1.26
 31
0.0
  0
LINE
  5
104
330
E7
100
AcDbEntity
  8
AM_9
100
AcDbLine
 10
0.9397999999999999
 20
-1.26
 30
0.0
 11
0.875
 21
-1.1952
 31
0.0
  0
LINE
  5
105
330
E7
100
AcDbEntity
  8
AM_9
100
AcDbLine
 10
1.215
 20
0.4349999999999999
 30
0.0
 11
1.215
 21
0.6851999999999998
 31
0.0
  0
LINE
  5
106
330
E7
100
AcDbEntity
  8
AM_9
100
AcDbLine
 10
-1.215
 20
0.6851999999999998
 30
0.0
 11
-1.215
 21
0.4349999999999999
 31
0.0
  0
LINE
  5
107
330
E7
100
AcDbEntity
  8
AM_9
100
AcDbLine
 10
-1.215
 20
0.6851999999999998
 30
0.0
 11
1.215
 21
0.6851999999999998
 31
0.0
  0
LINE
  5
108
330
E7
100
AcDbEntity
  8
AM_9
100
AcDbLine
 10
-1.1502
 20
0.7499999999999998
 30
0.0
 11
1.1502
 21
0.7499999999999998
 31
0.0
  0
LINE
  5
109
330
E7
100
AcDbEntity
  8
AM_9
100
AcDbLine
 10
-1.1502
 20
0.7499999999999998
 30
0.0
 11
-1.215
 21
0.6851999999999998
 31
0.0
  0
LINE
  5
10A
330
E7
100
AcDbEntity
  8
AM_9
100
AcDbLine
 10
1.215
 20
0.6851999999999998
 30
0.0
 11
1.1502
 21
0.7499999999999998
 31
0.0
  0
LINE
  5
10B
330
E7
100
AcDbEntity
  8
AM_9
100
AcDbLine
 10
1.215
 20
-0.63
 30
0.0
 11
1.215
 21
-0.4350000000000001
 31
0.0
  0
LINE
  5
10C
330
E7
100
AcDbEntity
  8
AM_9
100
AcDbLine
 10
-1.215
 20
-0.4350000000000001
 30
0.0
 11
-1.215
 21
-0.63
 31
0.0
  0
LINE
  5
10D
330
E7
100
AcDbEntity
  8
AM_9
100
AcDbLine
 10
1.62
 20
-0.9056218295075322
 30
0.0
 11
1.62
 21
-0.6947999999999998
 31
0.0
  0
LINE
  5
10E
330
E7
100
AcDbEntity
  8
AM_9
100
AcDbLine
 10
-1.62
 20
-0.6947999999999998
 30
0.0
 11
-1.62
 21
-0.9056218295075322
 31
0.0
  0
LINE
  5
10F
330
E7
100
AcDbEntity
  8
AM_9
100
AcDbLine
 10
-1.62
 20
-0.6947999999999998
 30
0.0
 11
1.62
 21
-0.6947999999999998
 31
0.0
  0
LINE
  5
110
330
E7
100
AcDbEntity
  8
AM_9
100
AcDbLine
 10
-1.5552
 20
-0.6299999999999997
 30
0.0
 11
1.5552
 21
-0.6299999999999997
 31
0.0
  0
LINE
  5
111
330
E7
100
AcDbEntity
  8
AM_9
100
AcDbLine
 10
-1.5552
 20
-0.6299999999999997
 30
0.0
 11
-1.62
 21
-0.6947999999999998
 31
0.0
  0
LINE
  5
112
330
E7
100
AcDbEntity
  8
AM_9
100
AcDbLine
 10
1.62
 20
-0.6947999999999998
 30
0.0
 11
1.5552
 21
-0.6299999999999997
 31
0.0
  0
LINE
  5
113
330
E7
100
AcDbEntity
  8
AM_9
100
AcDbLine
 10
1.688316666666667
 20
-0.3000000000000002
 30
0.0
 11
1.688316666666667
 21
-0.2000000000000001
 31
0.0
  0
LINE
  5
114
330
E7
100
AcDbEntity
  8
AM_9
100
AcDbLine
 10
-1.688316666666667
 20
-0.2000000000000001
 30
0.0
 11
-1.688316666666667
 21
-0.3000000000000002
 31
0.0
  0
LINE
  5
115
330
E7
100
AcDbEntity
  8
AM_9
100
AcDbLine
 10
-1.67805057209251
 20
0.4349999999999999
 30
0.0
 11
1.678050572091649
 21
0.4349999999999999
 31
0.0
  0
ARC
  5
116
330
E7
100
AcDbEntity
  8
AM_9
100
AcDbCircle
 10
1.67805057209251
 20
0.3849999999999997
 30
0.0
 40
0.0500000000000002
100
AcDbArc
 50
12.92189495844629
 51
90.0
  0
ARC
  5
117
330
E7
100
AcDbEntity
  8
AM_9
100
AcDbCircle
 10
-1.67805057209251
 20
0.3849999999999997
 30
0.0
 40
0.0500000000000002
100
AcDbArc
 50
90.0
 51
167.0781050415538
  0
LINE
  5
118
330
E7
100
AcDbEntity
  8
AM_9
100
AcDbLine
 10
-1.678050572092514
 20
-0.4350000000000001
 30
0.0
 11
1.678050572091653
 21
-0.4350000000000001
 31
0.0
  0
ARC
  5
119
330
E7
100
AcDbEntity
  8
AM_9
100
AcDbCircle
 10
1.678050572092514
 20
-0.3849999999999992
 30
0.0
 40
0.0500000000000009
100
AcDbArc
 50
270.0
 51
347.0781236960814
  0
ARC
  5
11A
330
E7
100
AcDbEntity
  8
AM_9
100
AcDbCircle
 10
-1.678050572092514
 20
-0.3849999999999992
 30
0.0
 40
0.0500000000000009
100
AcDbArc
 50
192.9218763039185
 51
270.0
  0
LINE
  5
11B
330
E7
100
AcDbEntity
  8
AM_9
100
AcDbLine
 10
-1.746065211411074
 20
-0.3
 30
0.0
 11
1.746065211411104
 21
-0.3
 31
0.0
  0
LINE
  5
11C
330
E7
100
AcDbEntity
  8
AM_9
100
AcDbLine
 10
-1.726784366253863
 20
-0.3961811138371494
 30
0.0
 11
1.726784366253893
 21
-0.3961811138371494
 31
0.0
  0
ARC
  5
11D
330
E7
100
AcDbEntity
  8
AM_9
100
AcDbCircle
 10
0.0000000000738443
 20
-0.000000000014798
 30
0.0
 40
1.771649999924745
100
AcDbArc
 50
347.0781002291724
 51
350.2509203909797
  0
ARC
  5
11E
330
E7
100
AcDbEntity
  8
AM_9
100
AcDbCircle
 10
-0.0000000000740148
 20
-0.0000000000148313
 30
0.0
 40
1.771649999924572
100
AcDbArc
 50
189.7490796090201
 51
192.9218997708278
  0
LINE
  5
11F
330
E7
100
AcDbEntity
  8
AM_9
100
AcDbLine
 10
-1.760324891177762
 20
-0.2000000000000001
 30
0.0
 11
1.760324891177771
 21
-0.2000000000000001
 31
0.0
  0
LINE
  5
120
330
E7
100
AcDbEntity
  8
AM_9
100
AcDbLine
 10
-1.726784362613476
 20
0.3961811297040406
 30
0.0
 11
1.726784362613486
 21
0.3961811297040406
 31
0.0
  0
ARC
  5
121
330
E7
100
AcDbEntity
  8
AM_9
100
AcDbCircle
 10
0.0000000000006417
 20
0.0000000000000364
 30
0.0
 40
1.771649999999376
100
AcDbArc
 50
353.5181126598179
 51
12.92190029723701
  0
ARC
  5
122
330
E7
100
AcDbEntity
  8
AM_9
100
AcDbCircle
 10
-0.0000000000006324
 20
0.0000000000000359
 30
0.0
 40
1.771649999999385
100
AcDbArc
 50
167.078099702763
 51
186.4818873401819
  0
LINE
  5
123
330
E7
100
AcDbEntity
  8
AM_4
100
AcDbLine
 10
1.62
 20
-1.1952
 30
0.0
 11
1.62
 21
-0.9056218295075322
 31
0.0
  0
LINE
  5
124
330
E7
100
AcDbEntity
  8
AM_4
100
AcDbLine
 10
-1.62
 20
-0.9056218295075322
 30
0.0
 11
-1.62
 21
-1.1952
 31
0.0
  0
LINE
  5
125
330
E7
100
AcDbEntity
  8
AM_4
100
AcDbLine
 10
-1.5552
 20
-1.26
 30
0.0
 11
1.5552
 21
-1.26
 31
0.0
  0
LINE
  5
126
330
E7
100
AcDbEntity
  8
AM_4
100
AcDbLine
 10
-1.62
 20
-1.1952
 30
0.0
 11
1.62
 21
-1.1952
 31
0.0
  0
LINE
  5
127
330
E7
100
AcDbEntity
  8
AM_4
100
AcDbLine
 10
1.5552
 20
-1.26
 30
0.0
 11
1.62
 21
-1.1952
 31
0.0
  0
LINE
  5
128
330
E7
100
AcDbEntity
  8
AM_4
100
AcDbLine
 10
-1.62
 20
-1.1952
 30
0.0
 11
-1.5552
 21
-1.26
 31
0.0
  0
ENDBLK
  5
EA
330
E7
100
AcDbEntity
  8
0
100
AcDbBlockEnd
  0
BLOCK
  5
12B
330
129
100
AcDbEntity
  8
0
100
AcDbBlockBegin
  2
4_128479h_0_in_128479_4
 70
     2
 10
0.0
 20
0.0
 30
0.0
  3
4_128479h_0_in_128479_4
  1

  0
ATTDEF
  5
12D
330
129
100
AcDbEntity
  8
AM_6
100
AcDbText
 10
9.065000000000001
 20
1.2375
 30
0.0
 40
0.5
  1
P2B-DLMAH - Inch - Housing
100
AcDbAttributeDefinition
  3

  2
NN
 70
     8
280
     0
  0
ATTDEF
  5
12E
330
129
100
AcDbEntity
  8
AM_6
100
AcDbText
 10
9.065000000000001
 20
0.7375000000000003
 30
0.0
 40
0.5
  1
DLMAH Medium Duty Air Handling Pillow Blocks
100
AcDbAttributeDefinition
  3

  2
NT
 70
     8
280
     0
  0
ATTDEF
  5
12F
330
129
100
AcDbEntity
  8
AM_6
100
AcDbText
 10
9.065000000000001
 20
0.2375000000000003
 30
0.0
 40
0.5
  1
128479h
100
AcDbAttributeDefinition
  3

  2
NB
 70
     8
280
     0
  0
ATTDEF
  5
130
330
129
100
AcDbEntity
  8
AM_6
100
AcDbText
 10
9.065000000000001
 20
-0.2624999999999997
 30
0.0
 40
0.5
  1
$PN.h
100
AcDbAttributeDefinition
  3

  2
NBSYN
 70
     8
280
     0
  0
ATTDEF
  5
131
330
129
100
AcDbEntity
  8
AM_6
100
AcDbText
 10
9.065000000000001
 20
-0.7624999999999997
 30
0.0
 40
0.5
  1
128479
100
AcDbAttributeDefinition
  3

  2
LINA
 70
     8
280
     0
  0
ATTDEF
  5
132
330
129
100
AcDbEntity
  8
AM_6
100
AcDbText
 10
9.065000000000001
 20
-1.2625
 30
0.0
 40
0.5
  1
210
100
AcDbAttributeDefinition
  3

  2
SERIES
 70
     8
280
     0
  0
ATTDEF
  5
133
330
129
100
AcDbEntity
  8
AM_6
100
AcDbText
 10
9.065000000000001
 20
-1.7625
 30
0.0
 40
0.5
  1
1-3/4
100
AcDbAttributeDefinition
  3

  2
SS
 70
     8
280
     0
  0
ATTDEF
  5
134
330
129
100
AcDbEntity
  8
AM_6
100
AcDbText
 10
9.065000000000001
 20
-2.2625
 30
0.0
 40
0.5
  1
128479
100
AcDbAttributeDefinition
  3

  2
PN
 70
     8
280
     0
  0
ATTDEF
  5
135
330
129
100
AcDbEntity
  8
AM_6
100
AcDbText
 10
9.065000000000001
 20
-2.7625
 30
0.0
 40
0.5
  1
P2B-DLMAH-112
100
AcDbAttributeDefinition
  3

  2
DESCRIPTION
 70
     8
280
     0
  0
ATTDEF
  5
136
330
129
100
AcDbEntity
  8
AM_6
100
AcDbText
 10
9.065000000000001
 20
-3.2625
 30
0.0
 40
0.5
  1
10.1
100
AcDbAttributeDefinition
  3

  2
WEIGHT
 70
     8
280
     0
  0
ATTDEF
  5
137
330
129
100
AcDbEntity
  8
AM_6
100
AcDbText
 10
9.065000000000001
 20
-3.7625
 30
0.0
 40
0.5
  1
3.543300
100
AcDbAttributeDefinition
  3

  2
BOD
 70
     8
280
     0
  0
ATTDEF
  5
138
330
129
100
AcDbEntity
  8
AM_6
100
AcDbText
 10
9.065000000000001
 20
-4.262499999999999
 30
0.0
 40
0.5
  1
2.01
100
AcDbAttributeDefinition
  3

  2
A
 70
     8
280
     0
  0
ATTDEF
  5
139
330
129
100
AcDbEntity
  8
AM_6
100
AcDbText
 10
9.065000000000001
 20
-4.762499999999999
 30
0.0
 40
0.5
  1
2.010000
100
AcDbAttributeDefinition
  3

  2
A1
 70
     8
280
     0
  0
ATTDEF
  5
13A
330
129
100
AcDbEntity
  8
AM_6
100
AcDbText
 10
9.065000000000001
 20
-5.262499999999999
 30
0.0
 40
0.5
  1
8.13
100
AcDbAttributeDefinition
  3

  2
B
 70
     8
280
     0
  0
ATTDEF
  5
13B
330
129
100
AcDbEntity
  8
AM_6
100
AcDbText
 10
9.065000000000001
 20
-5.762499999999999
 30
0.0
 40
0.5
  1
8.130000
100
AcDbAttributeDefinition
  3

  2
B1
 70
     8
280
     0
  0
ATTDEF
  5
13C
330
129
100
AcDbEntity
  8
AM_6
100
AcDbText
 10
9.065000000000001
 20
-6.262499999999999
 30
0.0
 40
0.5
  1
2.25
100
AcDbAttributeDefinition
  3

  2
C
 70
     8
280
     0
  0
ATTDEF
  5
13D
330
129
100
AcDbEntity
  8
AM_6
100
AcDbText
 10
9.065000000000001
 20
-6.762499999999999
 30
0.0
 40
0.5
  1
2.250000
100
AcDbAttributeDefinition
  3

  2
C1
 70
     8
280
     0
  0
ATTDEF
  5
13E
330
129
100
AcDbEntity
  8
AM_6
100
AcDbText
 10
9.065000000000001
 20
-7.262499999999999
 30
0.0
 40
0.5
  1
6.00
100
AcDbAttributeDefinition
  3

  2
DMIN
 70
     8
280
     0
  0
ATTDEF
  5
13F
330
129
100
AcDbEntity
  8
AM_6
100
AcDbText
 10
9.065000000000001
 20
-7.762499999999999
 30
0.0
 40
0.5
  1
6.000000
100
AcDbAttributeDefinition
  3

  2
DMIN1
 70
     8
280
     0
  0
ATTDEF
  5
140
330
129
100
AcDbEntity
  8
AM_6
100
AcDbText
 10
9.065000000000001
 20
-8.2625
 30
0.0
 40
0.5
  1
6.68
100
AcDbAttributeDefinition
  3

  2
DMAX
 70
     8
280
     0
  0
ATTDEF
  5
141
330
129
100
AcDbEntity
  8
AM_6
100
AcDbText
 10
9.065000000000001
 20
-8.7625
 30
0.0
 40
0.5
  1
6.680000
100
AcDbAttributeDefinition
  3

  2
DMAX1
 70
     8
280
     0
  0
ATTDEF
  5
142
330
129
100
AcDbEntity
  8
AM_6
100
AcDbText
 10
9.065000000000001
 20
-9.2625
 30
0.0
 40
0.5
  1
5/8
100
AcDbAttributeDefinition
  3

  2
F
 70
     8
280
     0
  0
ATTDEF
  5
143
330
129
100
AcDbEntity
  8
AM_6
100
AcDbText
 10
9.065000000000001
 20
-9.7625
 30
0.0
 40
0.5
  1
0.625000
100
AcDbAttributeDefinition
  3

  2
F1
 70
     8
280
     0
  0
ATTDEF
  5
144
330
129
100
AcDbEntity
  8
AM_6
100
AcDbText
 10
9.065000000000001
 20
-10.2625
 30
0.0
 40
0.5
  1
1.08
100
AcDbAttributeDefinition
  3

  2
G
 70
     8
280
     0
  0
ATTDEF
  5
145
330
129
100
AcDbEntity
  8
AM_6
100
AcDbText
 10
9.065000000000001
 20
-10.7625
 30
0.0
 40
0.5
  1
1.080000
100
AcDbAttributeDefinition
  3

  2
G1
 70
     8
280
     0
  0
ATTDEF
  5
146
330
129
100
AcDbEntity
  8
AM_6
100
AcDbText
 10
9.065000000000001
 20
-11.2625
 30
0.0
 40
0.5
  1
0.81
100
AcDbAttributeDefinition
  3

  2
H
 70
     8
280
     0
  0
ATTDEF
  5
147
330
129
100
AcDbEntity
  8
AM_6
100
AcDbText
 10
9.065000000000001
 20
-11.7625
 30
0.0
 40
0.5
  1
0.810000
100
AcDbAttributeDefinition
  3

  2
H1
 70
     8
280
     0
  0
ATTDEF
  5
148
330
129
100
AcDbEntity
  8
AM_6
100
AcDbText
 10
9.065000000000001
 20
-12.2625
 30
0.0
 40
0.5
  1
4.60
100
AcDbAttributeDefinition
  3

  2
J
 70
     8
280
     0
  0
ATTDEF
  5
149
330
129
100
AcDbEntity
  8
AM_6
100
AcDbText
 10
9.065000000000001
 20
-12.7625
 30
0.0
 40
0.5
  1
4.600000
100
AcDbAttributeDefinition
  3

  2
J1
 70
     8
280
     0
  0
ATTDEF
  5
14A
330
129
100
AcDbEntity
  8
AM_6
100
AcDbText
 10
9.065000000000001
 20
-13.2625
 30
0.0
 40
0.5
  1
3.24
100
AcDbAttributeDefinition
  3

  2
L
 70
     8
280
     0
  0
ATTDEF
  5
14B
330
129
100
AcDbEntity
  8
AM_6
100
AcDbText
 10
9.065000000000001
 20
-13.7625
 30
0.0
 40
0.5
  1
3.240000
100
AcDbAttributeDefinition
  3

  2
L1
 70
     8
280
     0
  0
ATTDEF
  5
14C
330
129
100
AcDbEntity
  8
AM_6
100
AcDbText
 10
9.065000000000001
 20
-14.2625
 30
0.0
 40
0.5
  1
2.31
100
AcDbAttributeDefinition
  3

  2
M
 70
     8
280
     0
  0
ATTDEF
  5
14D
330
129
100
AcDbEntity
  8
AM_6
100
AcDbText
 10
9.065000000000001
 20
-14.7625
 30
0.0
 40
0.5
  1
2.310000
100
AcDbAttributeDefinition
  3

  2
M1
 70
     8
280
     0
  0
ATTDEF
  5
14E
330
129
100
AcDbEntity
  8
AM_6
100
AcDbText
 10
9.065000000000001
 20
-15.2625
 30
0.0
 40
0.5
  1
0.75
100
AcDbAttributeDefinition
  3

  2
R
 70
     8
280
     0
  0
ATTDEF
  5
14F
330
129
100
AcDbEntity
  8
AM_6
100
AcDbText
 10
9.065000000000001
 20
-15.7625
 30
0.0
 40
0.5
  1
0.750000
100
AcDbAttributeDefinition
  3

  2
R1
 70
     8
280
     0
  0
ATTDEF
  5
150
330
129
100
AcDbEntity
  8
AM_6
100
AcDbText
 10
9.065000000000001
 20
-16.2625
 30
0.0
 40
0.5
  1
1.26
100
AcDbAttributeDefinition
  3

  2
S
 70
     8
280
     0
  0
ATTDEF
  5
151
330
129
100
AcDbEntity
  8
AM_6
100
AcDbText
 10
9.065000000000001
 20
-16.7625
 30
0.0
 40
0.5
  1
1.260000
100
AcDbAttributeDefinition
  3

  2
S1
 70
     8
280
     0
  0
ATTDEF
  5
152
330
129
100
AcDbEntity
  8
AM_6
100
AcDbText
 10
9.065000000000001
 20
-17.2625
 30
0.0
 40
0.5
  1
3.69
100
AcDbAttributeDefinition
  3

  2
U
 70
     8
280
     0
  0
ATTDEF
  5
153
330
129
100
AcDbEntity
  8
AM_6
100
AcDbText
 10
9.065000000000001
 20
-17.7625
 30
0.0
 40
0.5
  1
3.690000
100
AcDbAttributeDefinition
  3

  2
U1
 70
     8
280
     0
  0
ATTDEF
  5
154
330
129
100
AcDbEntity
  8
AM_6
100
AcDbText
 10
9.065000000000001
 20
-18.2625
 30
0.0
 40
0.5
  1
7.38
100
AcDbAttributeDefinition
  3

  2
V
 70
     8
280
     0
  0
ATTDEF
  5
155
330
129
100
AcDbEntity
  8
AM_6
100
AcDbText
 10
9.065000000000001
 20
-18.7625
 30
0.0
 40
0.5
  1
7.380000
100
AcDbAttributeDefinition
  3

  2
V1
 70
     8
280
     0
  0
ATTDEF
  5
156
330
129
100
AcDbEntity
  8
AM_6
100
AcDbText
 10
9.065000000000001
 20
-19.2625
 30
0.0
 40
0.5
  1
0.81
100
AcDbAttributeDefinition
  3

  2
W
 70
     8
280
     0
  0
ATTDEF
  5
157
330
129
100
AcDbEntity
  8
AM_6
100
AcDbText
 10
9.065000000000001
 20
-19.7625
 30
0.0
 40
0.5
  1
0.810000
100
AcDbAttributeDefinition
  3

  2
W1
 70
     8
280
     0
  0
ATTDEF
  5
158
330
129
100
AcDbEntity
  8
AM_6
100
AcDbText
 10
9.065000000000001
 20
-20.2625
 30
0.0
 40
0.5
  1
0.12
100
AcDbAttributeDefinition
  3

  2
X
 70
     8
280
     0
  0
ATTDEF
  5
159
330
129
100
AcDbEntity
  8
AM_6
100
AcDbText
 10
9.065000000000001
 20
-20.7625
 30
0.0
 40
0.5
  1
0.120000
100
AcDbAttributeDefinition
  3

  2
X1
 70
     8
280
     0
  0
ATTDEF
  5
15A
330
129
100
AcDbEntity
  8
AM_6
100
AcDbText
 10
9.065000000000001
 20
-21.2625
 30
0.0
 40
0.5
  1
4450
100
AcDbAttributeDefinition
  3

  2
CAPS
 70
     8
280
     0
  0
ATTDEF
  5
15B
330
129
100
AcDbEntity
  8
AM_6
100
AcDbText
 10
9.065000000000001
 20
-21.7625
 30
0.0
 40
0.5
  1
7891
100
AcDbAttributeDefinition
  3

  2
CAPD
 70
     8
280
     0
  0
ATTDEF
  5
15C
330
129
100
AcDbEntity
  8
AM_6
100
AcDbText
 10
9.065000000000001
 20
-22.2625
 30
0.0
 40
0.5
  1
baldor
100
AcDbAttributeDefinition
  3

  2
COMPANY
 70
     8
280
     0
  0
LINE
  5
15D
330
129
100
AcDbEntity
  8
AM_9
100
AcDbLine
 10
-1.5750749
 20
-0.9600000749999998
 30
0.0
 11
-1.5750749
 21
0.9600000750000002
 31
0.0
  0
LINE
  5
15E
330
129
100
AcDbEntity
  8
AM_9
100
AcDbLine
 10
-1.63413
 20
-1.125
 30
0.0
 11
-1.63413
 21
1.125
 31
0.0
  0
LINE
  5
15F
330
129
100
AcDbEntity
  8
AM_9
100
AcDbLine
 10
1.575074900000001
 20
-0.9600000750000001
 30
0.0
 11
1.575074900000001
 21
0.960000075
 31
0.0
  0
LINE
  5
160
330
129
100
AcDbEntity
  8
AM_9
100
AcDbLine
 10
1.634130000000001
 20
-1.125
 30
0.0
 11
1.634130000000001
 21
1.125
 31
0.0
  0
LINE
  5
161
330
129
100
AcDbEntity
  8
AM_9
100
AcDbLine
 10
1.620000000000001
 20
-0.960000075
 30
0.0
 11
-1.620000000000001
 21
-0.9600000749999996
 31
0.0
  0
LINE
  5
162
330
129
100
AcDbEntity
  8
AM_9
100
AcDbLine
 10
1.77165
 20
-0.9765828166226911
 30
0.0
 11
1.77165
 21
0.9765828166226914
 31
0.0
  0
LINE
  5
163
330
129
100
AcDbEntity
  8
AM_9
100
AcDbLine
 10
-1.77165
 20
0.9765828166226914
 30
0.0
 11
-1.77165
 21
-0.9765828166226911
 31
0.0
  0
LINE
  5
166
330
129
100
AcDbEntity
  8
AM_7
100
AcDbLine
 10
-3.753
 20
-0.8100000000000003
 30
0.0
 11
-3.626999999999999
 21
-0.8100000000000003
 31
0.0
  0
LINE
  5
167
330
129
100
AcDbEntity
  8
AM_7
100
AcDbLine
 10
-3.69
 20
-0.8730000000000002
 30
0.0
 11
-3.69
 21
-0.7470000000000003
 31
0.0
  0
LINE
  5
168
330
129
100
AcDbEntity
  8
AM_7
100
AcDbLine
 10
3.626999999999999
 20
-0.8099999999999998
 30
0.0
 11
3.753
 21
-0.8099999999999998
 31
0.0
  0
LINE
  5
169
330
129
100
AcDbEntity
  8
AM_7
100
AcDbLine
 10
3.69
 20
-0.8729999999999998
 30
0.0
 11
3.69
 21
-0.7469999999999999
 31
0.0
  0
LINE
  5
16A
330
129
100
AcDbEntity
  8
AM_7
100
AcDbLine
 10
0.0
 20
1.2375
 30
0.0
 11
0.0
 21
-1.3605
 31
0.0
  0
LINE
  5
16B
330
129
100
AcDbEntity
  8
AM_7
100
AcDbLine
 10
2.671875
 20
0.0000000000000002
 30
0.0
 11
3.668125
 21
0.0000000000000002
 31
0.0
  0
LINE
  5
16C
330
129
100
AcDbEntity
  8
AM_7
100
AcDbLine
 10
3.34
 20
-0.3281249999999998
 30
0.0
 11
3.34
 21
0.3281250000000002
 31
0.0
  0
LINE
  5
16D
330
129
100
AcDbEntity
  8
AM_7
100
AcDbLine
 10
-3.668125
 20
0.0000000000000003
 30
0.0
 11
-2.671875
 21
0.0000000000000003
 31
0.0
  0
LINE
  5
16E
330
129
100
AcDbEntity
  8
AM_7
100
AcDbLine
 10
-3.34
 20
-0.3281249999999997
 30
0.0
 11
-3.34
 21
0.3281250000000003
 31
0.0
  0
LINE
  5
16F
330
129
100
AcDbEntity
  8
AM_7
100
AcDbLine
 10
3.0
 20
-0.3281249999999998
 30
0.0
 11
3.0
 21
0.3281250000000002
 31
0.0
  0
LINE
  5
170
330
129
100
AcDbEntity
  8
AM_7
100
AcDbLine
 10
-3.0
 20
-0.3281249999999997
 30
0.0
 11
-3.0
 21
0.3281250000000003
 31
0.0
  0
LINE
  5
171
330
129
100
AcDbEntity
  8
AM_4
100
AcDbLine
 10
-1.630031263575155
 20
1.125
 30
0.0
 11
-3.8313
 21
1.125
 31
0.0
  0
LINE
  5
172
330
129
100
AcDbEntity
  8
AM_4
100
AcDbLine
 10
-4.065000000000001
 20
0.8912999999999993
 30
0.0
 11
-4.065
 21
-0.8912999999999993
 31
0.0
  0
LINE
  5
173
330
129
100
AcDbEntity
  8
AM_4
100
AcDbLine
 10
-3.8313
 20
1.125
 30
0.0
 11
-4.065000000000001
 21
0.8912999999999993
 31
0.0
  0
LINE
  5
174
330
129
100
AcDbEntity
  8
AM_4
100
AcDbLine
 10
3.8313
 20
1.125
 30
0.0
 11
1.630031263575156
 21
1.125
 31
0.0
  0
LINE
  5
175
330
129
100
AcDbEntity
  8
AM_4
100
AcDbLine
 10
4.065
 20
-0.8912999999999998
 30
0.0
 11
4.065
 21
0.8912999999999992
 31
0.0
  0
LINE
  5
176
330
129
100
AcDbEntity
  8
AM_4
100
AcDbLine
 10
4.065
 20
0.8912999999999992
 30
0.0
 11
3.8313
 21
1.125
 31
0.0
  0
LINE
  5
177
330
129
100
AcDbEntity
  8
AM_4
100
AcDbLine
 10
-4.065
 20
-0.8912999999999998
 30
0.0
 11
-3.8313
 21
-1.125
 31
0.0
  0
LWPOLYLINE
  5
178
330
129
100
AcDbEntity
  8
AM_4
100
AcDbPolyline
 90
        9
 70
     0
 43
0.0
 10
-4.0059449
 20
0.2866049374382633
 10
-4.017065102482412
 20
0.259244762725269
 10
-4.027077455911143
 20
0.2314077993038966
 10
-4.043739417878167
 20
0.1742866366779153
 10
-4.052955988152057
 20
0.1316007559177614
 10
-4.059571521857632
 20
0.0885540791352485
 10
-4.063608792526376
 20
0.044892264127831
 10
-4.064999271904907
 20
0.0010274908059568
 10
-4.065
 20
0.0000000000000011
  0
CIRCLE
  5
179
330
129
100
AcDbEntity
  8
AM_4
100
AcDbCircle
 10
-3.69
 20
-0.8100000000000003
 30
0.0
 40
0.06
  0
LINE
  5
17A
330
129
100
AcDbEntity
  8
AM_4
100
AcDbLine
 10
-3.0
 20
0.3125000000000002
 30
0.0
 11
-3.34
 21
0.3125000000000002
 31
0.0
  0
ARC
  5
17B
330
129
100
AcDbEntity
  8
AM_4
100
AcDbCircle
 10
-3.0
 20
0.0000000000000003
 30
0.0
 40
0.3125
100
AcDbArc
 50
270.0
 51
90.0
  0
LINE
  5
17C
330
129
100
AcDbEntity
  8
AM_4
100
AcDbLine
 10
-3.34
 20
-0.3124999999999997
 30
0.0
 11
-3.0
 21
-0.3124999999999997
 31
0.0
  0
ARC
  5
17D
330
129
100
AcDbEntity
  8
AM_4
100
AcDbCircle
 10
-3.34
 20
0.0000000000000003
 30
0.0
 40
0.3124999999999999
100
AcDbArc
 50
90.0
 51
270.0
  0
LINE
  5
17E
330
129
100
AcDbEntity
  8
AM_4
100
AcDbLine
 10
-3.340000000000001
 20
0.7250000000000006
 30
0.0
 11
-2.8387402
 21
0.725000000000001
 31
0.0
  0
ARC
  5
17F
330
129
100
AcDbEntity
  8
AM_4
100
AcDbCircle
 10
-3.340000000000001
 20
0.0000000000000013
 30
0.0
 40
0.7249999999999993
100
AcDbArc
 50
90.0
 51
156.7142443224245
  0
LINE
  5
180
330
129
100
AcDbEntity
  8
AM_4
100
AcDbLine
 10
-4.0059449
 20
-0.9503550999999993
 30
0.0
 11
-4.0059449
 21
0.2866049374382633
 31
0.0
  0
LINE
  5
181
330
129
100
AcDbEntity
  8
AM_4
100
AcDbLine
 10
-1.630031263575156
 20
-1.125
 30
0.0
 11
-3.8313
 21
-1.125
 31
0.0
  0
ARC
  5
182
330
129
100
AcDbEntity
  8
AM_4
100
AcDbCircle
 10
-2.8387402
 20
0.8037402000000007
 30
0.0
 40
0.0787401999999997
100
AcDbArc
 50
270.0
 51
0.0
  0
LINE
  5
183
330
129
100
AcDbEntity
  8
AM_4
100
AcDbLine
 10
3.831300000000001
 20
-1.125
 30
0.0
 11
4.065
 21
-0.8912999999999998
 31
0.0
  0
ARC
  5
184
330
129
100
AcDbEntity
  8
AM_4
100
AcDbCircle
 10
3.340000000000001
 20
0.0000000000000007
 30
0.0
 40
0.725
100
AcDbArc
 50
23.28575567757578
 51
90.0
  0
CIRCLE
  5
185
330
129
100
AcDbEntity
  8
AM_4
100
AcDbCircle
 10
3.69
 20
-0.8099999999999998
 30
0.0
 40
0.06
  0
LINE
  5
186
330
129
100
AcDbEntity
  8
AM_4
100
AcDbLine
 10
3.34
 20
0.3125000000000002
 30
0.0
 11
3.0
 21
0.3125000000000002
 31
0.0
  0
ARC
  5
187
330
129
100
AcDbEntity
  8
AM_4
100
AcDbCircle
 10
3.34
 20
0.0000000000000002
 30
0.0
 40
0.3124999999999999
100
AcDbArc
 50
270.0
 51
90.0
  0
LINE
  5
188
330
129
100
AcDbEntity
  8
AM_4
100
AcDbLine
 10
3.0
 20
-0.3124999999999998
 30
0.0
 11
3.34
 21
-0.3124999999999997
 31
0.0
  0
ARC
  5
189
330
129
100
AcDbEntity
  8
AM_4
100
AcDbCircle
 10
3.0
 20
0.0000000000000002
 30
0.0
 40
0.3125
100
AcDbArc
 50
90.0
 51
270.0
  0
ARC
  5
18A
330
129
100
AcDbEntity
  8
AM_4
100
AcDbCircle
 10
2.8387402
 20
0.8037402000000005
 30
0.0
 40
0.0787401999999995
100
AcDbArc
 50
180.0
 51
270.0
  0
LINE
  5
18B
330
129
100
AcDbEntity
  8
AM_4
100
AcDbLine
 10
3.831300000000001
 20
-1.125
 30
0.0
 11
1.630031263575156
 21
-1.125
 31
0.0
  0
LINE
  5
18C
330
129
100
AcDbEntity
  8
AM_4
100
AcDbLine
 10
2.8387402
 20
0.7250000000000012
 30
0.0
 11
3.34
 21
0.7250000000000012
 31
0.0
  0
LWPOLYLINE
  5
18D
330
129
100
AcDbEntity
  8
AM_4
100
AcDbPolyline
 90
        9
 70
     0
 43
0.0
 10
4.065
 20
0.0000000000000003
 10
4.064999271904907
 20
0.0010274908059347
 10
4.0636589176907
 20
0.0440768742848903
 10
4.059733892572297
 20
0.0872245600890572
 10
4.053113094349827
 20
0.1307467577678891
 10
4.043739417878167
 20
0.1742866366779167
 10
4.027383990013052
 20
0.2304956621581769
 10
4.017295387584327
 20
0.2586425292889724
 10
4.005944899999999
 20
0.2866049374382656
  0
LINE
  5
18E
330
129
100
AcDbEntity
  8
AM_4
100
AcDbLine
 10
4.005944899999999
 20
-0.9503551000000012
 30
0.0
 11
4.005944899999999
 21
0.2866049374382656
 31
0.0
  0
LWPOLYLINE
  5
18F
330
129
100
AcDbEntity
  8
AM_4
100
AcDbPolyline
 90
       30
 70
     0
 43
0.0
 10
2.76
 20
0.6841235268575413
 10
2.701287978343565
 20
0.6606028520358707
 10
2.644849335539185
 20
0.6320545906272991
 10
2.591113603737186
 20
0.5986960121390574
 10
2.540489744303104
 20
0.5607809954959017
 10
2.493363035374753
 20
0.5185980968681991
 10
2.450092139662964
 20
0.4724683535852371
 10
2.411006374811785
 20
0.4227428408472997
 10
2.376403207092362
 20
0.3697999998314079
 10
2.346545987505004
 20
0.3140427575254543
 10
2.321661947519054
 20
0.2558954602105304
 10
2.301940469704199
 20
0.195800643929501
 10
2.287531646414764
 20
0.1342156665205069
 10
2.278545137496266
 20
0.0716092268476565
 10
2.275049335707778
 20
0.008457797719662
 10
2.277070846211733
 20
-0.054758000355937
 10
2.284594284092574
 20
-0.1175570569850427
 10
2.297562391445253
 20
-0.1794614334276004
 10
2.315876473142458
 20
-0.239999999999998
 10
2.339397147964128
 20
-0.2987120216564333
 10
2.3679454093727
 20
-0.3551506644608131
 10
2.401303987860941
 20
-0.4088863962628118
 10
2.439219004504097
 20
-0.4595102556968941
 10
2.4814019031318
 20
-0.5066369646252448
 10
2.527531646414762
 20
-0.549907860337034
 10
2.577257159152699
 20
-0.588993625188214
 10
2.630200000168591
 20
-0.623596792907637
 10
2.685957242474544
 20
-0.6534540124949944
 10
2.744104539789468
 20
-0.6783380524809444
 10
2.76
 20
-0.6841235268575407
  0
LINE
  5
190
330
129
100
AcDbEntity
  8
AM_4
100
AcDbLine
 10
2.76
 20
0.6841235268575413
 30
0.0
 11
2.76
 21
1.125
 31
0.0
  0
LINE
  5
191
330
129
100
AcDbEntity
  8
AM_4
100
AcDbLine
 10
2.760000000000001
 20
-1.125
 30
0.0
 11
2.76
 21
-0.6841235268575411
 31
0.0
  0
LWPOLYLINE
  5
192
330
129
100
AcDbEntity
  8
AM_4
100
AcDbPolyline
 90
       30
 70
     0
 43
0.0
 10
-2.760000000000001
 20
-0.6841235268575415
 10
-2.701287978343565
 20
-0.6606028520358709
 10
-2.644849335539186
 20
-0.6320545906272994
 10
-2.591113603737187
 20
-0.5986960121390578
 10
-2.540489744303104
 20
-0.5607809954959019
 10
-2.493363035374754
 20
-0.5185980968681994
 10
-2.450092139662965
 20
-0.4724683535852375
 10
-2.411006374811785
 20
-0.4227428408473001
 10
-2.376403207092362
 20
-0.3697999998314083
 10
-2.346545987505004
 20
-0.3140427575254547
 10
-2.321661947519055
 20
-0.2558954602105308
 10
-2.301940469704199
 20
-0.1958006439295014
 10
-2.287531646414764
 20
-0.1342156665205072
 10
-2.278545137496266
 20
-0.0716092268476568
 10
-2.275049335707778
 20
-0.0084577977196623
 10
-2.277070846211732
 20
0.0547580003559367
 10
-2.284594284092574
 20
0.1175570569850424
 10
-2.297562391445252
 20
0.1794614334276002
 10
-2.315876473142457
 20
0.2399999999999977
 10
-2.339397147964128
 20
0.2987120216564331
 10
-2.3679454093727
 20
0.3551506644608129
 10
-2.401303987860941
 20
0.4088863962628117
 10
-2.439219004504097
 20
0.459510255696894
 10
-2.481401903131799
 20
0.5066369646252447
 10
-2.527531646414761
 20
0.5499078603370339
 10
-2.577257159152698
 20
0.5889936251882137
 10
-2.63020000016859
 20
0.6235967929076368
 10
-2.685957242474544
 20
0.6534540124949944
 10
-2.744104539789468
 20
0.6783380524809444
 10
-2.760000000000001
 20
0.6841235268575412
  0
LINE
  5
193
330
129
100
AcDbEntity
  8
AM_4
100
AcDbLine
 10
-2.76
 20
-1.125
 30
0.0
 11
-2.760000000000001
 21
-0.6841235268575415
 31
0.0
  0
LINE
  5
194
330
129
100
AcDbEntity
  8
AM_4
100
AcDbLine
 10
-2.760000000000001
 20
0.6841235268575412
 30
0.0
 11
-2.76
 21
1.125
 31
0.0
  0
LINE
  5
195
330
129
100
AcDbEntity
  8
AM_4
100
AcDbLine
 10
-1.626
 20
1.1075
 30
0.0
 11
-1.626
 21
0.9600000750000005
 31
0.0
  0
LINE
  5
196
330
129
100
AcDbEntity
  8
AM_4
100
AcDbLine
 10
1.626
 20
0.960000075
 30
0.0
 11
1.626
 21
1.107499999999999
 31
0.0
  0
LINE
  5
197
330
129
100
AcDbEntity
  8
AM_4
100
AcDbLine
 10
-1.626
 20
0.9600000750000005
 30
0.0
 11
1.626
 21
0.960000075
 31
0.0
  0
LINE
  5
198
330
129
100
AcDbEntity
  8
AM_4
100
AcDbLine
 10
1.626
 20
-1.1075
 30
0.0
 11
1.625999999999999
 21
-0.960000075
 31
0.0
  0
LINE
  5
199
330
129
100
AcDbEntity
  8
AM_4
100
AcDbLine
 10
-1.626
 20
-0.9600000749999996
 30
0.0
 11
-1.626
 21
-1.107499999999999
 31
0.0
  0
LINE
  5
19A
330
129
100
AcDbEntity
  8
AM_4
100
AcDbLine
 10
-1.620000000000001
 20
-0.9600000749999996
 30
0.0
 11
-1.626
 21
-0.9600000749999996
 31
0.0
  0
LINE
  5
19B
330
129
100
AcDbEntity
  8
AM_4
100
AcDbLine
 10
1.625999999999999
 20
-0.960000075
 30
0.0
 11
1.620000000000001
 21
-0.960000075
 31
0.0
  0
LWPOLYLINE
  5
19C
330
129
100
AcDbEntity
  8
AM_4
100
AcDbPolyline
 90
       37
 70
     0
 43
0.0
 10
-1.77165
 20
0.9765828166226914
 10
-1.764908336874241
 20
0.9613048040444099
 10
-1.744734655624079
 20
0.9461430663669653
 10
-1.711282490145028
 20
0.9312129935689907
 10
-1.664806431615355
 20
0.9166282125195028
 10
-1.605660190903482
 20
0.9024997222088197
 10
-1.534293906614702
 20
0.8889350489792219
 10
-1.451250719264593
 20
0.8760374281845599
 10
-1.357162637651739
 20
0.8639050185068775
 10
-1.252745728889148
 20
0.8526301549095711
 10
-1.138794668701159
 20
0.842298645912565
 10
-1.016176693461333
 20
0.8329891205376623
 10
-0.885825000000002
 20
0.8247724298942107
 10
-0.7487316434129125
 20
0.8177111079593806
 10
-0.6059399869229236
 20
0.8118588956568389
 10
-0.4585367612558837
 20
0.8072603318558702
 10
-0.3076437939636202
 20
0.8039504144036885
 10
-0.1544094716388918
 20
0.8019543337706881
 10
-0.0000000000000034
 20
0.8012872813357522
 10
0.1544094716388851
 20
0.801954333770688
 10
0.3076437939636135
 20
0.8039504144036885
 10
0.4585367612558772
 20
0.8072603318558701
 10
0.6059399869229173
 20
0.8118588956568387
 10
0.7487316434129065
 20
0.8177111079593803
 10
0.8858249999999963
 20
0.8247724298942103
 10
1.016176693461327
 20
0.8329891205376617
 10
1.138794668701154
 20
0.8422986459125645
 10
1.252745728889144
 20
0.8526301549095706
 10
1.357162637651735
 20
0.863905018506877
 10
1.451250719264589
 20
0.8760374281845593
 10
1.534293906614698
 20
0.8889350489792214
 10
1.605660190903479
 20
0.9024997222088192
 10
1.664806431615353
 20
0.9166282125195021
 10
1.711282490145026
 20
0.9312129935689899
 10
1.744734655624077
 20
0.9461430663669647
 10
1.764908336874241
 20
0.9613048040444092
 10
1.77165
 20
0.9765828166226906
  0
LWPOLYLINE
  5
19D
330
129
100
AcDbEntity
  8
AM_4
100
AcDbPolyline
 90
        6
 70
     0
 43
0.0
 10
1.77165
 20
0.9765828166226914
 10
1.764908336874241
 20
0.9918608292009728
 10
1.744734655624079
 20
1.007022566878417
 10
1.711282490145028
 20
1.021952639676392
 10
1.664806431615355
 20
1.03653742072588
 10
1.626
 20
1.046187344238454
  0
LWPOLYLINE
  5
19E
330
129
100
AcDbEntity
  8
AM_4
100
AcDbPolyline
 90
       37
 70
     0
 43
0.0
 10
1.77165
 20
-0.9765828166226911
 10
1.764908336874241
 20
-0.9613048040444095
 10
1.744734655624079
 20
-0.946143066366965
 10
1.711282490145028
 20
-0.9312129935689902
 10
1.664806431615355
 20
-0.9166282125195023
 10
1.605660190903482
 20
-0.9024997222088195
 10
1.534293906614702
 20
-0.8889350489792215
 10
1.451250719264593
 20
-0.8760374281845595
 10
1.357162637651739
 20
-0.8639050185068771
 10
1.252745728889149
 20
-0.8526301549095706
 10
1.138794668701159
 20
-0.8422986459125645
 10
1.016176693461333
 20
-0.8329891205376617
 10
0.8858250000000023
 20
-0.8247724298942103
 10
0.7487316434129128
 20
-0.8177111079593802
 10
0.6059399869229238
 20
-0.8118588956568384
 10
0.4585367612558838
 20
-0.8072603318558698
 10
0.3076437939636203
 20
-0.8039504144036882
 10
0.154409471638892
 20
-0.8019543337706876
 10
0.0000000000000036
 20
-0.8012872813357517
 10
-0.1544094716388849
 20
-0.8019543337706875
 10
-0.3076437939636133
 20
-0.803950414403688
 10
-0.4585367612558769
 20
-0.8072603318558695
 10
-0.6059399869229171
 20
-0.8118588956568382
 10
-0.7487316434129062
 20
-0.81771110795938
 10
-0.885824999999996
 20
-0.8247724298942098
 10
-1.016176693461327
 20
-0.8329891205376613
 10
-1.138794668701154
 20
-0.8422986459125642
 10
-1.252745728889143
 20
-0.8526301549095701
 10
-1.357162637651735
 20
-0.8639050185068765
 10
-1.451250719264589
 20
-0.8760374281845588
 10
-1.534293906614698
 20
-0.8889350489792209
 10
-1.605660190903479
 20
-0.9024997222088188
 10
-1.664806431615353
 20
-0.9166282125195017
 10
-1.711282490145026
 20
-0.9312129935689896
 10
-1.744734655624077
 20
-0.9461430663669643
 10
-1.764908336874241
 20
-0.9613048040444089
 10
-1.77165
 20
-0.9765828166226904
  0
LWPOLYLINE
  5
19F
330
129
100
AcDbEntity
  8
AM_4
100
AcDbPolyline
 90
        6
 70
     0
 43
0.0
 10
-1.77165
 20
-0.9765828166226911
 10
-1.764908336874241
 20
-0.9918608292009726
 10
-1.744734655624079
 20
-1.007022566878417
 10
-1.711282490145028
 20
-1.021952639676392
 10
-1.664806431615355
 20
-1.03653742072588
 10
-1.626
 20
-1.046187344238454
  0
LINE
  5
1A0
330
129
100
AcDbEntity
  8
AM_4
100
AcDbLine
 10
2.760000000000001
 20
-1.125
 30
0.0
 11
2.215307146014251
 21
-0.9191850947694733
 31
0.0
  0
LINE
  5
1A1
330
129
100
AcDbEntity
  8
AM_4
100
AcDbLine
 10
-2.215307146014251
 20
-0.9191850947694733
 30
0.0
 11
-2.76
 21
-1.125
 31
0.0
  0
LWPOLYLINE
  5
1A2
330
129
100
AcDbEntity
  8
AM_4
100
AcDbPolyline
 90
        7
 70
     0
 43
0.0
 10
-1.630031263575155
 20
-1.125
 10
-1.628642909978426
 20
-1.121798525277803
 10
-1.627538866393589
 20
-1.118488230144557
 10
-1.626727535258964
 20
-1.115094307945036
 10
-1.626215091294381
 20
-1.111642588476484
 10
-1.626005434507832
 20
-1.108159341408264
 10
-1.626000000000001
 20
-1.107499999999999
  0
LWPOLYLINE
  5
1A3
330
129
100
AcDbEntity
  8
AM_4
100
AcDbPolyline
 90
        6
 70
     0
 43
0.0
 10
1.625999999999999
 20
-1.046187344238454
 10
1.68112388582973
 20
-1.031900493715214
 10
1.723453403797939
 20
-1.017192642267573
 10
1.75266640071363
 20
-1.002175725525891
 10
1.768540548030982
 20
-0.9869640312940349
 10
1.77165
 20
-0.9765828166226911
  0
LWPOLYLINE
  5
1A4
330
129
100
AcDbEntity
  8
AM_4
100
AcDbPolyline
 90
        7
 70
     0
 43
0.0
 10
1.626
 20
-1.1075
 10
1.626152212076331
 20
-1.110986229709906
 10
1.626607689879512
 20
-1.114445927106678
 10
1.627362966948438
 20
-1.117852761804101
 10
1.628412295168564
 20
-1.121180805733027
 10
1.629747688518535
 20
-1.124404730469628
 10
1.630031263575155
 20
-1.125
  0
LINE
  5
1A5
330
129
100
AcDbEntity
  8
AM_4
100
AcDbLine
 10
2.215307146014251
 20
0.9191850947694737
 30
0.0
 11
2.76
 21
1.125
 31
0.0
  0
LWPOLYLINE
  5
1A6
330
129
100
AcDbEntity
  8
AM_4
100
AcDbPolyline
 90
        7
 70
     0
 43
0.0
 10
1.630031263575155
 20
1.125
 10
1.628642909978426
 20
1.121798525277804
 10
1.627538866393589
 20
1.118488230144557
 10
1.626727535258964
 20
1.115094307945036
 10
1.626215091294381
 20
1.111642588476485
 10
1.626005434507832
 20
1.108159341408264
 10
1.626
 20
1.107499999999999
  0
LWPOLYLINE
  5
1A7
330
129
100
AcDbEntity
  8
AM_4
100
AcDbPolyline
 90
        6
 70
     0
 43
0.0
 10
-1.626000000000001
 20
1.046187344238454
 10
-1.68112388582973
 20
1.031900493715214
 10
-1.72345340379794
 20
1.017192642267573
 10
-1.75266640071363
 20
1.002175725525891
 10
-1.768540548030982
 20
0.9869640312940349
 10
-1.77165
 20
0.9765828166226914
  0
LWPOLYLINE
  5
1A8
330
129
100
AcDbEntity
  8
AM_4
100
AcDbPolyline
 90
        7
 70
     0
 43
0.0
 10
-1.626
 20
1.1075
 10
-1.626152212076331
 20
1.110986229709906
 10
-1.626607689879512
 20
1.114445927106677
 10
-1.627362966948438
 20
1.117852761804101
 10
-1.628412295168564
 20
1.121180805733027
 10
-1.629747688518535
 20
1.124404730469628
 10
-1.630031263575155
 20
1.125
  0
LINE
  5
1A9
330
129
100
AcDbEntity
  8
AM_4
100
AcDbLine
 10
-2.76
 20
1.125
 30
0.0
 11
-2.215307146014251
 21
0.919185094769474
 31
0.0
  0
LWPOLYLINE
  5
1AA
330
129
100
AcDbEntity
  8
AM_4
100
AcDbPolyline
 90
       32
 70
     0
 43
0.0
 10
2.215307146014252
 20
-0.9191850947694733
 10
2.156318319438694
 20
-0.9002995731728587
 10
2.080918608431609
 20
-0.8819946131199791
 10
1.989681850321348
 20
-0.864409526409674
 10
1.883302411927394
 20
-0.8476781461699743
 10
1.762589905009584
 20
-0.8319278083071879
 10
1.628463024633769
 20
-0.8172783824027647
 10
1.481942557347633
 20
-0.8038413594334024
 10
1.324143612378699
 20
-0.7917190032573942
 10
1.15626713497979
 20
-0.7810035723249183
 10
0.9795907665105003
 20
-0.7717766175355251
 10
0.7954591208149885
 20
-0.7641083615865492
 10
0.6052735508987256
 20
-0.758057164535982
 10
0.4104814837859609
 20
-0.7536690796471911
 10
0.2125654047260885
 20
-0.7509775028957782
 10
0.01303157458575
 20
-0.75000291880604
 10
-0.186601433705866
 20
-0.7507527445513695
 10
-0.384814292413954
 20
-0.7532212735050874
 10
-0.5800984819995494
 20
-0.7573897186713173
 10
-0.7709677718640878
 20
-0.7632263556653686
 10
-0.9559695314616722
 20
-0.7706867641554583
 10
-1.133695785694648
 20
-0.7797141659282595
 10
-1.302793930454256
 20
-0.7902398570053865
 10
-1.461977026754624
 20
-0.8021837305221565
 10
-1.610033595115525
 20
-0.815454886389199
 10
-1.745836835652733
 20
-0.8299523230970227
 10
-1.868353203705519
 20
-0.8455657063984894
 10
-1.976650275735598
 20
-0.8621762090190563
 10
-2.06990384563326
 20
-0.8796574150040853
 10
-2.14740419742354
 20
-0.8978762818205897
 10
-2.20856150663332
 20
-0.916694152891243
 10
-2.215307146014252
 20
-0.9191850947694732
  0
LINE
  5
1AB
330
129
100
AcDbEntity
  8
AM_4
100
AcDbLine
 10
2.215307146014251
 20
-0.9191850947694733
 30
0.0
 11
2.215307146014251
 21
0.9191850947694737
 31
0.0
  0
LWPOLYLINE
  5
1AC
330
129
100
AcDbEntity
  8
AM_4
100
AcDbPolyline
 90
       32
 70
     0
 43
0.0
 10
-2.215307146014252
 20
0.9191850947694734
 10
-2.156318319438694
 20
0.9002995731728588
 10
-2.080918608431608
 20
0.8819946131199792
 10
-1.989681850321348
 20
0.8644095264096741
 10
-1.883302411927394
 20
0.8476781461699745
 10
-1.762589905009584
 20
0.8319278083071883
 10
-1.628463024633769
 20
0.817278382402765
 10
-1.481942557347632
 20
0.8038413594334027
 10
-1.324143612378698
 20
0.7917190032573945
 10
-1.156267134979789
 20
0.7810035723249187
 10
-0.9795907665104994
 20
0.7717766175355254
 10
-0.7954591208149876
 20
0.7641083615865497
 10
-0.6052735508987247
 20
0.7580571645359825
 10
-0.4104814837859599
 20
0.7536690796471915
 10
-0.2125654047260875
 20
0.7509775028957786
 10
-0.0130315745857489
 20
0.7500029188060405
 10
0.186601433705867
 20
0.7507527445513701
 10
0.384814292413955
 20
0.7532212735050879
 10
0.5800984819995504
 20
0.7573897186713179
 10
0.7709677718640886
 20
0.763226355665369
 10
0.955969531461673
 20
0.7706867641554589
 10
1.133695785694649
 20
0.7797141659282599
 10
1.302793930454256
 20
0.7902398570053869
 10
1.461977026754625
 20
0.8021837305221571
 10
1.610033595115526
 20
0.8154548863891995
 10
1.745836835652734
 20
0.8299523230970233
 10
1.868353203705521
 20
0.8455657063984899
 10
1.976650275735599
 20
0.8621762090190569
 10
2.069903845633261
 20
0.8796574150040859
 10
2.14740419742354
 20
0.8978762818205901
 10
2.20856150663332
 20
0.9166941528912435
 10
2.215307146014252
 20
0.9191850947694734
  0
LINE
  5
1AD
330
129
100
AcDbEntity
  8
AM_4
100
AcDbLine
 10
-2.215307146014251
 20
-0.9191850947694733
 30
0.0
 11
-2.215307146014251
 21
0.919185094769474
 31
0.0
  0
ENDBLK
  5
12C
330
129
100
AcDbEntity
  8
0
100
AcDbBlockEnd
  0
ENDSEC
  0
SECTION
  2
ENTITIES
  0
INSERT
  5
6F
330
1F
100
AcDbEntity
  8
0
100
AcDbBlockReference
  2
1_128479_4
 10
0.0
 20
0.0
 30
0.0
  0
POINT
  5
1AF
330
1F
100
AcDbEntity
  8
ConnectionPoints
100
AcDbPoint
 10
0.0
 20
-1.26
 30
2.31
  0
POINT
  5
1B0
330
1F
100
AcDbEntity
  8
ConnectionPoints
100
AcDbPoint
 10
0.0
 20
0.7499999999999999
 30
2.31
  0
POINT
  5
1B1
330
1F
100
AcDbEntity
  8
ConnectionPoints
100
AcDbPoint
 10
0.0
 20
-0.0000000000000001
 30
2.31
  0
POINT
  5
1B2
330
1F
100
AcDbEntity
  8
ConnectionPoints
100
AcDbPoint
 10
0.0
 20
-1.26
 30
2.31
  0
POINT
  5
1B3
330
1F
100
AcDbEntity
  8
ConnectionPoints
100
AcDbPoint
 10
1.619274528917194
 20
0.0000000000000002
 30
3.929274528917193
  0
ENDSEC
  0
SECTION
  2
OBJECTS
  0
DICTIONARY
  5
C
330
0
100
AcDbDictionary
281
     1
  3
ACAD_DETAILVIEWSTYLE
350
1BB
  3
ACAD_GROUP
350
D
  3
ACAD_LAYOUT
350
1A
  3
ACAD_MATERIAL
350
43
  3
ACAD_MLEADERSTYLE
350
6B
  3
ACAD_MLINESTYLE
350
17
  3
ACAD_PLOTSETTINGS
350
19
  3
ACAD_PLOTSTYLENAME
350
E
  3
ACAD_SCALELIST
350
47
  3
ACAD_SECTIONVIEWSTYLE
350
1BC
  3
ACAD_TABLESTYLE
350
69
  3
ACAD_VISUALSTYLE
350
2A
  3
ACDB_RECOMPOSE_DATA
350
1B8
  3
AcDbVariableDictionary
350
1B4
  0
SUN
  5
6D
330
29
100
AcDbSun
 90
        1
290
     0
 63
     7
421
 16777215
 40
1.0
291
     1
 91
  2455826
 92
 54000000
292
     0
 70
     2
 71
   256
280
     1
  0
DICTIONARY
  5
1BB
102
{ACAD_REACTORS
330
C
102
}
330
C
100
AcDbDictionary
281
     1
  0
DICTIONARY
  5
D
102
{ACAD_REACTORS
330
C
102
}
330
C
100
AcDbDictionary
281
     1
  0
DICTIONARY
  5
1A
102
{ACAD_REACTORS
330
C
102
}
330
C
100
AcDbDictionary
281
     1
  3
Layout1
350
1E
  3
Layout2
350
26
  3
Model
350
22
  0
DICTIONARY
  5
43
102
{ACAD_REACTORS
330
C
102
}
330
C
100
AcDbDictionary
281
     1
  3
ByBlock
350
45
  3
ByLayer
350
44
  3
Global
350
46
  0
DICTIONARY
  5
6B
102
{ACAD_REACTORS
330
C
102
}
330
C
100
AcDbDictionary
281
     1
  3
Standard
350
6C
  0
DICTIONARY
  5
17
102
{ACAD_REACTORS
330
C
102
}
330
C
100
AcDbDictionary
281
     1
  3
Standard
350
18
  0
DICTIONARY
  5
19
102
{ACAD_REACTORS
330
C
102
}
330
C
100
AcDbDictionary
281
     1
  0
ACDBDICTIONARYWDFLT
  5
E
102
{ACAD_REACTORS
330
C
102
}
330
C
100
AcDbDictionary
281
     1
  3
Normal
350
F
100
AcDbDictionaryWithDefault
340
F
  0
DICTIONARY
  5
47
102
{ACAD_REACTORS
330
C
102
}
330
C
100
AcDbDictionary
281
     1
  3
A0
350
48
  3
A1
350
49
  3
A2
350
4A
  3
A3
350
4B
  3
A4
350
4C
  3
A5
350
4D
  3
A6
350
4E
  3
A7
350
4F
  3
A8
350
50
  3
A9
350
51
  3
B0
350
52
  3
B1
350
53
  3
B2
350
54
  3
B3
350
55
  3
B4
350
56
  3
B5
350
57
  3
B6
350
58
  3
B7
350
59
  3
B8
350
5A
  3
B9
350
5B
  3
C0
350
5C
  3
C1
350
5D
  3
C2
350
5E
  3
C3
350
5F
  3
C4
350
60
  3
C5
350
61
  3
C6
350
62
  3
C7
350
63
  3
C8
350
64
  3
C9
350
65
  3
D0
350
66
  3
D1
350
67
  3
D2
350
68
  0
DICTIONARY
  5
1BC
102
{ACAD_REACTORS
330
C
102
}
330
C
100
AcDbDictionary
281
     1
  0
DICTIONARY
  5
69
102
{ACAD_REACTORS
330
C
102
}
330
C
100
AcDbDictionary
281
     1
  3
Standard
350
6A
  0
DICTIONARY
  5
2A
102
{ACAD_REACTORS
330
C
102
}
330
C
100
AcDbDictionary
281
     1
  3
2dWireframe
350
2F
  3
Basic
350
32
  3
Brighten
350
36
  3
ColorChange
350
3A
  3
Conceptual
350
34
  3
Dim
350
35
  3
EdgeColorOff
350
3D
  3
Facepattern
350
39
  3
Flat
350
2B
  3
FlatWithEdges
350
2C
  3
Gouraud
350
2D
  3
GouraudWithEdges
350
2E
  3
Hidden
350
31
  3
JitterOff
350
3B
  3
Linepattern
350
38
  3
OverhangOff
350
3C
  3
Realistic
350
33
  3
Shaded
350
42
  3
Shaded with edges
350
41
  3
Shades of Gray
350
3E
  3
Sketchy
350
3F
  3
Thicken
350
37
  3
Wireframe
350
30
  3
X-Ray
350
40
  0
XRECORD
  5
1B8
102
{ACAD_REACTORS
330
C
102
}
330
C
100
AcDbXrecord
280
     1
 90
        1
330
6A
  0
DICTIONARY
  5
1B4
102
{ACAD_REACTORS
330
C
102
}
330
C
100
AcDbDictionary
281
     1
  3
CANNOSCALE
350
1B5
  3
CMLEADERSTYLE
350
1BA
  3
CTABLESTYLE
350
1B9
  0
LAYOUT
  5
1E
102
{ACAD_REACTORS
330
1A
102
}
330
1A
100
AcDbPlotSettings
  1

  2
none_device
  4

  6

 40
0.0
 41
0.0
 42
0.0
 43
0.0
 44
0.0
 45
0.0
 46
0.0
 47
0.0
 48
0.0
 49
0.0
140
0.0
141
0.0
142
1.0
143
1.0
 70
   688
 72
     0
 73
     0
 74
     5
  7

 75
    16
 76
     0
 77
     2
 78
   300
147
1.0
148
0.0
149
0.0
100
AcDbLayout
  1
Layout1
 70
     1
 71
     1
 10
0.0
 20
0.0
 11
12.0
 21
9.0
 12
0.0
 22
0.0
 32
0.0
 14
1.000000000000000E+20
 24
1.000000000000000E+20
 34
1.000000000000000E+20
 15
-1.000000000000000E+20
 25
-1.000000000000000E+20
 35
-1.000000000000000E+20
146
0.0
 13
0.0
 23
0.0
 33
0.0
 16
1.0
 26
0.0
 36
0.0
 17
0.0
 27
1.0
 37
0.0
 76
     0
330
1B
  0
LAYOUT
  5
26
102
{ACAD_REACTORS
330
1A
102
}
330
1A
100
AcDbPlotSettings
  1

  2
none_device
  4

  6

 40
0.0
 41
0.0
 42
0.0
 43
0.0
 44
0.0
 45
0.0
 46
0.0
 47
0.0
 48
0.0
 49
0.0
140
0.0
141
0.0
142
1.0
143
1.0
 70
   688
 72
     0
 73
     0
 74
     5
  7

 75
    16
 76
     0
 77
     2
 78
   300
147
1.0
148
0.0
149
0.0
100
AcDbLayout
  1
Layout2
 70
     1
 71
     2
 10
0.0
 20
0.0
 11
0.0
 21
0.0
 12
0.0
 22
0.0
 32
0.0
 14
0.0
 24
0.0
 34
0.0
 15
0.0
 25
0.0
 35
0.0
146
0.0
 13
0.0
 23
0.0
 33
0.0
 16
1.0
 26
0.0
 36
0.0
 17
0.0
 27
1.0
 37
0.0
 76
     0
330
23
  0
LAYOUT
  5
22
102
{ACAD_REACTORS
330
1A
102
}
330
1A
100
AcDbPlotSettings
  1

  2
none_device
  4
Letter_(8.50_x_11.00_Inches)
  6

 40
6.35
 41
6.35
 42
6.35000508
 43
6.35000508
 44
215.9
 45
279.4
 46
0.0
 47
0.0
 48
0.0
 49
0.0
140
0.0
141
0.0
142
1.0
143
1.0
 70
  1712
 72
     0
 73
     0
 74
     0
  7

 75
     0
 76
     0
 77
     2
 78
   300
147
1.0
148
0.0
149
0.0
100
AcDbLayout
  1
Model
 70
     1
 71
     0
 10
0.0
 20
0.0
 11
12.0
 21
9.0
 12
0.0
 22
0.0
 32
0.0
 14
1.000000000000000E+20
 24
1.000000000000000E+20
 34
1.000000000000000E+20
 15
-1.000000000000000E+20
 25
-1.000000000000000E+20
 35
-1.000000000000000E+20
146
0.0
 13
0.0
 23
0.0
 33
0.0
 16
1.0
 26
0.0
 36
0.0
 17
0.0
 27
1.0
 37
0.0
 76
     0
330
1F
331
29
  0
MATERIAL
  5
45
102
{ACAD_REACTORS
330
43
102
}
330
43
100
AcDbMaterial
  1
ByBlock
 72
     1
 94
      127
  0
MATERIAL
  5
44
102
{ACAD_REACTORS
330
43
102
}
330
43
100
AcDbMaterial
  1
ByLayer
 72
     1
 94
      127
  0
MATERIAL
  5
46
102
{ACAD_REACTORS
330
43
102
}
330
43
100
AcDbMaterial
  1
Global
 72
     1
 94
      127
  0
MLEADERSTYLE
  5
6C
102
{ACAD_REACTORS
330
6B
102
}
330
6B
100
AcDbMLeaderStyle
179
     2
170
     2
171
     1
172
     0
 90
        2
 40
0.0
 41
0.0
173
     1
 91
-1056964608
340
14
 92
       -2
290
     1
 42
0.09
291
     1
 43
0.36
  3
Standard
341
0
 44
0.18
300

342
11
174
     1
178
     6
175
     1
176
     0
 93
-1056964608
 45
0.18
292
     0
297
     0
 46
0.18
343
0
 94
-1056964608
 47
1.0
 49
1.0
140
1.0
293
     1
141
0.0
294
     1
177
     0
142
1.0
295
     0
296
     0
143
0.125
271
     0
272
     9
273
     9
298
     0
  0
MLINESTYLE
  5
18
102
{ACAD_REACTORS
330
17
102
}
330
17
100
AcDbMlineStyle
  2
Standard
 70
     0
  3

 62
   256
 51
90.0
 52
90.0
 71
     2
 49
0.5
 62
   256
  6
BYLAYER
 49
-0.5
 62
   256
  6
BYLAYER
  0
ACDBPLACEHOLDER
  5
F
102
{ACAD_REACTORS
330
E
102
}
330
E
  0
SCALE
  5
48
102
{ACAD_REACTORS
330
47
102
}
330
47
100
AcDbScale
 70
     0
300
1:1
140
1.0
141
1.0
290
     1
  0
SCALE
  5
49
102
{ACAD_REACTORS
330
47
102
}
330
47
100
AcDbScale
 70
     0
300
1:2
140
1.0
141
2.0
290
     0
  0
SCALE
  5
4A
102
{ACAD_REACTORS
330
47
102
}
330
47
100
AcDbScale
 70
     0
300
1:4
140
1.0
141
4.0
290
     0
  0
SCALE
  5
4B
102
{ACAD_REACTORS
330
47
102
}
330
47
100
AcDbScale
 70
     0
300
1:5
140
1.0
141
5.0
290
     0
  0
SCALE
  5
4C
102
{ACAD_REACTORS
330
47
102
}
330
47
100
AcDbScale
 70
     0
300
1:8
140
1.0
141
8.0
290
     0
  0
SCALE
  5
4D
102
{ACAD_REACTORS
330
47
102
}
330
47
100
AcDbScale
 70
     0
300
1:10
140
1.0
141
10.0
290
     0
  0
SCALE
  5
4E
102
{ACAD_REACTORS
330
47
102
}
330
47
100
AcDbScale
 70
     0
300
1:16
140
1.0
141
16.0
290
     0
  0
SCALE
  5
4F
102
{ACAD_REACTORS
330
47
102
}
330
47
100
AcDbScale
 70
     0
300
1:20
140
1.0
141
20.0
290
     0
  0
SCALE
  5
50
102
{ACAD_REACTORS
330
47
102
}
330
47
100
AcDbScale
 70
     0
300
1:30
140
1.0
141
30.0
290
     0
  0
SCALE
  5
51
102
{ACAD_REACTORS
330
47
102
}
330
47
100
AcDbScale
 70
     0
300
1:40
140
1.0
141
40.0
290
     0
  0
SCALE
  5
52
102
{ACAD_REACTORS
330
47
102
}
330
47
100
AcDbScale
 70
     0
300
1:50
140
1.0
141
50.0
290
     0
  0
SCALE
  5
53
102
{ACAD_REACTORS
330
47
102
}
330
47
100
AcDbScale
 70
     0
300
1:100
140
1.0
141
100.0
290
     0
  0
SCALE
  5
54
102
{ACAD_REACTORS
330
47
102
}
330
47
100
AcDbScale
 70
     0
300
2:1
140
2.0
141
1.0
290
     0
  0
SCALE
  5
55
102
{ACAD_REACTORS
330
47
102
}
330
47
100
AcDbScale
 70
     0
300
4:1
140
4.0
141
1.0
290
     0
  0
SCALE
  5
56
102
{ACAD_REACTORS
330
47
102
}
330
47
100
AcDbScale
 70
     0
300
8:1
140
8.0
141
1.0
290
     0
  0
SCALE
  5
57
102
{ACAD_REACTORS
330
47
102
}
330
47
100
AcDbScale
 70
     0
300
10:1
140
10.0
141
1.0
290
     0
  0
SCALE
  5
58
102
{ACAD_REACTORS
330
47
102
}
330
47
100
AcDbScale
 70
     0
300
100:1
140
100.0
141
1.0
290
     0
  0
SCALE
  5
59
102
{ACAD_REACTORS
330
47
102
}
330
47
100
AcDbScale
 70
     0
300
1/128" = 1'-0"
140
0.0078125
141
12.0
290
     0
  0
SCALE
  5
5A
102
{ACAD_REACTORS
330
47
102
}
330
47
100
AcDbScale
 70
     0
300
1/64" = 1'-0"
140
0.015625
141
12.0
290
     0
  0
SCALE
  5
5B
102
{ACAD_REACTORS
330
47
102
}
330
47
100
AcDbScale
 70
     0
300
1/32" = 1'-0"
140
0.03125
141
12.0
290
     0
  0
SCALE
  5
5C
102
{ACAD_REACTORS
330
47
102
}
330
47
100
AcDbScale
 70
     0
300
1/16" = 1'-0"
140
0.0625
141
12.0
290
     0
  0
SCALE
  5
5D
102
{ACAD_REACTORS
330
47
102
}
330
47
100
AcDbScale
 70
     0
300
3/32" = 1'-0"
140
0.09375
141
12.0
290
     0
  0
SCALE
  5
5E
102
{ACAD_REACTORS
330
47
102
}
330
47
100
AcDbScale
 70
     0
300
1/8" = 1'-0"
140
0.125
141
12.0
290
     0
  0
SCALE
  5
5F
102
{ACAD_REACTORS
330
47
102
}
330
47
100
AcDbScale
 70
     0
300
3/16" = 1'-0"
140
0.1875
141
12.0
290
     0
  0
SCALE
  5
60
102
{ACAD_REACTORS
330
47
102
}
330
47
100
AcDbScale
 70
     0
300
1/4" = 1'-0"
140
0.25
141
12.0
290
     0
  0
SCALE
  5
61
102
{ACAD_REACTORS
330
47
102
}
330
47
100
AcDbScale
 70
     0
300
3/8" = 1'-0"
140
0.375
141
12.0
290
     0
  0
SCALE
  5
62
102
{ACAD_REACTORS
330
47
102
}
330
47
100
AcDbScale
 70
     0
300
1/2" = 1'-0"
140
0.5
141
12.0
290
     0
  0
SCALE
  5
63
102
{ACAD_REACTORS
330
47
102
}
330
47
100
AcDbScale
 70
     0
300
3/4" = 1'-0"
140
0.75
141
12.0
290
     0
  0
SCALE
  5
64
102
{ACAD_REACTORS
330
47
102
}
330
47
100
AcDbScale
 70
     0
300
1" = 1'-0"
140
1.0
141
12.0
290
     0
  0
SCALE
  5
65
102
{ACAD_REACTORS
330
47
102
}
330
47
100
AcDbScale
 70
     0
300
1-1/2" = 1'-0"
140
1.5
141
12.0
290
     0
  0
SCALE
  5
66
102
{ACAD_REACTORS
330
47
102
}
330
47
100
AcDbScale
 70
     0
300
3" = 1'-0"
140
3.0
141
12.0
290
     0
  0
SCALE
  5
67
102
{ACAD_REACTORS
330
47
102
}
330
47
100
AcDbScale
 70
     0
300
6" = 1'-0"
140
6.0
141
12.0
290
     0
  0
SCALE
  5
68
102
{ACAD_REACTORS
330
47
102
}
330
47
100
AcDbScale
 70
     0
300
1'-0" = 1'-0"
140
12.0
141
12.0
290
     0
  0
TABLESTYLE
  5
6A
102
{ACAD_REACTORS
330
69
102
}
102
{ACAD_XDICTIONARY
360
1B6
102
}
330
69
100
AcDbTableStyle
  3
Standard
 70
     0
 71
     0
 40
0.06
 41
0.06
280
     0
281
     0
  7
Standard
140
0.18
170
     2
 62
     0
 63
   257
283
     0
 90
        4
 91
        0
  1

274
    -2
284
     1
 64
     0
275
    -2
285
     1
 65
     0
276
    -2
286
     1
 66
     0
277
    -2
287
     1
 67
     0
278
    -2
288
     1
 68
     0
279
    -2
289
     1
 69
     0
  7
Standard
140
0.25
170
     5
 62
     0
 63
   257
283
     0
 90
        4
 91
        0
  1

274
    -2
284
     1
 64
     0
275
    -2
285
     1
 65
     0
276
    -2
286
     1
 66
     0
277
    -2
287
     1
 67
     0
278
    -2
288
     1
 68
     0
279
    -2
289
     1
 69
     0
  7
Standard
140
0.18
170
     5
 62
     0
 63
   257
283
     0
 90
        4
 91
        0
  1

274
    -2
284
     1
 64
     0
275
    -2
285
     1
 65
     0
276
    -2
286
     1
 66
     0
277
    -2
287
     1
 67
     0
278
    -2
288
     1
 68
     0
279
    -2
289
     1
 69
     0
  0
VISUALSTYLE
  5
2F
102
{ACAD_REACTORS
330
2A
102
}
330
2A
100
AcDbVisualStyle
  2
2dWireframe
 70
     4
177
     3
291
     0
 70
    58
 90
        0
176
     1
 90
        2
176
     1
 90
        0
176
     1
 90
        0
176
     1
 40
0.6
176
     1
 40
30.0
176
     1
 62
     7
420
 16777215
176
     1
 90
        1
176
     1
 90
        4
176
     1
 62
     7
176
     1
 62
   257
176
     1
 90
        1
176
     1
 90
        1
176
     1
 40
1.0
176
     1
 90
        0
176
     1
 62
   257
176
     1
 40
1.0
176
     1
 90
        1
176
     1
 90
        6
176
     1
 90
        2
176
     1
 62
     7
176
     1
 90
        5
176
     1
 90
        0
176
     1
 90
        0
176
     1
290
     0
176
     1
 90
        1
176
     1
 40
0.0
176
     1
 90
        0
176
     1
290
     1
176
     1
290
     1
176
     1
290
     0
176
     1
290
     0
176
     1
290
     0
176
     1
290
     0
176
     1
290
     0
176
     1
290
     0
176
     1
290
     0
176
     1
 90
       50
176
     1
 40
0.0
176
     1
 40
1.0
176
     1
 90
        0
176
     1
 62
    18
420
        0
176
     1
 90
       50
176
     1
 90
        3
176
     1
 62
     5
420
      255
176
     1
290
     0
176
     1
 90
       50
176
     1
 90
       50
176
     1
 90
       50
176
     1
290
     0
176
     1
 90
       50
176
     1
 62
   256
176
     0
 40
1.0
176
     0
 90
        2
176
     1
  1
strokes_ogs.tif
176
     1
290
     0
176
     1
 40
1.0
176
     1
 40
1.0
176
     1
  0
VISUALSTYLE
  5
32
102
{ACAD_REACTORS
330
2A
102
}
330
2A
100
AcDbVisualStyle
  2
Basic
 70
     7
177
     3
291
     1
 70
    58
 90
        1
176
     1
 90
        0
176
     1
 90
        1
176
     1
 90
        0
176
     1
 40
0.6
176
     1
 40
30.0
176
     1
 62
     7
420
 16777215
176
     1
 90
        0
176
     1
 90
        4
176
     1
 62
     7
176
     1
 62
   257
176
     1
 90
        1
176
     1
 90
        1
176
     1
 40
1.0
176
     1
 90
        8
176
     1
 62
     7
176
     1
 40
1.0
176
     1
 90
        1
176
     1
 90
        6
176
     1
 90
        2
176
     1
 62
     7
176
     1
 90
        5
176
     1
 90
        0
176
     1
 90
        0
176
     1
290
     0
176
     1
 90
        1
176
     1
 40
0.0
176
     1
 90
        0
176
     1
290
     0
176
     1
290
     1
176
     1
290
     1
176
     1
290
     0
176
     1
290
     0
176
     1
290
     0
176
     1
290
     0
176
     1
290
     0
176
     1
290
     0
176
     1
 90
       50
176
     1
 40
0.0
176
     1
 40
1.0
176
     1
 90
        0
176
     1
 62
    18
420
        0
176
     1
 90
       50
176
     1
 90
        3
176
     1
 62
     5
420
      255
176
     1
290
     0
176
     1
 90
       50
176
     1
 90
       50
176
     1
 90
       50
176
     1
290
     0
176
     1
 90
       50
176
     1
 62
   256
176
     0
 40
1.0
176
     0
 90
        2
176
     1
  1
strokes_ogs.tif
176
     1
290
     0
176
     1
 40
1.0
176
     1
 40
1.0
176
     1
  0
VISUALSTYLE
  5
36
102
{ACAD_REACTORS
330
2A
102
}
330
2A
100
AcDbVisualStyle
  2
Brighten
 70
    12
177
     3
291
     1
 70
    58
 90
        2
176
     1
 90
        2
176
     1
 90
        0
176
     1
 90
        0
176
     1
 40
0.6
176
     1
 40
30.0
176
     1
 62
     7
420
 16777215
176
     1
 90
        1
176
     1
 90
        4
176
     1
 62
     7
176
     1
 62
   257
176
     1
 90
        1
176
     1
 90
        1
176
     1
 40
1.0
176
     1
 90
        8
176
     1
 62
     7
176
     1
 40
1.0
176
     1
 90
        1
176
     1
 90
        6
176
     1
 90
        2
176
     1
 62
     7
176
     1
 90
        5
176
     1
 90
        0
176
     1
 90
        0
176
     1
290
     0
176
     1
 90
        1
176
     1
 40
50.0
176
     1
 90
        0
176
     1
290
     0
176
     1
290
     1
176
     1
290
     1
176
     1
290
     0
176
     1
290
     0
176
     1
290
     0
176
     1
290
     0
176
     1
290
     0
176
     1
290
     0
176
     1
 90
       50
176
     1
 40
0.0
176
     1
 40
1.0
176
     1
 90
        0
176
     1
 62
    18
420
        0
176
     1
 90
       50
176
     1
 90
        3
176
     1
 62
     5
420
      255
176
     1
290
     0
176
     1
 90
       50
176
     1
 90
       50
176
     1
 90
       50
176
     1
290
     0
176
     1
 90
       50
176
     1
 62
   256
176
     0
 40
1.0
176
     0
 90
        2
176
     1
  1
strokes_ogs.tif
176
     1
290
     0
176
     1
 40
1.0
176
     1
 40
1.0
176
     1
  0
VISUALSTYLE
  5
3A
102
{ACAD_REACTORS
330
2A
102
}
330
2A
100
AcDbVisualStyle
  2
ColorChange
 70
    16
177
     3
291
     1
 70
    58
 90
        2
176
     1
 90
        2
176
     1
 90
        3
176
     1
 90
        0
176
     1
 40
0.6
176
     1
 40
30.0
176
     1
 62
     8
420
  8421504
176
     1
 90
        1
176
     1
 90
        4
176
     1
 62
     7
176
     1
 62
   257
176
     1
 90
        1
176
     1
 90
        1
176
     1
 40
1.0
176
     1
 90
        8
176
     1
 62
     8
420
  8421504
176
     1
 40
1.0
176
     1
 90
        1
176
     1
 90
        6
176
     1
 90
        2
176
     1
 62
     7
176
     1
 90
        5
176
     1
 90
        0
176
     1
 90
        0
176
     1
290
     0
176
     1
 90
        1
176
     1
 40
0.0
176
     1
 90
        0
176
     1
290
     0
176
     1
290
     1
176
     1
290
     1
176
     1
290
     0
176
     1
290
     0
176
     1
290
     0
176
     1
290
     0
176
     1
290
     0
176
     1
290
     0
176
     1
 90
       50
176
     1
 40
0.0
176
     1
 40
1.0
176
     1
 90
        0
176
     1
 62
    18
420
        0
176
     1
 90
       50
176
     1
 90
        3
176
     1
 62
     5
420
      255
176
     1
290
     0
176
     1
 90
       50
176
     1
 90
       50
176
     1
 90
       50
176
     1
290
     0
176
     1
 90
       50
176
     1
 62
   256
176
     0
 40
1.0
176
     0
 90
        2
176
     1
  1
strokes_ogs.tif
176
     1
290
     0
176
     1
 40
1.0
176
     1
 40
1.0
176
     1
  0
VISUALSTYLE
  5
34
102
{ACAD_REACTORS
330
2A
102
}
330
2A
100
AcDbVisualStyle
  2
Conceptual
 70
     9
177
     3
291
     0
 70
    58
 90
        3
176
     1
 90
        2
176
     1
 90
        0
176
     1
 90
        0
176
     1
 40
0.6
176
     1
 40
30.0
176
     1
 62
     7
420
 16777215
176
     1
 90
        2
176
     1
 90
        2
176
     1
 62
     7
176
     1
 62
   257
176
     1
 90
        1
176
     1
 90
        1
176
     1
 40
179.0
176
     1
 90
        8
176
     1
 62
     7
176
     1
 40
1.0
176
     1
 90
        1
176
     1
 90
        6
176
     1
 90
        2
176
     1
 62
     7
176
     1
 90
        3
176
     1
 90
        0
176
     1
 90
        0
176
     1
290
     0
176
     1
 90
        1
176
     1
 40
0.0
176
     1
 90
        0
176
     1
290
     0
176
     1
290
     1
176
     1
290
     1
176
     1
290
     0
176
     1
290
     0
176
     1
290
     0
176
     1
290
     0
176
     1
290
     0
176
     1
290
     0
176
     1
 90
       50
176
     1
 40
0.0
176
     1
 40
1.0
176
     1
 90
        0
176
     1
 62
    18
420
        0
176
     1
 90
       50
176
     1
 90
        3
176
     1
 62
     5
420
      255
176
     1
290
     0
176
     1
 90
       50
176
     1
 90
       50
176
     1
 90
       50
176
     1
290
     0
176
     1
 90
       50
176
     1
 62
   256
176
     0
 40
1.0
176
     0
 90
        2
176
     1
  1
strokes_ogs.tif
176
     1
290
     0
176
     1
 40
1.0
176
     1
 40
1.0
176
     1
  0
VISUALSTYLE
  5
35
102
{ACAD_REACTORS
330
2A
102
}
330
2A
100
AcDbVisualStyle
  2
Dim
 70
    11
177
     3
291
     1
 70
    58
 90
        2
176
     1
 90
        2
176
     1
 90
        0
176
     1
 90
        0
176
     1
 40
0.6
176
     1
 40
30.0
176
     1
 62
     7
420
 16777215
176
     1
 90
        1
176
     1
 90
        4
176
     1
 62
     7
176
     1
 62
   257
176
     1
 90
        1
176
     1
 90
        1
176
     1
 40
1.0
176
     1
 90
        8
176
     1
 62
     7
176
     1
 40
1.0
176
     1
 90
        1
176
     1
 90
        6
176
     1
 90
        2
176
     1
 62
     7
176
     1
 90
        5
176
     1
 90
        0
176
     1
 90
        0
176
     1
290
     0
176
     1
 90
        1
176
     1
 40
-50.0
176
     1
 90
        0
176
     1
290
     0
176
     1
290
     1
176
     1
290
     1
176
     1
290
     0
176
     1
290
     0
176
     1
290
     0
176
     1
290
     0
176
     1
290
     0
176
     1
290
     0
176
     1
 90
       50
176
     1
 40
0.0
176
     1
 40
1.0
176
     1
 90
        0
176
     1
 62
    18
420
        0
176
     1
 90
       50
176
     1
 90
        3
176
     1
 62
     5
420
      255
176
     1
290
     0
176
     1
 90
       50
176
     1
 90
       50
176
     1
 90
       50
176
     1
290
     0
176
     1
 90
       50
176
     1
 62
   256
176
     0
 40
1.0
176
     0
 90
        2
176
     1
  1
strokes_ogs.tif
176
     1
290
     0
176
     1
 40
1.0
176
     1
 40
1.0
176
     1
  0
VISUALSTYLE
  5
3D
102
{ACAD_REACTORS
330
2A
102
}
330
2A
100
AcDbVisualStyle
  2
EdgeColorOff
 70
    22
177
     3
291
     1
 70
    58
 90
        2
176
     0
 90
        2
176
     0
 90
        0
176
     0
 90
        0
176
     0
 40
0.6
176
     0
 40
30.0
176
     0
 62
     7
420
 16777215
176
     0
 90
        1
176
     0
 90
        4
176
     0
 62
     7
176
     0
 62
   257
176
     0
 90
        1
176
     0
 90
        1
176
     0
 40
1.0
176
     0
 90
        8
176
     2
 62
     7
176
     0
 40
1.0
176
     0
 90
        1
176
     0
 90
        6
176
     0
 90
        2
176
     0
 62
     7
176
     0
 90
        5
176
     0
 90
        0
176
     0
 90
        0
176
     0
290
     0
176
     0
 90
        1
176
     0
 40
0.0
176
     0
 90
        0
176
     0
290
     0
176
     0
290
     1
176
     0
290
     1
176
     0
290
     0
176
     0
290
     0
176
     0
290
     0
176
     0
290
     0
176
     0
290
     0
176
     0
290
     0
176
     0
 90
       50
176
     0
 40
0.0
176
     0
 40
1.0
176
     0
 90
        0
176
     0
 62
    18
420
        0
176
     0
 90
       50
176
     0
 90
        3
176
     0
 62
     5
420
      255
176
     0
290
     0
176
     0
 90
       50
176
     0
 90
       50
176
     0
 90
       50
176
     0
290
     0
176
     0
 90
       50
176
     0
 62
   256
176
     0
 40
1.0
176
     0
 90
        2
176
     0
  1
strokes_ogs.tif
176
     0
290
     0
176
     0
 40
1.0
176
     0
 40
1.0
176
     0
  0
VISUALSTYLE
  5
39
102
{ACAD_REACTORS
330
2A
102
}
330
2A
100
AcDbVisualStyle
  2
Facepattern
 70
    15
177
     3
291
     1
 70
    58
 90
        2
176
     1
 90
        2
176
     1
 90
        0
176
     1
 90
        0
176
     1
 40
0.6
176
     1
 40
30.0
176
     1
 62
     7
420
 16777215
176
     1
 90
        1
176
     1
 90
        4
176
     1
 62
     7
176
     1
 62
   257
176
     1
 90
        1
176
     1
 90
        1
176
     1
 40
1.0
176
     1
 90
        8
176
     1
 62
     7
176
     1
 40
1.0
176
     1
 90
        1
176
     1
 90
        6
176
     1
 90
        2
176
     1
 62
     7
176
     1
 90
        5
176
     1
 90
        0
176
     1
 90
        0
176
     1
290
     0
176
     1
 90
        1
176
     1
 40
0.0
176
     1
 90
        0
176
     1
290
     0
176
     1
290
     1
176
     1
290
     1
176
     1
290
     0
176
     1
290
     0
176
     1
290
     0
176
     1
290
     0
176
     1
290
     0
176
     1
290
     0
176
     1
 90
       50
176
     1
 40
0.0
176
     1
 40
1.0
176
     1
 90
        0
176
     1
 62
    18
420
        0
176
     1
 90
       50
176
     1
 90
        3
176
     1
 62
     5
420
      255
176
     1
290
     0
176
     1
 90
       50
176
     1
 90
       50
176
     1
 90
       50
176
     1
290
     0
176
     1
 90
       50
176
     1
 62
   256
176
     0
 40
1.0
176
     0
 90
        2
176
     1
  1
strokes_ogs.tif
176
     1
290
     0
176
     1
 40
1.0
176
     1
 40
1.0
176
     1
  0
VISUALSTYLE
  5
2B
102
{ACAD_REACTORS
330
2A
102
}
330
2A
100
AcDbVisualStyle
  2
Flat
 70
     0
177
     3
291
     1
 70
    58
 90
        2
176
     1
 90
        1
176
     1
 90
        1
176
     1
 90
        2
176
     1
 40
0.6
176
     1
 40
30.0
176
     1
 62
     7
420
 16777215
176
     1
 90
        0
176
     1
 90
        0
176
     1
 62
     7
176
     1
 62
   257
176
     1
 90
        1
176
     1
 90
        1
176
     1
 40
1.0
176
     1
 90
        8
176
     1
 62
     7
176
     1
 40
1.0
176
     1
 90
        1
176
     1
 90
        6
176
     1
 90
        2
176
     1
 62
     7
176
     1
 90
        5
176
     1
 90
        0
176
     1
 90
        0
176
     1
290
     0
176
     1
 90
       13
176
     1
 40
0.0
176
     1
 90
        0
176
     1
290
     0
176
     1
290
     1
176
     1
290
     1
176
     1
290
     0
176
     1
290
     0
176
     1
290
     0
176
     1
290
     0
176
     1
290
     0
176
     1
290
     0
176
     1
 90
       50
176
     1
 40
0.0
176
     1
 40
1.0
176
     1
 90
        0
176
     1
 62
    18
420
        0
176
     1
 90
       50
176
     1
 90
        3
176
     1
 62
     5
420
      255
176
     1
290
     0
176
     1
 90
       50
176
     1
 90
       50
176
     1
 90
       50
176
     1
290
     0
176
     1
 90
       50
176
     1
 62
   256
176
     0
 40
1.0
176
     0
 90
        2
176
     1
  1
strokes_ogs.tif
176
     1
290
     0
176
     1
 40
1.0
176
     1
 40
1.0
176
     1
  0
VISUALSTYLE
  5
2C
102
{ACAD_REACTORS
330
2A
102
}
330
2A
100
AcDbVisualStyle
  2
FlatWithEdges
 70
     1
177
     3
291
     1
 70
    58
 90
        2
176
     1
 90
        1
176
     1
 90
        1
176
     1
 90
        2
176
     1
 40
0.6
176
     1
 40
30.0
176
     1
 62
     7
420
 16777215
176
     1
 90
        1
176
     1
 90
        0
176
     1
 62
     7
176
     1
 62
   257
176
     1
 90
        1
176
     1
 90
        1
176
     1
 40
1.0
176
     1
 90
        0
176
     1
 62
   257
176
     1
 40
1.0
176
     1
 90
        1
176
     1
 90
        6
176
     1
 90
        2
176
     1
 62
     7
176
     1
 90
        5
176
     1
 90
        0
176
     1
 90
        0
176
     1
290
     0
176
     1
 90
       13
176
     1
 40
0.0
176
     1
 90
        0
176
     1
290
     0
176
     1
290
     1
176
     1
290
     1
176
     1
290
     0
176
     1
290
     0
176
     1
290
     0
176
     1
290
     0
176
     1
290
     0
176
     1
290
     0
176
     1
 90
       50
176
     1
 40
0.0
176
     1
 40
1.0
176
     1
 90
        0
176
     1
 62
    18
420
        0
176
     1
 90
       50
176
     1
 90
        3
176
     1
 62
     5
420
      255
176
     1
290
     0
176
     1
 90
       50
176
     1
 90
       50
176
     1
 90
       50
176
     1
290
     0
176
     1
 90
       50
176
     1
 62
   256
176
     0
 40
1.0
176
     0
 90
        2
176
     1
  1
strokes_ogs.tif
176
     1
290
     0
176
     1
 40
1.0
176
     1
 40
1.0
176
     1
  0
VISUALSTYLE
  5
2D
102
{ACAD_REACTORS
330
2A
102
}
330
2A
100
AcDbVisualStyle
  2
Gouraud
 70
     2
177
     3
291
     1
 70
    58
 90
        2
176
     1
 90
        2
176
     1
 90
        1
176
     1
 90
        2
176
     1
 40
0.6
176
     1
 40
30.0
176
     1
 62
     7
420
 16777215
176
     1
 90
        0
176
     1
 90
        0
176
     1
 62
     7
176
     1
 62
   257
176
     1
 90
        1
176
     1
 90
        1
176
     1
 40
1.0
176
     1
 90
        0
176
     1
 62
     7
176
     1
 40
1.0
176
     1
 90
        1
176
     1
 90
        6
176
     1
 90
        2
176
     1
 62
     7
176
     1
 90
        5
176
     1
 90
        0
176
     1
 90
        0
176
     1
290
     0
176
     1
 90
       13
176
     1
 40
0.0
176
     1
 90
        0
176
     1
290
     0
176
     1
290
     1
176
     1
290
     1
176
     1
290
     0
176
     1
290
     0
176
     1
290
     0
176
     1
290
     0
176
     1
290
     0
176
     1
290
     0
176
     1
 90
       50
176
     1
 40
0.0
176
     1
 40
1.0
176
     1
 90
        0
176
     1
 62
    18
420
        0
176
     1
 90
       50
176
     1
 90
        3
176
     1
 62
     5
420
      255
176
     1
290
     0
176
     1
 90
       50
176
     1
 90
       50
176
     1
 90
       50
176
     1
290
     0
176
     1
 90
       50
176
     1
 62
   256
176
     0
 40
1.0
176
     0
 90
        2
176
     1
  1
strokes_ogs.tif
176
     1
290
     0
176
     1
 40
1.0
176
     1
 40
1.0
176
     1
  0
VISUALSTYLE
  5
2E
102
{ACAD_REACTORS
330
2A
102
}
330
2A
100
AcDbVisualStyle
  2
GouraudWithEdges
 70
     3
177
     3
291
     1
 70
    58
 90
        2
176
     1
 90
        2
176
     1
 90
        1
176
     1
 90
        2
176
     1
 40
0.6
176
     1
 40
30.0
176
     1
 62
     7
420
 16777215
176
     1
 90
        1
176
     1
 90
        0
176
     1
 62
     7
176
     1
 62
   257
176
     1
 90
        1
176
     1
 90
        1
176
     1
 40
1.0
176
     1
 90
        0
176
     1
 62
   257
176
     1
 40
1.0
176
     1
 90
        1
176
     1
 90
        6
176
     1
 90
        2
176
     1
 62
     7
176
     1
 90
        5
176
     1
 90
        0
176
     1
 90
        0
176
     1
290
     0
176
     1
 90
       13
176
     1
 40
0.0
176
     1
 90
        0
176
     1
290
     0
176
     1
290
     1
176
     1
290
     1
176
     1
290
     0
176
     1
290
     0
176
     1
290
     0
176
     1
290
     0
176
     1
290
     0
176
     1
290
     0
176
     1
 90
       50
176
     1
 40
0.0
176
     1
 40
1.0
176
     1
 90
        0
176
     1
 62
    18
420
        0
176
     1
 90
       50
176
     1
 90
        3
176
     1
 62
     5
420
      255
176
     1
290
     0
176
     1
 90
       50
176
     1
 90
       50
176
     1
 90
       50
176
     1
290
     0
176
     1
 90
       50
176
     1
 62
   256
176
     0
 40
1.0
176
     0
 90
        2
176
     1
  1
strokes_ogs.tif
176
     1
290
     0
176
     1
 40
1.0
176
     1
 40
1.0
176
     1
  0
VISUALSTYLE
  5
31
102
{ACAD_REACTORS
330
2A
102
}
330
2A
100
AcDbVisualStyle
  2
Hidden
 70
     6
177
     3
291
     0
 70
    58
 90
        1
176
     1
 90
        2
176
     1
 90
        2
176
     1
 90
        0
176
     1
 40
0.6
176
     1
 40
30.0
176
     1
 62
     7
420
 16777215
176
     1
 90
        2
176
     1
 90
        2
176
     1
 62
     7
176
     1
 62
   257
176
     1
 90
        2
176
     1
 90
        1
176
     1
 40
40.0
176
     1
 90
        0
176
     1
 62
   257
176
     1
 40
1.0
176
     1
 90
        1
176
     1
 90
        6
176
     1
 90
        2
176
     1
 62
     7
176
     1
 90
        3
176
     1
 90
        0
176
     1
 90
        0
176
     1
290
     0
176
     1
 90
        1
176
     1
 40
0.0
176
     1
 90
        0
176
     1
290
     0
176
     1
290
     1
176
     1
290
     1
176
     1
290
     0
176
     1
290
     0
176
     1
290
     0
176
     1
290
     0
176
     1
290
     0
176
     1
290
     0
176
     1
 90
       50
176
     1
 40
0.0
176
     1
 40
1.0
176
     1
 90
        0
176
     1
 62
    18
420
        0
176
     1
 90
       50
176
     1
 90
        3
176
     1
 62
     5
420
      255
176
     1
290
     0
176
     1
 90
       50
176
     1
 90
       50
176
     1
 90
       50
176
     1
290
     0
176
     1
 90
       50
176
     1
 62
   256
176
     0
 40
1.0
176
     0
 90
        2
176
     1
  1
strokes_ogs.tif
176
     1
290
     0
176
     1
 40
1.0
176
     1
 40
1.0
176
     1
  0
VISUALSTYLE
  5
3B
102
{ACAD_REACTORS
330
2A
102
}
330
2A
100
AcDbVisualStyle
  2
JitterOff
 70
    20
177
     3
291
     1
 70
    58
 90
        2
176
     0
 90
        2
176
     0
 90
        0
176
     0
 90
        0
176
     0
 40
0.6
176
     0
 40
30.0
176
     0
 62
     7
420
 16777215
176
     0
 90
        1
176
     0
 90
        4
176
     0
 62
     7
176
     0
 62
   257
176
     0
 90
        1
176
     0
 90
        1
176
     0
 40
1.0
176
     0
 90
       10
176
     2
 62
     7
176
     0
 40
1.0
176
     0
 90
        1
176
     0
 90
        6
176
     0
 90
        2
176
     0
 62
     7
176
     0
 90
        5
176
     0
 90
        0
176
     0
 90
        0
176
     0
290
     0
176
     0
 90
        1
176
     0
 40
0.0
176
     0
 90
        0
176
     0
290
     0
176
     0
290
     1
176
     0
290
     1
176
     0
290
     0
176
     0
290
     0
176
     0
290
     0
176
     0
290
     0
176
     0
290
     0
176
     0
290
     0
176
     0
 90
       50
176
     0
 40
0.0
176
     0
 40
1.0
176
     0
 90
        0
176
     0
 62
    18
420
        0
176
     0
 90
       50
176
     0
 90
        3
176
     0
 62
     5
420
      255
176
     0
290
     0
176
     0
 90
       50
176
     0
 90
       50
176
     0
 90
       50
176
     0
290
     0
176
     0
 90
       50
176
     0
 62
   256
176
     0
 40
1.0
176
     0
 90
        2
176
     0
  1
strokes_ogs.tif
176
     0
290
     0
176
     0
 40
1.0
176
     0
 40
1.0
176
     0
  0
VISUALSTYLE
  5
38
102
{ACAD_REACTORS
330
2A
102
}
330
2A
100
AcDbVisualStyle
  2
Linepattern
 70
    14
177
     3
291
     1
 70
    58
 90
        2
176
     1
 90
        2
176
     1
 90
        0
176
     1
 90
        0
176
     1
 40
0.6
176
     1
 40
30.0
176
     1
 62
     7
420
 16777215
176
     1
 90
        1
176
     1
 90
        4
176
     1
 62
     7
176
     1
 62
   257
176
     1
 90
        7
176
     1
 90
        7
176
     1
 40
1.0
176
     1
 90
        8
176
     1
 62
     7
176
     1
 40
1.0
176
     1
 90
        1
176
     1
 90
        6
176
     1
 90
        2
176
     1
 62
     7
176
     1
 90
        5
176
     1
 90
        0
176
     1
 90
        0
176
     1
290
     0
176
     1
 90
        1
176
     1
 40
0.0
176
     1
 90
        0
176
     1
290
     0
176
     1
290
     1
176
     1
290
     1
176
     1
290
     0
176
     1
290
     0
176
     1
290
     0
176
     1
290
     0
176
     1
290
     0
176
     1
290
     0
176
     1
 90
       50
176
     1
 40
0.0
176
     1
 40
1.0
176
     1
 90
        0
176
     1
 62
    18
420
        0
176
     1
 90
       50
176
     1
 90
        3
176
     1
 62
     5
420
      255
176
     1
290
     0
176
     1
 90
       50
176
     1
 90
       50
176
     1
 90
       50
176
     1
290
     0
176
     1
 90
       50
176
     1
 62
   256
176
     0
 40
1.0
176
     0
 90
        2
176
     1
  1
strokes_ogs.tif
176
     1
290
     0
176
     1
 40
1.0
176
     1
 40
1.0
176
     1
  0
VISUALSTYLE
  5
3C
102
{ACAD_REACTORS
330
2A
102
}
330
2A
100
AcDbVisualStyle
  2
OverhangOff
 70
    21
177
     3
291
     1
 70
    58
 90
        2
176
     0
 90
        2
176
     0
 90
        0
176
     0
 90
        0
176
     0
 40
0.6
176
     0
 40
30.0
176
     0
 62
     7
420
 16777215
176
     0
 90
        1
176
     0
 90
        4
176
     0
 62
     7
176
     0
 62
   257
176
     0
 90
        1
176
     0
 90
        1
176
     0
 40
1.0
176
     0
 90
        9
176
     2
 62
     7
176
     0
 40
1.0
176
     0
 90
        1
176
     0
 90
        6
176
     0
 90
        2
176
     0
 62
     7
176
     0
 90
        5
176
     0
 90
        0
176
     0
 90
        0
176
     0
290
     0
176
     0
 90
        1
176
     0
 40
0.0
176
     0
 90
        0
176
     0
290
     0
176
     0
290
     1
176
     0
290
     1
176
     0
290
     0
176
     0
290
     0
176
     0
290
     0
176
     0
290
     0
176
     0
290
     0
176
     0
290
     0
176
     0
 90
       50
176
     0
 40
0.0
176
     0
 40
1.0
176
     0
 90
        0
176
     0
 62
    18
420
        0
176
     0
 90
       50
176
     0
 90
        3
176
     0
 62
     5
420
      255
176
     0
290
     0
176
     0
 90
       50
176
     0
 90
       50
176
     0
 90
       50
176
     0
290
     0
176
     0
 90
       50
176
     0
 62
   256
176
     0
 40
1.0
176
     0
 90
        2
176
     0
  1
strokes_ogs.tif
176
     0
290
     0
176
     0
 40
1.0
176
     0
 40
1.0
176
     0
  0
VISUALSTYLE
  5
33
102
{ACAD_REACTORS
330
2A
102
}
330
2A
100
AcDbVisualStyle
  2
Realistic
 70
     8
177
     3
291
     0
 70
    58
 90
        2
176
     1
 90
        3
176
     1
 90
        0
176
     1
 90
        2
176
     1
 40
0.6
176
     1
 40
30.0
176
     1
 62
     7
420
 16777215
176
     1
 90
        0
176
     1
 90
        0
176
     1
 62
     7
176
     1
 62
   257
176
     1
 90
        1
176
     1
 90
        1
176
     1
 40
1.0
176
     1
 90
        8
176
     1
 62
   257
176
     1
 40
1.0
176
     1
 90
        1
176
     1
 90
        6
176
     1
 90
        2
176
     1
 62
     7
176
     1
 90
        3
176
     1
 90
        0
176
     1
 90
        0
176
     1
290
     0
176
     1
 90
       13
176
     1
 40
0.0
176
     1
 90
        0
176
     1
290
     0
176
     1
290
     1
176
     1
290
     1
176
     1
290
     0
176
     1
290
     0
176
     1
290
     0
176
     1
290
     0
176
     1
290
     0
176
     1
290
     0
176
     1
 90
       50
176
     1
 40
0.0
176
     1
 40
1.0
176
     1
 90
        0
176
     1
 62
    18
420
        0
176
     1
 90
       50
176
     1
 90
        3
176
     1
 62
     5
420
      255
176
     1
290
     0
176
     1
 90
       50
176
     1
 90
       50
176
     1
 90
       50
176
     1
290
     0
176
     1
 90
       50
176
     1
 62
   256
176
     0
 40
1.0
176
     0
 90
        2
176
     1
  1
strokes_ogs.tif
176
     1
290
     0
176
     1
 40
1.0
176
     1
 40
1.0
176
     1
  0
VISUALSTYLE
  5
42
102
{ACAD_REACTORS
330
2A
102
}
330
2A
100
AcDbVisualStyle
  2
Shaded
 70
    27
177
     3
291
     0
 70
    58
 90
        2
176
     1
 90
        2
176
     1
 90
        1
176
     1
 90
        2
176
     1
 40
0.6
176
     1
 40
30.0
176
     1
 62
     7
420
 16777215
176
     1
 90
        0
176
     1
 90
        4
176
     1
 62
     7
176
     1
 62
   257
176
     1
 90
        1
176
     1
 90
        1
176
     1
 40
1.0
176
     1
 90
        8
176
     1
 62
   257
176
     1
 40
1.0
176
     1
 90
        1
176
     1
 90
        6
176
     1
 90
        2
176
     1
 62
     8
420
  7895160
176
     1
 90
        3
176
     1
 90
        0
176
     1
 90
        0
176
     1
290
     0
176
     1
 90
        5
176
     1
 40
0.0
176
     1
 90
        0
176
     1
290
     0
176
     1
290
     1
176
     1
290
     1
176
     1
290
     0
176
     1
290
     0
176
     1
290
     0
176
     1
290
     0
176
     1
290
     0
176
     1
290
     0
176
     1
 90
       50
176
     1
 40
0.0
176
     1
 40
1.0
176
     1
 90
        0
176
     1
 62
    18
420
        0
176
     1
 90
       50
176
     1
 90
        3
176
     1
 62
     5
420
      255
176
     1
290
     0
176
     1
 90
       50
176
     1
 90
       50
176
     1
 90
       50
176
     1
290
     0
176
     1
 90
       50
176
     1
 62
   256
176
     0
 40
1.0
176
     0
 90
        2
176
     1
  1
strokes_ogs.tif
176
     1
290
     0
176
     1
 40
1.0
176
     1
 40
1.0
176
     1
  0
VISUALSTYLE
  5
41
102
{ACAD_REACTORS
330
2A
102
}
330
2A
100
AcDbVisualStyle
  2
Shaded with edges
 70
    26
177
     3
291
     0
 70
    58
 90
        2
176
     1
 90
        2
176
     1
 90
        1
176
     1
 90
        2
176
     1
 40
0.6
176
     1
 40
30.0
176
     1
 62
     7
420
 16777215
176
     1
 90
        1
176
     1
 90
       10
176
     1
 62
     7
176
     1
 62
   257
176
     1
 90
        2
176
     1
 90
        1
176
     1
 40
1.0
176
     1
 90
        8
176
     1
 62
   257
176
     1
 40
1.0
176
     1
 90
        1
176
     1
 90
        6
176
     1
 90
        2
176
     1
 62
     7
176
     1
 90
        3
176
     1
 90
        0
176
     1
 90
        0
176
     1
290
     0
176
     1
 90
        5
176
     1
 40
0.0
176
     1
 90
        0
176
     1
290
     0
176
     1
290
     1
176
     1
290
     1
176
     1
290
     0
176
     1
290
     0
176
     1
290
     0
176
     1
290
     0
176
     1
290
     0
176
     1
290
     0
176
     1
 90
       50
176
     1
 40
0.0
176
     1
 40
1.0
176
     1
 90
        0
176
     1
 62
    18
420
        0
176
     1
 90
       50
176
     1
 90
        3
176
     1
 62
     5
420
      255
176
     1
290
     0
176
     1
 90
       50
176
     1
 90
       50
176
     1
 90
       50
176
     1
290
     0
176
     1
 90
       50
176
     1
 62
   256
176
     0
 40
1.0
176
     0
 90
        2
176
     1
  1
strokes_ogs.tif
176
     1
290
     0
176
     1
 40
1.0
176
     1
 40
1.0
176
     1
  0
VISUALSTYLE
  5
3E
102
{ACAD_REACTORS
330
2A
102
}
330
2A
100
AcDbVisualStyle
  2
Shades of Gray
 70
    23
177
     3
291
     0
 70
    58
 90
        2
176
     1
 90
        2
176
     1
 90
        3
176
     1
 90
        0
176
     1
 40
0.6
176
     1
 40
30.0
176
     1
 62
     7
420
 16777215
176
     1
 90
        2
176
     1
 90
        2
176
     1
 62
     7
176
     1
 62
     7
176
     1
 90
        1
176
     1
 90
        1
176
     1
 40
40.0
176
     1
 90
        8
176
     1
 62
     7
176
     1
 40
1.0
176
     1
 90
        1
176
     1
 90
        6
176
     1
 90
        2
176
     1
 62
     7
176
     1
 90
        3
176
     1
 90
        0
176
     1
 90
        0
176
     1
290
     0
176
     1
 90
        1
176
     1
 40
0.0
176
     1
 90
        0
176
     1
290
     0
176
     1
290
     1
176
     1
290
     1
176
     1
290
     0
176
     1
290
     0
176
     1
290
     0
176
     1
290
     0
176
     1
290
     0
176
     1
290
     0
176
     1
 90
       50
176
     1
 40
0.0
176
     1
 40
1.0
176
     1
 90
        0
176
     1
 62
    18
420
        0
176
     1
 90
       50
176
     1
 90
        3
176
     1
 62
     5
420
      255
176
     1
290
     0
176
     1
 90
       50
176
     1
 90
       50
176
     1
 90
       50
176
     1
290
     0
176
     1
 90
       50
176
     1
 62
   256
176
     0
 40
1.0
176
     0
 90
        2
176
     1
  1
strokes_ogs.tif
176
     1
290
     0
176
     1
 40
1.0
176
     1
 40
1.0
176
     1
  0
VISUALSTYLE
  5
3F
102
{ACAD_REACTORS
330
2A
102
}
330
2A
100
AcDbVisualStyle
  2
Sketchy
 70
    24
177
     3
291
     0
 70
    58
 90
        1
176
     1
 90
        2
176
     1
 90
        2
176
     1
 90
        0
176
     1
 40
0.6
176
     1
 40
30.0
176
     1
 62
     7
420
 16777215
176
     1
 90
        2
176
     1
 90
        2
176
     1
 62
     7
176
     1
 62
     7
176
     1
 90
        1
176
     1
 90
        1
176
     1
 40
40.0
176
     1
 90
       11
176
     1
 62
     7
176
     1
 40
1.0
176
     1
 90
        1
176
     1
 90
        6
176
     1
 90
        2
176
     1
 62
     7
176
     1
 90
        6
176
     1
 90
        0
176
     1
 90
        0
176
     1
290
     0
176
     1
 90
        1
176
     1
 40
0.0
176
     1
 90
        0
176
     1
290
     0
176
     1
290
     1
176
     1
290
     1
176
     1
290
     0
176
     1
290
     0
176
     1
290
     0
176
     1
290
     0
176
     1
290
     0
176
     1
290
     0
176
     1
 90
       50
176
     1
 40
0.0
176
     1
 40
1.0
176
     1
 90
        0
176
     1
 62
    18
420
        0
176
     1
 90
       50
176
     1
 90
        3
176
     1
 62
     5
420
      255
176
     1
290
     0
176
     1
 90
       50
176
     1
 90
       50
176
     1
 90
       50
176
     1
290
     0
176
     1
 90
       50
176
     1
 62
   256
176
     0
 40
1.0
176
     0
 90
        2
176
     1
  1
strokes_ogs.tif
176
     1
290
     0
176
     1
 40
1.0
176
     1
 40
1.0
176
     1
  0
VISUALSTYLE
  5
37
102
{ACAD_REACTORS
330
2A
102
}
330
2A
100
AcDbVisualStyle
  2
Thicken
 70
    13
177
     3
291
     1
 70
    58
 90
        2
176
     1
 90
        2
176
     1
 90
        0
176
     1
 90
        0
176
     1
 40
0.6
176
     1
 40
30.0
176
     1
 62
     7
420
 16777215
176
     1
 90
        1
176
     1
 90
        4
176
     1
 62
     7
176
     1
 62
   257
176
     1
 90
        1
176
     1
 90
        1
176
     1
 40
1.0
176
     1
 90
       12
176
     1
 62
     7
176
     1
 40
1.0
176
     1
 90
        1
176
     1
 90
        6
176
     1
 90
        2
176
     1
 62
     7
176
     1
 90
        5
176
     1
 90
        0
176
     1
 90
        0
176
     1
290
     0
176
     1
 90
        1
176
     1
 40
0.0
176
     1
 90
        0
176
     1
290
     0
176
     1
290
     1
176
     1
290
     1
176
     1
290
     0
176
     1
290
     0
176
     1
290
     0
176
     1
290
     0
176
     1
290
     0
176
     1
290
     0
176
     1
 90
       50
176
     1
 40
0.0
176
     1
 40
1.0
176
     1
 90
        0
176
     1
 62
    18
420
        0
176
     1
 90
       50
176
     1
 90
        3
176
     1
 62
     5
420
      255
176
     1
290
     0
176
     1
 90
       50
176
     1
 90
       50
176
     1
 90
       50
176
     1
290
     0
176
     1
 90
       50
176
     1
 62
   256
176
     0
 40
1.0
176
     0
 90
        2
176
     1
  1
strokes_ogs.tif
176
     1
290
     0
176
     1
 40
1.0
176
     1
 40
1.0
176
     1
  0
VISUALSTYLE
  5
30
102
{ACAD_REACTORS
330
2A
102
}
330
2A
100
AcDbVisualStyle
  2
Wireframe
 70
     5
177
     3
291
     0
 70
    58
 90
        0
176
     1
 90
        2
176
     1
 90
        0
176
     1
 90
        0
176
     1
 40
0.6
176
     1
 40
30.0
176
     1
 62
     7
420
 16777215
176
     1
 90
        1
176
     1
 90
        4
176
     1
 62
     7
176
     1
 62
   257
176
     1
 90
        1
176
     1
 90
        1
176
     1
 40
1.0
176
     1
 90
        0
176
     1
 62
   257
176
     1
 40
1.0
176
     1
 90
        1
176
     1
 90
        6
176
     1
 90
        2
176
     1
 62
     7
176
     1
 90
        3
176
     1
 90
        0
176
     1
 90
        0
176
     1
290
     0
176
     1
 90
        1
176
     1
 40
0.0
176
     1
 90
        0
176
     1
290
     0
176
     1
290
     1
176
     1
290
     1
176
     1
290
     0
176
     1
290
     0
176
     1
290
     0
176
     1
290
     0
176
     1
290
     0
176
     1
290
     0
176
     1
 90
       50
176
     1
 40
0.0
176
     1
 40
1.0
176
     1
 90
        0
176
     1
 62
    18
420
        0
176
     1
 90
       50
176
     1
 90
        3
176
     1
 62
     5
420
      255
176
     1
290
     0
176
     1
 90
       50
176
     1
 90
       50
176
     1
 90
       50
176
     1
290
     0
176
     1
 90
       50
176
     1
 62
   256
176
     0
 40
1.0
176
     0
 90
        2
176
     1
  1
strokes_ogs.tif
176
     1
290
     0
176
     1
 40
1.0
176
     1
 40
1.0
176
     1
  0
VISUALSTYLE
  5
40
102
{ACAD_REACTORS
330
2A
102
}
330
2A
100
AcDbVisualStyle
  2
X-Ray
 70
    25
177
     3
291
     0
 70
    58
 90
        2
176
     1
 90
        2
176
     1
 90
        1
176
     1
 90
        1
176
     1
 40
0.5
176
     1
 40
30.0
176
     1
 62
     7
420
 16777215
176
     1
 90
        1
176
     1
 90
        0
176
     1
 62
     7
176
     1
 62
   257
176
     1
 90
        1
176
     1
 90
        1
176
     1
 40
1.0
176
     1
 90
        8
176
     1
 62
     7
176
     1
 40
1.0
176
     1
 90
        1
176
     1
 90
        6
176
     1
 90
        2
176
     1
 62
     7
176
     1
 90
        3
176
     1
 90
        0
176
     1
 90
        0
176
     1
290
     0
176
     1
 90
       13
176
     1
 40
0.0
176
     1
 90
        0
176
     1
290
     0
176
     1
290
     1
176
     1
290
     1
176
     1
290
     0
176
     1
290
     0
176
     1
290
     0
176
     1
290
     0
176
     1
290
     0
176
     1
290
     0
176
     1
 90
       50
176
     1
 40
0.0
176
     1
 40
1.0
176
     1
 90
        0
176
     1
 62
    18
420
        0
176
     1
 90
       50
176
     1
 90
        3
176
     1
 62
     5
420
      255
176
     1
290
     0
176
     1
 90
       50
176
     1
 90
       50
176
     1
 90
       50
176
     1
290
     0
176
     1
 90
       50
176
     1
 62
   256
176
     0
 40
1.0
176
     0
 90
        2
176
     1
  1
strokes_ogs.tif
176
     1
290
     0
176
     1
 40
1.0
176
     1
 40
1.0
176
     1
  0
DICTIONARYVAR
  5
1B5
102
{ACAD_REACTORS
330
1B4
102
}
330
1B4
100
DictionaryVariables
280
     0
  1
1:1
  0
DICTIONARYVAR
  5
1BA
102
{ACAD_REACTORS
330
1B4
102
}
330
1B4
100
DictionaryVariables
280
     0
  1
Standard
  0
DICTIONARYVAR
  5
1B9
102
{ACAD_REACTORS
330
1B4
102
}
330
1B4
100
DictionaryVariables
280
     0
  1
Standard
  0
DICTIONARY
  5
1B6
330
6A
100
AcDbDictionary
280
     1
281
     1
  3
ACAD_ROUNDTRIP_2008_TABLESTYLE_CELLSTYLEMAP
360
1B7
  0
CELLSTYLEMAP
  5
1B7
102
{ACAD_REACTORS
330
1B6
102
}
330
1B6
100
AcDbCellStyleMap
 90
        3
300
CELLSTYLE
  1
TABLEFORMAT_BEGIN
 90
        5
170
     1
 91
        0
 92
    32768
 62
   257
 93
        1
300
CONTENTFORMAT
  1
CONTENTFORMAT_BEGIN
 90
        0
 91
        0
 92
        4
 93
        0
300

 40
0.0
140
1.0
 94
        5
 62
     0
340
11
144
0.25
309
CONTENTFORMAT_END
171
     1
301
MARGIN
  1
CELLMARGIN_BEGIN
 40
0.06
 40
0.06
 40
0.06
 40
0.06
 40
0.06
 40
0.06
309
CELLMARGIN_END
 94
        6
 95
        1
302
GRIDFORMAT
  1
GRIDFORMAT_BEGIN
 90
        0
 91
        1
 62
     0
 92
       -2
340
14
 93
        0
 40
0.045
309
GRIDFORMAT_END
 95
        2
302
GRIDFORMAT
  1
GRIDFORMAT_BEGIN
 90
        0
 91
        1
 62
     0
 92
       -2
340
14
 93
        0
 40
0.045
309
GRIDFORMAT_END
 95
        4
302
GRIDFORMAT
  1
GRIDFORMAT_BEGIN
 90
        0
 91
        1
 62
     0
 92
       -2
340
14
 93
        0
 40
0.045
309
GRIDFORMAT_END
 95
        8
302
GRIDFORMAT
  1
GRIDFORMAT_BEGIN
 90
        0
 91
        1
 62
     0
 92
       -2
340
14
 93
        0
 40
0.045
309
GRIDFORMAT_END
 95
       16
302
GRIDFORMAT
  1
GRIDFORMAT_BEGIN
 90
        0
 91
        1
 62
     0
 92
       -2
340
14
 93
        0
 40
0.045
309
GRIDFORMAT_END
 95
       32
302
GRIDFORMAT
  1
GRIDFORMAT_BEGIN
 90
        0
 91
        1
 62
     0
 92
       -2
340
14
 93
        0
 40
0.045
309
GRIDFORMAT_END
309
TABLEFORMAT_END
  1
CELLSTYLE_BEGIN
 90
        1
 91
        1
300
_TITLE
309
CELLSTYLE_END
300
CELLSTYLE
  1
TABLEFORMAT_BEGIN
 90
        5
170
     1
 91
        0
 92
        0
 62
   257
 93
        1
300
CONTENTFORMAT
  1
CONTENTFORMAT_BEGIN
 90
        0
 91
        0
 92
        4
 93
        0
300

 40
0.0
140
1.0
 94
        5
 62
     0
340
11
144
0.18
309
CONTENTFORMAT_END
171
     1
301
MARGIN
  1
CELLMARGIN_BEGIN
 40
0.06
 40
0.06
 40
0.06
 40
0.06
 40
0.06
 40
0.06
309
CELLMARGIN_END
 94
        6
 95
        1
302
GRIDFORMAT
  1
GRIDFORMAT_BEGIN
 90
        0
 91
        1
 62
     0
 92
       -2
340
14
 93
        0
 40
0.045
309
GRIDFORMAT_END
 95
        2
302
GRIDFORMAT
  1
GRIDFORMAT_BEGIN
 90
        0
 91
        1
 62
     0
 92
       -2
340
14
 93
        0
 40
0.045
309
GRIDFORMAT_END
 95
        4
302
GRIDFORMAT
  1
GRIDFORMAT_BEGIN
 90
        0
 91
        1
 62
     0
 92
       -2
340
14
 93
        0
 40
0.045
309
GRIDFORMAT_END
 95
        8
302
GRIDFORMAT
  1
GRIDFORMAT_BEGIN
 90
        0
 91
        1
 62
     0
 92
       -2
340
14
 93
        0
 40
0.045
309
GRIDFORMAT_END
 95
       16
302
GRIDFORMAT
  1
GRIDFORMAT_BEGIN
 90
        0
 91
        1
 62
     0
 92
       -2
340
14
 93
        0
 40
0.045
309
GRIDFORMAT_END
 95
       32
302
GRIDFORMAT
  1
GRIDFORMAT_BEGIN
 90
        0
 91
        1
 62
     0
 92
       -2
340
14
 93
        0
 40
0.045
309
GRIDFORMAT_END
309
TABLEFORMAT_END
  1
CELLSTYLE_BEGIN
 90
        2
 91
        1
300
_HEADER
309
CELLSTYLE_END
300
CELLSTYLE
  1
TABLEFORMAT_BEGIN
 90
        5
170
     1
 91
        0
 92
        0
 62
   257
 93
        1
300
CONTENTFORMAT
  1
CONTENTFORMAT_BEGIN
 90
        0
 91
        0
 92
        4
 93
        0
300

 40
0.0
140
1.0
 94
        2
 62
     0
340
11
144
0.18
309
CONTENTFORMAT_END
171
     1
301
MARGIN
  1
CELLMARGIN_BEGIN
 40
0.06
 40
0.06
 40
0.06
 40
0.06
 40
0.06
 40
0.06
309
CELLMARGIN_END
 94
        6
 95
        1
302
GRIDFORMAT
  1
GRIDFORMAT_BEGIN
 90
        0
 91
        1
 62
     0
 92
       -2
340
14
 93
        0
 40
0.045
309
GRIDFORMAT_END
 95
        2
302
GRIDFORMAT
  1
GRIDFORMAT_BEGIN
 90
        0
 91
        1
 62
     0
 92
       -2
340
14
 93
        0
 40
0.045
309
GRIDFORMAT_END
 95
        4
302
GRIDFORMAT
  1
GRIDFORMAT_BEGIN
 90
        0
 91
        1
 62
     0
 92
       -2
340
14
 93
        0
 40
0.045
309
GRIDFORMAT_END
 95
        8
302
GRIDFORMAT
  1
GRIDFORMAT_BEGIN
 90
        0
 91
        1
 62
     0
 92
       -2
340
14
 93
        0
 40
0.045
309
GRIDFORMAT_END
 95
       16
302
GRIDFORMAT
  1
GRIDFORMAT_BEGIN
 90
        0
 91
        1
 62
     0
 92
       -2
340
14
 93
        0
 40
0.045
309
GRIDFORMAT_END
 95
       32
302
GRIDFORMAT
  1
GRIDFORMAT_BEGIN
 90
        0
 91
        1
 62
     0
 92
       -2
340
14
 93
        0
 40
0.045
309
GRIDFORMAT_END
309
TABLEFORMAT_END
  1
CELLSTYLE_BEGIN
 90
        3
 91
        2
300
_DATA
309
CELLSTYLE_END
  0
ENDSEC
  0
EOF