0
SECTION
  2
HEADER
  9
$ACADVER
  1
AC1027
  9
$ACADMAINTVER
 70
     8
  9
$DWGCODEPAGE
  3
ANSI_1252
  9
$REQUIREDVERSIONS
160
                 0
  9
$COMMENTS
  1
File was created by Cadenas
  9
$CUSTOMPROPERTYTAG
  1
NN
  9
$CUSTOMPROPERTY
  1
D-Lok Medium Duty Air-Handling Two-Bolt Pillow Block Inch Bore
  9
$CUSTOMPROPERTYTAG
  1
NT
  9
$CUSTOMPROPERTY
  1
DLMAH Medium Duty Air Handling Pillow Blocks
  9
$CUSTOMPROPERTYTAG
  1
NB
  9
$CUSTOMPROPERTY
  1
128474
  9
$CUSTOMPROPERTYTAG
  1
NBSYN
  9
$CUSTOMPROPERTY
  1
$PN.
  9
$CUSTOMPROPERTYTAG
  1
LINA
  9
$CUSTOMPROPERTY
  1
128474
  9
$CUSTOMPROPERTYTAG
  1
SERIES
  9
$CUSTOMPROPERTY
  1
206
  9
$CUSTOMPROPERTYTAG
  1
SS
  9
$CUSTOMPROPERTY
  1
1
  9
$CUSTOMPROPERTYTAG
  1
PN
  9
$CUSTOMPROPERTY
  1
128474
  9
$CUSTOMPROPERTYTAG
  1
DESCRIPTION
  9
$CUSTOMPROPERTY
  1
P2B-DLMAH-100
  9
$CUSTOMPROPERTYTAG
  1
WEIGHT
  9
$CUSTOMPROPERTY
  1
4.2
  9
$CUSTOMPROPERTYTAG
  1
A
  9
$CUSTOMPROPERTY
  1
1.56
  9
$CUSTOMPROPERTYTAG
  1
B
  9
$CUSTOMPROPERTY
  1
6.25
  9
$CUSTOMPROPERTYTAG
  1
C
  9
$CUSTOMPROPERTY
  1
1.75
  9
$CUSTOMPROPERTYTAG
  1
DMIN
  9
$CUSTOMPROPERTY
  1
4.25
  9
$CUSTOMPROPERTYTAG
  1
DMAX
  9
$CUSTOMPROPERTY
  1
5.00
  9
$CUSTOMPROPERTYTAG
  1
F
  9
$CUSTOMPROPERTY
  1
1/2
  9
$CUSTOMPROPERTYTAG
  1
G
  9
$CUSTOMPROPERTY
  1
0.94
  9
$CUSTOMPROPERTYTAG
  1
H
  9
$CUSTOMPROPERTY
  1
0.75
  9
$CUSTOMPROPERTYTAG
  1
J
  9
$CUSTOMPROPERTY
  1
3.31
  9
$CUSTOMPROPERTYTAG
  1
L
  9
$CUSTOMPROPERTY
  1
2.22
  9
$CUSTOMPROPERTYTAG
  1
M
  9
$CUSTOMPROPERTY
  1
1.69
  9
$CUSTOMPROPERTYTAG
  1
R
  9
$CUSTOMPROPERTY
  1
0.58
  9
$CUSTOMPROPERTYTAG
  1
S
  9
$CUSTOMPROPERTY
  1
0.98
  9
$CUSTOMPROPERTYTAG
  1
U
  9
$CUSTOMPROPERTY
  1
2.88
  9
$CUSTOMPROPERTYTAG
  1
V
  9
$CUSTOMPROPERTY
  1
5.76
  9
$CUSTOMPROPERTYTAG
  1
W
  9
$CUSTOMPROPERTY
  1
0.56
  9
$CUSTOMPROPERTYTAG
  1
X
  9
$CUSTOMPROPERTY
  1
0.12
  9
$CUSTOMPROPERTYTAG
  1
COMPANY
  9
$CUSTOMPROPERTY
  1
baldor
  9
$INSBASE
 10
0.0
 20
0.0
 30
0.0
  9
$EXTMIN
 10
1.000000000000000E+20
 20
1.000000000000000E+20
 30
1.000000000000000E+20
  9
$EXTMAX
 10
-1.000000000000000E+20
 20
-1.000000000000000E+20
 30
-1.000000000000000E+20
  9
$LIMMIN
 10
0.0
 20
0.0
  9
$LIMMAX
 10
12.0
 20
9.0
  9
$ORTHOMODE
 70
     0
  9
$REGENMODE
 70
     1
  9
$FILLMODE
 70
     1
  9
$QTEXTMODE
 70
     0
  9
$MIRRTEXT
 70
     1
  9
$LTSCALE
 40
1.0
  9
$ATTMODE
 70
     1
  9
$TEXTSIZE
 40
0.2
  9
$TRACEWID
 40
0.05
  9
$TEXTSTYLE
  7
Standard
  9
$CLAYER
  8
0
  9
$CELTYPE
  6
ByLayer
  9
$CECOLOR
 62
   256
  9
$CELTSCALE
 40
1.0
  9
$DISPSILH
 70
     0
  9
$DIMSCALE
 40
1.0
  9
$DIMASZ
 40
0.18
  9
$DIMEXO
 40
0.0625
  9
$DIMDLI
 40
0.38
  9
$DIMRND
 40
0.0
  9
$DIMDLE
 40
0.0
  9
$DIMEXE
 40
0.18
  9
$DIMTP
 40
0.0
  9
$DIMTM
 40
0.0
  9
$DIMTXT
 40
0.18
  9
$DIMCEN
 40
0.09
  9
$DIMTSZ
 40
0.0
  9
$DIMTOL
 70
     0
  9
$DIMLIM
 70
     0
  9
$DIMTIH
 70
     1
  9
$DIMTOH
 70
     1
  9
$DIMSE1
 70
     0
  9
$DIMSE2
 70
     0
  9
$DIMTAD
 70
     0
  9
$DIMZIN
 70
     0
  9
$DIMBLK
  1

  9
$DIMASO
 70
     1
  9
$DIMSHO
 70
     1
  9
$DIMPOST
  1

  9
$DIMAPOST
  1

  9
$DIMALT
 70
     0
  9
$DIMALTD
 70
     2
  9
$DIMALTF
 40
25.4
  9
$DIMLFAC
 40
1.0
  9
$DIMTOFL
 70
     0
  9
$DIMTVP
 40
0.0
  9
$DIMTIX
 70
     0
  9
$DIMSOXD
 70
     0
  9
$DIMSAH
 70
     0
  9
$DIMBLK1
  1

  9
$DIMBLK2
  1

  9
$DIMSTYLE
  2
Standard
  9
$DIMCLRD
 70
     0
  9
$DIMCLRE
 70
     0
  9
$DIMCLRT
 70
     0
  9
$DIMTFAC
 40
1.0
  9
$DIMGAP
 40
0.09
  9
$DIMJUST
 70
     0
  9
$DIMSD1
 70
     0
  9
$DIMSD2
 70
     0
  9
$DIMTOLJ
 70
     1
  9
$DIMTZIN
 70
     0
  9
$DIMALTZ
 70
     0
  9
$DIMALTTZ
 70
     0
  9
$DIMUPT
 70
     0
  9
$DIMDEC
 70
     4
  9
$DIMTDEC
 70
     4
  9
$DIMALTU
 70
     2
  9
$DIMALTTD
 70
     2
  9
$DIMTXSTY
  7
Standard
  9
$DIMAUNIT
 70
     0
  9
$DIMADEC
 70
     0
  9
$DIMALTRND
 40
0.0
  9
$DIMAZIN
 70
     0
  9
$DIMDSEP
 70
    46
  9
$DIMATFIT
 70
     3
  9
$DIMFRAC
 70
     0
  9
$DIMLDRBLK
  1

  9
$DIMLUNIT
 70
     2
  9
$DIMLWD
 70
    -2
  9
$DIMLWE
 70
    -2
  9
$DIMTMOVE
 70
     0
  9
$DIMFXL
 40
1.0
  9
$DIMFXLON
 70
     0
  9
$DIMJOGANG
 40
0.7853981633974483
  9
$DIMTFILL
 70
     0
  9
$DIMTFILLCLR
 70
     0
  9
$DIMARCSYM
 70
     0
  9
$DIMLTYPE
  6

  9
$DIMLTEX1
  6

  9
$DIMLTEX2
  6

  9
$DIMTXTDIRECTION
 70
     0
  9
$LUNITS
 70
     2
  9
$LUPREC
 70
     4
  9
$SKETCHINC
 40
0.1
  9
$FILLETRAD
 40
0.5
  9
$AUNITS
 70
     0
  9
$AUPREC
 70
     0
  9
$MENU
  1
.
  9
$ELEVATION
 40
0.0
  9
$PELEVATION
 40
0.0
  9
$THICKNESS
 40
0.0
  9
$LIMCHECK
 70
     0
  9
$CHAMFERA
 40
0.0
  9
$CHAMFERB
 40
0.0
  9
$CHAMFERC
 40
0.0
  9
$CHAMFERD
 40
0.0
  9
$SKPOLY
 70
     0
  9
$TDCREATE
 40
2458169.001227338
  9
$TDUCREATE
 40
2458168.959560671
  9
$TDUPDATE
 40
2458169.001227512
  9
$TDUUPDATE
 40
2458168.959560845
  9
$TDINDWG
 40
0.0000000116
  9
$TDUSRTIMER
 40
0.0000000116
  9
$USRTIMER
 70
     1
  9
$ANGBASE
 50
0.0
  9
$ANGDIR
 70
     0
  9
$PDMODE
 70
     0
  9
$PDSIZE
 40
0.0
  9
$PLINEWID
 40
0.0
  9
$SPLFRAME
 70
     0
  9
$SPLINETYPE
 70
     6
  9
$SPLINESEGS
 70
     8
  9
$HANDSEED
  5
1C3
  9
$SURFTAB1
 70
     6
  9
$SURFTAB2
 70
     6
  9
$SURFTYPE
 70
     6
  9
$SURFU
 70
     6
  9
$SURFV
 70
     6
  9
$UCSBASE
  2

  9
$UCSNAME
  2

  9
$UCSORG
 10
0.0
 20
0.0
 30
0.0
  9
$UCSXDIR
 10
1.0
 20
0.0
 30
0.0
  9
$UCSYDIR
 10
0.0
 20
1.0
 30
0.0
  9
$UCSORTHOREF
  2

  9
$UCSORTHOVIEW
 70
     0
  9
$UCSORGTOP
 10
0.0
 20
0.0
 30
0.0
  9
$UCSORGBOTTOM
 10
0.0
 20
0.0
 30
0.0
  9
$UCSORGLEFT
 10
0.0
 20
0.0
 30
0.0
  9
$UCSORGRIGHT
 10
0.0
 20
0.0
 30
0.0
  9
$UCSORGFRONT
 10
0.0
 20
0.0
 30
0.0
  9
$UCSORGBACK
 10
0.0
 20
0.0
 30
0.0
  9
$PUCSBASE
  2

  9
$PUCSNAME
  2

  9
$PUCSORG
 10
0.0
 20
0.0
 30
0.0
  9
$PUCSXDIR
 10
1.0
 20
0.0
 30
0.0
  9
$PUCSYDIR
 10
0.0
 20
1.0
 30
0.0
  9
$PUCSORTHOREF
  2

  9
$PUCSORTHOVIEW
 70
     0
  9
$PUCSORGTOP
 10
0.0
 20
0.0
 30
0.0
  9
$PUCSORGBOTTOM
 10
0.0
 20
0.0
 30
0.0
  9
$PUCSORGLEFT
 10
0.0
 20
0.0
 30
0.0
  9
$PUCSORGRIGHT
 10
0.0
 20
0.0
 30
0.0
  9
$PUCSORGFRONT
 10
0.0
 20
0.0
 30
0.0
  9
$PUCSORGBACK
 10
0.0
 20
0.0
 30
0.0
  9
$USERI1
 70
     0
  9
$USERI2
 70
     0
  9
$USERI3
 70
     0
  9
$USERI4
 70
     0
  9
$USERI5
 70
     0
  9
$USERR1
 40
0.0
  9
$USERR2
 40
0.0
  9
$USERR3
 40
0.0
  9
$USERR4
 40
0.0
  9
$USERR5
 40
0.0
  9
$WORLDVIEW
 70
     1
  9
$SHADEDGE
 70
     3
  9
$SHADEDIF
 70
    70
  9
$TILEMODE
 70
     1
  9
$MAXACTVP
 70
    64
  9
$PINSBASE
 10
0.0
 20
0.0
 30
0.0
  9
$PLIMCHECK
 70
     0
  9
$PEXTMIN
 10
1.000000000000000E+20
 20
1.000000000000000E+20
 30
1.000000000000000E+20
  9
$PEXTMAX
 10
-1.000000000000000E+20
 20
-1.000000000000000E+20
 30
-1.000000000000000E+20
  9
$PLIMMIN
 10
0.0
 20
0.0
  9
$PLIMMAX
 10
12.0
 20
9.0
  9
$UNITMODE
 70
     0
  9
$VISRETAIN
 70
     1
  9
$PLINEGEN
 70
     0
  9
$PSLTSCALE
 70
     1
  9
$TREEDEPTH
 70
  3020
  9
$CMLSTYLE
  2
Standard
  9
$CMLJUST
 70
     0
  9
$CMLSCALE
 40
1.0
  9
$PROXYGRAPHICS
 70
     1
  9
$MEASUREMENT
 70
     0
  9
$CELWEIGHT
370
    -1
  9
$ENDCAPS
280
     0
  9
$JOINSTYLE
280
     0
  9
$LWDISPLAY
290
     0
  9
$INSUNITS
 70
     1
  9
$HYPERLINKBASE
  1

  9
$STYLESHEET
  1

  9
$XEDIT
290
     1
  9
$CEPSNTYPE
380
     0
  9
$PSTYLEMODE
290
     1
  9
$FINGERPRINTGUID
  2
{3C5B111D-C3B9-4332-A7AA-16B4A5E7FA49}
  9
$VERSIONGUID
  2
{FAEB1C32-E019-11D5-929B-00C0DF256EC4}
  9
$EXTNAMES
290
     1
  9
$PSVPSCALE
 40
0.0
  9
$OLESTARTUP
290
     0
  9
$SORTENTS
280
   127
  9
$INDEXCTL
280
     0
  9
$HIDETEXT
280
     1
  9
$XCLIPFRAME
280
     2
  9
$HALOGAP
280
     0
  9
$OBSCOLOR
 70
   257
  9
$OBSLTYPE
280
     0
  9
$INTERSECTIONDISPLAY
280
     0
  9
$INTERSECTIONCOLOR
 70
   257
  9
$DIMASSOC
280
     2
  9
$PROJECTNAME
  1

  9
$CAMERADISPLAY
290
     0
  9
$LENSLENGTH
 40
50.0
  9
$CAMERAHEIGHT
 40
0.0
  9
$STEPSPERSEC
 40
2.0
  9
$STEPSIZE
 40
6.0
  9
$3DDWFPREC
 40
2.0
  9
$PSOLWIDTH
 40
0.25
  9
$PSOLHEIGHT
 40
4.0
  9
$LOFTANG1
 40
1.570796326794897
  9
$LOFTANG2
 40
1.570796326794897
  9
$LOFTMAG1
 40
0.0
  9
$LOFTMAG2
 40
0.0
  9
$LOFTPARAM
 70
     7
  9
$LOFTNORMALS
280
     1
  9
$LATITUDE
 40
37.795
  9
$LONGITUDE
 40
-122.394
  9
$NORTHDIRECTION
 40
0.0
  9
$TIMEZONE
 70
 -8000
  9
$LIGHTGLYPHDISPLAY
280
     1
  9
$TILEMODELIGHTSYNCH
280
     1
  9
$CMATERIAL
347
44
  9
$SOLIDHIST
280
     0
  9
$SHOWHIST
280
     1
  9
$DWFFRAME
280
     2
  9
$DGNFRAME
280
     2
  9
$REALWORLDSCALE
290
     1
  9
$INTERFERECOLOR
 62
   256
  9
$CSHADOW
280
     0
  9
$SHADOWPLANELOCATION
 40
0.0
  0
ENDSEC
  0
SECTION
  2
CLASSES
  0
CLASS
  1
ACDBDICTIONARYWDFLT
  2
AcDbDictionaryWithDefault
  3
ObjectDBX Classes
 90
        0
 91
        4
280
     0
281
     0
  0
CLASS
  1
VISUALSTYLE
  2
AcDbVisualStyle
  3
ObjectDBX Classes
 90
     4095
 91
        4
280
     0
281
     0
  0
CLASS
  1
MATERIAL
  2
AcDbMaterial
  3
ObjectDBX Classes
 90
     1153
 91
        4
280
     0
281
     0
  0
CLASS
  1
SCALE
  2
AcDbScale
  3
ObjectDBX Classes
 90
     1153
 91
        4
280
     0
281
     0
  0
CLASS
  1
TABLESTYLE
  2
AcDbTableStyle
  3
ObjectDBX Classes
 90
     4095
 91
        4
280
     0
281
     0
  0
CLASS
  1
MLEADERSTYLE
  2
AcDbMLeaderStyle
  3
ACDB_MLEADERSTYLE_CLASS
 90
     4095
 91
        4
280
     0
281
     0
  0
CLASS
  1
SUN
  2
AcDbSun
  3
SCENEOE
 90
     1153
 91
        4
280
     0
281
     0
  0
CLASS
  1
DICTIONARYVAR
  2
AcDbDictionaryVar
  3
ObjectDBX Classes
 90
        0
 91
        4
280
     0
281
     0
  0
CLASS
  1
CELLSTYLEMAP
  2
AcDbCellStyleMap
  3
ObjectDBX Classes
 90
     1152
 91
        4
280
     0
281
     0
  0
ENDSEC
  0
SECTION
  2
TABLES
  0
TABLE
  2
VPORT
  5
8
330
0
100
AcDbSymbolTable
 70
     1
  0
VPORT
  5
29
330
8
100
AcDbSymbolTableRecord
100
AcDbViewportTableRecord
  2
*Active
 70
     0
 10
0.0
 20
0.0
 11
1.0
 21
1.0
 12
0.0
 22
-0.0477499999999997
 13
0.0
 23
0.0
 14
0.5
 24
0.5
 15
0.5
 25
0.5
 16
0.0
 26
0.0
 36
1.0
 17
0.0
 27
0.0
 37
0.0
 40
2.06091
 41
3.093293739173471
 42
50.0
 43
0.0
 44
0.0
 50
0.0
 51
0.0
 71
     0
 72
   100
 73
     1
 74
     3
 75
     0
 76
     0
 77
     0
 78
     0
281
     0
 65
     1
110
0.0
120
0.0
130
0.0
111
1.0
121
0.0
131
0.0
112
0.0
122
1.0
132
0.0
 79
     0
146
0.0
348
2F
 60
     3
 61
     5
292
     1
282
     1
141
0.0
142
0.0
 63
   250
361
6D
  0
ENDTAB
  0
TABLE
  2
LTYPE
  5
5
330
0
100
AcDbSymbolTable
 70
     3
  0
LTYPE
  5
14
330
5
100
AcDbSymbolTableRecord
100
AcDbLinetypeTableRecord
  2
ByBlock
 70
     0
  3

 72
    65
 73
     0
 40
0.0
  0
LTYPE
  5
15
330
5
100
AcDbSymbolTableRecord
100
AcDbLinetypeTableRecord
  2
ByLayer
 70
     0
  3

 72
    65
 73
     0
 40
0.0
  0
LTYPE
  5
16
330
5
100
AcDbSymbolTableRecord
100
AcDbLinetypeTableRecord
  2
Continuous
 70
     0
  3
Solid line
 72
    65
 73
     0
 40
0.0
  0
LTYPE
  5
A1
330
5
100
AcDbSymbolTableRecord
100
AcDbLinetypeTableRecord
  2
Dashed
 70
     0
  3

 72
    65
 73
     2
 40
2.0
 49
1.0
 74
     0
 49
-1.0
 74
     0
  0
LTYPE
  5
168
330
5
100
AcDbSymbolTableRecord
100
AcDbLinetypeTableRecord
  2
Center
 70
     0
  3

 72
    65
 73
     4
 40
1.5
 49
0.45
 74
     0
 49
-0.5
 74
     0
 49
0.05
 74
     0
 49
-0.5
 74
     0
  0
ENDTAB
  0
TABLE
  2
LAYER
  5
2
330
0
100
AcDbSymbolTable
 70
     6
  0
LAYER
  5
10
330
2
100
AcDbSymbolTableRecord
100
AcDbLayerTableRecord
  2
0
 70
     0
 62
     7
  6
Continuous
370
    -3
390
F
347
46
348
0
  0
LAYER
  5
72
330
2
100
AcDbSymbolTableRecord
100
AcDbLayerTableRecord
  2
AM_6
 70
     0
 62
    -2
  6
Continuous
370
    35
390
F
347
46
348
0
  0
LAYER
  5
A2
330
2
100
AcDbSymbolTableRecord
100
AcDbLayerTableRecord
  2
AM_9
 70
     0
 62
     6
  6
Dashed
370
    25
390
F
347
46
348
0
  0
LAYER
  5
C5
330
2
100
AcDbSymbolTableRecord
100
AcDbLayerTableRecord
  2
AM_4
 70
     0
 62
     7
  6
Continuous
370
    50
390
F
347
46
348
0
  0
LAYER
  5
169
330
2
100
AcDbSymbolTableRecord
100
AcDbLayerTableRecord
  2
AM_7
 70
     0
 62
     7
  6
Center
370
    25
390
F
347
46
348
0
  0
LAYER
  5
1B4
330
2
100
AcDbSymbolTableRecord
100
AcDbLayerTableRecord
  2
ConnectionPoints
 70
     0
 62
     7
  6
Continuous
370
    50
390
F
347
46
348
0
  0
ENDTAB
  0
TABLE
  2
STYLE
  5
3
330
0
100
AcDbSymbolTable
 70
     1
  0
STYLE
  5
11
330
3
100
AcDbSymbolTableRecord
100
AcDbTextStyleTableRecord
  2
Standard
 70
     0
 40
0.0
 41
1.0
 50
0.0
 71
     0
 42
0.2
  3
txt
  4

  0
ENDTAB
  0
TABLE
  2
VIEW
  5
6
330
0
100
AcDbSymbolTable
 70
     0
  0
ENDTAB
  0
TABLE
  2
UCS
  5
7
330
0
100
AcDbSymbolTable
 70
     0
  0
ENDTAB
  0
TABLE
  2
APPID
  5
9
330
0
100
AcDbSymbolTable
 70
     1
  0
APPID
  5
12
330
9
100
AcDbSymbolTableRecord
100
AcDbRegAppTableRecord
  2
ACAD
 70
     0
  0
ENDTAB
  0
TABLE
  2
DIMSTYLE
  5
A
330
0
100
AcDbSymbolTable
 70
     1
100
AcDbDimStyleTable
  0
DIMSTYLE
105
27
330
A
100
AcDbSymbolTableRecord
100
AcDbDimStyleTableRecord
  2
Standard
 70
     0
178
     0
340
11
  0
ENDTAB
  0
TABLE
  2
BLOCK_RECORD
  5
1
330
0
100
AcDbSymbolTable
 70
     5
  0
BLOCK_RECORD
  5
1F
330
1
100
AcDbSymbolTableRecord
100
AcDbBlockTableRecord
  2
*Model_Space
340
22
 70
     0
280
     1
281
     0
  0
BLOCK_RECORD
  5
1B
330
1
100
AcDbSymbolTableRecord
100
AcDbBlockTableRecord
  2
*Paper_Space
340
1E
 70
     0
280
     1
281
     0
  0
BLOCK_RECORD
  5
23
330
1
100
AcDbSymbolTableRecord
100
AcDbBlockTableRecord
  2
*Paper_Space0
340
26
 70
     0
280
     1
281
     0
  0
BLOCK_RECORD
  5
6E
330
1
100
AcDbSymbolTableRecord
100
AcDbBlockTableRecord
  2
1_128474_4
340
0
102
{BLKREFS
331
6F
102
}
 70
     0
280
     1
281
     0
  0
BLOCK_RECORD
  5
8F
330
1
100
AcDbSymbolTableRecord
100
AcDbBlockTableRecord
  2
2_405020c_Inch_0_in_128474_4
340
0
102
{BLKREFS
331
90
102
}
 70
     0
280
     1
281
     0
  0
BLOCK_RECORD
  5
EB
330
1
100
AcDbSymbolTableRecord
100
AcDbBlockTableRecord
  2
3_128668_0_in_128474_4
340
0
102
{BLKREFS
331
EC
102
}
 70
     0
280
     1
281
     0
  0
BLOCK_RECORD
  5
12D
330
1
100
AcDbSymbolTableRecord
100
AcDbBlockTableRecord
  2
4_128474h_0_in_128474_4
340
0
102
{BLKREFS
331
12E
102
}
 70
     0
280
     1
281
     0
  0
ENDTAB
  0
ENDSEC
  0
SECTION
  2
BLOCKS
  0
BLOCK
  5
20
330
1F
100
AcDbEntity
  8
0
100
AcDbBlockBegin
  2
*Model_Space
 70
     0
 10
0.0
 20
0.0
 30
0.0
  3
*Model_Space
  1

  0
ENDBLK
  5
21
330
1F
100
AcDbEntity
  8
0
100
AcDbBlockEnd
  0
BLOCK
  5
1C
330
1B
100
AcDbEntity
 67
     1
  8
0
100
AcDbBlockBegin
  2
*Paper_Space
 70
     0
 10
0.0
 20
0.0
 30
0.0
  3
*Paper_Space
  1

  0
ENDBLK
  5
1D
330
1B
100
AcDbEntity
 67
     1
  8
0
100
AcDbBlockEnd
  0
BLOCK
  5
24
330
23
100
AcDbEntity
  8
0
100
AcDbBlockBegin
  2
*Paper_Space0
 70
     0
 10
0.0
 20
0.0
 30
0.0
  3
*Paper_Space0
  1

  0
ENDBLK
  5
25
330
23
100
AcDbEntity
  8
0
100
AcDbBlockEnd
  0
BLOCK
  5
70
330
6E
100
AcDbEntity
  8
0
100
AcDbBlockBegin
  2
1_128474_4
 70
     2
 10
0.0
 20
0.0
 30
0.0
  3
1_128474_4
  1

  0
ATTDEF
  5
73
330
6E
100
AcDbEntity
  8
AM_6
100
AcDbText
 10
8.125
 20
0.9625000000000001
 30
0.0
 40
0.5
  1
D-Lok Medium Duty Air-Handling Two-Bolt Pillow Block Inch Bore
100
AcDbAttributeDefinition
  3

  2
NN
 70
     8
280
     0
  0
ATTDEF
  5
74
330
6E
100
AcDbEntity
  8
AM_6
100
AcDbText
 10
8.125
 20
0.4625000000000001
 30
0.0
 40
0.5
  1
DLMAH Medium Duty Air Handling Pillow Blocks
100
AcDbAttributeDefinition
  3

  2
NT
 70
     8
280
     0
  0
ATTDEF
  5
75
330
6E
100
AcDbEntity
  8
AM_6
100
AcDbText
 10
8.125
 20
-0.0374999999999999
 30
0.0
 40
0.5
  1
128474
100
AcDbAttributeDefinition
  3

  2
NB
 70
     8
280
     0
  0
ATTDEF
  5
76
330
6E
100
AcDbEntity
  8
AM_6
100
AcDbText
 10
8.125
 20
-0.5374999999999999
 30
0.0
 40
0.5
  1
$PN.
100
AcDbAttributeDefinition
  3

  2
NBSYN
 70
     8
280
     0
  0
ATTDEF
  5
77
330
6E
100
AcDbEntity
  8
AM_6
100
AcDbText
 10
8.125
 20
-1.0375
 30
0.0
 40
0.5
  1
128474
100
AcDbAttributeDefinition
  3

  2
LINA
 70
     8
280
     0
  0
ATTDEF
  5
78
330
6E
100
AcDbEntity
  8
AM_6
100
AcDbText
 10
8.125
 20
-1.5375
 30
0.0
 40
0.5
  1
206
100
AcDbAttributeDefinition
  3

  2
SERIES
 70
     8
280
     0
  0
ATTDEF
  5
79
330
6E
100
AcDbEntity
  8
AM_6
100
AcDbText
 10
8.125
 20
-2.0375
 30
0.0
 40
0.5
  1
1
100
AcDbAttributeDefinition
  3

  2
SS
 70
     8
280
     0
  0
ATTDEF
  5
7A
330
6E
100
AcDbEntity
  8
AM_6
100
AcDbText
 10
8.125
 20
-2.5375
 30
0.0
 40
0.5
  1
128474
100
AcDbAttributeDefinition
  3

  2
PN
 70
     8
280
     0
  0
ATTDEF
  5
7B
330
6E
100
AcDbEntity
  8
AM_6
100
AcDbText
 10
8.125
 20
-3.0375
 30
0.0
 40
0.5
  1
P2B-DLMAH-100
100
AcDbAttributeDefinition
  3

  2
DESCRIPTION
 70
     8
280
     0
  0
ATTDEF
  5
7C
330
6E
100
AcDbEntity
  8
AM_6
100
AcDbText
 10
8.125
 20
-3.5375
 30
0.0
 40
0.5
  1
4.2
100
AcDbAttributeDefinition
  3

  2
WEIGHT
 70
     8
280
     0
  0
ATTDEF
  5
7D
330
6E
100
AcDbEntity
  8
AM_6
100
AcDbText
 10
8.125
 20
-4.0375
 30
0.0
 40
0.5
  1
1.56
100
AcDbAttributeDefinition
  3

  2
A
 70
     8
280
     0
  0
ATTDEF
  5
7E
330
6E
100
AcDbEntity
  8
AM_6
100
AcDbText
 10
8.125
 20
-4.5375
 30
0.0
 40
0.5
  1
6.25
100
AcDbAttributeDefinition
  3

  2
B
 70
     8
280
     0
  0
ATTDEF
  5
7F
330
6E
100
AcDbEntity
  8
AM_6
100
AcDbText
 10
8.125
 20
-5.0375
 30
0.0
 40
0.5
  1
1.75
100
AcDbAttributeDefinition
  3

  2
C
 70
     8
280
     0
  0
ATTDEF
  5
80
330
6E
100
AcDbEntity
  8
AM_6
100
AcDbText
 10
8.125
 20
-5.5375
 30
0.0
 40
0.5
  1
4.25
100
AcDbAttributeDefinition
  3

  2
DMIN
 70
     8
280
     0
  0
ATTDEF
  5
81
330
6E
100
AcDbEntity
  8
AM_6
100
AcDbText
 10
8.125
 20
-6.0375
 30
0.0
 40
0.5
  1
5.00
100
AcDbAttributeDefinition
  3

  2
DMAX
 70
     8
280
     0
  0
ATTDEF
  5
82
330
6E
100
AcDbEntity
  8
AM_6
100
AcDbText
 10
8.125
 20
-6.5375
 30
0.0
 40
0.5
  1
1/2
100
AcDbAttributeDefinition
  3

  2
F
 70
     8
280
     0
  0
ATTDEF
  5
83
330
6E
100
AcDbEntity
  8
AM_6
100
AcDbText
 10
8.125
 20
-7.0375
 30
0.0
 40
0.5
  1
0.94
100
AcDbAttributeDefinition
  3

  2
G
 70
     8
280
     0
  0
ATTDEF
  5
84
330
6E
100
AcDbEntity
  8
AM_6
100
AcDbText
 10
8.125
 20
-7.5375
 30
0.0
 40
0.5
  1
0.75
100
AcDbAttributeDefinition
  3

  2
H
 70
     8
280
     0
  0
ATTDEF
  5
85
330
6E
100
AcDbEntity
  8
AM_6
100
AcDbText
 10
8.125
 20
-8.0375
 30
0.0
 40
0.5
  1
3.31
100
AcDbAttributeDefinition
  3

  2
J
 70
     8
280
     0
  0
ATTDEF
  5
86
330
6E
100
AcDbEntity
  8
AM_6
100
AcDbText
 10
8.125
 20
-8.5375
 30
0.0
 40
0.5
  1
2.22
100
AcDbAttributeDefinition
  3

  2
L
 70
     8
280
     0
  0
ATTDEF
  5
87
330
6E
100
AcDbEntity
  8
AM_6
100
AcDbText
 10
8.125
 20
-9.0375
 30
0.0
 40
0.5
  1
1.69
100
AcDbAttributeDefinition
  3

  2
M
 70
     8
280
     0
  0
ATTDEF
  5
88
330
6E
100
AcDbEntity
  8
AM_6
100
AcDbText
 10
8.125
 20
-9.5375
 30
0.0
 40
0.5
  1
0.58
100
AcDbAttributeDefinition
  3

  2
R
 70
     8
280
     0
  0
ATTDEF
  5
89
330
6E
100
AcDbEntity
  8
AM_6
100
AcDbText
 10
8.125
 20
-10.0375
 30
0.0
 40
0.5
  1
0.98
100
AcDbAttributeDefinition
  3

  2
S
 70
     8
280
     0
  0
ATTDEF
  5
8A
330
6E
100
AcDbEntity
  8
AM_6
100
AcDbText
 10
8.125
 20
-10.5375
 30
0.0
 40
0.5
  1
2.88
100
AcDbAttributeDefinition
  3

  2
U
 70
     8
280
     0
  0
ATTDEF
  5
8B
330
6E
100
AcDbEntity
  8
AM_6
100
AcDbText
 10
8.125
 20
-11.0375
 30
0.0
 40
0.5
  1
5.76
100
AcDbAttributeDefinition
  3

  2
V
 70
     8
280
     0
  0
ATTDEF
  5
8C
330
6E
100
AcDbEntity
  8
AM_6
100
AcDbText
 10
8.125
 20
-11.5375
 30
0.0
 40
0.5
  1
0.56
100
AcDbAttributeDefinition
  3

  2
W
 70
     8
280
     0
  0
ATTDEF
  5
8D
330
6E
100
AcDbEntity
  8
AM_6
100
AcDbText
 10
8.125
 20
-12.0375
 30
0.0
 40
0.5
  1
0.12
100
AcDbAttributeDefinition
  3

  2
X
 70
     8
280
     0
  0
ATTDEF
  5
8E
330
6E
100
AcDbEntity
  8
AM_6
100
AcDbText
 10
8.125
 20
-12.5375
 30
0.0
 40
0.5
  1
baldor
100
AcDbAttributeDefinition
  3

  2
COMPANY
 70
     8
280
     0
  0
INSERT
  5
90
330
6E
100
AcDbEntity
  8
0
100
AcDbBlockReference
  2
2_405020c_Inch_0_in_128474_4
 10
0.0
 20
0.0
 30
0.0
  0
INSERT
  5
EC
330
6E
100
AcDbEntity
  8
0
100
AcDbBlockReference
  2
3_128668_0_in_128474_4
 10
0.0
 20
0.0
 30
0.0
  0
INSERT
  5
12E
330
6E
100
AcDbEntity
  8
0
100
AcDbBlockReference
  2
4_128474h_0_in_128474_4
 10
0.0
 20
0.0
 30
0.0
  0
ENDBLK
  5
71
330
6E
100
AcDbEntity
  8
0
100
AcDbBlockEnd
  0
BLOCK
  5
91
330
8F
100
AcDbEntity
  8
0
100
AcDbBlockBegin
  2
2_405020c_Inch_0_in_128474_4
 70
     2
 10
0.0
 20
0.0
 30
0.0
  3
2_405020c_Inch_0_in_128474_4
  1

  0
ATTDEF
  5
93
330
8F
100
AcDbEntity
  8
AM_6
100
AcDbText
 10
6.453911848867841
 20
0.1624086307230419
 30
0.0
 40
0.5
  1
405020C -Inch
100
AcDbAttributeDefinition
  3

  2
NN
 70
     8
280
     0
  0
ATTDEF
  5
94
330
8F
100
AcDbEntity
  8
AM_6
100
AcDbText
 10
6.453911848867841
 20
-0.3375913692769581
 30
0.0
 40
0.5
  1
Grease fitting
100
AcDbAttributeDefinition
  3

  2
NT
 70
     8
280
     0
  0
ATTDEF
  5
95
330
8F
100
AcDbEntity
  8
AM_6
100
AcDbText
 10
6.453911848867841
 20
-0.8375913692769581
 30
0.0
 40
0.5
  1
405020c-Inch
100
AcDbAttributeDefinition
  3

  2
NB
 70
     8
280
     0
  0
ATTDEF
  5
96
330
8F
100
AcDbEntity
  8
AM_6
100
AcDbText
 10
6.453911848867841
 20
-1.337591369276958
 30
0.0
 40
0.5
  1
$MN.-Inch
100
AcDbAttributeDefinition
  3

  2
NBSYN
 70
     8
280
     0
  0
ATTDEF
  5
97
330
8F
100
AcDbEntity
  8
AM_6
100
AcDbText
 10
6.453911848867841
 20
-1.837591369276958
 30
0.0
 40
0.5
  1
405020c
100
AcDbAttributeDefinition
  3

  2
LINA
 70
     8
280
     0
  0
ATTDEF
  5
98
330
8F
100
AcDbEntity
  8
AM_6
100
AcDbText
 10
6.453911848867841
 20
-2.337591369276958
 30
0.0
 40
0.5
  1
405020c
100
AcDbAttributeDefinition
  3

  2
MN
 70
     8
280
     0
  0
ATTDEF
  5
99
330
8F
100
AcDbEntity
  8
AM_6
100
AcDbText
 10
6.453911848867841
 20
-2.837591369276958
 30
0.0
 40
0.5
  1
0.230
100
AcDbAttributeDefinition
  3

  2
NDR
 70
     8
280
     0
  0
ATTDEF
  5
9A
330
8F
100
AcDbEntity
  8
AM_6
100
AcDbText
 10
6.453911848867841
 20
-3.337591369276958
 30
0.0
 40
0.5
  1
0.210
100
AcDbAttributeDefinition
  3

  2
KDR
 70
     8
280
     0
  0
ATTDEF
  5
9B
330
8F
100
AcDbEntity
  8
AM_6
100
AcDbText
 10
6.453911848867841
 20
-3.837591369276958
 30
0.0
 40
0.5
  1
0.157
100
AcDbAttributeDefinition
  3

  2
BZE
 70
     8
280
     0
  0
ATTDEF
  5
9C
330
8F
100
AcDbEntity
  8
AM_6
100
AcDbText
 10
6.453911848867841
 20
-4.337591369276958
 30
0.0
 40
0.5
  1
9/32
100
AcDbAttributeDefinition
  3

  2
WAF
 70
     8
280
     0
  0
ATTDEF
  5
9D
330
8F
100
AcDbEntity
  8
AM_6
100
AcDbText
 10
6.453911848867841
 20
-4.837591369276958
 30
0.0
 40
0.5
  1
0.2813
100
AcDbAttributeDefinition
  3

  2
WAF1
 70
     8
280
     0
  0
ATTDEF
  5
9E
330
8F
100
AcDbEntity
  8
AM_6
100
AcDbText
 10
6.453911848867841
 20
-5.337591369276958
 30
0.0
 40
0.5
  1
0.545
100
AcDbAttributeDefinition
  3

  2
BL
 70
     8
280
     0
  0
ATTDEF
  5
9F
330
8F
100
AcDbEntity
  8
AM_6
100
AcDbText
 10
6.453911848867841
 20
-5.837591369276958
 30
0.0
 40
0.5
  1
0.200
100
AcDbAttributeDefinition
  3

  2
TL
 70
     8
280
     0
  0
ATTDEF
  5
A0
330
8F
100
AcDbEntity
  8
AM_6
100
AcDbText
 10
6.453911848867841
 20
-6.337591369276958
 30
0.0
 40
0.5
  1
baldor
100
AcDbAttributeDefinition
  3

  2
COMPANY
 70
     8
280
     0
  0
ELLIPSE
  5
A3
330
8F
100
AcDbEntity
  8
AM_9
100
AcDbEllipse
 10
1.004091629284898
 20
0.0000000000000002
 30
0.0
 11
-1.838598171376523E-17
 21
-0.1000886227036577
 31
0.0
210
0.0
220
0.0
230
1.0
 40
0.7071067811865474
 41
0.0
 42
6.283185307179586
  0
LINE
  5
A4
330
8F
100
AcDbEntity
  8
AM_9
100
AcDbLine
 10
1.287985427094553
 20
-0.0812043153615207
 30
0.0
 11
1.24909013357674
 21
-0.0812043153615207
 31
0.0
  0
LINE
  5
A5
330
8F
100
AcDbEntity
  8
AM_9
100
AcDbLine
 10
1.287985427094553
 20
0.081204315361521
 30
0.0
 11
1.24909013357674
 21
0.081204315361521
 31
0.0
  0
LINE
  5
A6
330
8F
100
AcDbEntity
  8
AM_9
100
AcDbLine
 10
1.246858656237895
 20
-0.0539193788127385
 30
0.0
 11
1.24909013357674
 21
-0.0812043153615207
 31
0.0
  0
LWPOLYLINE
  5
A7
330
8F
100
AcDbEntity
  8
AM_9
100
AcDbPolyline
 90
        3
 70
     0
 43
0.0
 10
1.244967554296095
 20
0.0000000000000002
 10
1.246055703571009
 20
-0.0406021576807603
 10
1.246858656237895
 20
-0.0539193788127385
  0
LWPOLYLINE
  5
A8
330
8F
100
AcDbEntity
  8
AM_9
100
AcDbPolyline
 90
        4
 70
     0
 43
0.0
 10
1.24909013357674
 20
0.081204315361521
 10
1.247464912920153
 20
0.0623017518439033
 10
1.245617096739127
 20
0.0312428256208206
 10
1.244967554296095
 20
0.0000000000000002
  0
LWPOLYLINE
  5
A9
330
8F
100
AcDbEntity
  8
AM_9
100
AcDbPolyline
 90
        3
 70
     0
 43
0.0
 10
1.195240269909151
 20
0.1218064730422815
 10
1.221192061377537
 20
0.1015053942019012
 10
1.24909013357674
 20
0.081204315361521
  0
LWPOLYLINE
  5
AA
330
8F
100
AcDbEntity
  8
AM_9
100
AcDbPolyline
 90
        3
 70
     0
 43
0.0
 10
1.24909013357674
 20
-0.0812043153615207
 10
1.221313468190891
 20
-0.1014141150849084
 10
1.195240269909151
 20
-0.1218064730422811
  0
LWPOLYLINE
  5
AB
330
8F
100
AcDbEntity
  8
AM_9
100
AcDbPolyline
 90
        3
 70
     0
 43
0.0
 10
1.254344284469749
 20
-0.1118199743330277
 10
1.266156214906813
 20
-0.1015053942019009
 10
1.287985427094553
 20
-0.0812043153615207
  0
LINE
  5
AC
330
8F
100
AcDbEntity
  8
AM_9
100
AcDbLine
 10
1.292082137657077
 20
-0.0061988191061145
 30
0.0
 11
1.292108006375198
 21
0.0000000000000002
 31
0.0
  0
LWPOLYLINE
  5
AD
330
8F
100
AcDbEntity
  8
AM_9
100
AcDbPolyline
 90
        3
 70
     0
 43
0.0
 10
1.287985427094553
 20
-0.0812043153615207
 10
1.291010243917332
 20
-0.0407847159147453
 10
1.292074353304763
 20
-0.0070707511623412
  0
LWPOLYLINE
  5
AE
330
8F
100
AcDbEntity
  8
AM_9
100
AcDbPolyline
 90
        3
 70
     0
 43
0.0
 10
1.287985427094553
 20
0.081204315361521
 10
1.266258395354262
 20
0.1014141150849087
 10
1.254345434440736
 20
0.111818992681682
  0
LWPOLYLINE
  5
AF
330
8F
100
AcDbEntity
  8
AM_9
100
AcDbPolyline
 90
        4
 70
     0
 43
0.0
 10
1.292108006375198
 20
0.0000000000000002
 10
1.291462236440116
 20
0.0311508759219517
 10
1.28961064775114
 20
0.0623017518439033
 10
1.287985427094553
 20
0.081204315361521
  0
LWPOLYLINE
  5
B0
330
8F
100
AcDbEntity
  8
AM_9
100
AcDbPolyline
 90
        3
 70
     0
 43
0.0
 10
1.149635564802852
 20
0.1624086307230419
 10
1.171362596543144
 20
0.1421988309996542
 10
1.195240269909151
 20
0.1218064730422815
  0
LWPOLYLINE
  5
B1
330
8F
100
AcDbEntity
  8
AM_9
100
AcDbPolyline
 90
        3
 70
     0
 43
0.0
 10
1.195240269909151
 20
-0.1218064730422811
 10
1.171464776990593
 20
-0.1421075518826614
 10
1.149635564802852
 20
-0.1624086307230415
  0
LINE
  5
B2
330
8F
100
AcDbEntity
  8
AM_9
100
AcDbLine
 10
1.008954371747183
 20
-0.1103623268442185
 30
0.0
 11
1.142939115264862
 21
-0.1162868616406164
 31
0.0
  0
LINE
  5
B3
330
8F
100
AcDbEntity
  8
AM_9
100
AcDbLine
 10
1.142939115264862
 20
0.1162868616406168
 30
0.0
 11
1.008954371747183
 21
0.1103623268442188
 31
0.0
  0
ELLIPSE
  5
B4
330
8F
100
AcDbEntity
  8
AM_9
100
AcDbEllipse
 10
1.19265343760131
 20
-0.0000000000000002
 30
0.0
 11
8.612328615003724E-18
 21
0.1406499999999994
 31
0.0
210
0.0
220
0.0
230
1.0
 40
0.7071067811865507
 41
3.798906696793622
 42
5.625871263975762
  0
ELLIPSE
  5
B5
330
8F
100
AcDbEntity
  8
AM_9
100
AcDbEllipse
 10
1.214800410486839
 20
-0.0000000000000001
 30
0.0
 11
6.694498085252807E-18
 21
0.1093294505797717
 31
0.0
210
0.0
220
0.0
230
1.0
 40
0.7071067811865672
 41
5.319895346134398
 42
5.928986666165847
  0
ELLIPSE
  5
B6
330
8F
100
AcDbEntity
  8
AM_9
100
AcDbEllipse
 10
1.214800410486846
 20
0.0000000000000006
 30
0.0
 11
6.694498085252808E-18
 21
0.1093294505797717
 31
0.0
210
0.0
220
0.0
230
1.0
 40
0.7071067811865284
 41
3.495791294603469
 42
4.024624401635987
  0
ELLIPSE
  5
B7
330
8F
100
AcDbEntity
  8
AM_9
100
AcDbEllipse
 10
1.214800410486942
 20
-0.0000000000000315
 30
0.0
 11
6.694498085248276E-18
 21
0.1093294505796977
 31
0.0
210
0.0
220
0.0
230
1.0
 40
0.7071067811861115
 41
4.205800437183456
 42
5.10390568354992
  0
LWPOLYLINE
  5
B8
330
8F
100
AcDbEntity
  8
AM_9
100
AcDbPolyline
 90
       13
 70
     0
 43
0.0
 10
1.239800410486842
 20
0.0946847896390989
 10
1.241402545969662
 20
0.0946273917148839
 10
1.245934955901146
 20
0.0938512922235945
 10
1.250260851322506
 20
0.0922963668092215
 10
1.254662387767119
 20
0.0899332653236608
 10
1.259173079440164
 20
0.0866996366249129
 10
1.264178984081263
 20
0.0821024006799758
 10
1.269072591986493
 20
0.0764633834618032
 10
1.273754413730892
 20
0.0697996871714598
 10
1.278115953751352
 20
0.0621540602141258
 10
1.282044663192422
 20
0.0536048105876069
 10
1.28543578531483
 20
0.0442599283634928
 10
1.287219266082446
 20
0.0381559869641529
  0
LWPOLYLINE
  5
B9
330
8F
100
AcDbEntity
  8
AM_9
100
AcDbPolyline
 90
        4
 70
     0
 43
0.0
 10
1.231037834744847
 20
-0.0929987823461389
 10
1.229973158956276
 20
-0.0925720665282085
 10
1.225587380708049
 20
-0.0903305660813058
 10
1.222047872301721
 20
-0.0879569858351349
  0
LWPOLYLINE
  5
BA
330
8F
100
AcDbEntity
  8
AM_9
100
AcDbPolyline
 90
       15
 70
     0
 43
0.0
 10
1.286784049248967
 20
-0.0397496402716657
 10
1.28630293593677
 20
-0.0414274708879312
 10
1.283083643754682
 20
-0.0509820018072741
 10
1.279310254459461
 20
-0.0597519941878131
 10
1.275093031760752
 20
-0.0676207040833829
 10
1.270556634152343
 20
-0.0744988561264101
 10
1.265837475123337
 20
-0.080326806192898
 10
1.261077192983129
 20
-0.0850806553148324
 10
1.256401474525653
 20
-0.0887848935459539
 10
1.251902319369218
 20
-0.0915061326557026
 10
1.247604775682817
 20
-0.0933429716524924
 10
1.243406885562834
 20
-0.0943948358835315
 10
1.238955453634732
 20
-0.0946688156470271
 10
1.234299302286168
 20
-0.0940132967987
 10
1.231037834744847
 20
-0.0929987823461389
  0
LWPOLYLINE
  5
BB
330
8F
100
AcDbEntity
  8
AM_9
100
AcDbPolyline
 90
        3
 70
     0
 43
0.0
 10
1.231852309615726
 20
0.0932937648362508
 10
1.235640313500165
 20
0.0942994483099561
 10
1.239800410486842
 20
0.0946847896390989
  0
LWPOLYLINE
  5
BC
330
8F
100
AcDbEntity
  8
AM_9
100
AcDbPolyline
 90
        3
 70
     0
 43
0.0
 10
1.222269819150961
 20
0.0881207841772848
 10
1.222594880642954
 20
0.0883570382386528
 10
1.225764836985335
 20
0.0904362645571841
  0
ELLIPSE
  5
BD
330
8F
100
AcDbEntity
  8
AM_9
100
AcDbEllipse
 10
1.254742222423348
 20
0.0000000000000002
 30
0.0
 11
6.084620899749618E-18
 21
0.09936940028726599
 31
0.0
210
0.0
220
0.0
230
1.0
 40
0.7071067811865448
 41
2.656480407116014
 42
6.283185307179586
  0
ELLIPSE
  5
BE
330
8F
100
AcDbEntity
  8
AM_9
100
AcDbEllipse
 10
1.303073551127822
 20
-0.0000000000000024
 30
0.0
 11
8.036249332247667E-18
 21
0.1312419113468931
 31
0.0
210
0.0
220
0.0
230
1.0
 40
0.7071067811865418
 41
2.671397567666434
 42
6.768297553653345
  0
ELLIPSE
  5
BF
330
8F
100
AcDbEntity
  8
AM_9
100
AcDbEllipse
 10
1.378694371266152
 20
-0.000000000000277
 30
0.0
 11
6.357083428111830E-18
 21
0.103819051052726
 31
0.0
210
0.0
220
0.0
230
1.0
 40
0.7071067811874914
 41
3.59646895087953
 42
3.639620389671251
  0
ELLIPSE
  5
C0
330
8F
100
AcDbEntity
  8
AM_9
100
AcDbEllipse
 10
1.378694371266288
 20
0.0000000000000002
 30
0.0
 11
6.357083428131003E-18
 21
0.1038190510530392
 31
0.0
210
0.0
220
0.0
230
1.0
 40
0.70710678118655
 41
3.657098825614803
 42
5.83665807681182
  0
ELLIPSE
  5
C1
330
8F
100
AcDbEntity
  8
AM_9
100
AcDbEllipse
 10
1.331829794593102
 20
0.0000000000000002
 30
0.0
 11
8.079715312105961E-18
 21
0.1319517646676801
 31
0.0
210
0.0
220
0.0
230
1.0
 40
0.7071067811865501
 41
3.5799744285438
 42
5.844803532225579
  0
ELLIPSE
  5
C2
330
8F
100
AcDbEntity
  8
AM_9
100
AcDbEllipse
 10
1.145512985522208
 20
0.0000000000000008
 30
0.0
 11
8.612328615003820E-18
 21
0.1406500000000009
 31
0.0
210
0.0
220
0.0
230
1.0
 40
0.7071067811865476
 41
0.0
 42
6.283185307179586
  0
ELLIPSE
  5
C3
330
8F
100
AcDbEntity
  8
AM_9
100
AcDbEllipse
 10
1.145512985522207
 20
0.0000000000000002
 30
0.0
 11
7.124004163867279E-18
 21
0.116343817153277
 31
0.0
210
0.0
220
0.0
230
1.0
 40
0.7071067811865461
 41
0.0
 42
6.283185307179586
  0
ELLIPSE
  5
C4
330
8F
100
AcDbEntity
  8
AM_9
100
AcDbEllipse
 10
1.011394371363683
 20
0.0000000000000002
 30
0.0
 11
6.761045944280111E-18
 21
0.1104162595939893
 31
0.0
210
0.0
220
0.0
230
1.0
 40
0.7071067811865662
 41
0.0
 42
6.283185307179586
  0
LINE
  5
C6
330
8F
100
AcDbEntity
  8
AM_4
100
AcDbLine
 10
1.242380721988254
 20
-0.1218064730422811
 30
0.0
 11
1.254344284469749
 21
-0.1118199743330277
 31
0.0
  0
LINE
  5
C7
330
8F
100
AcDbEntity
  8
AM_4
100
AcDbLine
 10
1.254345434440736
 20
0.111818992681682
 30
0.0
 11
1.242380721988254
 21
0.1218064730422815
 31
0.0
  0
LWPOLYLINE
  5
C8
330
8F
100
AcDbEntity
  8
AM_4
100
AcDbPolyline
 90
        3
 70
     0
 43
0.0
 10
1.242380721988254
 20
0.1218064730422815
 10
1.216428930519869
 20
0.1421075518826617
 10
1.188530858320666
 20
0.1624086307230419
  0
LWPOLYLINE
  5
C9
330
8F
100
AcDbEntity
  8
AM_4
100
AcDbPolyline
 90
        3
 70
     0
 43
0.0
 10
1.188530858320666
 20
-0.1624086307230415
 10
1.216307523706514
 20
-0.1421988309996539
 10
1.242380721988254
 20
-0.1218064730422811
  0
LINE
  5
CA
330
8F
100
AcDbEntity
  8
AM_4
100
AcDbLine
 10
1.188530858320666
 20
0.1624086307230419
 30
0.0
 11
1.149635564802852
 21
0.1624086307230419
 31
0.0
  0
LWPOLYLINE
  5
CB
330
8F
100
AcDbEntity
  8
AM_4
100
AcDbPolyline
 90
        3
 70
     0
 43
0.0
 10
1.095785701135263
 20
0.1218064730422814
 10
1.121737492603649
 20
0.1421075518826617
 10
1.149635564802852
 20
0.1624086307230419
  0
LWPOLYLINE
  5
CC
330
8F
100
AcDbEntity
  8
AM_4
100
AcDbPolyline
 90
        3
 70
     0
 43
0.0
 10
1.050180996028964
 20
0.081204315361521
 10
1.071908027769256
 20
0.1014141150849087
 10
1.095785701135263
 20
0.1218064730422814
  0
LWPOLYLINE
  5
CD
330
8F
100
AcDbEntity
  8
AM_4
100
AcDbPolyline
 90
        3
 70
     0
 43
0.0
 10
1.142926153214366
 20
0.1218064730422815
 10
1.116974361745981
 20
0.1015053942019012
 10
1.089076289546778
 20
0.081204315361521
  0
LWPOLYLINE
  5
CE
330
8F
100
AcDbEntity
  8
AM_4
100
AcDbPolyline
 90
        3
 70
     0
 43
0.0
 10
1.188530858320666
 20
0.1624086307230419
 10
1.166803826580374
 20
0.1421988309996542
 10
1.142926153214366
 20
0.1218064730422815
  0
LWPOLYLINE
  5
CF
330
8F
100
AcDbEntity
  8
AM_4
100
AcDbPolyline
 90
        3
 70
     0
 43
0.0
 10
1.095785701135263
 20
-0.1218064730422811
 10
1.072010208216705
 20
-0.1015053942019009
 10
1.050180996028964
 20
-0.0812043153615207
  0
LWPOLYLINE
  5
D0
330
8F
100
AcDbEntity
  8
AM_4
100
AcDbPolyline
 90
        3
 70
     0
 43
0.0
 10
1.149635564802852
 20
-0.1624086307230415
 10
1.121858899417003
 20
-0.1421988309996538
 10
1.095785701135263
 20
-0.1218064730422811
  0
LINE
  5
D1
330
8F
100
AcDbEntity
  8
AM_4
100
AcDbLine
 10
1.188530858320666
 20
-0.1624086307230415
 30
0.0
 11
1.149635564802852
 21
-0.1624086307230415
 31
0.0
  0
LWPOLYLINE
  5
D2
330
8F
100
AcDbEntity
  8
AM_4
100
AcDbPolyline
 90
        3
 70
     0
 43
0.0
 10
1.142926153214366
 20
-0.1218064730422811
 10
1.166701646132925
 20
-0.1421075518826614
 10
1.188530858320666
 20
-0.1624086307230415
  0
LINE
  5
D3
330
8F
100
AcDbEntity
  8
AM_4
100
AcDbLine
 10
1.089076289546778
 20
0.081204315361521
 30
0.0
 11
1.050180996028964
 21
0.081204315361521
 31
0.0
  0
LWPOLYLINE
  5
D4
330
8F
100
AcDbEntity
  8
AM_4
100
AcDbPolyline
 90
        4
 70
     0
 43
0.0
 10
1.046058416748319
 20
0.0000000000000002
 10
1.046704186683401
 20
0.0311508759219517
 10
1.048555775372377
 20
0.0623017518439033
 10
1.050180996028964
 20
0.081204315361521
  0
LWPOLYLINE
  5
D5
330
8F
100
AcDbEntity
  8
AM_4
100
AcDbPolyline
 90
        3
 70
     0
 43
0.0
 10
1.050180996028964
 20
-0.0812043153615207
 10
1.047156179206185
 20
-0.0407847159147453
 10
1.046058416748319
 20
0.0000000000000002
  0
LINE
  5
D6
330
8F
100
AcDbEntity
  8
AM_4
100
AcDbLine
 10
1.089076289546778
 20
-0.0812043153615207
 30
0.0
 11
1.050180996028964
 21
-0.0812043153615207
 31
0.0
  0
LWPOLYLINE
  5
D7
330
8F
100
AcDbEntity
  8
AM_4
100
AcDbPolyline
 90
        4
 70
     0
 43
0.0
 10
1.089076289546778
 20
0.081204315361521
 10
1.090701510203365
 20
0.0623017518439033
 10
1.092549326384391
 20
0.0312428256208206
 10
1.093198868827422
 20
0.0000000000000002
  0
LWPOLYLINE
  5
D8
330
8F
100
AcDbEntity
  8
AM_4
100
AcDbPolyline
 90
        3
 70
     0
 43
0.0
 10
1.093198868827422
 20
0.0000000000000002
 10
1.092110719552509
 20
-0.0406021576807603
 10
1.089076289546778
 20
-0.0812043153615207
  0
LWPOLYLINE
  5
D9
330
8F
100
AcDbEntity
  8
AM_4
100
AcDbPolyline
 90
        3
 70
     0
 43
0.0
 10
1.089076289546778
 20
-0.0812043153615207
 10
1.116852954932626
 20
-0.1014141150849084
 10
1.142926153214366
 20
-0.1218064730422811
  0
ELLIPSE
  5
DA
330
8F
100
AcDbEntity
  8
AM_4
100
AcDbEllipse
 10
1.192653437601312
 20
-0.0000000000000007
 30
0.0
 11
8.612328615003860E-18
 21
0.1406500000000016
 31
0.0
210
0.0
220
0.0
230
1.0
 40
0.7071067811865506
 41
5.62587126397578
 42
10.0820920039732
  0
ELLIPSE
  5
DB
330
8F
100
AcDbEntity
  8
AM_4
100
AcDbEllipse
 10
1.214800410486846
 20
0.0000000000000009
 30
0.0
 11
6.694498085252741E-18
 21
0.1093294505797706
 31
0.0
210
0.0
220
0.0
230
1.0
 40
0.7071067811865397
 41
5.92898666616592
 42
9.778976601783047
  0
LINE
  5
DC
330
8F
100
AcDbEntity
  8
AM_4
100
AcDbLine
 10
1.221977218909687
 20
-0.0879044185632921
 30
0.0
 11
1.259799246623729
 21
-0.1160995625890069
 31
0.0
  0
LINE
  5
DD
330
8F
100
AcDbEntity
  8
AM_4
100
AcDbLine
 10
1.259799246623729
 20
0.1160995625890072
 30
0.0
 11
1.221977218909687
 21
0.0879044185632925
 31
0.0
  0
ELLIPSE
  5
DE
330
8F
100
AcDbEntity
  8
AM_4
100
AcDbEllipse
 10
1.254742222423349
 20
0.0000000000000002
 30
0.0
 11
6.084620899749662E-18
 21
0.09936940028726671
 31
0.0
210
0.0
220
0.0
230
1.0
 40
0.7071067811865464
 41
0.4851122464737818
 42
2.656480407116012
  0
LWPOLYLINE
  5
DF
330
8F
100
AcDbEntity
  8
AM_4
100
AcDbPolyline
 90
        7
 70
     0
 43
0.0
 10
1.31801536306433
 20
0.1359265219950582
 10
1.309409747370859
 20
0.1355275526991006
 10
1.298413906284523
 20
0.1338420859231749
 10
1.287700371877112
 20
0.1308788010842668
 10
1.277348725029329
 20
0.1266810300432785
 10
1.267430365433763
 20
0.1212887453585126
 10
1.259164968165366
 20
0.1156230881565487
  0
LWPOLYLINE
  5
E0
330
8F
100
AcDbEntity
  8
AM_4
100
AcDbPolyline
 90
        3
 70
     0
 43
0.0
 10
1.366608741402922
 20
-0.1224879013145642
 10
1.367459298033726
 20
-0.1219832516508733
 10
1.371906720208672
 20
-0.1191597837674
  0
LWPOLYLINE
  5
E1
330
8F
100
AcDbEntity
  8
AM_4
100
AcDbPolyline
 90
       12
 70
     0
 43
0.0
 10
1.259690059593134
 20
-0.1160180595920125
 10
1.259787468310242
 20
-0.116090780973341
 10
1.269995188347708
 20
-0.1228217944672919
 10
1.280675677119717
 20
-0.1281811285046459
 10
1.29168156671475
 20
-0.132137543299702
 10
1.302873594561313
 20
-0.1346870366544791
 10
1.314123225960601
 20
-0.1358450175456165
 10
1.32531362538645
 20
-0.1356396996867761
 10
1.336337413836985
 20
-0.1341073179208538
 10
1.347088468537558
 20
-0.1312919194259415
 10
1.357486467325789
 20
-0.1272370991124963
 10
1.366608741402922
 20
-0.1224879013145642
  0
LWPOLYLINE
  5
E2
330
8F
100
AcDbEntity
  8
AM_4
100
AcDbPolyline
 90
        7
 70
     0
 43
0.0
 10
1.369518155028869
 20
0.1207153545912481
 10
1.367262526762915
 20
0.1221009826963737
 10
1.356629842664115
 20
0.127623740340232
 10
1.345654781941078
 20
0.1317456805937014
 10
1.334477743642587
 20
0.1344600204146034
 10
1.323228592986572
 20
0.1357802587650119
 10
1.31801536306433
 20
0.1359265219950582
  0
LINE
  5
E3
330
8F
100
AcDbEntity
  8
AM_4
100
AcDbLine
 10
1.409855557799421
 20
0.0940018950300906
 30
0.0
 11
1.369518155028869
 21
0.1207153545912481
 31
0.0
  0
ELLIPSE
  5
E4
330
8F
100
AcDbEntity
  8
AM_4
100
AcDbEllipse
 10
1.303073551127824
 20
0.0000000000000002
 30
0.0
 11
8.036249332247487E-18
 21
0.1312419113468902
 31
0.0
210
0.0
220
0.0
230
1.0
 40
0.7071067811865492
 41
0.4913613587045971
 42
2.655419854554885
  0
ELLIPSE
  5
E5
330
8F
100
AcDbEntity
  8
AM_4
100
AcDbEllipse
 10
1.389464825031566
 20
0.0000000000000002
 30
0.0
 11
-1.484390032546748E-17
 21
-0.08080642971672804
 31
0.0
210
0.0
220
0.0
230
1.0
 40
0.7071067811865461
 41
0.0
 42
6.283185307179586
  0
LWPOLYLINE
  5
E6
330
8F
100
AcDbEntity
  8
AM_4
100
AcDbPolyline
 90
       21
 70
     0
 43
0.0
 10
1.411131340598138
 20
-0.0931375824986755
 10
1.416564179320227
 20
-0.0890197208353458
 10
1.423985379856795
 20
-0.082085596764243
 10
1.4307722212389
 20
-0.0740766614394523
 10
1.436829148345739
 20
-0.0650825641029359
 10
1.44206602984858
 20
-0.0552211909733013
 10
1.446406927598852
 20
-0.0446317267802342
 10
1.449794403938118
 20
-0.0334642774159228
 10
1.452188272132708
 20
-0.0218756047219077
 10
1.453565174163465
 20
-0.0100126657488712
 10
1.453911848867841
 20
0.0019804008090174
 10
1.453222907575738
 20
0.0139617713590213
 10
1.45149991475265
 20
0.0257891338141759
 10
1.448750789856103
 20
0.0373222881429174
 10
1.444989423625623
 20
0.0484220225556448
 10
1.440237090734665
 20
0.0589470685506417
 10
1.434527440162644
 20
0.0687496971482271
 10
1.427915825004957
 20
0.0776734418312438
 10
1.420483747274623
 20
0.0855645354518551
 10
1.41234534626541
 20
0.0922801303857588
 10
1.410492345313193
 20
0.0935751292261394
  0
ELLIPSE
  5
E7
330
8F
100
AcDbEntity
  8
AM_4
100
AcDbEllipse
 10
1.378694371265717
 20
0.0000000000016816
 30
0.0
 11
6.357083428245203E-18
 21
0.1038190510549042
 31
0.0
210
0.0
220
0.0
230
1.0
 40
0.7071067811865475
 41
3.57997442854397
 42
3.596468950877093
  0
ELLIPSE
  5
E8
330
8F
100
AcDbEntity
  8
AM_4
100
AcDbEllipse
 10
1.331829794593108
 20
-0.0000000000000006
 30
0.0
 11
8.079715312106008E-18
 21
0.1319517646676808
 31
0.0
210
0.0
220
0.0
230
1.0
 40
0.7071067811865377
 41
5.84480353222564
 42
9.86315973572333
  0
ELLIPSE
  5
E9
330
8F
100
AcDbEntity
  8
AM_4
100
AcDbEllipse
 10
1.378694371266281
 20
0.0000000000000008
 30
0.0
 11
6.357083428130958E-18
 21
0.1038190510530384
 31
0.0
210
0.0
220
0.0
230
1.0
 40
0.70710678118657
 41
5.844803532225504
 42
9.863159735723453
  0
LINE
  5
EA
330
8F
100
AcDbEntity
  8
AM_4
100
AcDbLine
 10
1.371434987575313
 20
-0.1194743720493998
 30
0.0
 11
1.409855557799421
 21
-0.0940018950300902
 31
0.0
  0
ENDBLK
  5
92
330
8F
100
AcDbEntity
  8
0
100
AcDbBlockEnd
  0
BLOCK
  5
ED
330
EB
100
AcDbEntity
  8
0
100
AcDbBlockBegin
  2
3_128668_0_in_128474_4
 70
     2
 10
0.0
 20
0.0
 30
0.0
  3
3_128668_0_in_128474_4
  1

  0
ATTDEF
  5
EF
330
EB
100
AcDbEntity
  8
AM_6
100
AcDbText
 10
6.219872827573636
 20
0.5800000000000002
 30
0.0
 40
0.5
  1
D-Lok Medium Duty Insert Inch Bore
100
AcDbAttributeDefinition
  3

  2
NN
 70
     8
280
     0
  0
ATTDEF
  5
F0
330
EB
100
AcDbEntity
  8
AM_6
100
AcDbText
 10
6.219872827573636
 20
0.0800000000000002
 30
0.0
 40
0.5
  1
D-LOK
100
AcDbAttributeDefinition
  3

  2
NT
 70
     8
280
     0
  0
ATTDEF
  5
F1
330
EB
100
AcDbEntity
  8
AM_6
100
AcDbText
 10
6.219872827573636
 20
-0.4199999999999998
 30
0.0
 40
0.5
  1
128668
100
AcDbAttributeDefinition
  3

  2
NB
 70
     8
280
     0
  0
ATTDEF
  5
F2
330
EB
100
AcDbEntity
  8
AM_6
100
AcDbText
 10
6.219872827573636
 20
-0.9199999999999998
 30
0.0
 40
0.5
  1
$PN.
100
AcDbAttributeDefinition
  3

  2
NBSYN
 70
     8
280
     0
  0
ATTDEF
  5
F3
330
EB
100
AcDbEntity
  8
AM_6
100
AcDbText
 10
6.219872827573636
 20
-1.42
 30
0.0
 40
0.5
  1
128668
100
AcDbAttributeDefinition
  3

  2
LINA
 70
     8
280
     0
  0
ATTDEF
  5
F4
330
EB
100
AcDbEntity
  8
AM_6
100
AcDbText
 10
6.219872827573636
 20
-1.92
 30
0.0
 40
0.5
  1
206
100
AcDbAttributeDefinition
  3

  2
SERIES
 70
     8
280
     0
  0
ATTDEF
  5
F5
330
EB
100
AcDbEntity
  8
AM_6
100
AcDbText
 10
6.219872827573636
 20
-2.42
 30
0.0
 40
0.5
  1
1
100
AcDbAttributeDefinition
  3

  2
SS
 70
     8
280
     0
  0
ATTDEF
  5
F6
330
EB
100
AcDbEntity
  8
AM_6
100
AcDbText
 10
6.219872827573636
 20
-2.92
 30
0.0
 40
0.5
  1
128668
100
AcDbAttributeDefinition
  3

  2
PN
 70
     8
280
     0
  0
ATTDEF
  5
F7
330
EB
100
AcDbEntity
  8
AM_6
100
AcDbText
 10
6.219872827573636
 20
-3.42
 30
0.0
 40
0.5
  1
INS-DLM-100
100
AcDbAttributeDefinition
  3

  2
DESCRIPTION
 70
     8
280
     0
  0
ATTDEF
  5
F8
330
EB
100
AcDbEntity
  8
AM_6
100
AcDbText
 10
6.219872827573636
 20
-3.92
 30
0.0
 40
0.5
  1
1.8
100
AcDbAttributeDefinition
  3

  2
WEIGHT
 70
     8
280
     0
  0
ATTDEF
  5
F9
330
EB
100
AcDbEntity
  8
AM_6
100
AcDbText
 10
6.219872827573636
 20
-4.42
 30
0.0
 40
0.5
  1
1.56
100
AcDbAttributeDefinition
  3

  2
A
 70
     8
280
     0
  0
ATTDEF
  5
FA
330
EB
100
AcDbEntity
  8
AM_6
100
AcDbText
 10
6.219872827573636
 20
-4.92
 30
0.0
 40
0.5
  1
0.69
100
AcDbAttributeDefinition
  3

  2
C
 70
     8
280
     0
  0
ATTDEF
  5
FB
330
EB
100
AcDbEntity
  8
AM_6
100
AcDbText
 10
6.219872827573636
 20
-5.42
 30
0.0
 40
0.5
  1
2.4409
100
AcDbAttributeDefinition
  3

  2
D
 70
     8
280
     0
  0
ATTDEF
  5
FC
330
EB
100
AcDbEntity
  8
AM_6
100
AcDbText
 10
6.219872827573636
 20
-5.92
 30
0.0
 40
0.5
  1
0.16
100
AcDbAttributeDefinition
  3

  2
J
 70
     8
280
     0
  0
ATTDEF
  5
FD
330
EB
100
AcDbEntity
  8
AM_6
100
AcDbText
 10
6.219872827573636
 20
-6.42
 30
0.0
 40
0.5
  1
2.22
100
AcDbAttributeDefinition
  3

  2
L
 70
     8
280
     0
  0
ATTDEF
  5
FE
330
EB
100
AcDbEntity
  8
AM_6
100
AcDbText
 10
6.219872827573636
 20
-6.92
 30
0.0
 40
0.5
  1
#10-32
100
AcDbAttributeDefinition
  3

  2
N
 70
     8
280
     0
  0
ATTDEF
  5
FF
330
EB
100
AcDbEntity
  8
AM_6
100
AcDbText
 10
6.219872827573636
 20
-7.42
 30
0.0
 40
0.5
  1
0.58
100
AcDbAttributeDefinition
  3

  2
W
 70
     8
280
     0
  0
ATTDEF
  5
100
330
EB
100
AcDbEntity
  8
AM_6
100
AcDbText
 10
6.219872827573636
 20
-7.92
 30
0.0
 40
0.5
  1
0.98
100
AcDbAttributeDefinition
  3

  2
Y
 70
     8
280
     0
  0
ATTDEF
  5
101
330
EB
100
AcDbEntity
  8
AM_6
100
AcDbText
 10
6.219872827573636
 20
-8.42
 30
0.0
 40
0.5
  1
1.57
100
AcDbAttributeDefinition
  3

  2
Z
 70
     8
280
     0
  0
ATTDEF
  5
102
330
EB
100
AcDbEntity
  8
AM_6
100
AcDbText
 10
6.219872827573636
 20
-8.92
 30
0.0
 40
0.5
  1
baldor
100
AcDbAttributeDefinition
  3

  2
COMPANY
 70
     8
280
     0
  0
LINE
  5
103
330
EB
100
AcDbEntity
  8
AM_9
100
AcDbLine
 10
0.5
 20
-0.9355999999999999
 30
0.0
 11
0.5
 21
0.5356000000000002
 31
0.0
  0
LINE
  5
104
330
EB
100
AcDbEntity
  8
AM_9
100
AcDbLine
 10
-0.5
 20
0.5356000000000002
 30
0.0
 11
-0.5
 21
-0.9355999999999999
 31
0.0
  0
LINE
  5
105
330
EB
100
AcDbEntity
  8
AM_9
100
AcDbLine
 10
-0.5
 20
-0.9355999999999999
 30
0.0
 11
-0.5444
 21
-0.9799999999999998
 31
0.0
  0
LINE
  5
106
330
EB
100
AcDbEntity
  8
AM_9
100
AcDbLine
 10
0.5444
 20
-0.9799999999999998
 30
0.0
 11
0.5
 21
-0.9355999999999999
 31
0.0
  0
LINE
  5
107
330
EB
100
AcDbEntity
  8
AM_9
100
AcDbLine
 10
0.5
 20
0.5356000000000002
 30
0.0
 11
0.5444
 21
0.5800000000000002
 31
0.0
  0
LINE
  5
108
330
EB
100
AcDbEntity
  8
AM_9
100
AcDbLine
 10
-0.5444
 20
0.5800000000000002
 30
0.0
 11
-0.5
 21
0.5356000000000002
 31
0.0
  0
LINE
  5
109
330
EB
100
AcDbEntity
  8
AM_9
100
AcDbLine
 10
-0.7406
 20
0.5800000000000002
 30
0.0
 11
0.7406
 21
0.5800000000000002
 31
0.0
  0
LINE
  5
10A
330
EB
100
AcDbEntity
  8
AM_9
100
AcDbLine
 10
-0.7406
 20
0.5800000000000002
 30
0.0
 11
-0.7849999999999999
 21
0.5356000000000002
 31
0.0
  0
LINE
  5
10B
330
EB
100
AcDbEntity
  8
AM_9
100
AcDbLine
 10
0.7849999999999999
 20
0.5356000000000002
 30
0.0
 11
0.7406
 21
0.5800000000000002
 31
0.0
  0
LINE
  5
10C
330
EB
100
AcDbEntity
  8
AM_9
100
AcDbLine
 10
-0.7849999999999999
 20
0.5356000000000002
 30
0.0
 11
0.7849999999999999
 21
0.5356000000000002
 31
0.0
  0
LINE
  5
10D
330
EB
100
AcDbEntity
  8
AM_9
100
AcDbLine
 10
0.7849999999999999
 20
0.3450000000000001
 30
0.0
 11
0.7849999999999999
 21
0.5356000000000002
 31
0.0
  0
LINE
  5
10E
330
EB
100
AcDbEntity
  8
AM_9
100
AcDbLine
 10
-0.7849999999999999
 20
0.5356000000000002
 30
0.0
 11
-0.7849999999999999
 21
0.3450000000000001
 31
0.0
  0
LINE
  5
10F
330
EB
100
AcDbEntity
  8
AM_9
100
AcDbLine
 10
0.7850000000000005
 20
-0.4899999999999999
 30
0.0
 11
0.7850000000000005
 21
-0.3449999999999996
 31
0.0
  0
LINE
  5
110
330
EB
100
AcDbEntity
  8
AM_9
100
AcDbLine
 10
-0.7850000000000005
 20
-0.3449999999999996
 30
0.0
 11
-0.7850000000000005
 21
-0.4899999999999999
 31
0.0
  0
LINE
  5
111
330
EB
100
AcDbEntity
  8
AM_9
100
AcDbLine
 10
1.11
 20
-0.7101004213412306
 30
0.0
 11
1.11
 21
-0.5343999999999999
 31
0.0
  0
LINE
  5
112
330
EB
100
AcDbEntity
  8
AM_9
100
AcDbLine
 10
-1.11
 20
-0.5343999999999999
 30
0.0
 11
-1.11
 21
-0.7101004213412306
 31
0.0
  0
LINE
  5
113
330
EB
100
AcDbEntity
  8
AM_9
100
AcDbLine
 10
-1.11
 20
-0.5343999999999999
 30
0.0
 11
1.11
 21
-0.5343999999999999
 31
0.0
  0
LINE
  5
114
330
EB
100
AcDbEntity
  8
AM_9
100
AcDbLine
 10
-1.0656
 20
-0.4899999999999999
 30
0.0
 11
1.0656
 21
-0.4899999999999999
 31
0.0
  0
LINE
  5
115
330
EB
100
AcDbEntity
  8
AM_9
100
AcDbLine
 10
-1.0656
 20
-0.4899999999999999
 30
0.0
 11
-1.11
 21
-0.5343999999999999
 31
0.0
  0
LINE
  5
116
330
EB
100
AcDbEntity
  8
AM_9
100
AcDbLine
 10
1.11
 20
-0.5343999999999999
 30
0.0
 11
1.0656
 21
-0.4899999999999999
 31
0.0
  0
LINE
  5
117
330
EB
100
AcDbEntity
  8
AM_9
100
AcDbLine
 10
1.167116666666667
 20
-0.1919999999999998
 30
0.0
 11
1.167116666666667
 21
-0.1279999999999998
 31
0.0
  0
LINE
  5
118
330
EB
100
AcDbEntity
  8
AM_9
100
AcDbLine
 10
-1.167116666666667
 20
-0.1279999999999998
 30
0.0
 11
-1.167116666666667
 21
-0.1919999999999998
 31
0.0
  0
LINE
  5
119
330
EB
100
AcDbEntity
  8
AM_9
100
AcDbLine
 10
-1.146492216502145
 20
0.3450000000000001
 30
0.0
 11
1.146492216499575
 21
0.3450000000000001
 31
0.0
  0
ARC
  5
11A
330
EB
100
AcDbEntity
  8
AM_9
100
AcDbCircle
 10
1.146492216502145
 20
0.3130000000000006
 30
0.0
 40
0.0319999999999997
100
AcDbArc
 50
15.27001663184316
 51
90.0
  0
ARC
  5
11B
330
EB
100
AcDbEntity
  8
AM_9
100
AcDbCircle
 10
-1.146492216502145
 20
0.3130000000000006
 30
0.0
 40
0.0319999999999996
100
AcDbArc
 50
90.0
 51
164.7299833681568
  0
LINE
  5
11C
330
EB
100
AcDbEntity
  8
AM_9
100
AcDbLine
 10
-1.146492216502144
 20
-0.3449999999999998
 30
0.0
 11
1.146492216499575
 21
-0.3449999999999998
 31
0.0
  0
ARC
  5
11D
330
EB
100
AcDbEntity
  8
AM_9
100
AcDbCircle
 10
1.146492216502144
 20
-0.3129999999999989
 30
0.0
 40
0.0320000000000009
100
AcDbArc
 50
270.0
 51
344.729983368155
  0
ARC
  5
11E
330
EB
100
AcDbEntity
  8
AM_9
100
AcDbCircle
 10
-1.146492216502144
 20
-0.3129999999999989
 30
0.0
 40
0.0320000000000009
100
AcDbArc
 50
195.2700166318449
 51
270.0
  0
LINE
  5
11F
330
EB
100
AcDbEntity
  8
AM_9
100
AcDbLine
 10
-1.177362468450538
 20
-0.3214277840885185
 30
0.0
 11
1.177362468450462
 21
-0.3214277840885185
 31
0.0
  0
LINE
  5
120
330
EB
100
AcDbEntity
  8
AM_9
100
AcDbLine
 10
-1.205252754612077
 20
-0.1919999999999998
 30
0.0
 11
1.205252754612002
 21
-0.1919999999999998
 31
0.0
  0
ARC
  5
121
330
EB
100
AcDbEntity
  8
AM_9
100
AcDbCircle
 10
-0.0000000000491036
 20
0.0000000000105667
 30
0.0
 40
1.22045000005008
100
AcDbArc
 50
344.7299833682839
 51
350.9486832418957
  0
ARC
  5
122
330
EB
100
AcDbEntity
  8
AM_9
100
AcDbCircle
 10
0.0000000000491158
 20
0.0000000000105692
 30
0.0
 40
1.220450000050092
100
AcDbArc
 50
189.0513167581044
 51
195.2700166317161
  0
LINE
  5
123
330
EB
100
AcDbEntity
  8
AM_9
100
AcDbLine
 10
-1.213719161297209
 20
-0.1279999999999995
 30
0.0
 11
1.213719161297201
 21
-0.1279999999999995
 31
0.0
  0
LINE
  5
124
330
EB
100
AcDbEntity
  8
AM_9
100
AcDbLine
 10
-1.177362468450538
 20
0.3214277840885188
 30
0.0
 11
1.17736246845053
 21
0.3214277840885189
 31
0.0
  0
ARC
  5
125
330
EB
100
AcDbEntity
  8
AM_9
100
AcDbCircle
 10
-0.0000000000004723
 20
-0.0000000000000371
 30
0.0
 40
1.220450000000458
100
AcDbArc
 50
353.9797846834528
 51
15.27001663183976
  0
ARC
  5
126
330
EB
100
AcDbEntity
  8
AM_9
100
AcDbCircle
 10
0.0000000000004725
 20
-0.0000000000000371
 30
0.0
 40
1.220450000000458
100
AcDbArc
 50
164.7299833681602
 51
186.0202153165472
  0
LINE
  5
127
330
EB
100
AcDbEntity
  8
AM_4
100
AcDbLine
 10
1.11
 20
-0.9355999999999999
 30
0.0
 11
1.11
 21
-0.7101004213412306
 31
0.0
  0
LINE
  5
128
330
EB
100
AcDbEntity
  8
AM_4
100
AcDbLine
 10
-1.11
 20
-0.7101004213412306
 30
0.0
 11
-1.11
 21
-0.9355999999999999
 31
0.0
  0
LINE
  5
129
330
EB
100
AcDbEntity
  8
AM_4
100
AcDbLine
 10
-1.0656
 20
-0.9799999999999998
 30
0.0
 11
1.0656
 21
-0.9799999999999998
 31
0.0
  0
LINE
  5
12A
330
EB
100
AcDbEntity
  8
AM_4
100
AcDbLine
 10
-1.11
 20
-0.9355999999999999
 30
0.0
 11
1.11
 21
-0.9355999999999999
 31
0.0
  0
LINE
  5
12B
330
EB
100
AcDbEntity
  8
AM_4
100
AcDbLine
 10
1.0656
 20
-0.9799999999999998
 30
0.0
 11
1.11
 21
-0.9355999999999999
 31
0.0
  0
LINE
  5
12C
330
EB
100
AcDbEntity
  8
AM_4
100
AcDbLine
 10
-1.11
 20
-0.9355999999999999
 30
0.0
 11
-1.0656
 21
-0.9799999999999998
 31
0.0
  0
ENDBLK
  5
EE
330
EB
100
AcDbEntity
  8
0
100
AcDbBlockEnd
  0
BLOCK
  5
12F
330
12D
100
AcDbEntity
  8
0
100
AcDbBlockBegin
  2
4_128474h_0_in_128474_4
 70
     2
 10
0.0
 20
0.0
 30
0.0
  3
4_128474h_0_in_128474_4
  1

  0
ATTDEF
  5
131
330
12D
100
AcDbEntity
  8
AM_6
100
AcDbText
 10
8.125
 20
0.9625000000000001
 30
0.0
 40
0.5
  1
P2B-DLMAH - Inch - Housing
100
AcDbAttributeDefinition
  3

  2
NN
 70
     8
280
     0
  0
ATTDEF
  5
132
330
12D
100
AcDbEntity
  8
AM_6
100
AcDbText
 10
8.125
 20
0.4625000000000001
 30
0.0
 40
0.5
  1
DLMAH Medium Duty Air Handling Pillow Blocks
100
AcDbAttributeDefinition
  3

  2
NT
 70
     8
280
     0
  0
ATTDEF
  5
133
330
12D
100
AcDbEntity
  8
AM_6
100
AcDbText
 10
8.125
 20
-0.0374999999999999
 30
0.0
 40
0.5
  1
128474h
100
AcDbAttributeDefinition
  3

  2
NB
 70
     8
280
     0
  0
ATTDEF
  5
134
330
12D
100
AcDbEntity
  8
AM_6
100
AcDbText
 10
8.125
 20
-0.5374999999999999
 30
0.0
 40
0.5
  1
$PN.h
100
AcDbAttributeDefinition
  3

  2
NBSYN
 70
     8
280
     0
  0
ATTDEF
  5
135
330
12D
100
AcDbEntity
  8
AM_6
100
AcDbText
 10
8.125
 20
-1.0375
 30
0.0
 40
0.5
  1
128474
100
AcDbAttributeDefinition
  3

  2
LINA
 70
     8
280
     0
  0
ATTDEF
  5
136
330
12D
100
AcDbEntity
  8
AM_6
100
AcDbText
 10
8.125
 20
-1.5375
 30
0.0
 40
0.5
  1
206
100
AcDbAttributeDefinition
  3

  2
SERIES
 70
     8
280
     0
  0
ATTDEF
  5
137
330
12D
100
AcDbEntity
  8
AM_6
100
AcDbText
 10
8.125
 20
-2.0375
 30
0.0
 40
0.5
  1
1
100
AcDbAttributeDefinition
  3

  2
SS
 70
     8
280
     0
  0
ATTDEF
  5
138
330
12D
100
AcDbEntity
  8
AM_6
100
AcDbText
 10
8.125
 20
-2.5375
 30
0.0
 40
0.5
  1
128474
100
AcDbAttributeDefinition
  3

  2
PN
 70
     8
280
     0
  0
ATTDEF
  5
139
330
12D
100
AcDbEntity
  8
AM_6
100
AcDbText
 10
8.125
 20
-3.0375
 30
0.0
 40
0.5
  1
P2B-DLMAH-100
100
AcDbAttributeDefinition
  3

  2
DESCRIPTION
 70
     8
280
     0
  0
ATTDEF
  5
13A
330
12D
100
AcDbEntity
  8
AM_6
100
AcDbText
 10
8.125
 20
-3.5375
 30
0.0
 40
0.5
  1
4.2
100
AcDbAttributeDefinition
  3

  2
WEIGHT
 70
     8
280
     0
  0
ATTDEF
  5
13B
330
12D
100
AcDbEntity
  8
AM_6
100
AcDbText
 10
8.125
 20
-4.0375
 30
0.0
 40
0.5
  1
2.440900
100
AcDbAttributeDefinition
  3

  2
BOD
 70
     8
280
     0
  0
ATTDEF
  5
13C
330
12D
100
AcDbEntity
  8
AM_6
100
AcDbText
 10
8.125
 20
-4.5375
 30
0.0
 40
0.5
  1
1.56
100
AcDbAttributeDefinition
  3

  2
A
 70
     8
280
     0
  0
ATTDEF
  5
13D
330
12D
100
AcDbEntity
  8
AM_6
100
AcDbText
 10
8.125
 20
-5.0375
 30
0.0
 40
0.5
  1
1.560000
100
AcDbAttributeDefinition
  3

  2
A1
 70
     8
280
     0
  0
ATTDEF
  5
13E
330
12D
100
AcDbEntity
  8
AM_6
100
AcDbText
 10
8.125
 20
-5.5375
 30
0.0
 40
0.5
  1
6.25
100
AcDbAttributeDefinition
  3

  2
B
 70
     8
280
     0
  0
ATTDEF
  5
13F
330
12D
100
AcDbEntity
  8
AM_6
100
AcDbText
 10
8.125
 20
-6.0375
 30
0.0
 40
0.5
  1
6.250000
100
AcDbAttributeDefinition
  3

  2
B1
 70
     8
280
     0
  0
ATTDEF
  5
140
330
12D
100
AcDbEntity
  8
AM_6
100
AcDbText
 10
8.125
 20
-6.5375
 30
0.0
 40
0.5
  1
1.75
100
AcDbAttributeDefinition
  3

  2
C
 70
     8
280
     0
  0
ATTDEF
  5
141
330
12D
100
AcDbEntity
  8
AM_6
100
AcDbText
 10
8.125
 20
-7.0375
 30
0.0
 40
0.5
  1
1.750000
100
AcDbAttributeDefinition
  3

  2
C1
 70
     8
280
     0
  0
ATTDEF
  5
142
330
12D
100
AcDbEntity
  8
AM_6
100
AcDbText
 10
8.125
 20
-7.5375
 30
0.0
 40
0.5
  1
4.25
100
AcDbAttributeDefinition
  3

  2
DMIN
 70
     8
280
     0
  0
ATTDEF
  5
143
330
12D
100
AcDbEntity
  8
AM_6
100
AcDbText
 10
8.125
 20
-8.0375
 30
0.0
 40
0.5
  1
4.250000
100
AcDbAttributeDefinition
  3

  2
DMIN1
 70
     8
280
     0
  0
ATTDEF
  5
144
330
12D
100
AcDbEntity
  8
AM_6
100
AcDbText
 10
8.125
 20
-8.5375
 30
0.0
 40
0.5
  1
5.00
100
AcDbAttributeDefinition
  3

  2
DMAX
 70
     8
280
     0
  0
ATTDEF
  5
145
330
12D
100
AcDbEntity
  8
AM_6
100
AcDbText
 10
8.125
 20
-9.0375
 30
0.0
 40
0.5
  1
5.000000
100
AcDbAttributeDefinition
  3

  2
DMAX1
 70
     8
280
     0
  0
ATTDEF
  5
146
330
12D
100
AcDbEntity
  8
AM_6
100
AcDbText
 10
8.125
 20
-9.5375
 30
0.0
 40
0.5
  1
1/2
100
AcDbAttributeDefinition
  3

  2
F
 70
     8
280
     0
  0
ATTDEF
  5
147
330
12D
100
AcDbEntity
  8
AM_6
100
AcDbText
 10
8.125
 20
-10.0375
 30
0.0
 40
0.5
  1
0.500000
100
AcDbAttributeDefinition
  3

  2
F1
 70
     8
280
     0
  0
ATTDEF
  5
148
330
12D
100
AcDbEntity
  8
AM_6
100
AcDbText
 10
8.125
 20
-10.5375
 30
0.0
 40
0.5
  1
0.94
100
AcDbAttributeDefinition
  3

  2
G
 70
     8
280
     0
  0
ATTDEF
  5
149
330
12D
100
AcDbEntity
  8
AM_6
100
AcDbText
 10
8.125
 20
-11.0375
 30
0.0
 40
0.5
  1
0.940000
100
AcDbAttributeDefinition
  3

  2
G1
 70
     8
280
     0
  0
ATTDEF
  5
14A
330
12D
100
AcDbEntity
  8
AM_6
100
AcDbText
 10
8.125
 20
-11.5375
 30
0.0
 40
0.5
  1
0.75
100
AcDbAttributeDefinition
  3

  2
H
 70
     8
280
     0
  0
ATTDEF
  5
14B
330
12D
100
AcDbEntity
  8
AM_6
100
AcDbText
 10
8.125
 20
-12.0375
 30
0.0
 40
0.5
  1
0.750000
100
AcDbAttributeDefinition
  3

  2
H1
 70
     8
280
     0
  0
ATTDEF
  5
14C
330
12D
100
AcDbEntity
  8
AM_6
100
AcDbText
 10
8.125
 20
-12.5375
 30
0.0
 40
0.5
  1
3.31
100
AcDbAttributeDefinition
  3

  2
J
 70
     8
280
     0
  0
ATTDEF
  5
14D
330
12D
100
AcDbEntity
  8
AM_6
100
AcDbText
 10
8.125
 20
-13.0375
 30
0.0
 40
0.5
  1
3.310000
100
AcDbAttributeDefinition
  3

  2
J1
 70
     8
280
     0
  0
ATTDEF
  5
14E
330
12D
100
AcDbEntity
  8
AM_6
100
AcDbText
 10
8.125
 20
-13.5375
 30
0.0
 40
0.5
  1
2.22
100
AcDbAttributeDefinition
  3

  2
L
 70
     8
280
     0
  0
ATTDEF
  5
14F
330
12D
100
AcDbEntity
  8
AM_6
100
AcDbText
 10
8.125
 20
-14.0375
 30
0.0
 40
0.5
  1
2.220000
100
AcDbAttributeDefinition
  3

  2
L1
 70
     8
280
     0
  0
ATTDEF
  5
150
330
12D
100
AcDbEntity
  8
AM_6
100
AcDbText
 10
8.125
 20
-14.5375
 30
0.0
 40
0.5
  1
1.69
100
AcDbAttributeDefinition
  3

  2
M
 70
     8
280
     0
  0
ATTDEF
  5
151
330
12D
100
AcDbEntity
  8
AM_6
100
AcDbText
 10
8.125
 20
-15.0375
 30
0.0
 40
0.5
  1
1.690000
100
AcDbAttributeDefinition
  3

  2
M1
 70
     8
280
     0
  0
ATTDEF
  5
152
330
12D
100
AcDbEntity
  8
AM_6
100
AcDbText
 10
8.125
 20
-15.5375
 30
0.0
 40
0.5
  1
0.58
100
AcDbAttributeDefinition
  3

  2
R
 70
     8
280
     0
  0
ATTDEF
  5
153
330
12D
100
AcDbEntity
  8
AM_6
100
AcDbText
 10
8.125
 20
-16.0375
 30
0.0
 40
0.5
  1
0.580000
100
AcDbAttributeDefinition
  3

  2
R1
 70
     8
280
     0
  0
ATTDEF
  5
154
330
12D
100
AcDbEntity
  8
AM_6
100
AcDbText
 10
8.125
 20
-16.5375
 30
0.0
 40
0.5
  1
0.98
100
AcDbAttributeDefinition
  3

  2
S
 70
     8
280
     0
  0
ATTDEF
  5
155
330
12D
100
AcDbEntity
  8
AM_6
100
AcDbText
 10
8.125
 20
-17.0375
 30
0.0
 40
0.5
  1
0.980000
100
AcDbAttributeDefinition
  3

  2
S1
 70
     8
280
     0
  0
ATTDEF
  5
156
330
12D
100
AcDbEntity
  8
AM_6
100
AcDbText
 10
8.125
 20
-17.5375
 30
0.0
 40
0.5
  1
2.88
100
AcDbAttributeDefinition
  3

  2
U
 70
     8
280
     0
  0
ATTDEF
  5
157
330
12D
100
AcDbEntity
  8
AM_6
100
AcDbText
 10
8.125
 20
-18.0375
 30
0.0
 40
0.5
  1
2.880000
100
AcDbAttributeDefinition
  3

  2
U1
 70
     8
280
     0
  0
ATTDEF
  5
158
330
12D
100
AcDbEntity
  8
AM_6
100
AcDbText
 10
8.125
 20
-18.5375
 30
0.0
 40
0.5
  1
5.76
100
AcDbAttributeDefinition
  3

  2
V
 70
     8
280
     0
  0
ATTDEF
  5
159
330
12D
100
AcDbEntity
  8
AM_6
100
AcDbText
 10
8.125
 20
-19.0375
 30
0.0
 40
0.5
  1
5.760000
100
AcDbAttributeDefinition
  3

  2
V1
 70
     8
280
     0
  0
ATTDEF
  5
15A
330
12D
100
AcDbEntity
  8
AM_6
100
AcDbText
 10
8.125
 20
-19.5375
 30
0.0
 40
0.5
  1
0.56
100
AcDbAttributeDefinition
  3

  2
W
 70
     8
280
     0
  0
ATTDEF
  5
15B
330
12D
100
AcDbEntity
  8
AM_6
100
AcDbText
 10
8.125
 20
-20.0375
 30
0.0
 40
0.5
  1
0.560000
100
AcDbAttributeDefinition
  3

  2
W1
 70
     8
280
     0
  0
ATTDEF
  5
15C
330
12D
100
AcDbEntity
  8
AM_6
100
AcDbText
 10
8.125
 20
-20.5375
 30
0.0
 40
0.5
  1
0.12
100
AcDbAttributeDefinition
  3

  2
X
 70
     8
280
     0
  0
ATTDEF
  5
15D
330
12D
100
AcDbEntity
  8
AM_6
100
AcDbText
 10
8.125
 20
-21.0375
 30
0.0
 40
0.5
  1
0.120000
100
AcDbAttributeDefinition
  3

  2
X1
 70
     8
280
     0
  0
ATTDEF
  5
15E
330
12D
100
AcDbEntity
  8
AM_6
100
AcDbText
 10
8.125
 20
-21.5375
 30
0.0
 40
0.5
  1
2250
100
AcDbAttributeDefinition
  3

  2
CAPS
 70
     8
280
     0
  0
ATTDEF
  5
15F
330
12D
100
AcDbEntity
  8
AM_6
100
AcDbText
 10
8.125
 20
-22.0375
 30
0.0
 40
0.5
  1
4368
100
AcDbAttributeDefinition
  3

  2
CAPD
 70
     8
280
     0
  0
ATTDEF
  5
160
330
12D
100
AcDbEntity
  8
AM_6
100
AcDbText
 10
8.125
 20
-22.5375
 30
0.0
 40
0.5
  1
baldor
100
AcDbAttributeDefinition
  3

  2
COMPANY
 70
     8
280
     0
  0
LINE
  5
161
330
12D
100
AcDbEntity
  8
AM_9
100
AcDbLine
 10
1.25625
 20
-0.8739694550466472
 30
0.0
 11
1.25625
 21
0.8739694550466462
 31
0.0
  0
LINE
  5
162
330
12D
100
AcDbEntity
  8
AM_9
100
AcDbLine
 10
1.1971949
 20
-0.7466667250000002
 30
0.0
 11
1.1971949
 21
0.7466667249999999
 31
0.0
  0
LINE
  5
163
330
12D
100
AcDbEntity
  8
AM_9
100
AcDbLine
 10
-1.1971949
 20
-0.746666725
 30
0.0
 11
-1.1971949
 21
0.7466667250000001
 31
0.0
  0
LINE
  5
164
330
12D
100
AcDbEntity
  8
AM_9
100
AcDbLine
 10
-1.25625
 20
-0.8739694550466466
 30
0.0
 11
-1.25625
 21
0.8739694550466474
 31
0.0
  0
LINE
  5
165
330
12D
100
AcDbEntity
  8
AM_9
100
AcDbLine
 10
1.22045
 20
-0.7466667250000001
 30
0.0
 11
1.22045
 21
0.7466667250000002
 31
0.0
  0
LINE
  5
166
330
12D
100
AcDbEntity
  8
AM_9
100
AcDbLine
 10
-1.22045
 20
0.7466667250000002
 30
0.0
 11
-1.22045
 21
-0.7466667249999999
 31
0.0
  0
LINE
  5
167
330
12D
100
AcDbEntity
  8
AM_9
100
AcDbLine
 10
1.11
 20
-0.7466667250000001
 30
0.0
 11
-1.11
 21
-0.7466667249999999
 31
0.0
  0
LINE
  5
16A
330
12D
100
AcDbEntity
  8
AM_7
100
AcDbLine
 10
-2.943
 20
-0.5600000000000002
 30
0.0
 11
-2.817
 21
-0.5600000000000002
 31
0.0
  0
LINE
  5
16B
330
12D
100
AcDbEntity
  8
AM_7
100
AcDbLine
 10
-2.88
 20
-0.6230000000000002
 30
0.0
 11
-2.88
 21
-0.4970000000000002
 31
0.0
  0
LINE
  5
16C
330
12D
100
AcDbEntity
  8
AM_7
100
AcDbLine
 10
2.817
 20
-0.5599999999999997
 30
0.0
 11
2.943
 21
-0.5599999999999997
 31
0.0
  0
LINE
  5
16D
330
12D
100
AcDbEntity
  8
AM_7
100
AcDbLine
 10
2.88
 20
-0.6229999999999998
 30
0.0
 11
2.88
 21
-0.4969999999999997
 31
0.0
  0
LINE
  5
16E
330
12D
100
AcDbEntity
  8
AM_7
100
AcDbLine
 10
0.0
 20
0.9625000000000001
 30
0.0
 11
0.0
 21
-1.058
 31
0.0
  0
LINE
  5
16F
330
12D
100
AcDbEntity
  8
AM_7
100
AcDbLine
 10
1.8625
 20
0.0000000000000001
 30
0.0
 11
2.7625
 21
0.0000000000000003
 31
0.0
  0
LINE
  5
170
330
12D
100
AcDbEntity
  8
AM_7
100
AcDbLine
 10
2.5
 20
-0.2624999999999997
 30
0.0
 11
2.5
 21
0.2625000000000003
 31
0.0
  0
LINE
  5
171
330
12D
100
AcDbEntity
  8
AM_7
100
AcDbLine
 10
-2.7625
 20
0.0000000000000003
 30
0.0
 11
-1.8625
 21
0.0000000000000002
 31
0.0
  0
LINE
  5
172
330
12D
100
AcDbEntity
  8
AM_7
100
AcDbLine
 10
-2.125
 20
-0.2624999999999998
 30
0.0
 11
-2.125
 21
0.2625000000000002
 31
0.0
  0
LINE
  5
173
330
12D
100
AcDbEntity
  8
AM_7
100
AcDbLine
 10
-2.5
 20
-0.2624999999999997
 30
0.0
 11
-2.5
 21
0.2625000000000003
 31
0.0
  0
LINE
  5
174
330
12D
100
AcDbEntity
  8
AM_7
100
AcDbLine
 10
2.125
 20
-0.2625
 30
0.0
 11
2.125
 21
0.2625000000000001
 31
0.0
  0
LINE
  5
175
330
12D
100
AcDbEntity
  8
AM_4
100
AcDbLine
 10
2.942499999999999
 20
0.8749999999999998
 30
0.0
 11
1.256928108611695
 21
0.875
 31
0.0
  0
LINE
  5
176
330
12D
100
AcDbEntity
  8
AM_4
100
AcDbLine
 10
3.125
 20
-0.6924999999999998
 30
0.0
 11
3.125
 21
0.6924999999999993
 31
0.0
  0
LINE
  5
177
330
12D
100
AcDbEntity
  8
AM_4
100
AcDbLine
 10
3.125
 20
0.6924999999999993
 30
0.0
 11
2.942499999999999
 21
0.8749999999999998
 31
0.0
  0
LINE
  5
178
330
12D
100
AcDbEntity
  8
AM_4
100
AcDbLine
 10
-1.25692810861169
 20
0.875
 30
0.0
 11
-2.9425
 21
0.875
 31
0.0
  0
LINE
  5
179
330
12D
100
AcDbEntity
  8
AM_4
100
AcDbLine
 10
-3.125
 20
0.6925
 30
0.0
 11
-3.125
 21
-0.6924999999999993
 31
0.0
  0
LINE
  5
17A
330
12D
100
AcDbEntity
  8
AM_4
100
AcDbLine
 10
-2.9425
 20
0.875
 30
0.0
 11
-3.125
 21
0.6925
 31
0.0
  0
LWPOLYLINE
  5
17B
330
12D
100
AcDbEntity
  8
AM_4
100
AcDbPolyline
 90
       10
 70
     0
 43
0.0
 10
-3.0659449
 20
0.2652006224803961
 10
-3.077767327747528
 20
0.2383483060302316
 10
-3.088338447135061
 20
0.2109096290421682
 10
-3.097690509779598
 20
0.1827321934400289
 10
-3.105667668622904
 20
0.1542455029649048
 10
-3.114046718917391
 20
0.116497326092865
 10
-3.120060795447818
 20
0.0784194487905851
 10
-3.123732889125568
 20
0.0397779213015577
 10
-3.124999280574764
 20
0.0009483042905875
 10
-3.125
 20
-0.0000000000000002
  0
LINE
  5
17C
330
12D
100
AcDbEntity
  8
AM_4
100
AcDbLine
 10
-3.125
 20
-0.6924999999999993
 30
0.0
 11
-2.942499999999999
 21
-0.875
 31
0.0
  0
CIRCLE
  5
17D
330
12D
100
AcDbEntity
  8
AM_4
100
AcDbCircle
 10
-2.88
 20
-0.5600000000000002
 30
0.0
 40
0.06
  0
LINE
  5
17E
330
12D
100
AcDbEntity
  8
AM_4
100
AcDbLine
 10
-2.125
 20
0.2500000000000002
 30
0.0
 11
-2.5
 21
0.2500000000000002
 31
0.0
  0
ARC
  5
17F
330
12D
100
AcDbEntity
  8
AM_4
100
AcDbCircle
 10
-2.125
 20
0.0000000000000001
 30
0.0
 40
0.25
100
AcDbArc
 50
270.0
 51
90.0
  0
LINE
  5
180
330
12D
100
AcDbEntity
  8
AM_4
100
AcDbLine
 10
-2.5
 20
-0.2499999999999997
 30
0.0
 11
-2.125
 21
-0.2499999999999998
 31
0.0
  0
ARC
  5
181
330
12D
100
AcDbEntity
  8
AM_4
100
AcDbCircle
 10
-2.5
 20
0.0000000000000003
 30
0.0
 40
0.2499999999999999
100
AcDbArc
 50
90.0
 51
270.0
  0
LINE
  5
182
330
12D
100
AcDbEntity
  8
AM_4
100
AcDbLine
 10
-2.5
 20
0.6250000000000003
 30
0.0
 11
-2.0337402
 21
0.6250000000000001
 31
0.0
  0
ARC
  5
183
330
12D
100
AcDbEntity
  8
AM_4
100
AcDbCircle
 10
-2.499999999999999
 20
-0.0000000000000003
 30
0.0
 40
0.6250000000000007
100
AcDbArc
 50
90.0
 51
154.8923077609764
  0
LINE
  5
184
330
12D
100
AcDbEntity
  8
AM_4
100
AcDbLine
 10
-3.0659449
 20
-0.751555099999999
 30
0.0
 11
-3.0659449
 21
0.2652006224803961
 31
0.0
  0
LINE
  5
185
330
12D
100
AcDbEntity
  8
AM_4
100
AcDbLine
 10
-1.25692810861169
 20
-0.875
 30
0.0
 11
-2.942499999999999
 21
-0.875
 31
0.0
  0
ARC
  5
186
330
12D
100
AcDbEntity
  8
AM_4
100
AcDbCircle
 10
-2.0337402
 20
0.7037401999999994
 30
0.0
 40
0.0787401999999993
100
AcDbArc
 50
270.0
 51
0.0
  0
ARC
  5
187
330
12D
100
AcDbEntity
  8
AM_4
100
AcDbCircle
 10
2.499999999999999
 20
-0.0000000000000019
 30
0.0
 40
0.6250000000000022
100
AcDbArc
 50
25.1076922390241
 51
90.0
  0
LINE
  5
188
330
12D
100
AcDbEntity
  8
AM_4
100
AcDbLine
 10
2.9425
 20
-0.875
 30
0.0
 11
3.125
 21
-0.6924999999999999
 31
0.0
  0
CIRCLE
  5
189
330
12D
100
AcDbEntity
  8
AM_4
100
AcDbCircle
 10
2.88
 20
-0.5599999999999997
 30
0.0
 40
0.06
  0
LINE
  5
18A
330
12D
100
AcDbEntity
  8
AM_4
100
AcDbLine
 10
2.5
 20
0.2500000000000004
 30
0.0
 11
2.125
 21
0.2500000000000001
 31
0.0
  0
ARC
  5
18B
330
12D
100
AcDbEntity
  8
AM_4
100
AcDbCircle
 10
2.5
 20
0.0000000000000003
 30
0.0
 40
0.25
100
AcDbArc
 50
270.0
 51
90.0
  0
LINE
  5
18C
330
12D
100
AcDbEntity
  8
AM_4
100
AcDbLine
 10
2.125
 20
-0.2499999999999999
 30
0.0
 11
2.5
 21
-0.2499999999999998
 31
0.0
  0
ARC
  5
18D
330
12D
100
AcDbEntity
  8
AM_4
100
AcDbCircle
 10
2.125
 20
0.0000000000000001
 30
0.0
 40
0.25
100
AcDbArc
 50
90.0
 51
270.0
  0
ARC
  5
18E
330
12D
100
AcDbEntity
  8
AM_4
100
AcDbCircle
 10
2.0337402
 20
0.7037402000000005
 30
0.0
 40
0.0787402000000004
100
AcDbArc
 50
180.0
 51
270.0
  0
LINE
  5
18F
330
12D
100
AcDbEntity
  8
AM_4
100
AcDbLine
 10
2.9425
 20
-0.875
 30
0.0
 11
1.256928108611695
 21
-0.875
 31
0.0
  0
LINE
  5
190
330
12D
100
AcDbEntity
  8
AM_4
100
AcDbLine
 10
2.0337402
 20
0.625
 30
0.0
 11
2.5
 21
0.6250000000000001
 31
0.0
  0
LWPOLYLINE
  5
191
330
12D
100
AcDbEntity
  8
AM_4
100
AcDbPolyline
 90
       10
 70
     0
 43
0.0
 10
3.125
 20
0.0000000000000002
 10
3.124999280574764
 20
0.0009483042905873
 10
3.123775751461746
 20
0.0390994366858546
 10
3.120213054115414
 20
0.0772060069219416
 10
3.114176798472063
 20
0.1158073716980946
 10
3.105667668622903
 20
0.1542455029649085
 10
3.097884544255868
 20
0.1820946739480236
 10
3.088750718361448
 20
0.2097560288260606
 10
3.078039082395981
 20
0.2376837058530586
 10
3.065944899999999
 20
0.2652006224803994
  0
LINE
  5
192
330
12D
100
AcDbEntity
  8
AM_4
100
AcDbLine
 10
3.065944899999999
 20
-0.751555100000001
 30
0.0
 11
3.065944899999999
 21
0.2652006224803995
 31
0.0
  0
LWPOLYLINE
  5
193
330
12D
100
AcDbEntity
  8
AM_4
100
AcDbPolyline
 90
       11
 70
     0
 43
0.0
 10
1.955
 20
0.6014357821081153
 10
1.903228319019752
 20
0.5843306611116649
 10
1.853144454441165
 20
0.5627784309556548
 10
1.805129574715148
 20
0.5369431171251647
 10
1.759549102068592
 20
0.5070213419582338
 10
1.71674993142058
 20
0.473240828231144
 10
1.677057790302588
 20
0.4358586660505905
 10
1.640774759875294
 20
0.3951593562427339
 10
1.608176975908544
 20
0.351452645130127
 10
1.579512527221404
 20
0.3050711671751706
 10
1.557192088024469
 20
0.2611880071863726
  0
LINE
  5
194
330
12D
100
AcDbEntity
  8
AM_4
100
AcDbLine
 10
1.955
 20
0.6014357821081152
 30
0.0
 11
1.955
 21
0.875
 31
0.0
  0
LWPOLYLINE
  5
195
330
12D
100
AcDbEntity
  8
AM_4
100
AcDbPolyline
 90
       11
 70
     0
 43
0.0
 10
1.557192088024469
 20
-0.2611880071863716
 10
1.582116803318541
 20
-0.3096818282704363
 10
1.611173187541194
 20
-0.3558187836503626
 10
1.644140104063772
 20
-0.3992477432374539
 10
1.680766654745568
 20
-0.4396381864261297
 10
1.720774089420178
 20
-0.4766827175553078
 10
1.763857927352578
 20
-0.5100994053749957
 10
1.80969027452137
 20
-0.5396339287133374
 10
1.857922319090273
 20
-0.5650615120142958
 10
1.908186986076812
 20
-0.5861886360153558
 10
1.955
 20
-0.6014357821081149
  0
LINE
  5
196
330
12D
100
AcDbEntity
  8
AM_4
100
AcDbLine
 10
1.955
 20
-0.875
 30
0.0
 11
1.955
 21
-0.6014357821081148
 31
0.0
  0
LWPOLYLINE
  5
197
330
12D
100
AcDbEntity
  8
AM_4
100
AcDbPolyline
 90
       11
 70
     0
 43
0.0
 10
-1.955
 20
-0.6014357821081151
 10
-1.903228319019752
 20
-0.5843306611116648
 10
-1.853144454441165
 20
-0.5627784309556547
 10
-1.805129574715148
 20
-0.5369431171251646
 10
-1.759549102068592
 20
-0.5070213419582337
 10
-1.71674993142058
 20
-0.4732408282311438
 10
-1.677057790302588
 20
-0.4358586660505903
 10
-1.640774759875294
 20
-0.3951593562427336
 10
-1.608176975908544
 20
-0.3514526451301267
 10
-1.579512527221404
 20
-0.3050711671751704
 10
-1.557192088024469
 20
-0.2611880071863713
  0
LINE
  5
198
330
12D
100
AcDbEntity
  8
AM_4
100
AcDbLine
 10
-1.954999999999998
 20
-0.875
 30
0.0
 11
-1.955
 21
-0.6014357821081151
 31
0.0
  0
LWPOLYLINE
  5
199
330
12D
100
AcDbEntity
  8
AM_4
100
AcDbPolyline
 90
       11
 70
     0
 43
0.0
 10
-1.557192088024469
 20
0.2611880071863711
 10
-1.58211680331854
 20
0.3096818282704359
 10
-1.611173187541194
 20
0.3558187836503622
 10
-1.644140104063771
 20
0.3992477432374535
 10
-1.680766654745567
 20
0.4396381864261293
 10
-1.720774089420176
 20
0.4766827175553073
 10
-1.763857927352577
 20
0.5100994053749951
 10
-1.80969027452137
 20
0.5396339287133369
 10
-1.857922319090272
 20
0.5650615120142953
 10
-1.908186986076811
 20
0.5861886360153556
 10
-1.954999999999999
 20
0.6014357821081149
  0
LINE
  5
19A
330
12D
100
AcDbEntity
  8
AM_4
100
AcDbLine
 10
-1.955
 20
0.6014357821081151
 30
0.0
 11
-1.955
 21
0.875
 31
0.0
  0
LINE
  5
19B
330
12D
100
AcDbEntity
  8
AM_4
100
AcDbLine
 10
-1.11
 20
-0.7466667249999999
 30
0.0
 11
-1.25
 21
-0.7466667249999999
 31
0.0
  0
LINE
  5
19C
330
12D
100
AcDbEntity
  8
AM_4
100
AcDbLine
 10
1.25
 20
-0.7466667250000001
 30
0.0
 11
1.11
 21
-0.7466667250000001
 31
0.0
  0
LWPOLYLINE
  5
19D
330
12D
100
AcDbEntity
  8
AM_4
100
AcDbPolyline
 90
       21
 70
     0
 43
0.0
 10
-1.557192088024469
 20
-0.2611880071863716
 10
-1.548674768471595
 20
-0.2418220132159636
 10
-1.54009538392556
 20
-0.2202619474520204
 10
-1.531680484364051
 20
-0.1964610708652601
 10
-1.52358077244756
 20
-0.1700337409471879
 10
-1.516149486651309
 20
-0.1411289431389831
 10
-1.509762426029891
 20
-0.1100351197363331
 10
-1.505718701954308
 20
-0.0842682899341806
 10
-1.502652395978108
 20
-0.0573913906142583
 10
-1.500713261343623
 20
-0.0298507610922225
 10
-1.500018768045748
 20
-0.0017939369537956
 10
-1.50057342732958
 20
0.0263866221500503
 10
-1.502346527772714
 20
0.0541077954023647
 10
-1.505114045207129
 20
0.0797298074248303
 10
-1.50880920818337
 20
0.1045201981419067
 10
-1.513281230781707
 20
0.1281606311862441
 10
-1.520567458574418
 20
0.1590014122142575
 10
-1.528756679692894
 20
0.1873878547785711
 10
-1.537458059483045
 20
0.2131184368692023
 10
-1.547339302584509
 20
0.2386104821271176
 10
-1.55719208802447
 20
0.2611880071863722
  0
LINE
  5
19E
330
12D
100
AcDbEntity
  8
AM_4
100
AcDbLine
 10
-1.557192088024469
 20
-0.7170082562167148
 30
0.0
 11
-1.557192088024469
 21
-0.2611880071863716
 31
0.0
  0
LINE
  5
19F
330
12D
100
AcDbEntity
  8
AM_4
100
AcDbLine
 10
1.557192088024469
 20
-0.717008256216715
 30
0.0
 11
1.557192088024469
 21
-0.2611880071863714
 31
0.0
  0
LWPOLYLINE
  5
1A0
330
12D
100
AcDbEntity
  8
AM_4
100
AcDbPolyline
 90
       21
 70
     0
 43
0.0
 10
1.557192088024469
 20
0.2611880071863722
 10
1.548674768471595
 20
0.241822013215964
 10
1.54009538392556
 20
0.2202619474520205
 10
1.531680484364051
 20
0.1964610708652599
 10
1.52358077244756
 20
0.1700337409471877
 10
1.516149486651309
 20
0.1411289431389829
 10
1.509762426029891
 20
0.1100351197363329
 10
1.505718701954308
 20
0.0842682899341808
 10
1.502652395978108
 20
0.057391390614259
 10
1.500713261343623
 20
0.0298507610922235
 10
1.500018768045748
 20
0.0017939369537967
 10
1.50057342732958
 20
-0.0263866221500491
 10
1.502346527772713
 20
-0.0541077954023634
 10
1.505114045207129
 20
-0.0797298074248289
 10
1.50880920818337
 20
-0.1045201981419053
 10
1.513281230781707
 20
-0.1281606311862426
 10
1.520567458574418
 20
-0.1590014122142558
 10
1.528756679692894
 20
-0.1873878547785693
 10
1.537458059483045
 20
-0.2131184368692004
 10
1.547339302584509
 20
-0.2386104821271163
 10
1.557192088024469
 20
-0.2611880071863713
  0
LINE
  5
1A1
330
12D
100
AcDbEntity
  8
AM_4
100
AcDbLine
 10
1.55719208802447
 20
0.2611880071863729
 30
0.0
 11
1.557192088024469
 21
0.7170082562167156
 31
0.0
  0
LINE
  5
1A2
330
12D
100
AcDbEntity
  8
AM_4
100
AcDbLine
 10
-1.557192088024469
 20
0.261188007186371
 30
0.0
 11
-1.557192088024469
 21
0.7170082562167154
 31
0.0
  0
LINE
  5
1A3
330
12D
100
AcDbEntity
  8
AM_4
100
AcDbLine
 10
1.557192088024469
 20
0.7170082562167156
 30
0.0
 11
1.955
 21
0.875
 31
0.0
  0
LWPOLYLINE
  5
1A4
330
12D
100
AcDbEntity
  8
AM_4
100
AcDbPolyline
 90
        8
 70
     0
 43
0.0
 10
1.256928108611693
 20
0.875
 10
1.25509295293128
 20
0.8720319754490464
 10
1.253523460956512
 20
0.8689153007711963
 10
1.252231577469001
 20
0.865673695742648
 10
1.251227134482147
 20
0.862331830935003
 10
1.250517776413581
 20
0.8589151399573208
 10
1.250108901906526
 20
0.8554496258909959
 10
1.25
 20
0.8524999999999996
  0
LINE
  5
1A5
330
12D
100
AcDbEntity
  8
AM_4
100
AcDbLine
 10
1.25
 20
0.8524999999999997
 30
0.0
 11
1.25
 21
0.7466667250000001
 31
0.0
  0
LINE
  5
1A6
330
12D
100
AcDbEntity
  8
AM_4
100
AcDbLine
 10
1.25
 20
0.7466667250000001
 30
0.0
 11
-1.25
 21
0.7466667250000004
 31
0.0
  0
LWPOLYLINE
  5
1A7
330
12D
100
AcDbEntity
  8
AM_4
100
AcDbPolyline
 90
       34
 70
     0
 43
0.0
 10
-1.206131946848161
 20
0.7466667250000004
 10
-1.185296661168765
 20
0.7347707995892051
 10
-1.155440552196183
 20
0.7231270335143515
 10
-1.116790842947307
 20
0.7118240428659672
 10
-1.069641681046854
 20
0.7009478502278188
 10
-1.014351900086329
 20
0.6905812299931073
 10
-0.9513422886837246
 20
0.6808030784013552
 10
-0.881092388028057
 20
0.6716878130903853
 10
-0.8041368422813661
 20
0.6633048067331615
 10
-0.7210613296138131
 20
0.65571785906986
 10
-0.6324981048391645
 20
0.6489847113533229
 10
-0.539121187573892
 20
0.6431566069032588
 10
-0.441641232540909
 20
0.6382779011136381
 10
-0.3408001210580225
 20
0.634385723881363
 10
-0.237365314873145
 20
0.6315096970253323
 10
-0.1321240153169872
 20
0.6296717088465125
 10
-0.0258771722256054
 20
0.6288857475447522
 10
0.0805666117714771
 20
0.6291577947601343
 10
0.1863972352055284
 20
0.630485780049083
 10
0.2908092631299377
 20
0.6328595966416899
 10
0.3930080569664942
 20
0.6362611783603357
 10
0.4922158221847828
 20
0.6406646371142103
 10
0.5876775277882057
 20
0.6460364599233157
 10
0.6786666525557672
 20
0.6523357639724792
 10
0.7644907143072505
 20
0.6595146077542628
 10
0.8444965401107414
 20
0.6675183559327831
 10
0.9180752373230369
 20
0.6762860951516059
 10
0.9846668276303198
 20
0.6857510976211705
 10
1.043764508821249
 20
0.6958413289575586
 10
1.094918511857807
 20
0.7064799964076521
 10
1.137739523889253
 20
0.7175861332883529
 10
1.171901651157995
 20
0.7290752151919297
 10
1.197144899247861
 20
0.7408598032677993
 10
1.20613194684816
 20
0.7466667250000001
  0
LINE
  5
1A8
330
12D
100
AcDbEntity
  8
AM_4
100
AcDbLine
 10
-1.25
 20
0.7466667250000004
 30
0.0
 11
-1.25
 21
0.8525000000000003
 31
0.0
  0
LWPOLYLINE
  5
1A9
330
12D
100
AcDbEntity
  8
AM_4
100
AcDbPolyline
 90
        8
 70
     0
 43
0.0
 10
-1.25
 20
0.8525000000000003
 10
-1.25015221207633
 20
0.8559862297099067
 10
-1.250607689879512
 20
0.8594459271066776
 10
-1.251362966948437
 20
0.8628527618041011
 10
-1.252412295168564
 20
0.8661808057330269
 10
-1.253747688518534
 20
0.8694047304696282
 10
-1.255358983848622
 20
0.8725000000000002
 10
-1.256928108611693
 20
0.875
  0
LINE
  5
1AA
330
12D
100
AcDbEntity
  8
AM_4
100
AcDbLine
 10
-1.955
 20
0.875
 30
0.0
 11
-1.557192088024469
 21
0.7170082562167154
 31
0.0
  0
LWPOLYLINE
  5
1AB
330
12D
100
AcDbEntity
  8
AM_4
100
AcDbPolyline
 90
       31
 70
     0
 43
0.0
 10
-1.557192088024469
 20
0.7170082562167155
 10
-1.512332869753923
 20
0.7017392074891494
 10
-1.455963885172995
 20
0.6869737084584269
 10
-1.388514136290871
 20
0.6728241334878238
 10
-1.310496956423814
 20
0.6593981693866136
 10
-1.222506103418675
 20
0.6467979958484249
 10
-1.125211240797152
 20
0.6351195078020764
 10
-1.019352841212041
 20
0.6244515855932645
 10
-0.9057365510032309
 20
0.6148754185514659
 10
-0.7852270587426046
 20
0.6064638870901166
 10
-0.6587415144318856
 20
0.5992810080426587
 10
-0.5272425494373385
 20
0.5933814474557846
 10
-0.3917309502838177
 20
0.5888101045478122
 10
-0.2532380420650223
 20
0.5856017699985238
 10
-0.1128178394368014
 20
0.5837808611710846
 10
0.0284609750708074
 20
0.5833612362811663
 10
0.1695231843729207
 20
0.5843460889275578
 10
0.3092952198810587
 20
0.5867279237869495
 10
0.446713332008342
 20
0.5904886136578703
 10
0.5807316859461571
 20
0.595599537419636
 10
0.7103303210985428
 20
0.6020217978563592
 10
0.8345229135981941
 20
0.6097065176882498
 10
0.9523642828266504
 20
0.6185952115572262
 10
1.06295758480952
 20
0.6286202311358055
 10
1.165461137740651
 20
0.6397052799717223
 10
1.2590948276889
 20
0.65176599415
 10
1.343146045736193
 20
0.6647105843532832
 10
1.416975111361678
 20
0.6784405344339681
 10
1.480020140796735
 20
0.6928513511815698
 10
1.531801323299734
 20
0.7078333595791503
 10
1.55719208802447
 20
0.7170082562167157
  0
LINE
  5
1AC
330
12D
100
AcDbEntity
  8
AM_4
100
AcDbLine
 10
1.955
 20
-0.875
 30
0.0
 11
1.557192088024469
 21
-0.717008256216715
 31
0.0
  0
LWPOLYLINE
  5
1AD
330
12D
100
AcDbEntity
  8
AM_4
100
AcDbPolyline
 90
       31
 70
     0
 43
0.0
 10
1.55719208802447
 20
-0.717008256216715
 10
1.512332869753923
 20
-0.701739207489149
 10
1.455963885172996
 20
-0.6869737084584265
 10
1.388514136290872
 20
-0.6728241334878234
 10
1.310496956423816
 20
-0.659398169386613
 10
1.222506103418677
 20
-0.6467979958484243
 10
1.125211240797155
 20
-0.6351195078020757
 10
1.019352841212043
 20
-0.6244515855932639
 10
0.9057365510032334
 20
-0.6148754185514652
 10
0.7852270587426071
 20
-0.6064638870901158
 10
0.6587415144318884
 20
-0.5992810080426578
 10
0.5272425494373414
 20
-0.5933814474557836
 10
0.3917309502838207
 20
-0.5888101045478114
 10
0.2532380420650252
 20
-0.5856017699985228
 10
0.1128178394368044
 20
-0.5837808611710836
 10
-0.0284609750708044
 20
-0.5833612362811653
 10
-0.1695231843729178
 20
-0.5843460889275567
 10
-0.3092952198810559
 20
-0.5867279237869484
 10
-0.4467133320083392
 20
-0.5904886136578692
 10
-0.5807316859461547
 20
-0.5955995374196348
 10
-0.7103303210985403
 20
-0.6020217978563581
 10
-0.8345229135981916
 20
-0.6097065176882486
 10
-0.9523642828266485
 20
-0.618595211557225
 10
-1.062957584809518
 20
-0.6286202311358042
 10
-1.165461137740649
 20
-0.6397052799717211
 10
-1.259094827688898
 20
-0.6517659941499987
 10
-1.343146045736192
 20
-0.664710584353282
 10
-1.416975111361677
 20
-0.6784405344339668
 10
-1.480020140796734
 20
-0.6928513511815686
 10
-1.531801323299734
 20
-0.7078333595791488
 10
-1.55719208802447
 20
-0.7170082562167147
  0
LINE
  5
1AE
330
12D
100
AcDbEntity
  8
AM_4
100
AcDbLine
 10
-1.557192088024469
 20
-0.7170082562167148
 30
0.0
 11
-1.954999999999998
 21
-0.875
 31
0.0
  0
LWPOLYLINE
  5
1AF
330
12D
100
AcDbEntity
  8
AM_4
100
AcDbPolyline
 90
        8
 70
     0
 43
0.0
 10
-1.256928108611693
 20
-0.875
 10
-1.25509295293128
 20
-0.8720319754490464
 10
-1.253523460956512
 20
-0.8689153007711963
 10
-1.252231577469
 20
-0.865673695742648
 10
-1.251227134482147
 20
-0.862331830935003
 10
-1.250517776413581
 20
-0.8589151399573208
 10
-1.250108901906526
 20
-0.855449625890996
 10
-1.25
 20
-0.8524999999999998
  0
LINE
  5
1B0
330
12D
100
AcDbEntity
  8
AM_4
100
AcDbLine
 10
-1.25
 20
-0.8524999999999998
 30
0.0
 11
-1.25
 21
-0.7466667249999999
 31
0.0
  0
LWPOLYLINE
  5
1B1
330
12D
100
AcDbEntity
  8
AM_4
100
AcDbPolyline
 90
       34
 70
     0
 43
0.0
 10
1.206131946848161
 20
-0.7466667250000002
 10
1.185296661168766
 20
-0.734770799589205
 10
1.155440552196184
 20
-0.7231270335143514
 10
1.116790842947309
 20
-0.711824042865967
 10
1.069641681046856
 20
-0.7009478502278186
 10
1.014351900086332
 20
-0.6905812299931069
 10
0.9513422886837273
 20
-0.6808030784013549
 10
0.8810923880280598
 20
-0.6716878130903849
 10
0.8041368422813692
 20
-0.6633048067331611
 10
0.7210613296138165
 20
-0.6557178590698597
 10
0.632498104839168
 20
-0.6489847113533225
 10
0.5391211875738958
 20
-0.6431566069032582
 10
0.4416412325409128
 20
-0.6382779011136375
 10
0.3408001210580263
 20
-0.6343857238813624
 10
0.237365314873149
 20
-0.6315096970253316
 10
0.1321240153169911
 20
-0.6296717088465118
 10
0.0258771722256093
 20
-0.6288857475447515
 10
-0.0805666117714732
 20
-0.6291577947601334
 10
-0.1863972352055245
 20
-0.6304857800490821
 10
-0.2908092631299339
 20
-0.6328595966416889
 10
-0.3930080569664905
 20
-0.6362611783603347
 10
-0.4922158221847793
 20
-0.6406646371142094
 10
-0.5876775277882024
 20
-0.6460364599233147
 10
-0.6786666525557642
 20
-0.6523357639724782
 10
-0.7644907143072477
 20
-0.6595146077542619
 10
-0.8444965401107387
 20
-0.667518355932782
 10
-0.9180752373230344
 20
-0.6762860951516048
 10
-0.9846668276303173
 20
-0.6857510976211694
 10
-1.043764508821247
 20
-0.6958413289575575
 10
-1.094918511857805
 20
-0.706479996407651
 10
-1.137739523889252
 20
-0.7175861332883517
 10
-1.171901651157994
 20
-0.7290752151919286
 10
-1.197144899247861
 20
-0.7408598032677982
 10
-1.206131946848161
 20
-0.7466667249999996
  0
LINE
  5
1B2
330
12D
100
AcDbEntity
  8
AM_4
100
AcDbLine
 10
1.25
 20
-0.7466667250000001
 30
0.0
 11
1.25
 21
-0.8525000000000003
 31
0.0
  0
LWPOLYLINE
  5
1B3
330
12D
100
AcDbEntity
  8
AM_4
100
AcDbPolyline
 90
        8
 70
     0
 43
0.0
 10
1.25
 20
-0.8525000000000003
 10
1.25015221207633
 20
-0.8559862297099066
 10
1.250607689879512
 20
-0.8594459271066774
 10
1.251362966948437
 20
-0.8628527618041011
 10
1.252412295168563
 20
-0.8661808057330268
 10
1.253747688518534
 20
-0.8694047304696281
 10
1.255358983848622
 20
-0.8725
 10
1.256928108611693
 20
-0.875
  0
ENDBLK
  5
130
330
12D
100
AcDbEntity
  8
0
100
AcDbBlockEnd
  0
ENDSEC
  0
SECTION
  2
ENTITIES
  0
INSERT
  5
6F
330
1F
100
AcDbEntity
  8
0
100
AcDbBlockReference
  2
1_128474_4
 10
0.0
 20
0.0
 30
0.0
  0
POINT
  5
1B5
330
1F
100
AcDbEntity
  8
ConnectionPoints
100
AcDbPoint
 10
0.0
 20
-0.9799999999999999
 30
1.69
  0
POINT
  5
1B6
330
1F
100
AcDbEntity
  8
ConnectionPoints
100
AcDbPoint
 10
0.0
 20
0.5800000000000002
 30
1.69
  0
POINT
  5
1B7
330
1F
100
AcDbEntity
  8
ConnectionPoints
100
AcDbPoint
 10
0.0
 20
0.0000000000000002
 30
1.69
  0
POINT
  5
1B8
330
1F
100
AcDbEntity
  8
ConnectionPoints
100
AcDbPoint
 10
0.0
 20
-0.9799999999999999
 30
1.69
  0
POINT
  5
1B9
330
1F
100
AcDbEntity
  8
ConnectionPoints
100
AcDbPoint
 10
1.145512985522207
 20
0.0000000000000002
 30
2.835512985522207
  0
ENDSEC
  0
SECTION
  2
OBJECTS
  0
DICTIONARY
  5
C
330
0
100
AcDbDictionary
281
     1
  3
ACAD_DETAILVIEWSTYLE
350
1C1
  3
ACAD_GROUP
350
D
  3
ACAD_LAYOUT
350
1A
  3
ACAD_MATERIAL
350
43
  3
ACAD_MLEADERSTYLE
350
6B
  3
ACAD_MLINESTYLE
350
17
  3
ACAD_PLOTSETTINGS
350
19
  3
ACAD_PLOTSTYLENAME
350
E
  3
ACAD_SCALELIST
350
47
  3
ACAD_SECTIONVIEWSTYLE
350
1C2
  3
ACAD_TABLESTYLE
350
69
  3
ACAD_VISUALSTYLE
350
2A
  3
ACDB_RECOMPOSE_DATA
350
1BE
  3
AcDbVariableDictionary
350
1BA
  0
SUN
  5
6D
330
29
100
AcDbSun
 90
        1
290
     0
 63
     7
421
 16777215
 40
1.0
291
     1
 91
  2455826
 92
 54000000
292
     0
 70
     2
 71
   256
280
     1
  0
DICTIONARY
  5
1C1
102
{ACAD_REACTORS
330
C
102
}
330
C
100
AcDbDictionary
281
     1
  0
DICTIONARY
  5
D
102
{ACAD_REACTORS
330
C
102
}
330
C
100
AcDbDictionary
281
     1
  0
DICTIONARY
  5
1A
102
{ACAD_REACTORS
330
C
102
}
330
C
100
AcDbDictionary
281
     1
  3
Layout1
350
1E
  3
Layout2
350
26
  3
Model
350
22
  0
DICTIONARY
  5
43
102
{ACAD_REACTORS
330
C
102
}
330
C
100
AcDbDictionary
281
     1
  3
ByBlock
350
45
  3
ByLayer
350
44
  3
Global
350
46
  0
DICTIONARY
  5
6B
102
{ACAD_REACTORS
330
C
102
}
330
C
100
AcDbDictionary
281
     1
  3
Standard
350
6C
  0
DICTIONARY
  5
17
102
{ACAD_REACTORS
330
C
102
}
330
C
100
AcDbDictionary
281
     1
  3
Standard
350
18
  0
DICTIONARY
  5
19
102
{ACAD_REACTORS
330
C
102
}
330
C
100
AcDbDictionary
281
     1
  0
ACDBDICTIONARYWDFLT
  5
E
102
{ACAD_REACTORS
330
C
102
}
330
C
100
AcDbDictionary
281
     1
  3
Normal
350
F
100
AcDbDictionaryWithDefault
340
F
  0
DICTIONARY
  5
47
102
{ACAD_REACTORS
330
C
102
}
330
C
100
AcDbDictionary
281
     1
  3
A0
350
48
  3
A1
350
49
  3
A2
350
4A
  3
A3
350
4B
  3
A4
350
4C
  3
A5
350
4D
  3
A6
350
4E
  3
A7
350
4F
  3
A8
350
50
  3
A9
350
51
  3
B0
350
52
  3
B1
350
53
  3
B2
350
54
  3
B3
350
55
  3
B4
350
56
  3
B5
350
57
  3
B6
350
58
  3
B7
350
59
  3
B8
350
5A
  3
B9
350
5B
  3
C0
350
5C
  3
C1
350
5D
  3
C2
350
5E
  3
C3
350
5F
  3
C4
350
60
  3
C5
350
61
  3
C6
350
62
  3
C7
350
63
  3
C8
350
64
  3
C9
350
65
  3
D0
350
66
  3
D1
350
67
  3
D2
350
68
  0
DICTIONARY
  5
1C2
102
{ACAD_REACTORS
330
C
102
}
330
C
100
AcDbDictionary
281
     1
  0
DICTIONARY
  5
69
102
{ACAD_REACTORS
330
C
102
}
330
C
100
AcDbDictionary
281
     1
  3
Standard
350
6A
  0
DICTIONARY
  5
2A
102
{ACAD_REACTORS
330
C
102
}
330
C
100
AcDbDictionary
281
     1
  3
2dWireframe
350
2F
  3
Basic
350
32
  3
Brighten
350
36
  3
ColorChange
350
3A
  3
Conceptual
350
34
  3
Dim
350
35
  3
EdgeColorOff
350
3D
  3
Facepattern
350
39
  3
Flat
350
2B
  3
FlatWithEdges
350
2C
  3
Gouraud
350
2D
  3
GouraudWithEdges
350
2E
  3
Hidden
350
31
  3
JitterOff
350
3B
  3
Linepattern
350
38
  3
OverhangOff
350
3C
  3
Realistic
350
33
  3
Shaded
350
42
  3
Shaded with edges
350
41
  3
Shades of Gray
350
3E
  3
Sketchy
350
3F
  3
Thicken
350
37
  3
Wireframe
350
30
  3
X-Ray
350
40
  0
XRECORD
  5
1BE
102
{ACAD_REACTORS
330
C
102
}
330
C
100
AcDbXrecord
280
     1
 90
        1
330
6A
  0
DICTIONARY
  5
1BA
102
{ACAD_REACTORS
330
C
102
}
330
C
100
AcDbDictionary
281
     1
  3
CANNOSCALE
350
1BB
  3
CMLEADERSTYLE
350
1C0
  3
CTABLESTYLE
350
1BF
  0
LAYOUT
  5
1E
102
{ACAD_REACTORS
330
1A
102
}
330
1A
100
AcDbPlotSettings
  1

  2
none_device
  4

  6

 40
0.0
 41
0.0
 42
0.0
 43
0.0
 44
0.0
 45
0.0
 46
0.0
 47
0.0
 48
0.0
 49
0.0
140
0.0
141
0.0
142
1.0
143
1.0
 70
   688
 72
     0
 73
     0
 74
     5
  7

 75
    16
 76
     0
 77
     2
 78
   300
147
1.0
148
0.0
149
0.0
100
AcDbLayout
  1
Layout1
 70
     1
 71
     1
 10
0.0
 20
0.0
 11
12.0
 21
9.0
 12
0.0
 22
0.0
 32
0.0
 14
1.000000000000000E+20
 24
1.000000000000000E+20
 34
1.000000000000000E+20
 15
-1.000000000000000E+20
 25
-1.000000000000000E+20
 35
-1.000000000000000E+20
146
0.0
 13
0.0
 23
0.0
 33
0.0
 16
1.0
 26
0.0
 36
0.0
 17
0.0
 27
1.0
 37
0.0
 76
     0
330
1B
  0
LAYOUT
  5
26
102
{ACAD_REACTORS
330
1A
102
}
330
1A
100
AcDbPlotSettings
  1

  2
none_device
  4

  6

 40
0.0
 41
0.0
 42
0.0
 43
0.0
 44
0.0
 45
0.0
 46
0.0
 47
0.0
 48
0.0
 49
0.0
140
0.0
141
0.0
142
1.0
143
1.0
 70
   688
 72
     0
 73
     0
 74
     5
  7

 75
    16
 76
     0
 77
     2
 78
   300
147
1.0
148
0.0
149
0.0
100
AcDbLayout
  1
Layout2
 70
     1
 71
     2
 10
0.0
 20
0.0
 11
0.0
 21
0.0
 12
0.0
 22
0.0
 32
0.0
 14
0.0
 24
0.0
 34
0.0
 15
0.0
 25
0.0
 35
0.0
146
0.0
 13
0.0
 23
0.0
 33
0.0
 16
1.0
 26
0.0
 36
0.0
 17
0.0
 27
1.0
 37
0.0
 76
     0
330
23
  0
LAYOUT
  5
22
102
{ACAD_REACTORS
330
1A
102
}
330
1A
100
AcDbPlotSettings
  1

  2
none_device
  4
Letter_(8.50_x_11.00_Inches)
  6

 40
6.35
 41
6.35
 42
6.35000508
 43
6.35000508
 44
215.9
 45
279.4
 46
0.0
 47
0.0
 48
0.0
 49
0.0
140
0.0
141
0.0
142
1.0
143
1.0
 70
  1712
 72
     0
 73
     0
 74
     0
  7

 75
     0
 76
     0
 77
     2
 78
   300
147
1.0
148
0.0
149
0.0
100
AcDbLayout
  1
Model
 70
     1
 71
     0
 10
0.0
 20
0.0
 11
12.0
 21
9.0
 12
0.0
 22
0.0
 32
0.0
 14
1.000000000000000E+20
 24
1.000000000000000E+20
 34
1.000000000000000E+20
 15
-1.000000000000000E+20
 25
-1.000000000000000E+20
 35
-1.000000000000000E+20
146
0.0
 13
0.0
 23
0.0
 33
0.0
 16
1.0
 26
0.0
 36
0.0
 17
0.0
 27
1.0
 37
0.0
 76
     0
330
1F
331
29
  0
MATERIAL
  5
45
102
{ACAD_REACTORS
330
43
102
}
330
43
100
AcDbMaterial
  1
ByBlock
 72
     1
 94
      127
  0
MATERIAL
  5
44
102
{ACAD_REACTORS
330
43
102
}
330
43
100
AcDbMaterial
  1
ByLayer
 72
     1
 94
      127
  0
MATERIAL
  5
46
102
{ACAD_REACTORS
330
43
102
}
330
43
100
AcDbMaterial
  1
Global
 72
     1
 94
      127
  0
MLEADERSTYLE
  5
6C
102
{ACAD_REACTORS
330
6B
102
}
330
6B
100
AcDbMLeaderStyle
179
     2
170
     2
171
     1
172
     0
 90
        2
 40
0.0
 41
0.0
173
     1
 91
-1056964608
340
14
 92
       -2
290
     1
 42
0.09
291
     1
 43
0.36
  3
Standard
341
0
 44
0.18
300

342
11
174
     1
178
     6
175
     1
176
     0
 93
-1056964608
 45
0.18
292
     0
297
     0
 46
0.18
343
0
 94
-1056964608
 47
1.0
 49
1.0
140
1.0
293
     1
141
0.0
294
     1
177
     0
142
1.0
295
     0
296
     0
143
0.125
271
     0
272
     9
273
     9
298
     0
  0
MLINESTYLE
  5
18
102
{ACAD_REACTORS
330
17
102
}
330
17
100
AcDbMlineStyle
  2
Standard
 70
     0
  3

 62
   256
 51
90.0
 52
90.0
 71
     2
 49
0.5
 62
   256
  6
BYLAYER
 49
-0.5
 62
   256
  6
BYLAYER
  0
ACDBPLACEHOLDER
  5
F
102
{ACAD_REACTORS
330
E
102
}
330
E
  0
SCALE
  5
48
102
{ACAD_REACTORS
330
47
102
}
330
47
100
AcDbScale
 70
     0
300
1:1
140
1.0
141
1.0
290
     1
  0
SCALE
  5
49
102
{ACAD_REACTORS
330
47
102
}
330
47
100
AcDbScale
 70
     0
300
1:2
140
1.0
141
2.0
290
     0
  0
SCALE
  5
4A
102
{ACAD_REACTORS
330
47
102
}
330
47
100
AcDbScale
 70
     0
300
1:4
140
1.0
141
4.0
290
     0
  0
SCALE
  5
4B
102
{ACAD_REACTORS
330
47
102
}
330
47
100
AcDbScale
 70
     0
300
1:5
140
1.0
141
5.0
290
     0
  0
SCALE
  5
4C
102
{ACAD_REACTORS
330
47
102
}
330
47
100
AcDbScale
 70
     0
300
1:8
140
1.0
141
8.0
290
     0
  0
SCALE
  5
4D
102
{ACAD_REACTORS
330
47
102
}
330
47
100
AcDbScale
 70
     0
300
1:10
140
1.0
141
10.0
290
     0
  0
SCALE
  5
4E
102
{ACAD_REACTORS
330
47
102
}
330
47
100
AcDbScale
 70
     0
300
1:16
140
1.0
141
16.0
290
     0
  0
SCALE
  5
4F
102
{ACAD_REACTORS
330
47
102
}
330
47
100
AcDbScale
 70
     0
300
1:20
140
1.0
141
20.0
290
     0
  0
SCALE
  5
50
102
{ACAD_REACTORS
330
47
102
}
330
47
100
AcDbScale
 70
     0
300
1:30
140
1.0
141
30.0
290
     0
  0
SCALE
  5
51
102
{ACAD_REACTORS
330
47
102
}
330
47
100
AcDbScale
 70
     0
300
1:40
140
1.0
141
40.0
290
     0
  0
SCALE
  5
52
102
{ACAD_REACTORS
330
47
102
}
330
47
100
AcDbScale
 70
     0
300
1:50
140
1.0
141
50.0
290
     0
  0
SCALE
  5
53
102
{ACAD_REACTORS
330
47
102
}
330
47
100
AcDbScale
 70
     0
300
1:100
140
1.0
141
100.0
290
     0
  0
SCALE
  5
54
102
{ACAD_REACTORS
330
47
102
}
330
47
100
AcDbScale
 70
     0
300
2:1
140
2.0
141
1.0
290
     0
  0
SCALE
  5
55
102
{ACAD_REACTORS
330
47
102
}
330
47
100
AcDbScale
 70
     0
300
4:1
140
4.0
141
1.0
290
     0
  0
SCALE
  5
56
102
{ACAD_REACTORS
330
47
102
}
330
47
100
AcDbScale
 70
     0
300
8:1
140
8.0
141
1.0
290
     0
  0
SCALE
  5
57
102
{ACAD_REACTORS
330
47
102
}
330
47
100
AcDbScale
 70
     0
300
10:1
140
10.0
141
1.0
290
     0
  0
SCALE
  5
58
102
{ACAD_REACTORS
330
47
102
}
330
47
100
AcDbScale
 70
     0
300
100:1
140
100.0
141
1.0
290
     0
  0
SCALE
  5
59
102
{ACAD_REACTORS
330
47
102
}
330
47
100
AcDbScale
 70
     0
300
1/128" = 1'-0"
140
0.0078125
141
12.0
290
     0
  0
SCALE
  5
5A
102
{ACAD_REACTORS
330
47
102
}
330
47
100
AcDbScale
 70
     0
300
1/64" = 1'-0"
140
0.015625
141
12.0
290
     0
  0
SCALE
  5
5B
102
{ACAD_REACTORS
330
47
102
}
330
47
100
AcDbScale
 70
     0
300
1/32" = 1'-0"
140
0.03125
141
12.0
290
     0
  0
SCALE
  5
5C
102
{ACAD_REACTORS
330
47
102
}
330
47
100
AcDbScale
 70
     0
300
1/16" = 1'-0"
140
0.0625
141
12.0
290
     0
  0
SCALE
  5
5D
102
{ACAD_REACTORS
330
47
102
}
330
47
100
AcDbScale
 70
     0
300
3/32" = 1'-0"
140
0.09375
141
12.0
290
     0
  0
SCALE
  5
5E
102
{ACAD_REACTORS
330
47
102
}
330
47
100
AcDbScale
 70
     0
300
1/8" = 1'-0"
140
0.125
141
12.0
290
     0
  0
SCALE
  5
5F
102
{ACAD_REACTORS
330
47
102
}
330
47
100
AcDbScale
 70
     0
300
3/16" = 1'-0"
140
0.1875
141
12.0
290
     0
  0
SCALE
  5
60
102
{ACAD_REACTORS
330
47
102
}
330
47
100
AcDbScale
 70
     0
300
1/4" = 1'-0"
140
0.25
141
12.0
290
     0
  0
SCALE
  5
61
102
{ACAD_REACTORS
330
47
102
}
330
47
100
AcDbScale
 70
     0
300
3/8" = 1'-0"
140
0.375
141
12.0
290
     0
  0
SCALE
  5
62
102
{ACAD_REACTORS
330
47
102
}
330
47
100
AcDbScale
 70
     0
300
1/2" = 1'-0"
140
0.5
141
12.0
290
     0
  0
SCALE
  5
63
102
{ACAD_REACTORS
330
47
102
}
330
47
100
AcDbScale
 70
     0
300
3/4" = 1'-0"
140
0.75
141
12.0
290
     0
  0
SCALE
  5
64
102
{ACAD_REACTORS
330
47
102
}
330
47
100
AcDbScale
 70
     0
300
1" = 1'-0"
140
1.0
141
12.0
290
     0
  0
SCALE
  5
65
102
{ACAD_REACTORS
330
47
102
}
330
47
100
AcDbScale
 70
     0
300
1-1/2" = 1'-0"
140
1.5
141
12.0
290
     0
  0
SCALE
  5
66
102
{ACAD_REACTORS
330
47
102
}
330
47
100
AcDbScale
 70
     0
300
3" = 1'-0"
140
3.0
141
12.0
290
     0
  0
SCALE
  5
67
102
{ACAD_REACTORS
330
47
102
}
330
47
100
AcDbScale
 70
     0
300
6" = 1'-0"
140
6.0
141
12.0
290
     0
  0
SCALE
  5
68
102
{ACAD_REACTORS
330
47
102
}
330
47
100
AcDbScale
 70
     0
300
1'-0" = 1'-0"
140
12.0
141
12.0
290
     0
  0
TABLESTYLE
  5
6A
102
{ACAD_REACTORS
330
69
102
}
102
{ACAD_XDICTIONARY
360
1BC
102
}
330
69
100
AcDbTableStyle
  3
Standard
 70
     0
 71
     0
 40
0.06
 41
0.06
280
     0
281
     0
  7
Standard
140
0.18
170
     2
 62
     0
 63
   257
283
     0
 90
        4
 91
        0
  1

274
    -2
284
     1
 64
     0
275
    -2
285
     1
 65
     0
276
    -2
286
     1
 66
     0
277
    -2
287
     1
 67
     0
278
    -2
288
     1
 68
     0
279
    -2
289
     1
 69
     0
  7
Standard
140
0.25
170
     5
 62
     0
 63
   257
283
     0
 90
        4
 91
        0
  1

274
    -2
284
     1
 64
     0
275
    -2
285
     1
 65
     0
276
    -2
286
     1
 66
     0
277
    -2
287
     1
 67
     0
278
    -2
288
     1
 68
     0
279
    -2
289
     1
 69
     0
  7
Standard
140
0.18
170
     5
 62
     0
 63
   257
283
     0
 90
        4
 91
        0
  1

274
    -2
284
     1
 64
     0
275
    -2
285
     1
 65
     0
276
    -2
286
     1
 66
     0
277
    -2
287
     1
 67
     0
278
    -2
288
     1
 68
     0
279
    -2
289
     1
 69
     0
  0
VISUALSTYLE
  5
2F
102
{ACAD_REACTORS
330
2A
102
}
330
2A
100
AcDbVisualStyle
  2
2dWireframe
 70
     4
177
     3
291
     0
 70
    58
 90
        0
176
     1
 90
        2
176
     1
 90
        0
176
     1
 90
        0
176
     1
 40
0.6
176
     1
 40
30.0
176
     1
 62
     7
420
 16777215
176
     1
 90
        1
176
     1
 90
        4
176
     1
 62
     7
176
     1
 62
   257
176
     1
 90
        1
176
     1
 90
        1
176
     1
 40
1.0
176
     1
 90
        0
176
     1
 62
   257
176
     1
 40
1.0
176
     1
 90
        1
176
     1
 90
        6
176
     1
 90
        2
176
     1
 62
     7
176
     1
 90
        5
176
     1
 90
        0
176
     1
 90
        0
176
     1
290
     0
176
     1
 90
        1
176
     1
 40
0.0
176
     1
 90
        0
176
     1
290
     1
176
     1
290
     1
176
     1
290
     0
176
     1
290
     0
176
     1
290
     0
176
     1
290
     0
176
     1
290
     0
176
     1
290
     0
176
     1
290
     0
176
     1
 90
       50
176
     1
 40
0.0
176
     1
 40
1.0
176
     1
 90
        0
176
     1
 62
    18
420
        0
176
     1
 90
       50
176
     1
 90
        3
176
     1
 62
     5
420
      255
176
     1
290
     0
176
     1
 90
       50
176
     1
 90
       50
176
     1
 90
       50
176
     1
290
     0
176
     1
 90
       50
176
     1
 62
   256
176
     0
 40
1.0
176
     0
 90
        2
176
     1
  1
strokes_ogs.tif
176
     1
290
     0
176
     1
 40
1.0
176
     1
 40
1.0
176
     1
  0
VISUALSTYLE
  5
32
102
{ACAD_REACTORS
330
2A
102
}
330
2A
100
AcDbVisualStyle
  2
Basic
 70
     7
177
     3
291
     1
 70
    58
 90
        1
176
     1
 90
        0
176
     1
 90
        1
176
     1
 90
        0
176
     1
 40
0.6
176
     1
 40
30.0
176
     1
 62
     7
420
 16777215
176
     1
 90
        0
176
     1
 90
        4
176
     1
 62
     7
176
     1
 62
   257
176
     1
 90
        1
176
     1
 90
        1
176
     1
 40
1.0
176
     1
 90
        8
176
     1
 62
     7
176
     1
 40
1.0
176
     1
 90
        1
176
     1
 90
        6
176
     1
 90
        2
176
     1
 62
     7
176
     1
 90
        5
176
     1
 90
        0
176
     1
 90
        0
176
     1
290
     0
176
     1
 90
        1
176
     1
 40
0.0
176
     1
 90
        0
176
     1
290
     0
176
     1
290
     1
176
     1
290
     1
176
     1
290
     0
176
     1
290
     0
176
     1
290
     0
176
     1
290
     0
176
     1
290
     0
176
     1
290
     0
176
     1
 90
       50
176
     1
 40
0.0
176
     1
 40
1.0
176
     1
 90
        0
176
     1
 62
    18
420
        0
176
     1
 90
       50
176
     1
 90
        3
176
     1
 62
     5
420
      255
176
     1
290
     0
176
     1
 90
       50
176
     1
 90
       50
176
     1
 90
       50
176
     1
290
     0
176
     1
 90
       50
176
     1
 62
   256
176
     0
 40
1.0
176
     0
 90
        2
176
     1
  1
strokes_ogs.tif
176
     1
290
     0
176
     1
 40
1.0
176
     1
 40
1.0
176
     1
  0
VISUALSTYLE
  5
36
102
{ACAD_REACTORS
330
2A
102
}
330
2A
100
AcDbVisualStyle
  2
Brighten
 70
    12
177
     3
291
     1
 70
    58
 90
        2
176
     1
 90
        2
176
     1
 90
        0
176
     1
 90
        0
176
     1
 40
0.6
176
     1
 40
30.0
176
     1
 62
     7
420
 16777215
176
     1
 90
        1
176
     1
 90
        4
176
     1
 62
     7
176
     1
 62
   257
176
     1
 90
        1
176
     1
 90
        1
176
     1
 40
1.0
176
     1
 90
        8
176
     1
 62
     7
176
     1
 40
1.0
176
     1
 90
        1
176
     1
 90
        6
176
     1
 90
        2
176
     1
 62
     7
176
     1
 90
        5
176
     1
 90
        0
176
     1
 90
        0
176
     1
290
     0
176
     1
 90
        1
176
     1
 40
50.0
176
     1
 90
        0
176
     1
290
     0
176
     1
290
     1
176
     1
290
     1
176
     1
290
     0
176
     1
290
     0
176
     1
290
     0
176
     1
290
     0
176
     1
290
     0
176
     1
290
     0
176
     1
 90
       50
176
     1
 40
0.0
176
     1
 40
1.0
176
     1
 90
        0
176
     1
 62
    18
420
        0
176
     1
 90
       50
176
     1
 90
        3
176
     1
 62
     5
420
      255
176
     1
290
     0
176
     1
 90
       50
176
     1
 90
       50
176
     1
 90
       50
176
     1
290
     0
176
     1
 90
       50
176
     1
 62
   256
176
     0
 40
1.0
176
     0
 90
        2
176
     1
  1
strokes_ogs.tif
176
     1
290
     0
176
     1
 40
1.0
176
     1
 40
1.0
176
     1
  0
VISUALSTYLE
  5
3A
102
{ACAD_REACTORS
330
2A
102
}
330
2A
100
AcDbVisualStyle
  2
ColorChange
 70
    16
177
     3
291
     1
 70
    58
 90
        2
176
     1
 90
        2
176
     1
 90
        3
176
     1
 90
        0
176
     1
 40
0.6
176
     1
 40
30.0
176
     1
 62
     8
420
  8421504
176
     1
 90
        1
176
     1
 90
        4
176
     1
 62
     7
176
     1
 62
   257
176
     1
 90
        1
176
     1
 90
        1
176
     1
 40
1.0
176
     1
 90
        8
176
     1
 62
     8
420
  8421504
176
     1
 40
1.0
176
     1
 90
        1
176
     1
 90
        6
176
     1
 90
        2
176
     1
 62
     7
176
     1
 90
        5
176
     1
 90
        0
176
     1
 90
        0
176
     1
290
     0
176
     1
 90
        1
176
     1
 40
0.0
176
     1
 90
        0
176
     1
290
     0
176
     1
290
     1
176
     1
290
     1
176
     1
290
     0
176
     1
290
     0
176
     1
290
     0
176
     1
290
     0
176
     1
290
     0
176
     1
290
     0
176
     1
 90
       50
176
     1
 40
0.0
176
     1
 40
1.0
176
     1
 90
        0
176
     1
 62
    18
420
        0
176
     1
 90
       50
176
     1
 90
        3
176
     1
 62
     5
420
      255
176
     1
290
     0
176
     1
 90
       50
176
     1
 90
       50
176
     1
 90
       50
176
     1
290
     0
176
     1
 90
       50
176
     1
 62
   256
176
     0
 40
1.0
176
     0
 90
        2
176
     1
  1
strokes_ogs.tif
176
     1
290
     0
176
     1
 40
1.0
176
     1
 40
1.0
176
     1
  0
VISUALSTYLE
  5
34
102
{ACAD_REACTORS
330
2A
102
}
330
2A
100
AcDbVisualStyle
  2
Conceptual
 70
     9
177
     3
291
     0
 70
    58
 90
        3
176
     1
 90
        2
176
     1
 90
        0
176
     1
 90
        0
176
     1
 40
0.6
176
     1
 40
30.0
176
     1
 62
     7
420
 16777215
176
     1
 90
        2
176
     1
 90
        2
176
     1
 62
     7
176
     1
 62
   257
176
     1
 90
        1
176
     1
 90
        1
176
     1
 40
179.0
176
     1
 90
        8
176
     1
 62
     7
176
     1
 40
1.0
176
     1
 90
        1
176
     1
 90
        6
176
     1
 90
        2
176
     1
 62
     7
176
     1
 90
        3
176
     1
 90
        0
176
     1
 90
        0
176
     1
290
     0
176
     1
 90
        1
176
     1
 40
0.0
176
     1
 90
        0
176
     1
290
     0
176
     1
290
     1
176
     1
290
     1
176
     1
290
     0
176
     1
290
     0
176
     1
290
     0
176
     1
290
     0
176
     1
290
     0
176
     1
290
     0
176
     1
 90
       50
176
     1
 40
0.0
176
     1
 40
1.0
176
     1
 90
        0
176
     1
 62
    18
420
        0
176
     1
 90
       50
176
     1
 90
        3
176
     1
 62
     5
420
      255
176
     1
290
     0
176
     1
 90
       50
176
     1
 90
       50
176
     1
 90
       50
176
     1
290
     0
176
     1
 90
       50
176
     1
 62
   256
176
     0
 40
1.0
176
     0
 90
        2
176
     1
  1
strokes_ogs.tif
176
     1
290
     0
176
     1
 40
1.0
176
     1
 40
1.0
176
     1
  0
VISUALSTYLE
  5
35
102
{ACAD_REACTORS
330
2A
102
}
330
2A
100
AcDbVisualStyle
  2
Dim
 70
    11
177
     3
291
     1
 70
    58
 90
        2
176
     1
 90
        2
176
     1
 90
        0
176
     1
 90
        0
176
     1
 40
0.6
176
     1
 40
30.0
176
     1
 62
     7
420
 16777215
176
     1
 90
        1
176
     1
 90
        4
176
     1
 62
     7
176
     1
 62
   257
176
     1
 90
        1
176
     1
 90
        1
176
     1
 40
1.0
176
     1
 90
        8
176
     1
 62
     7
176
     1
 40
1.0
176
     1
 90
        1
176
     1
 90
        6
176
     1
 90
        2
176
     1
 62
     7
176
     1
 90
        5
176
     1
 90
        0
176
     1
 90
        0
176
     1
290
     0
176
     1
 90
        1
176
     1
 40
-50.0
176
     1
 90
        0
176
     1
290
     0
176
     1
290
     1
176
     1
290
     1
176
     1
290
     0
176
     1
290
     0
176
     1
290
     0
176
     1
290
     0
176
     1
290
     0
176
     1
290
     0
176
     1
 90
       50
176
     1
 40
0.0
176
     1
 40
1.0
176
     1
 90
        0
176
     1
 62
    18
420
        0
176
     1
 90
       50
176
     1
 90
        3
176
     1
 62
     5
420
      255
176
     1
290
     0
176
     1
 90
       50
176
     1
 90
       50
176
     1
 90
       50
176
     1
290
     0
176
     1
 90
       50
176
     1
 62
   256
176
     0
 40
1.0
176
     0
 90
        2
176
     1
  1
strokes_ogs.tif
176
     1
290
     0
176
     1
 40
1.0
176
     1
 40
1.0
176
     1
  0
VISUALSTYLE
  5
3D
102
{ACAD_REACTORS
330
2A
102
}
330
2A
100
AcDbVisualStyle
  2
EdgeColorOff
 70
    22
177
     3
291
     1
 70
    58
 90
        2
176
     0
 90
        2
176
     0
 90
        0
176
     0
 90
        0
176
     0
 40
0.6
176
     0
 40
30.0
176
     0
 62
     7
420
 16777215
176
     0
 90
        1
176
     0
 90
        4
176
     0
 62
     7
176
     0
 62
   257
176
     0
 90
        1
176
     0
 90
        1
176
     0
 40
1.0
176
     0
 90
        8
176
     2
 62
     7
176
     0
 40
1.0
176
     0
 90
        1
176
     0
 90
        6
176
     0
 90
        2
176
     0
 62
     7
176
     0
 90
        5
176
     0
 90
        0
176
     0
 90
        0
176
     0
290
     0
176
     0
 90
        1
176
     0
 40
0.0
176
     0
 90
        0
176
     0
290
     0
176
     0
290
     1
176
     0
290
     1
176
     0
290
     0
176
     0
290
     0
176
     0
290
     0
176
     0
290
     0
176
     0
290
     0
176
     0
290
     0
176
     0
 90
       50
176
     0
 40
0.0
176
     0
 40
1.0
176
     0
 90
        0
176
     0
 62
    18
420
        0
176
     0
 90
       50
176
     0
 90
        3
176
     0
 62
     5
420
      255
176
     0
290
     0
176
     0
 90
       50
176
     0
 90
       50
176
     0
 90
       50
176
     0
290
     0
176
     0
 90
       50
176
     0
 62
   256
176
     0
 40
1.0
176
     0
 90
        2
176
     0
  1
strokes_ogs.tif
176
     0
290
     0
176
     0
 40
1.0
176
     0
 40
1.0
176
     0
  0
VISUALSTYLE
  5
39
102
{ACAD_REACTORS
330
2A
102
}
330
2A
100
AcDbVisualStyle
  2
Facepattern
 70
    15
177
     3
291
     1
 70
    58
 90
        2
176
     1
 90
        2
176
     1
 90
        0
176
     1
 90
        0
176
     1
 40
0.6
176
     1
 40
30.0
176
     1
 62
     7
420
 16777215
176
     1
 90
        1
176
     1
 90
        4
176
     1
 62
     7
176
     1
 62
   257
176
     1
 90
        1
176
     1
 90
        1
176
     1
 40
1.0
176
     1
 90
        8
176
     1
 62
     7
176
     1
 40
1.0
176
     1
 90
        1
176
     1
 90
        6
176
     1
 90
        2
176
     1
 62
     7
176
     1
 90
        5
176
     1
 90
        0
176
     1
 90
        0
176
     1
290
     0
176
     1
 90
        1
176
     1
 40
0.0
176
     1
 90
        0
176
     1
290
     0
176
     1
290
     1
176
     1
290
     1
176
     1
290
     0
176
     1
290
     0
176
     1
290
     0
176
     1
290
     0
176
     1
290
     0
176
     1
290
     0
176
     1
 90
       50
176
     1
 40
0.0
176
     1
 40
1.0
176
     1
 90
        0
176
     1
 62
    18
420
        0
176
     1
 90
       50
176
     1
 90
        3
176
     1
 62
     5
420
      255
176
     1
290
     0
176
     1
 90
       50
176
     1
 90
       50
176
     1
 90
       50
176
     1
290
     0
176
     1
 90
       50
176
     1
 62
   256
176
     0
 40
1.0
176
     0
 90
        2
176
     1
  1
strokes_ogs.tif
176
     1
290
     0
176
     1
 40
1.0
176
     1
 40
1.0
176
     1
  0
VISUALSTYLE
  5
2B
102
{ACAD_REACTORS
330
2A
102
}
330
2A
100
AcDbVisualStyle
  2
Flat
 70
     0
177
     3
291
     1
 70
    58
 90
        2
176
     1
 90
        1
176
     1
 90
        1
176
     1
 90
        2
176
     1
 40
0.6
176
     1
 40
30.0
176
     1
 62
     7
420
 16777215
176
     1
 90
        0
176
     1
 90
        0
176
     1
 62
     7
176
     1
 62
   257
176
     1
 90
        1
176
     1
 90
        1
176
     1
 40
1.0
176
     1
 90
        8
176
     1
 62
     7
176
     1
 40
1.0
176
     1
 90
        1
176
     1
 90
        6
176
     1
 90
        2
176
     1
 62
     7
176
     1
 90
        5
176
     1
 90
        0
176
     1
 90
        0
176
     1
290
     0
176
     1
 90
       13
176
     1
 40
0.0
176
     1
 90
        0
176
     1
290
     0
176
     1
290
     1
176
     1
290
     1
176
     1
290
     0
176
     1
290
     0
176
     1
290
     0
176
     1
290
     0
176
     1
290
     0
176
     1
290
     0
176
     1
 90
       50
176
     1
 40
0.0
176
     1
 40
1.0
176
     1
 90
        0
176
     1
 62
    18
420
        0
176
     1
 90
       50
176
     1
 90
        3
176
     1
 62
     5
420
      255
176
     1
290
     0
176
     1
 90
       50
176
     1
 90
       50
176
     1
 90
       50
176
     1
290
     0
176
     1
 90
       50
176
     1
 62
   256
176
     0
 40
1.0
176
     0
 90
        2
176
     1
  1
strokes_ogs.tif
176
     1
290
     0
176
     1
 40
1.0
176
     1
 40
1.0
176
     1
  0
VISUALSTYLE
  5
2C
102
{ACAD_REACTORS
330
2A
102
}
330
2A
100
AcDbVisualStyle
  2
FlatWithEdges
 70
     1
177
     3
291
     1
 70
    58
 90
        2
176
     1
 90
        1
176
     1
 90
        1
176
     1
 90
        2
176
     1
 40
0.6
176
     1
 40
30.0
176
     1
 62
     7
420
 16777215
176
     1
 90
        1
176
     1
 90
        0
176
     1
 62
     7
176
     1
 62
   257
176
     1
 90
        1
176
     1
 90
        1
176
     1
 40
1.0
176
     1
 90
        0
176
     1
 62
   257
176
     1
 40
1.0
176
     1
 90
        1
176
     1
 90
        6
176
     1
 90
        2
176
     1
 62
     7
176
     1
 90
        5
176
     1
 90
        0
176
     1
 90
        0
176
     1
290
     0
176
     1
 90
       13
176
     1
 40
0.0
176
     1
 90
        0
176
     1
290
     0
176
     1
290
     1
176
     1
290
     1
176
     1
290
     0
176
     1
290
     0
176
     1
290
     0
176
     1
290
     0
176
     1
290
     0
176
     1
290
     0
176
     1
 90
       50
176
     1
 40
0.0
176
     1
 40
1.0
176
     1
 90
        0
176
     1
 62
    18
420
        0
176
     1
 90
       50
176
     1
 90
        3
176
     1
 62
     5
420
      255
176
     1
290
     0
176
     1
 90
       50
176
     1
 90
       50
176
     1
 90
       50
176
     1
290
     0
176
     1
 90
       50
176
     1
 62
   256
176
     0
 40
1.0
176
     0
 90
        2
176
     1
  1
strokes_ogs.tif
176
     1
290
     0
176
     1
 40
1.0
176
     1
 40
1.0
176
     1
  0
VISUALSTYLE
  5
2D
102
{ACAD_REACTORS
330
2A
102
}
330
2A
100
AcDbVisualStyle
  2
Gouraud
 70
     2
177
     3
291
     1
 70
    58
 90
        2
176
     1
 90
        2
176
     1
 90
        1
176
     1
 90
        2
176
     1
 40
0.6
176
     1
 40
30.0
176
     1
 62
     7
420
 16777215
176
     1
 90
        0
176
     1
 90
        0
176
     1
 62
     7
176
     1
 62
   257
176
     1
 90
        1
176
     1
 90
        1
176
     1
 40
1.0
176
     1
 90
        0
176
     1
 62
     7
176
     1
 40
1.0
176
     1
 90
        1
176
     1
 90
        6
176
     1
 90
        2
176
     1
 62
     7
176
     1
 90
        5
176
     1
 90
        0
176
     1
 90
        0
176
     1
290
     0
176
     1
 90
       13
176
     1
 40
0.0
176
     1
 90
        0
176
     1
290
     0
176
     1
290
     1
176
     1
290
     1
176
     1
290
     0
176
     1
290
     0
176
     1
290
     0
176
     1
290
     0
176
     1
290
     0
176
     1
290
     0
176
     1
 90
       50
176
     1
 40
0.0
176
     1
 40
1.0
176
     1
 90
        0
176
     1
 62
    18
420
        0
176
     1
 90
       50
176
     1
 90
        3
176
     1
 62
     5
420
      255
176
     1
290
     0
176
     1
 90
       50
176
     1
 90
       50
176
     1
 90
       50
176
     1
290
     0
176
     1
 90
       50
176
     1
 62
   256
176
     0
 40
1.0
176
     0
 90
        2
176
     1
  1
strokes_ogs.tif
176
     1
290
     0
176
     1
 40
1.0
176
     1
 40
1.0
176
     1
  0
VISUALSTYLE
  5
2E
102
{ACAD_REACTORS
330
2A
102
}
330
2A
100
AcDbVisualStyle
  2
GouraudWithEdges
 70
     3
177
     3
291
     1
 70
    58
 90
        2
176
     1
 90
        2
176
     1
 90
        1
176
     1
 90
        2
176
     1
 40
0.6
176
     1
 40
30.0
176
     1
 62
     7
420
 16777215
176
     1
 90
        1
176
     1
 90
        0
176
     1
 62
     7
176
     1
 62
   257
176
     1
 90
        1
176
     1
 90
        1
176
     1
 40
1.0
176
     1
 90
        0
176
     1
 62
   257
176
     1
 40
1.0
176
     1
 90
        1
176
     1
 90
        6
176
     1
 90
        2
176
     1
 62
     7
176
     1
 90
        5
176
     1
 90
        0
176
     1
 90
        0
176
     1
290
     0
176
     1
 90
       13
176
     1
 40
0.0
176
     1
 90
        0
176
     1
290
     0
176
     1
290
     1
176
     1
290
     1
176
     1
290
     0
176
     1
290
     0
176
     1
290
     0
176
     1
290
     0
176
     1
290
     0
176
     1
290
     0
176
     1
 90
       50
176
     1
 40
0.0
176
     1
 40
1.0
176
     1
 90
        0
176
     1
 62
    18
420
        0
176
     1
 90
       50
176
     1
 90
        3
176
     1
 62
     5
420
      255
176
     1
290
     0
176
     1
 90
       50
176
     1
 90
       50
176
     1
 90
       50
176
     1
290
     0
176
     1
 90
       50
176
     1
 62
   256
176
     0
 40
1.0
176
     0
 90
        2
176
     1
  1
strokes_ogs.tif
176
     1
290
     0
176
     1
 40
1.0
176
     1
 40
1.0
176
     1
  0
VISUALSTYLE
  5
31
102
{ACAD_REACTORS
330
2A
102
}
330
2A
100
AcDbVisualStyle
  2
Hidden
 70
     6
177
     3
291
     0
 70
    58
 90
        1
176
     1
 90
        2
176
     1
 90
        2
176
     1
 90
        0
176
     1
 40
0.6
176
     1
 40
30.0
176
     1
 62
     7
420
 16777215
176
     1
 90
        2
176
     1
 90
        2
176
     1
 62
     7
176
     1
 62
   257
176
     1
 90
        2
176
     1
 90
        1
176
     1
 40
40.0
176
     1
 90
        0
176
     1
 62
   257
176
     1
 40
1.0
176
     1
 90
        1
176
     1
 90
        6
176
     1
 90
        2
176
     1
 62
     7
176
     1
 90
        3
176
     1
 90
        0
176
     1
 90
        0
176
     1
290
     0
176
     1
 90
        1
176
     1
 40
0.0
176
     1
 90
        0
176
     1
290
     0
176
     1
290
     1
176
     1
290
     1
176
     1
290
     0
176
     1
290
     0
176
     1
290
     0
176
     1
290
     0
176
     1
290
     0
176
     1
290
     0
176
     1
 90
       50
176
     1
 40
0.0
176
     1
 40
1.0
176
     1
 90
        0
176
     1
 62
    18
420
        0
176
     1
 90
       50
176
     1
 90
        3
176
     1
 62
     5
420
      255
176
     1
290
     0
176
     1
 90
       50
176
     1
 90
       50
176
     1
 90
       50
176
     1
290
     0
176
     1
 90
       50
176
     1
 62
   256
176
     0
 40
1.0
176
     0
 90
        2
176
     1
  1
strokes_ogs.tif
176
     1
290
     0
176
     1
 40
1.0
176
     1
 40
1.0
176
     1
  0
VISUALSTYLE
  5
3B
102
{ACAD_REACTORS
330
2A
102
}
330
2A
100
AcDbVisualStyle
  2
JitterOff
 70
    20
177
     3
291
     1
 70
    58
 90
        2
176
     0
 90
        2
176
     0
 90
        0
176
     0
 90
        0
176
     0
 40
0.6
176
     0
 40
30.0
176
     0
 62
     7
420
 16777215
176
     0
 90
        1
176
     0
 90
        4
176
     0
 62
     7
176
     0
 62
   257
176
     0
 90
        1
176
     0
 90
        1
176
     0
 40
1.0
176
     0
 90
       10
176
     2
 62
     7
176
     0
 40
1.0
176
     0
 90
        1
176
     0
 90
        6
176
     0
 90
        2
176
     0
 62
     7
176
     0
 90
        5
176
     0
 90
        0
176
     0
 90
        0
176
     0
290
     0
176
     0
 90
        1
176
     0
 40
0.0
176
     0
 90
        0
176
     0
290
     0
176
     0
290
     1
176
     0
290
     1
176
     0
290
     0
176
     0
290
     0
176
     0
290
     0
176
     0
290
     0
176
     0
290
     0
176
     0
290
     0
176
     0
 90
       50
176
     0
 40
0.0
176
     0
 40
1.0
176
     0
 90
        0
176
     0
 62
    18
420
        0
176
     0
 90
       50
176
     0
 90
        3
176
     0
 62
     5
420
      255
176
     0
290
     0
176
     0
 90
       50
176
     0
 90
       50
176
     0
 90
       50
176
     0
290
     0
176
     0
 90
       50
176
     0
 62
   256
176
     0
 40
1.0
176
     0
 90
        2
176
     0
  1
strokes_ogs.tif
176
     0
290
     0
176
     0
 40
1.0
176
     0
 40
1.0
176
     0
  0
VISUALSTYLE
  5
38
102
{ACAD_REACTORS
330
2A
102
}
330
2A
100
AcDbVisualStyle
  2
Linepattern
 70
    14
177
     3
291
     1
 70
    58
 90
        2
176
     1
 90
        2
176
     1
 90
        0
176
     1
 90
        0
176
     1
 40
0.6
176
     1
 40
30.0
176
     1
 62
     7
420
 16777215
176
     1
 90
        1
176
     1
 90
        4
176
     1
 62
     7
176
     1
 62
   257
176
     1
 90
        7
176
     1
 90
        7
176
     1
 40
1.0
176
     1
 90
        8
176
     1
 62
     7
176
     1
 40
1.0
176
     1
 90
        1
176
     1
 90
        6
176
     1
 90
        2
176
     1
 62
     7
176
     1
 90
        5
176
     1
 90
        0
176
     1
 90
        0
176
     1
290
     0
176
     1
 90
        1
176
     1
 40
0.0
176
     1
 90
        0
176
     1
290
     0
176
     1
290
     1
176
     1
290
     1
176
     1
290
     0
176
     1
290
     0
176
     1
290
     0
176
     1
290
     0
176
     1
290
     0
176
     1
290
     0
176
     1
 90
       50
176
     1
 40
0.0
176
     1
 40
1.0
176
     1
 90
        0
176
     1
 62
    18
420
        0
176
     1
 90
       50
176
     1
 90
        3
176
     1
 62
     5
420
      255
176
     1
290
     0
176
     1
 90
       50
176
     1
 90
       50
176
     1
 90
       50
176
     1
290
     0
176
     1
 90
       50
176
     1
 62
   256
176
     0
 40
1.0
176
     0
 90
        2
176
     1
  1
strokes_ogs.tif
176
     1
290
     0
176
     1
 40
1.0
176
     1
 40
1.0
176
     1
  0
VISUALSTYLE
  5
3C
102
{ACAD_REACTORS
330
2A
102
}
330
2A
100
AcDbVisualStyle
  2
OverhangOff
 70
    21
177
     3
291
     1
 70
    58
 90
        2
176
     0
 90
        2
176
     0
 90
        0
176
     0
 90
        0
176
     0
 40
0.6
176
     0
 40
30.0
176
     0
 62
     7
420
 16777215
176
     0
 90
        1
176
     0
 90
        4
176
     0
 62
     7
176
     0
 62
   257
176
     0
 90
        1
176
     0
 90
        1
176
     0
 40
1.0
176
     0
 90
        9
176
     2
 62
     7
176
     0
 40
1.0
176
     0
 90
        1
176
     0
 90
        6
176
     0
 90
        2
176
     0
 62
     7
176
     0
 90
        5
176
     0
 90
        0
176
     0
 90
        0
176
     0
290
     0
176
     0
 90
        1
176
     0
 40
0.0
176
     0
 90
        0
176
     0
290
     0
176
     0
290
     1
176
     0
290
     1
176
     0
290
     0
176
     0
290
     0
176
     0
290
     0
176
     0
290
     0
176
     0
290
     0
176
     0
290
     0
176
     0
 90
       50
176
     0
 40
0.0
176
     0
 40
1.0
176
     0
 90
        0
176
     0
 62
    18
420
        0
176
     0
 90
       50
176
     0
 90
        3
176
     0
 62
     5
420
      255
176
     0
290
     0
176
     0
 90
       50
176
     0
 90
       50
176
     0
 90
       50
176
     0
290
     0
176
     0
 90
       50
176
     0
 62
   256
176
     0
 40
1.0
176
     0
 90
        2
176
     0
  1
strokes_ogs.tif
176
     0
290
     0
176
     0
 40
1.0
176
     0
 40
1.0
176
     0
  0
VISUALSTYLE
  5
33
102
{ACAD_REACTORS
330
2A
102
}
330
2A
100
AcDbVisualStyle
  2
Realistic
 70
     8
177
     3
291
     0
 70
    58
 90
        2
176
     1
 90
        3
176
     1
 90
        0
176
     1
 90
        2
176
     1
 40
0.6
176
     1
 40
30.0
176
     1
 62
     7
420
 16777215
176
     1
 90
        0
176
     1
 90
        0
176
     1
 62
     7
176
     1
 62
   257
176
     1
 90
        1
176
     1
 90
        1
176
     1
 40
1.0
176
     1
 90
        8
176
     1
 62
   257
176
     1
 40
1.0
176
     1
 90
        1
176
     1
 90
        6
176
     1
 90
        2
176
     1
 62
     7
176
     1
 90
        3
176
     1
 90
        0
176
     1
 90
        0
176
     1
290
     0
176
     1
 90
       13
176
     1
 40
0.0
176
     1
 90
        0
176
     1
290
     0
176
     1
290
     1
176
     1
290
     1
176
     1
290
     0
176
     1
290
     0
176
     1
290
     0
176
     1
290
     0
176
     1
290
     0
176
     1
290
     0
176
     1
 90
       50
176
     1
 40
0.0
176
     1
 40
1.0
176
     1
 90
        0
176
     1
 62
    18
420
        0
176
     1
 90
       50
176
     1
 90
        3
176
     1
 62
     5
420
      255
176
     1
290
     0
176
     1
 90
       50
176
     1
 90
       50
176
     1
 90
       50
176
     1
290
     0
176
     1
 90
       50
176
     1
 62
   256
176
     0
 40
1.0
176
     0
 90
        2
176
     1
  1
strokes_ogs.tif
176
     1
290
     0
176
     1
 40
1.0
176
     1
 40
1.0
176
     1
  0
VISUALSTYLE
  5
42
102
{ACAD_REACTORS
330
2A
102
}
330
2A
100
AcDbVisualStyle
  2
Shaded
 70
    27
177
     3
291
     0
 70
    58
 90
        2
176
     1
 90
        2
176
     1
 90
        1
176
     1
 90
        2
176
     1
 40
0.6
176
     1
 40
30.0
176
     1
 62
     7
420
 16777215
176
     1
 90
        0
176
     1
 90
        4
176
     1
 62
     7
176
     1
 62
   257
176
     1
 90
        1
176
     1
 90
        1
176
     1
 40
1.0
176
     1
 90
        8
176
     1
 62
   257
176
     1
 40
1.0
176
     1
 90
        1
176
     1
 90
        6
176
     1
 90
        2
176
     1
 62
     8
420
  7895160
176
     1
 90
        3
176
     1
 90
        0
176
     1
 90
        0
176
     1
290
     0
176
     1
 90
        5
176
     1
 40
0.0
176
     1
 90
        0
176
     1
290
     0
176
     1
290
     1
176
     1
290
     1
176
     1
290
     0
176
     1
290
     0
176
     1
290
     0
176
     1
290
     0
176
     1
290
     0
176
     1
290
     0
176
     1
 90
       50
176
     1
 40
0.0
176
     1
 40
1.0
176
     1
 90
        0
176
     1
 62
    18
420
        0
176
     1
 90
       50
176
     1
 90
        3
176
     1
 62
     5
420
      255
176
     1
290
     0
176
     1
 90
       50
176
     1
 90
       50
176
     1
 90
       50
176
     1
290
     0
176
     1
 90
       50
176
     1
 62
   256
176
     0
 40
1.0
176
     0
 90
        2
176
     1
  1
strokes_ogs.tif
176
     1
290
     0
176
     1
 40
1.0
176
     1
 40
1.0
176
     1
  0
VISUALSTYLE
  5
41
102
{ACAD_REACTORS
330
2A
102
}
330
2A
100
AcDbVisualStyle
  2
Shaded with edges
 70
    26
177
     3
291
     0
 70
    58
 90
        2
176
     1
 90
        2
176
     1
 90
        1
176
     1
 90
        2
176
     1
 40
0.6
176
     1
 40
30.0
176
     1
 62
     7
420
 16777215
176
     1
 90
        1
176
     1
 90
       10
176
     1
 62
     7
176
     1
 62
   257
176
     1
 90
        2
176
     1
 90
        1
176
     1
 40
1.0
176
     1
 90
        8
176
     1
 62
   257
176
     1
 40
1.0
176
     1
 90
        1
176
     1
 90
        6
176
     1
 90
        2
176
     1
 62
     7
176
     1
 90
        3
176
     1
 90
        0
176
     1
 90
        0
176
     1
290
     0
176
     1
 90
        5
176
     1
 40
0.0
176
     1
 90
        0
176
     1
290
     0
176
     1
290
     1
176
     1
290
     1
176
     1
290
     0
176
     1
290
     0
176
     1
290
     0
176
     1
290
     0
176
     1
290
     0
176
     1
290
     0
176
     1
 90
       50
176
     1
 40
0.0
176
     1
 40
1.0
176
     1
 90
        0
176
     1
 62
    18
420
        0
176
     1
 90
       50
176
     1
 90
        3
176
     1
 62
     5
420
      255
176
     1
290
     0
176
     1
 90
       50
176
     1
 90
       50
176
     1
 90
       50
176
     1
290
     0
176
     1
 90
       50
176
     1
 62
   256
176
     0
 40
1.0
176
     0
 90
        2
176
     1
  1
strokes_ogs.tif
176
     1
290
     0
176
     1
 40
1.0
176
     1
 40
1.0
176
     1
  0
VISUALSTYLE
  5
3E
102
{ACAD_REACTORS
330
2A
102
}
330
2A
100
AcDbVisualStyle
  2
Shades of Gray
 70
    23
177
     3
291
     0
 70
    58
 90
        2
176
     1
 90
        2
176
     1
 90
        3
176
     1
 90
        0
176
     1
 40
0.6
176
     1
 40
30.0
176
     1
 62
     7
420
 16777215
176
     1
 90
        2
176
     1
 90
        2
176
     1
 62
     7
176
     1
 62
     7
176
     1
 90
        1
176
     1
 90
        1
176
     1
 40
40.0
176
     1
 90
        8
176
     1
 62
     7
176
     1
 40
1.0
176
     1
 90
        1
176
     1
 90
        6
176
     1
 90
        2
176
     1
 62
     7
176
     1
 90
        3
176
     1
 90
        0
176
     1
 90
        0
176
     1
290
     0
176
     1
 90
        1
176
     1
 40
0.0
176
     1
 90
        0
176
     1
290
     0
176
     1
290
     1
176
     1
290
     1
176
     1
290
     0
176
     1
290
     0
176
     1
290
     0
176
     1
290
     0
176
     1
290
     0
176
     1
290
     0
176
     1
 90
       50
176
     1
 40
0.0
176
     1
 40
1.0
176
     1
 90
        0
176
     1
 62
    18
420
        0
176
     1
 90
       50
176
     1
 90
        3
176
     1
 62
     5
420
      255
176
     1
290
     0
176
     1
 90
       50
176
     1
 90
       50
176
     1
 90
       50
176
     1
290
     0
176
     1
 90
       50
176
     1
 62
   256
176
     0
 40
1.0
176
     0
 90
        2
176
     1
  1
strokes_ogs.tif
176
     1
290
     0
176
     1
 40
1.0
176
     1
 40
1.0
176
     1
  0
VISUALSTYLE
  5
3F
102
{ACAD_REACTORS
330
2A
102
}
330
2A
100
AcDbVisualStyle
  2
Sketchy
 70
    24
177
     3
291
     0
 70
    58
 90
        1
176
     1
 90
        2
176
     1
 90
        2
176
     1
 90
        0
176
     1
 40
0.6
176
     1
 40
30.0
176
     1
 62
     7
420
 16777215
176
     1
 90
        2
176
     1
 90
        2
176
     1
 62
     7
176
     1
 62
     7
176
     1
 90
        1
176
     1
 90
        1
176
     1
 40
40.0
176
     1
 90
       11
176
     1
 62
     7
176
     1
 40
1.0
176
     1
 90
        1
176
     1
 90
        6
176
     1
 90
        2
176
     1
 62
     7
176
     1
 90
        6
176
     1
 90
        0
176
     1
 90
        0
176
     1
290
     0
176
     1
 90
        1
176
     1
 40
0.0
176
     1
 90
        0
176
     1
290
     0
176
     1
290
     1
176
     1
290
     1
176
     1
290
     0
176
     1
290
     0
176
     1
290
     0
176
     1
290
     0
176
     1
290
     0
176
     1
290
     0
176
     1
 90
       50
176
     1
 40
0.0
176
     1
 40
1.0
176
     1
 90
        0
176
     1
 62
    18
420
        0
176
     1
 90
       50
176
     1
 90
        3
176
     1
 62
     5
420
      255
176
     1
290
     0
176
     1
 90
       50
176
     1
 90
       50
176
     1
 90
       50
176
     1
290
     0
176
     1
 90
       50
176
     1
 62
   256
176
     0
 40
1.0
176
     0
 90
        2
176
     1
  1
strokes_ogs.tif
176
     1
290
     0
176
     1
 40
1.0
176
     1
 40
1.0
176
     1
  0
VISUALSTYLE
  5
37
102
{ACAD_REACTORS
330
2A
102
}
330
2A
100
AcDbVisualStyle
  2
Thicken
 70
    13
177
     3
291
     1
 70
    58
 90
        2
176
     1
 90
        2
176
     1
 90
        0
176
     1
 90
        0
176
     1
 40
0.6
176
     1
 40
30.0
176
     1
 62
     7
420
 16777215
176
     1
 90
        1
176
     1
 90
        4
176
     1
 62
     7
176
     1
 62
   257
176
     1
 90
        1
176
     1
 90
        1
176
     1
 40
1.0
176
     1
 90
       12
176
     1
 62
     7
176
     1
 40
1.0
176
     1
 90
        1
176
     1
 90
        6
176
     1
 90
        2
176
     1
 62
     7
176
     1
 90
        5
176
     1
 90
        0
176
     1
 90
        0
176
     1
290
     0
176
     1
 90
        1
176
     1
 40
0.0
176
     1
 90
        0
176
     1
290
     0
176
     1
290
     1
176
     1
290
     1
176
     1
290
     0
176
     1
290
     0
176
     1
290
     0
176
     1
290
     0
176
     1
290
     0
176
     1
290
     0
176
     1
 90
       50
176
     1
 40
0.0
176
     1
 40
1.0
176
     1
 90
        0
176
     1
 62
    18
420
        0
176
     1
 90
       50
176
     1
 90
        3
176
     1
 62
     5
420
      255
176
     1
290
     0
176
     1
 90
       50
176
     1
 90
       50
176
     1
 90
       50
176
     1
290
     0
176
     1
 90
       50
176
     1
 62
   256
176
     0
 40
1.0
176
     0
 90
        2
176
     1
  1
strokes_ogs.tif
176
     1
290
     0
176
     1
 40
1.0
176
     1
 40
1.0
176
     1
  0
VISUALSTYLE
  5
30
102
{ACAD_REACTORS
330
2A
102
}
330
2A
100
AcDbVisualStyle
  2
Wireframe
 70
     5
177
     3
291
     0
 70
    58
 90
        0
176
     1
 90
        2
176
     1
 90
        0
176
     1
 90
        0
176
     1
 40
0.6
176
     1
 40
30.0
176
     1
 62
     7
420
 16777215
176
     1
 90
        1
176
     1
 90
        4
176
     1
 62
     7
176
     1
 62
   257
176
     1
 90
        1
176
     1
 90
        1
176
     1
 40
1.0
176
     1
 90
        0
176
     1
 62
   257
176
     1
 40
1.0
176
     1
 90
        1
176
     1
 90
        6
176
     1
 90
        2
176
     1
 62
     7
176
     1
 90
        3
176
     1
 90
        0
176
     1
 90
        0
176
     1
290
     0
176
     1
 90
        1
176
     1
 40
0.0
176
     1
 90
        0
176
     1
290
     0
176
     1
290
     1
176
     1
290
     1
176
     1
290
     0
176
     1
290
     0
176
     1
290
     0
176
     1
290
     0
176
     1
290
     0
176
     1
290
     0
176
     1
 90
       50
176
     1
 40
0.0
176
     1
 40
1.0
176
     1
 90
        0
176
     1
 62
    18
420
        0
176
     1
 90
       50
176
     1
 90
        3
176
     1
 62
     5
420
      255
176
     1
290
     0
176
     1
 90
       50
176
     1
 90
       50
176
     1
 90
       50
176
     1
290
     0
176
     1
 90
       50
176
     1
 62
   256
176
     0
 40
1.0
176
     0
 90
        2
176
     1
  1
strokes_ogs.tif
176
     1
290
     0
176
     1
 40
1.0
176
     1
 40
1.0
176
     1
  0
VISUALSTYLE
  5
40
102
{ACAD_REACTORS
330
2A
102
}
330
2A
100
AcDbVisualStyle
  2
X-Ray
 70
    25
177
     3
291
     0
 70
    58
 90
        2
176
     1
 90
        2
176
     1
 90
        1
176
     1
 90
        1
176
     1
 40
0.5
176
     1
 40
30.0
176
     1
 62
     7
420
 16777215
176
     1
 90
        1
176
     1
 90
        0
176
     1
 62
     7
176
     1
 62
   257
176
     1
 90
        1
176
     1
 90
        1
176
     1
 40
1.0
176
     1
 90
        8
176
     1
 62
     7
176
     1
 40
1.0
176
     1
 90
        1
176
     1
 90
        6
176
     1
 90
        2
176
     1
 62
     7
176
     1
 90
        3
176
     1
 90
        0
176
     1
 90
        0
176
     1
290
     0
176
     1
 90
       13
176
     1
 40
0.0
176
     1
 90
        0
176
     1
290
     0
176
     1
290
     1
176
     1
290
     1
176
     1
290
     0
176
     1
290
     0
176
     1
290
     0
176
     1
290
     0
176
     1
290
     0
176
     1
290
     0
176
     1
 90
       50
176
     1
 40
0.0
176
     1
 40
1.0
176
     1
 90
        0
176
     1
 62
    18
420
        0
176
     1
 90
       50
176
     1
 90
        3
176
     1
 62
     5
420
      255
176
     1
290
     0
176
     1
 90
       50
176
     1
 90
       50
176
     1
 90
       50
176
     1
290
     0
176
     1
 90
       50
176
     1
 62
   256
176
     0
 40
1.0
176
     0
 90
        2
176
     1
  1
strokes_ogs.tif
176
     1
290
     0
176
     1
 40
1.0
176
     1
 40
1.0
176
     1
  0
DICTIONARYVAR
  5
1BB
102
{ACAD_REACTORS
330
1BA
102
}
330
1BA
100
DictionaryVariables
280
     0
  1
1:1
  0
DICTIONARYVAR
  5
1C0
102
{ACAD_REACTORS
330
1BA
102
}
330
1BA
100
DictionaryVariables
280
     0
  1
Standard
  0
DICTIONARYVAR
  5
1BF
102
{ACAD_REACTORS
330
1BA
102
}
330
1BA
100
DictionaryVariables
280
     0
  1
Standard
  0
DICTIONARY
  5
1BC
330
6A
100
AcDbDictionary
280
     1
281
     1
  3
ACAD_ROUNDTRIP_2008_TABLESTYLE_CELLSTYLEMAP
360
1BD
  0
CELLSTYLEMAP
  5
1BD
102
{ACAD_REACTORS
330
1BC
102
}
330
1BC
100
AcDbCellStyleMap
 90
        3
300
CELLSTYLE
  1
TABLEFORMAT_BEGIN
 90
        5
170
     1
 91
        0
 92
    32768
 62
   257
 93
        1
300
CONTENTFORMAT
  1
CONTENTFORMAT_BEGIN
 90
        0
 91
        0
 92
        4
 93
        0
300

 40
0.0
140
1.0
 94
        5
 62
     0
340
11
144
0.25
309
CONTENTFORMAT_END
171
     1
301
MARGIN
  1
CELLMARGIN_BEGIN
 40
0.06
 40
0.06
 40
0.06
 40
0.06
 40
0.06
 40
0.06
309
CELLMARGIN_END
 94
        6
 95
        1
302
GRIDFORMAT
  1
GRIDFORMAT_BEGIN
 90
        0
 91
        1
 62
     0
 92
       -2
340
14
 93
        0
 40
0.045
309
GRIDFORMAT_END
 95
        2
302
GRIDFORMAT
  1
GRIDFORMAT_BEGIN
 90
        0
 91
        1
 62
     0
 92
       -2
340
14
 93
        0
 40
0.045
309
GRIDFORMAT_END
 95
        4
302
GRIDFORMAT
  1
GRIDFORMAT_BEGIN
 90
        0
 91
        1
 62
     0
 92
       -2
340
14
 93
        0
 40
0.045
309
GRIDFORMAT_END
 95
        8
302
GRIDFORMAT
  1
GRIDFORMAT_BEGIN
 90
        0
 91
        1
 62
     0
 92
       -2
340
14
 93
        0
 40
0.045
309
GRIDFORMAT_END
 95
       16
302
GRIDFORMAT
  1
GRIDFORMAT_BEGIN
 90
        0
 91
        1
 62
     0
 92
       -2
340
14
 93
        0
 40
0.045
309
GRIDFORMAT_END
 95
       32
302
GRIDFORMAT
  1
GRIDFORMAT_BEGIN
 90
        0
 91
        1
 62
     0
 92
       -2
340
14
 93
        0
 40
0.045
309
GRIDFORMAT_END
309
TABLEFORMAT_END
  1
CELLSTYLE_BEGIN
 90
        1
 91
        1
300
_TITLE
309
CELLSTYLE_END
300
CELLSTYLE
  1
TABLEFORMAT_BEGIN
 90
        5
170
     1
 91
        0
 92
        0
 62
   257
 93
        1
300
CONTENTFORMAT
  1
CONTENTFORMAT_BEGIN
 90
        0
 91
        0
 92
        4
 93
        0
300

 40
0.0
140
1.0
 94
        5
 62
     0
340
11
144
0.18
309
CONTENTFORMAT_END
171
     1
301
MARGIN
  1
CELLMARGIN_BEGIN
 40
0.06
 40
0.06
 40
0.06
 40
0.06
 40
0.06
 40
0.06
309
CELLMARGIN_END
 94
        6
 95
        1
302
GRIDFORMAT
  1
GRIDFORMAT_BEGIN
 90
        0
 91
        1
 62
     0
 92
       -2
340
14
 93
        0
 40
0.045
309
GRIDFORMAT_END
 95
        2
302
GRIDFORMAT
  1
GRIDFORMAT_BEGIN
 90
        0
 91
        1
 62
     0
 92
       -2
340
14
 93
        0
 40
0.045
309
GRIDFORMAT_END
 95
        4
302
GRIDFORMAT
  1
GRIDFORMAT_BEGIN
 90
        0
 91
        1
 62
     0
 92
       -2
340
14
 93
        0
 40
0.045
309
GRIDFORMAT_END
 95
        8
302
GRIDFORMAT
  1
GRIDFORMAT_BEGIN
 90
        0
 91
        1
 62
     0
 92
       -2
340
14
 93
        0
 40
0.045
309
GRIDFORMAT_END
 95
       16
302
GRIDFORMAT
  1
GRIDFORMAT_BEGIN
 90
        0
 91
        1
 62
     0
 92
       -2
340
14
 93
        0
 40
0.045
309
GRIDFORMAT_END
 95
       32
302
GRIDFORMAT
  1
GRIDFORMAT_BEGIN
 90
        0
 91
        1
 62
     0
 92
       -2
340
14
 93
        0
 40
0.045
309
GRIDFORMAT_END
309
TABLEFORMAT_END
  1
CELLSTYLE_BEGIN
 90
        2
 91
        1
300
_HEADER
309
CELLSTYLE_END
300
CELLSTYLE
  1
TABLEFORMAT_BEGIN
 90
        5
170
     1
 91
        0
 92
        0
 62
   257
 93
        1
300
CONTENTFORMAT
  1
CONTENTFORMAT_BEGIN
 90
        0
 91
        0
 92
        4
 93
        0
300

 40
0.0
140
1.0
 94
        2
 62
     0
340
11
144
0.18
309
CONTENTFORMAT_END
171
     1
301
MARGIN
  1
CELLMARGIN_BEGIN
 40
0.06
 40
0.06
 40
0.06
 40
0.06
 40
0.06
 40
0.06
309
CELLMARGIN_END
 94
        6
 95
        1
302
GRIDFORMAT
  1
GRIDFORMAT_BEGIN
 90
        0
 91
        1
 62
     0
 92
       -2
340
14
 93
        0
 40
0.045
309
GRIDFORMAT_END
 95
        2
302
GRIDFORMAT
  1
GRIDFORMAT_BEGIN
 90
        0
 91
        1
 62
     0
 92
       -2
340
14
 93
        0
 40
0.045
309
GRIDFORMAT_END
 95
        4
302
GRIDFORMAT
  1
GRIDFORMAT_BEGIN
 90
        0
 91
        1
 62
     0
 92
       -2
340
14
 93
        0
 40
0.045
309
GRIDFORMAT_END
 95
        8
302
GRIDFORMAT
  1
GRIDFORMAT_BEGIN
 90
        0
 91
        1
 62
     0
 92
       -2
340
14
 93
        0
 40
0.045
309
GRIDFORMAT_END
 95
       16
302
GRIDFORMAT
  1
GRIDFORMAT_BEGIN
 90
        0
 91
        1
 62
     0
 92
       -2
340
14
 93
        0
 40
0.045
309
GRIDFORMAT_END
 95
       32
302
GRIDFORMAT
  1
GRIDFORMAT_BEGIN
 90
        0
 91
        1
 62
     0
 92
       -2
340
14
 93
        0
 40
0.045
309
GRIDFORMAT_END
309
TABLEFORMAT_END
  1
CELLSTYLE_BEGIN
 90
        3
 91
        2
300
_DATA
309
CELLSTYLE_END
  0
ENDSEC
  0
EOF