0
SECTION
  2
HEADER
  9
$ACADVER
  1
AC1027
  9
$ACADMAINTVER
 70
     8
  9
$DWGCODEPAGE
  3
ANSI_1252
  9
$REQUIREDVERSIONS
160
                 0
  9
$COMMENTS
  1
File was created by Cadenas
  9
$CUSTOMPROPERTYTAG
  1
NN
  9
$CUSTOMPROPERTY
  1
D-Lok Air-Handling Two-Bolt Pillow Block Inch Bore
  9
$CUSTOMPROPERTYTAG
  1
NT
  9
$CUSTOMPROPERTY
  1
DLAH Normal Duty Air Handling Pillow Blocks
  9
$CUSTOMPROPERTYTAG
  1
NB
  9
$CUSTOMPROPERTY
  1
128435
  9
$CUSTOMPROPERTYTAG
  1
NBSYN
  9
$CUSTOMPROPERTY
  1
$PN.
  9
$CUSTOMPROPERTYTAG
  1
LINA
  9
$CUSTOMPROPERTY
  1
128435
  9
$CUSTOMPROPERTYTAG
  1
SERIES
  9
$CUSTOMPROPERTY
  1
205
  9
$CUSTOMPROPERTYTAG
  1
SS
  9
$CUSTOMPROPERTY
  1
1
  9
$CUSTOMPROPERTYTAG
  1
PN
  9
$CUSTOMPROPERTY
  1
128435
  9
$CUSTOMPROPERTYTAG
  1
DESCRIPTION
  9
$CUSTOMPROPERTY
  1
P2B-DLAH-100
  9
$CUSTOMPROPERTYTAG
  1
WEIGHT
  9
$CUSTOMPROPERTY
  1
2.3
  9
$CUSTOMPROPERTYTAG
  1
A
  9
$CUSTOMPROPERTY
  1
1.44
  9
$CUSTOMPROPERTYTAG
  1
B
  9
$CUSTOMPROPERTY
  1
5.50
  9
$CUSTOMPROPERTYTAG
  1
C
  9
$CUSTOMPROPERTY
  1
1.40
  9
$CUSTOMPROPERTYTAG
  1
DMIN
  9
$CUSTOMPROPERTY
  1
3.69
  9
$CUSTOMPROPERTYTAG
  1
DMAX
  9
$CUSTOMPROPERTY
  1
4.50
  9
$CUSTOMPROPERTYTAG
  1
F
  9
$CUSTOMPROPERTY
  1
3/8
  9
$CUSTOMPROPERTYTAG
  1
G
  9
$CUSTOMPROPERTY
  1
0.85
  9
$CUSTOMPROPERTYTAG
  1
H
  9
$CUSTOMPROPERTY
  1
0.58
  9
$CUSTOMPROPERTYTAG
  1
J
  9
$CUSTOMPROPERTY
  1
2.77
  9
$CUSTOMPROPERTYTAG
  1
L
  9
$CUSTOMPROPERTY
  1
1.99
  9
$CUSTOMPROPERTYTAG
  1
M
  9
$CUSTOMPROPERTY
  1
1.44
  9
$CUSTOMPROPERTYTAG
  1
R
  9
$CUSTOMPROPERTY
  1
0.56
  9
$CUSTOMPROPERTYTAG
  1
S
  9
$CUSTOMPROPERTY
  1
0.88
  9
$CUSTOMPROPERTYTAG
  1
U
  9
$CUSTOMPROPERTY
  1
2.50
  9
$CUSTOMPROPERTYTAG
  1
V
  9
$CUSTOMPROPERTY
  1
5.00
  9
$CUSTOMPROPERTYTAG
  1
W
  9
$CUSTOMPROPERTY
  1
0.50
  9
$CUSTOMPROPERTYTAG
  1
X
  9
$CUSTOMPROPERTY
  1
0.12
  9
$CUSTOMPROPERTYTAG
  1
COMPANY
  9
$CUSTOMPROPERTY
  1
baldor
  9
$INSBASE
 10
0.0
 20
0.0
 30
0.0
  9
$EXTMIN
 10
1.000000000000000E+20
 20
1.000000000000000E+20
 30
1.000000000000000E+20
  9
$EXTMAX
 10
-1.000000000000000E+20
 20
-1.000000000000000E+20
 30
-1.000000000000000E+20
  9
$LIMMIN
 10
0.0
 20
0.0
  9
$LIMMAX
 10
12.0
 20
9.0
  9
$ORTHOMODE
 70
     0
  9
$REGENMODE
 70
     1
  9
$FILLMODE
 70
     1
  9
$QTEXTMODE
 70
     0
  9
$MIRRTEXT
 70
     1
  9
$LTSCALE
 40
1.0
  9
$ATTMODE
 70
     1
  9
$TEXTSIZE
 40
0.2
  9
$TRACEWID
 40
0.05
  9
$TEXTSTYLE
  7
Standard
  9
$CLAYER
  8
0
  9
$CELTYPE
  6
ByLayer
  9
$CECOLOR
 62
   256
  9
$CELTSCALE
 40
1.0
  9
$DISPSILH
 70
     0
  9
$DIMSCALE
 40
1.0
  9
$DIMASZ
 40
0.18
  9
$DIMEXO
 40
0.0625
  9
$DIMDLI
 40
0.38
  9
$DIMRND
 40
0.0
  9
$DIMDLE
 40
0.0
  9
$DIMEXE
 40
0.18
  9
$DIMTP
 40
0.0
  9
$DIMTM
 40
0.0
  9
$DIMTXT
 40
0.18
  9
$DIMCEN
 40
0.09
  9
$DIMTSZ
 40
0.0
  9
$DIMTOL
 70
     0
  9
$DIMLIM
 70
     0
  9
$DIMTIH
 70
     1
  9
$DIMTOH
 70
     1
  9
$DIMSE1
 70
     0
  9
$DIMSE2
 70
     0
  9
$DIMTAD
 70
     0
  9
$DIMZIN
 70
     0
  9
$DIMBLK
  1

  9
$DIMASO
 70
     1
  9
$DIMSHO
 70
     1
  9
$DIMPOST
  1

  9
$DIMAPOST
  1

  9
$DIMALT
 70
     0
  9
$DIMALTD
 70
     2
  9
$DIMALTF
 40
25.4
  9
$DIMLFAC
 40
1.0
  9
$DIMTOFL
 70
     0
  9
$DIMTVP
 40
0.0
  9
$DIMTIX
 70
     0
  9
$DIMSOXD
 70
     0
  9
$DIMSAH
 70
     0
  9
$DIMBLK1
  1

  9
$DIMBLK2
  1

  9
$DIMSTYLE
  2
Standard
  9
$DIMCLRD
 70
     0
  9
$DIMCLRE
 70
     0
  9
$DIMCLRT
 70
     0
  9
$DIMTFAC
 40
1.0
  9
$DIMGAP
 40
0.09
  9
$DIMJUST
 70
     0
  9
$DIMSD1
 70
     0
  9
$DIMSD2
 70
     0
  9
$DIMTOLJ
 70
     1
  9
$DIMTZIN
 70
     0
  9
$DIMALTZ
 70
     0
  9
$DIMALTTZ
 70
     0
  9
$DIMUPT
 70
     0
  9
$DIMDEC
 70
     4
  9
$DIMTDEC
 70
     4
  9
$DIMALTU
 70
     2
  9
$DIMALTTD
 70
     2
  9
$DIMTXSTY
  7
Standard
  9
$DIMAUNIT
 70
     0
  9
$DIMADEC
 70
     0
  9
$DIMALTRND
 40
0.0
  9
$DIMAZIN
 70
     0
  9
$DIMDSEP
 70
    46
  9
$DIMATFIT
 70
     3
  9
$DIMFRAC
 70
     0
  9
$DIMLDRBLK
  1

  9
$DIMLUNIT
 70
     2
  9
$DIMLWD
 70
    -2
  9
$DIMLWE
 70
    -2
  9
$DIMTMOVE
 70
     0
  9
$DIMFXL
 40
1.0
  9
$DIMFXLON
 70
     0
  9
$DIMJOGANG
 40
0.7853981633974483
  9
$DIMTFILL
 70
     0
  9
$DIMTFILLCLR
 70
     0
  9
$DIMARCSYM
 70
     0
  9
$DIMLTYPE
  6

  9
$DIMLTEX1
  6

  9
$DIMLTEX2
  6

  9
$DIMTXTDIRECTION
 70
     0
  9
$LUNITS
 70
     2
  9
$LUPREC
 70
     4
  9
$SKETCHINC
 40
0.1
  9
$FILLETRAD
 40
0.5
  9
$AUNITS
 70
     0
  9
$AUPREC
 70
     0
  9
$MENU
  1
.
  9
$ELEVATION
 40
0.0
  9
$PELEVATION
 40
0.0
  9
$THICKNESS
 40
0.0
  9
$LIMCHECK
 70
     0
  9
$CHAMFERA
 40
0.0
  9
$CHAMFERB
 40
0.0
  9
$CHAMFERC
 40
0.0
  9
$CHAMFERD
 40
0.0
  9
$SKPOLY
 70
     0
  9
$TDCREATE
 40
2458169.002253912
  9
$TDUCREATE
 40
2458168.960587245
  9
$TDUPDATE
 40
2458169.002253912
  9
$TDUUPDATE
 40
2458168.960587245
  9
$TDINDWG
 40
0.0000000116
  9
$TDUSRTIMER
 40
0.0000000116
  9
$USRTIMER
 70
     1
  9
$ANGBASE
 50
0.0
  9
$ANGDIR
 70
     0
  9
$PDMODE
 70
     0
  9
$PDSIZE
 40
0.0
  9
$PLINEWID
 40
0.0
  9
$SPLFRAME
 70
     0
  9
$SPLINETYPE
 70
     6
  9
$SPLINESEGS
 70
     8
  9
$HANDSEED
  5
1C5
  9
$SURFTAB1
 70
     6
  9
$SURFTAB2
 70
     6
  9
$SURFTYPE
 70
     6
  9
$SURFU
 70
     6
  9
$SURFV
 70
     6
  9
$UCSBASE
  2

  9
$UCSNAME
  2

  9
$UCSORG
 10
0.0
 20
0.0
 30
0.0
  9
$UCSXDIR
 10
1.0
 20
0.0
 30
0.0
  9
$UCSYDIR
 10
0.0
 20
1.0
 30
0.0
  9
$UCSORTHOREF
  2

  9
$UCSORTHOVIEW
 70
     0
  9
$UCSORGTOP
 10
0.0
 20
0.0
 30
0.0
  9
$UCSORGBOTTOM
 10
0.0
 20
0.0
 30
0.0
  9
$UCSORGLEFT
 10
0.0
 20
0.0
 30
0.0
  9
$UCSORGRIGHT
 10
0.0
 20
0.0
 30
0.0
  9
$UCSORGFRONT
 10
0.0
 20
0.0
 30
0.0
  9
$UCSORGBACK
 10
0.0
 20
0.0
 30
0.0
  9
$PUCSBASE
  2

  9
$PUCSNAME
  2

  9
$PUCSORG
 10
0.0
 20
0.0
 30
0.0
  9
$PUCSXDIR
 10
1.0
 20
0.0
 30
0.0
  9
$PUCSYDIR
 10
0.0
 20
1.0
 30
0.0
  9
$PUCSORTHOREF
  2

  9
$PUCSORTHOVIEW
 70
     0
  9
$PUCSORGTOP
 10
0.0
 20
0.0
 30
0.0
  9
$PUCSORGBOTTOM
 10
0.0
 20
0.0
 30
0.0
  9
$PUCSORGLEFT
 10
0.0
 20
0.0
 30
0.0
  9
$PUCSORGRIGHT
 10
0.0
 20
0.0
 30
0.0
  9
$PUCSORGFRONT
 10
0.0
 20
0.0
 30
0.0
  9
$PUCSORGBACK
 10
0.0
 20
0.0
 30
0.0
  9
$USERI1
 70
     0
  9
$USERI2
 70
     0
  9
$USERI3
 70
     0
  9
$USERI4
 70
     0
  9
$USERI5
 70
     0
  9
$USERR1
 40
0.0
  9
$USERR2
 40
0.0
  9
$USERR3
 40
0.0
  9
$USERR4
 40
0.0
  9
$USERR5
 40
0.0
  9
$WORLDVIEW
 70
     1
  9
$SHADEDGE
 70
     3
  9
$SHADEDIF
 70
    70
  9
$TILEMODE
 70
     1
  9
$MAXACTVP
 70
    64
  9
$PINSBASE
 10
0.0
 20
0.0
 30
0.0
  9
$PLIMCHECK
 70
     0
  9
$PEXTMIN
 10
1.000000000000000E+20
 20
1.000000000000000E+20
 30
1.000000000000000E+20
  9
$PEXTMAX
 10
-1.000000000000000E+20
 20
-1.000000000000000E+20
 30
-1.000000000000000E+20
  9
$PLIMMIN
 10
0.0
 20
0.0
  9
$PLIMMAX
 10
12.0
 20
9.0
  9
$UNITMODE
 70
     0
  9
$VISRETAIN
 70
     1
  9
$PLINEGEN
 70
     0
  9
$PSLTSCALE
 70
     1
  9
$TREEDEPTH
 70
  3020
  9
$CMLSTYLE
  2
Standard
  9
$CMLJUST
 70
     0
  9
$CMLSCALE
 40
1.0
  9
$PROXYGRAPHICS
 70
     1
  9
$MEASUREMENT
 70
     0
  9
$CELWEIGHT
370
    -1
  9
$ENDCAPS
280
     0
  9
$JOINSTYLE
280
     0
  9
$LWDISPLAY
290
     0
  9
$INSUNITS
 70
     1
  9
$HYPERLINKBASE
  1

  9
$STYLESHEET
  1

  9
$XEDIT
290
     1
  9
$CEPSNTYPE
380
     0
  9
$PSTYLEMODE
290
     1
  9
$FINGERPRINTGUID
  2
{9E7CB511-A08C-484D-B06E-497339A665C1}
  9
$VERSIONGUID
  2
{FAEB1C32-E019-11D5-929B-00C0DF256EC4}
  9
$EXTNAMES
290
     1
  9
$PSVPSCALE
 40
0.0
  9
$OLESTARTUP
290
     0
  9
$SORTENTS
280
   127
  9
$INDEXCTL
280
     0
  9
$HIDETEXT
280
     1
  9
$XCLIPFRAME
280
     2
  9
$HALOGAP
280
     0
  9
$OBSCOLOR
 70
   257
  9
$OBSLTYPE
280
     0
  9
$INTERSECTIONDISPLAY
280
     0
  9
$INTERSECTIONCOLOR
 70
   257
  9
$DIMASSOC
280
     2
  9
$PROJECTNAME
  1

  9
$CAMERADISPLAY
290
     0
  9
$LENSLENGTH
 40
50.0
  9
$CAMERAHEIGHT
 40
0.0
  9
$STEPSPERSEC
 40
2.0
  9
$STEPSIZE
 40
6.0
  9
$3DDWFPREC
 40
2.0
  9
$PSOLWIDTH
 40
0.25
  9
$PSOLHEIGHT
 40
4.0
  9
$LOFTANG1
 40
1.570796326794897
  9
$LOFTANG2
 40
1.570796326794897
  9
$LOFTMAG1
 40
0.0
  9
$LOFTMAG2
 40
0.0
  9
$LOFTPARAM
 70
     7
  9
$LOFTNORMALS
280
     1
  9
$LATITUDE
 40
37.795
  9
$LONGITUDE
 40
-122.394
  9
$NORTHDIRECTION
 40
0.0
  9
$TIMEZONE
 70
 -8000
  9
$LIGHTGLYPHDISPLAY
280
     1
  9
$TILEMODELIGHTSYNCH
280
     1
  9
$CMATERIAL
347
44
  9
$SOLIDHIST
280
     0
  9
$SHOWHIST
280
     1
  9
$DWFFRAME
280
     2
  9
$DGNFRAME
280
     2
  9
$REALWORLDSCALE
290
     1
  9
$INTERFERECOLOR
 62
   256
  9
$CSHADOW
280
     0
  9
$SHADOWPLANELOCATION
 40
0.0
  0
ENDSEC
  0
SECTION
  2
CLASSES
  0
CLASS
  1
ACDBDICTIONARYWDFLT
  2
AcDbDictionaryWithDefault
  3
ObjectDBX Classes
 90
        0
 91
        4
280
     0
281
     0
  0
CLASS
  1
VISUALSTYLE
  2
AcDbVisualStyle
  3
ObjectDBX Classes
 90
     4095
 91
        4
280
     0
281
     0
  0
CLASS
  1
MATERIAL
  2
AcDbMaterial
  3
ObjectDBX Classes
 90
     1153
 91
        4
280
     0
281
     0
  0
CLASS
  1
SCALE
  2
AcDbScale
  3
ObjectDBX Classes
 90
     1153
 91
        4
280
     0
281
     0
  0
CLASS
  1
TABLESTYLE
  2
AcDbTableStyle
  3
ObjectDBX Classes
 90
     4095
 91
        4
280
     0
281
     0
  0
CLASS
  1
MLEADERSTYLE
  2
AcDbMLeaderStyle
  3
ACDB_MLEADERSTYLE_CLASS
 90
     4095
 91
        4
280
     0
281
     0
  0
CLASS
  1
SUN
  2
AcDbSun
  3
SCENEOE
 90
     1153
 91
        4
280
     0
281
     0
  0
CLASS
  1
DICTIONARYVAR
  2
AcDbDictionaryVar
  3
ObjectDBX Classes
 90
        0
 91
        4
280
     0
281
     0
  0
CLASS
  1
CELLSTYLEMAP
  2
AcDbCellStyleMap
  3
ObjectDBX Classes
 90
     1152
 91
        4
280
     0
281
     0
  0
ENDSEC
  0
SECTION
  2
TABLES
  0
TABLE
  2
VPORT
  5
8
330
0
100
AcDbSymbolTable
 70
     1
  0
VPORT
  5
29
330
8
100
AcDbSymbolTableRecord
100
AcDbViewportTableRecord
  2
*Active
 70
     0
 10
0.0
 20
0.0
 11
1.0
 21
1.0
 12
0.0
 22
-0.0910000000000002
 13
0.0
 23
0.0
 14
0.5
 24
0.5
 15
0.5
 25
0.5
 16
0.0
 26
0.0
 36
1.0
 17
0.0
 27
0.0
 37
0.0
 40
1.75644
 41
3.193960511033683
 42
50.0
 43
0.0
 44
0.0
 50
0.0
 51
0.0
 71
     0
 72
   100
 73
     1
 74
     3
 75
     0
 76
     0
 77
     0
 78
     0
281
     0
 65
     1
110
0.0
120
0.0
130
0.0
111
1.0
121
0.0
131
0.0
112
0.0
122
1.0
132
0.0
 79
     0
146
0.0
348
2F
 60
     3
 61
     5
292
     1
282
     1
141
0.0
142
0.0
 63
   250
361
6D
  0
ENDTAB
  0
TABLE
  2
LTYPE
  5
5
330
0
100
AcDbSymbolTable
 70
     3
  0
LTYPE
  5
14
330
5
100
AcDbSymbolTableRecord
100
AcDbLinetypeTableRecord
  2
ByBlock
 70
     0
  3

 72
    65
 73
     0
 40
0.0
  0
LTYPE
  5
15
330
5
100
AcDbSymbolTableRecord
100
AcDbLinetypeTableRecord
  2
ByLayer
 70
     0
  3

 72
    65
 73
     0
 40
0.0
  0
LTYPE
  5
16
330
5
100
AcDbSymbolTableRecord
100
AcDbLinetypeTableRecord
  2
Continuous
 70
     0
  3
Solid line
 72
    65
 73
     0
 40
0.0
  0
LTYPE
  5
A1
330
5
100
AcDbSymbolTableRecord
100
AcDbLinetypeTableRecord
  2
Dashed
 70
     0
  3

 72
    65
 73
     2
 40
2.0
 49
1.0
 74
     0
 49
-1.0
 74
     0
  0
LTYPE
  5
16A
330
5
100
AcDbSymbolTableRecord
100
AcDbLinetypeTableRecord
  2
Center
 70
     0
  3

 72
    65
 73
     4
 40
1.5
 49
0.45
 74
     0
 49
-0.5
 74
     0
 49
0.05
 74
     0
 49
-0.5
 74
     0
  0
ENDTAB
  0
TABLE
  2
LAYER
  5
2
330
0
100
AcDbSymbolTable
 70
     6
  0
LAYER
  5
10
330
2
100
AcDbSymbolTableRecord
100
AcDbLayerTableRecord
  2
0
 70
     0
 62
     7
  6
Continuous
370
    -3
390
F
347
46
348
0
  0
LAYER
  5
72
330
2
100
AcDbSymbolTableRecord
100
AcDbLayerTableRecord
  2
AM_6
 70
     0
 62
    -2
  6
Continuous
370
    35
390
F
347
46
348
0
  0
LAYER
  5
A2
330
2
100
AcDbSymbolTableRecord
100
AcDbLayerTableRecord
  2
AM_9
 70
     0
 62
     6
  6
Dashed
370
    25
390
F
347
46
348
0
  0
LAYER
  5
C2
330
2
100
AcDbSymbolTableRecord
100
AcDbLayerTableRecord
  2
AM_4
 70
     0
 62
     7
  6
Continuous
370
    50
390
F
347
46
348
0
  0
LAYER
  5
16B
330
2
100
AcDbSymbolTableRecord
100
AcDbLayerTableRecord
  2
AM_7
 70
     0
 62
     7
  6
Center
370
    25
390
F
347
46
348
0
  0
LAYER
  5
1B6
330
2
100
AcDbSymbolTableRecord
100
AcDbLayerTableRecord
  2
ConnectionPoints
 70
     0
 62
     7
  6
Continuous
370
    50
390
F
347
46
348
0
  0
ENDTAB
  0
TABLE
  2
STYLE
  5
3
330
0
100
AcDbSymbolTable
 70
     1
  0
STYLE
  5
11
330
3
100
AcDbSymbolTableRecord
100
AcDbTextStyleTableRecord
  2
Standard
 70
     0
 40
0.0
 41
1.0
 50
0.0
 71
     0
 42
0.2
  3
txt
  4

  0
ENDTAB
  0
TABLE
  2
VIEW
  5
6
330
0
100
AcDbSymbolTable
 70
     0
  0
ENDTAB
  0
TABLE
  2
UCS
  5
7
330
0
100
AcDbSymbolTable
 70
     0
  0
ENDTAB
  0
TABLE
  2
APPID
  5
9
330
0
100
AcDbSymbolTable
 70
     1
  0
APPID
  5
12
330
9
100
AcDbSymbolTableRecord
100
AcDbRegAppTableRecord
  2
ACAD
 70
     0
  0
ENDTAB
  0
TABLE
  2
DIMSTYLE
  5
A
330
0
100
AcDbSymbolTable
 70
     1
100
AcDbDimStyleTable
  0
DIMSTYLE
105
27
330
A
100
AcDbSymbolTableRecord
100
AcDbDimStyleTableRecord
  2
Standard
 70
     0
178
     0
340
11
  0
ENDTAB
  0
TABLE
  2
BLOCK_RECORD
  5
1
330
0
100
AcDbSymbolTable
 70
     5
  0
BLOCK_RECORD
  5
1F
330
1
100
AcDbSymbolTableRecord
100
AcDbBlockTableRecord
  2
*Model_Space
340
22
 70
     0
280
     1
281
     0
  0
BLOCK_RECORD
  5
1B
330
1
100
AcDbSymbolTableRecord
100
AcDbBlockTableRecord
  2
*Paper_Space
340
1E
 70
     0
280
     1
281
     0
  0
BLOCK_RECORD
  5
23
330
1
100
AcDbSymbolTableRecord
100
AcDbBlockTableRecord
  2
*Paper_Space0
340
26
 70
     0
280
     1
281
     0
  0
BLOCK_RECORD
  5
6E
330
1
100
AcDbSymbolTableRecord
100
AcDbBlockTableRecord
  2
1_128435_4
340
0
102
{BLKREFS
331
6F
102
}
 70
     0
280
     1
281
     0
  0
BLOCK_RECORD
  5
8F
330
1
100
AcDbSymbolTableRecord
100
AcDbBlockTableRecord
  2
2_405020c_Inch_0_in_128435_4
340
0
102
{BLKREFS
331
90
102
}
 70
     0
280
     1
281
     0
  0
BLOCK_RECORD
  5
E8
330
1
100
AcDbSymbolTableRecord
100
AcDbBlockTableRecord
  2
3_128648_0_in_128435_4
340
0
102
{BLKREFS
331
E9
102
}
 70
     0
280
     1
281
     0
  0
BLOCK_RECORD
  5
12E
330
1
100
AcDbSymbolTableRecord
100
AcDbBlockTableRecord
  2
4_128435h_0_in_128435_4
340
0
102
{BLKREFS
331
12F
102
}
 70
     0
280
     1
281
     0
  0
ENDTAB
  0
ENDSEC
  0
SECTION
  2
BLOCKS
  0
BLOCK
  5
20
330
1F
100
AcDbEntity
  8
0
100
AcDbBlockBegin
  2
*Model_Space
 70
     0
 10
0.0
 20
0.0
 30
0.0
  3
*Model_Space
  1

  0
ENDBLK
  5
21
330
1F
100
AcDbEntity
  8
0
100
AcDbBlockEnd
  0
BLOCK
  5
1C
330
1B
100
AcDbEntity
 67
     1
  8
0
100
AcDbBlockBegin
  2
*Paper_Space
 70
     0
 10
0.0
 20
0.0
 30
0.0
  3
*Paper_Space
  1

  0
ENDBLK
  5
1D
330
1B
100
AcDbEntity
 67
     1
  8
0
100
AcDbBlockEnd
  0
BLOCK
  5
24
330
23
100
AcDbEntity
  8
0
100
AcDbBlockBegin
  2
*Paper_Space0
 70
     0
 10
0.0
 20
0.0
 30
0.0
  3
*Paper_Space0
  1

  0
ENDBLK
  5
25
330
23
100
AcDbEntity
  8
0
100
AcDbBlockEnd
  0
BLOCK
  5
70
330
6E
100
AcDbEntity
  8
0
100
AcDbBlockBegin
  2
1_128435_4
 70
     2
 10
0.0
 20
0.0
 30
0.0
  3
1_128435_4
  1

  0
ATTDEF
  5
73
330
6E
100
AcDbEntity
  8
AM_6
100
AcDbText
 10
7.75
 20
0.77
 30
0.0
 40
0.5
  1
D-Lok Air-Handling Two-Bolt Pillow Block Inch Bore
100
AcDbAttributeDefinition
  3

  2
NN
 70
     8
280
     0
  0
ATTDEF
  5
74
330
6E
100
AcDbEntity
  8
AM_6
100
AcDbText
 10
7.75
 20
0.27
 30
0.0
 40
0.5
  1
DLAH Normal Duty Air Handling Pillow Blocks
100
AcDbAttributeDefinition
  3

  2
NT
 70
     8
280
     0
  0
ATTDEF
  5
75
330
6E
100
AcDbEntity
  8
AM_6
100
AcDbText
 10
7.75
 20
-0.23
 30
0.0
 40
0.5
  1
128435
100
AcDbAttributeDefinition
  3

  2
NB
 70
     8
280
     0
  0
ATTDEF
  5
76
330
6E
100
AcDbEntity
  8
AM_6
100
AcDbText
 10
7.75
 20
-0.73
 30
0.0
 40
0.5
  1
$PN.
100
AcDbAttributeDefinition
  3

  2
NBSYN
 70
     8
280
     0
  0
ATTDEF
  5
77
330
6E
100
AcDbEntity
  8
AM_6
100
AcDbText
 10
7.75
 20
-1.23
 30
0.0
 40
0.5
  1
128435
100
AcDbAttributeDefinition
  3

  2
LINA
 70
     8
280
     0
  0
ATTDEF
  5
78
330
6E
100
AcDbEntity
  8
AM_6
100
AcDbText
 10
7.75
 20
-1.73
 30
0.0
 40
0.5
  1
205
100
AcDbAttributeDefinition
  3

  2
SERIES
 70
     8
280
     0
  0
ATTDEF
  5
79
330
6E
100
AcDbEntity
  8
AM_6
100
AcDbText
 10
7.75
 20
-2.23
 30
0.0
 40
0.5
  1
1
100
AcDbAttributeDefinition
  3

  2
SS
 70
     8
280
     0
  0
ATTDEF
  5
7A
330
6E
100
AcDbEntity
  8
AM_6
100
AcDbText
 10
7.75
 20
-2.73
 30
0.0
 40
0.5
  1
128435
100
AcDbAttributeDefinition
  3

  2
PN
 70
     8
280
     0
  0
ATTDEF
  5
7B
330
6E
100
AcDbEntity
  8
AM_6
100
AcDbText
 10
7.75
 20
-3.23
 30
0.0
 40
0.5
  1
P2B-DLAH-100
100
AcDbAttributeDefinition
  3

  2
DESCRIPTION
 70
     8
280
     0
  0
ATTDEF
  5
7C
330
6E
100
AcDbEntity
  8
AM_6
100
AcDbText
 10
7.75
 20
-3.73
 30
0.0
 40
0.5
  1
2.3
100
AcDbAttributeDefinition
  3

  2
WEIGHT
 70
     8
280
     0
  0
ATTDEF
  5
7D
330
6E
100
AcDbEntity
  8
AM_6
100
AcDbText
 10
7.75
 20
-4.23
 30
0.0
 40
0.5
  1
1.44
100
AcDbAttributeDefinition
  3

  2
A
 70
     8
280
     0
  0
ATTDEF
  5
7E
330
6E
100
AcDbEntity
  8
AM_6
100
AcDbText
 10
7.75
 20
-4.73
 30
0.0
 40
0.5
  1
5.50
100
AcDbAttributeDefinition
  3

  2
B
 70
     8
280
     0
  0
ATTDEF
  5
7F
330
6E
100
AcDbEntity
  8
AM_6
100
AcDbText
 10
7.75
 20
-5.23
 30
0.0
 40
0.5
  1
1.40
100
AcDbAttributeDefinition
  3

  2
C
 70
     8
280
     0
  0
ATTDEF
  5
80
330
6E
100
AcDbEntity
  8
AM_6
100
AcDbText
 10
7.75
 20
-5.73
 30
0.0
 40
0.5
  1
3.69
100
AcDbAttributeDefinition
  3

  2
DMIN
 70
     8
280
     0
  0
ATTDEF
  5
81
330
6E
100
AcDbEntity
  8
AM_6
100
AcDbText
 10
7.75
 20
-6.23
 30
0.0
 40
0.5
  1
4.50
100
AcDbAttributeDefinition
  3

  2
DMAX
 70
     8
280
     0
  0
ATTDEF
  5
82
330
6E
100
AcDbEntity
  8
AM_6
100
AcDbText
 10
7.75
 20
-6.73
 30
0.0
 40
0.5
  1
3/8
100
AcDbAttributeDefinition
  3

  2
F
 70
     8
280
     0
  0
ATTDEF
  5
83
330
6E
100
AcDbEntity
  8
AM_6
100
AcDbText
 10
7.75
 20
-7.23
 30
0.0
 40
0.5
  1
0.85
100
AcDbAttributeDefinition
  3

  2
G
 70
     8
280
     0
  0
ATTDEF
  5
84
330
6E
100
AcDbEntity
  8
AM_6
100
AcDbText
 10
7.75
 20
-7.73
 30
0.0
 40
0.5
  1
0.58
100
AcDbAttributeDefinition
  3

  2
H
 70
     8
280
     0
  0
ATTDEF
  5
85
330
6E
100
AcDbEntity
  8
AM_6
100
AcDbText
 10
7.75
 20
-8.23
 30
0.0
 40
0.5
  1
2.77
100
AcDbAttributeDefinition
  3

  2
J
 70
     8
280
     0
  0
ATTDEF
  5
86
330
6E
100
AcDbEntity
  8
AM_6
100
AcDbText
 10
7.75
 20
-8.73
 30
0.0
 40
0.5
  1
1.99
100
AcDbAttributeDefinition
  3

  2
L
 70
     8
280
     0
  0
ATTDEF
  5
87
330
6E
100
AcDbEntity
  8
AM_6
100
AcDbText
 10
7.75
 20
-9.23
 30
0.0
 40
0.5
  1
1.44
100
AcDbAttributeDefinition
  3

  2
M
 70
     8
280
     0
  0
ATTDEF
  5
88
330
6E
100
AcDbEntity
  8
AM_6
100
AcDbText
 10
7.75
 20
-9.73
 30
0.0
 40
0.5
  1
0.56
100
AcDbAttributeDefinition
  3

  2
R
 70
     8
280
     0
  0
ATTDEF
  5
89
330
6E
100
AcDbEntity
  8
AM_6
100
AcDbText
 10
7.75
 20
-10.23
 30
0.0
 40
0.5
  1
0.88
100
AcDbAttributeDefinition
  3

  2
S
 70
     8
280
     0
  0
ATTDEF
  5
8A
330
6E
100
AcDbEntity
  8
AM_6
100
AcDbText
 10
7.75
 20
-10.73
 30
0.0
 40
0.5
  1
2.50
100
AcDbAttributeDefinition
  3

  2
U
 70
     8
280
     0
  0
ATTDEF
  5
8B
330
6E
100
AcDbEntity
  8
AM_6
100
AcDbText
 10
7.75
 20
-11.23
 30
0.0
 40
0.5
  1
5.00
100
AcDbAttributeDefinition
  3

  2
V
 70
     8
280
     0
  0
ATTDEF
  5
8C
330
6E
100
AcDbEntity
  8
AM_6
100
AcDbText
 10
7.75
 20
-11.73
 30
0.0
 40
0.5
  1
0.50
100
AcDbAttributeDefinition
  3

  2
W
 70
     8
280
     0
  0
ATTDEF
  5
8D
330
6E
100
AcDbEntity
  8
AM_6
100
AcDbText
 10
7.75
 20
-12.23
 30
0.0
 40
0.5
  1
0.12
100
AcDbAttributeDefinition
  3

  2
X
 70
     8
280
     0
  0
ATTDEF
  5
8E
330
6E
100
AcDbEntity
  8
AM_6
100
AcDbText
 10
7.75
 20
-12.73
 30
0.0
 40
0.5
  1
baldor
100
AcDbAttributeDefinition
  3

  2
COMPANY
 70
     8
280
     0
  0
INSERT
  5
90
330
6E
100
AcDbEntity
  8
0
100
AcDbBlockReference
  2
2_405020c_Inch_0_in_128435_4
 10
0.0
 20
0.0
 30
0.0
  0
INSERT
  5
E9
330
6E
100
AcDbEntity
  8
0
100
AcDbBlockReference
  2
3_128648_0_in_128435_4
 10
0.0
 20
0.0
 30
0.0
  0
INSERT
  5
12F
330
6E
100
AcDbEntity
  8
0
100
AcDbBlockReference
  2
4_128435h_0_in_128435_4
 10
0.0
 20
0.0
 30
0.0
  0
ENDBLK
  5
71
330
6E
100
AcDbEntity
  8
0
100
AcDbBlockEnd
  0
BLOCK
  5
91
330
8F
100
AcDbEntity
  8
0
100
AcDbBlockBegin
  2
2_405020c_Inch_0_in_128435_4
 70
     2
 10
0.0
 20
0.0
 30
0.0
  3
2_405020c_Inch_0_in_128435_4
  1

  0
ATTDEF
  5
93
330
8F
100
AcDbEntity
  8
AM_6
100
AcDbText
 10
6.248826460029196
 20
0.1624086307230418
 30
0.0
 40
0.5
  1
405020C -Inch
100
AcDbAttributeDefinition
  3

  2
NN
 70
     8
280
     0
  0
ATTDEF
  5
94
330
8F
100
AcDbEntity
  8
AM_6
100
AcDbText
 10
6.248826460029196
 20
-0.3375913692769582
 30
0.0
 40
0.5
  1
Grease fitting
100
AcDbAttributeDefinition
  3

  2
NT
 70
     8
280
     0
  0
ATTDEF
  5
95
330
8F
100
AcDbEntity
  8
AM_6
100
AcDbText
 10
6.248826460029196
 20
-0.8375913692769581
 30
0.0
 40
0.5
  1
405020c-Inch
100
AcDbAttributeDefinition
  3

  2
NB
 70
     8
280
     0
  0
ATTDEF
  5
96
330
8F
100
AcDbEntity
  8
AM_6
100
AcDbText
 10
6.248826460029196
 20
-1.337591369276958
 30
0.0
 40
0.5
  1
$MN.-Inch
100
AcDbAttributeDefinition
  3

  2
NBSYN
 70
     8
280
     0
  0
ATTDEF
  5
97
330
8F
100
AcDbEntity
  8
AM_6
100
AcDbText
 10
6.248826460029196
 20
-1.837591369276958
 30
0.0
 40
0.5
  1
405020c
100
AcDbAttributeDefinition
  3

  2
LINA
 70
     8
280
     0
  0
ATTDEF
  5
98
330
8F
100
AcDbEntity
  8
AM_6
100
AcDbText
 10
6.248826460029196
 20
-2.337591369276958
 30
0.0
 40
0.5
  1
405020c
100
AcDbAttributeDefinition
  3

  2
MN
 70
     8
280
     0
  0
ATTDEF
  5
99
330
8F
100
AcDbEntity
  8
AM_6
100
AcDbText
 10
6.248826460029196
 20
-2.837591369276958
 30
0.0
 40
0.5
  1
0.230
100
AcDbAttributeDefinition
  3

  2
NDR
 70
     8
280
     0
  0
ATTDEF
  5
9A
330
8F
100
AcDbEntity
  8
AM_6
100
AcDbText
 10
6.248826460029196
 20
-3.337591369276958
 30
0.0
 40
0.5
  1
0.210
100
AcDbAttributeDefinition
  3

  2
KDR
 70
     8
280
     0
  0
ATTDEF
  5
9B
330
8F
100
AcDbEntity
  8
AM_6
100
AcDbText
 10
6.248826460029196
 20
-3.837591369276958
 30
0.0
 40
0.5
  1
0.157
100
AcDbAttributeDefinition
  3

  2
BZE
 70
     8
280
     0
  0
ATTDEF
  5
9C
330
8F
100
AcDbEntity
  8
AM_6
100
AcDbText
 10
6.248826460029196
 20
-4.337591369276958
 30
0.0
 40
0.5
  1
9/32
100
AcDbAttributeDefinition
  3

  2
WAF
 70
     8
280
     0
  0
ATTDEF
  5
9D
330
8F
100
AcDbEntity
  8
AM_6
100
AcDbText
 10
6.248826460029196
 20
-4.837591369276958
 30
0.0
 40
0.5
  1
0.2813
100
AcDbAttributeDefinition
  3

  2
WAF1
 70
     8
280
     0
  0
ATTDEF
  5
9E
330
8F
100
AcDbEntity
  8
AM_6
100
AcDbText
 10
6.248826460029196
 20
-5.337591369276958
 30
0.0
 40
0.5
  1
0.545
100
AcDbAttributeDefinition
  3

  2
BL
 70
     8
280
     0
  0
ATTDEF
  5
9F
330
8F
100
AcDbEntity
  8
AM_6
100
AcDbText
 10
6.248826460029196
 20
-5.837591369276958
 30
0.0
 40
0.5
  1
0.200
100
AcDbAttributeDefinition
  3

  2
TL
 70
     8
280
     0
  0
ATTDEF
  5
A0
330
8F
100
AcDbEntity
  8
AM_6
100
AcDbText
 10
6.248826460029196
 20
-6.337591369276958
 30
0.0
 40
0.5
  1
baldor
100
AcDbAttributeDefinition
  3

  2
COMPANY
 70
     8
280
     0
  0
ELLIPSE
  5
A3
330
8F
100
AcDbEntity
  8
AM_9
100
AcDbEllipse
 10
0.7990306627407991
 20
0.0000000000000001
 30
0.0
 11
-1.838598171376523E-17
 21
-0.1000886227036577
 31
0.0
210
0.0
220
0.0
230
1.0
 40
0.7071067811865474
 41
0.0
 42
6.283185307179586
  0
LINE
  5
A4
330
8F
100
AcDbEntity
  8
AM_9
100
AcDbLine
 10
1.082924460550455
 20
0.081204315361521
 30
0.0
 11
1.044029167032641
 21
0.081204315361521
 31
0.0
  0
LINE
  5
A5
330
8F
100
AcDbEntity
  8
AM_9
100
AcDbLine
 10
1.082924460550455
 20
-0.0812043153615207
 30
0.0
 11
1.044029167032641
 21
-0.0812043153615207
 31
0.0
  0
LWPOLYLINE
  5
A6
330
8F
100
AcDbEntity
  8
AM_9
100
AcDbPolyline
 90
        3
 70
     0
 43
0.0
 10
1.039906587751996
 20
0.0000000000000001
 10
1.04099473702691
 20
-0.0406021576807603
 10
1.044029167032641
 20
-0.0812043153615207
  0
LWPOLYLINE
  5
A7
330
8F
100
AcDbEntity
  8
AM_9
100
AcDbPolyline
 90
        4
 70
     0
 43
0.0
 10
1.044029167032641
 20
0.081204315361521
 10
1.042403946376054
 20
0.0623017518439033
 10
1.040556130195028
 20
0.0312428256208205
 10
1.039906587751996
 20
0.0000000000000001
  0
LWPOLYLINE
  5
A8
330
8F
100
AcDbEntity
  8
AM_9
100
AcDbPolyline
 90
        3
 70
     0
 43
0.0
 10
0.9901793033650526
 20
0.1218064730422815
 10
1.016131094833438
 20
0.1015053942019012
 10
1.044029167032641
 20
0.081204315361521
  0
LWPOLYLINE
  5
A9
330
8F
100
AcDbEntity
  8
AM_9
100
AcDbPolyline
 90
        3
 70
     0
 43
0.0
 10
1.044029167032641
 20
-0.0812043153615207
 10
1.016252501646792
 20
-0.1014141150849084
 10
0.9901793033650526
 20
-0.1218064730422812
  0
LWPOLYLINE
  5
AA
330
8F
100
AcDbEntity
  8
AM_9
100
AcDbPolyline
 90
        3
 70
     0
 43
0.0
 10
1.049283317925651
 20
-0.1118199743330276
 10
1.061095248362714
 20
-0.1015053942019009
 10
1.082924460550455
 20
-0.0812043153615207
  0
LWPOLYLINE
  5
AB
330
8F
100
AcDbEntity
  8
AM_9
100
AcDbPolyline
 90
        3
 70
     0
 43
0.0
 10
1.082924460550455
 20
-0.0812043153615207
 10
1.085949277373233
 20
-0.0407847159147453
 10
1.0870470398311
 20
0.0000000000000001
  0
LWPOLYLINE
  5
AC
330
8F
100
AcDbEntity
  8
AM_9
100
AcDbPolyline
 90
        3
 70
     0
 43
0.0
 10
1.082924460550455
 20
0.081204315361521
 10
1.061197428810163
 20
0.1014141150849087
 10
1.049284467896637
 20
0.111818992681682
  0
LWPOLYLINE
  5
AD
330
8F
100
AcDbEntity
  8
AM_9
100
AcDbPolyline
 90
        4
 70
     0
 43
0.0
 10
1.0870470398311
 20
0.0000000000000001
 10
1.086401269896018
 20
0.0311508759219517
 10
1.084549681207042
 20
0.0623017518439033
 10
1.082924460550455
 20
0.081204315361521
  0
LWPOLYLINE
  5
AE
330
8F
100
AcDbEntity
  8
AM_9
100
AcDbPolyline
 90
        3
 70
     0
 43
0.0
 10
0.9901793033650526
 20
-0.1218064730422812
 10
0.966403810446494
 20
-0.1421075518826614
 10
0.9445745982587532
 20
-0.1624086307230416
  0
LWPOLYLINE
  5
AF
330
8F
100
AcDbEntity
  8
AM_9
100
AcDbPolyline
 90
        3
 70
     0
 43
0.0
 10
0.9445745982587532
 20
0.1624086307230418
 10
0.966301629999045
 20
0.1421988309996542
 10
0.9901793033650526
 20
0.1218064730422815
  0
LINE
  5
B0
330
8F
100
AcDbEntity
  8
AM_9
100
AcDbLine
 10
0.8038934052030845
 20
-0.1103623268442185
 30
0.0
 11
0.9378775202400389
 21
-0.1162868338504679
 31
0.0
  0
LINE
  5
B1
330
8F
100
AcDbEntity
  8
AM_9
100
AcDbLine
 10
0.9378775202400389
 20
0.1162868338504682
 30
0.0
 11
0.8038934052030845
 21
0.1103623268442188
 31
0.0
  0
ELLIPSE
  5
B2
330
8F
100
AcDbEntity
  8
AM_9
100
AcDbEllipse
 10
0.9875924710572109
 20
0.0000000000000002
 30
0.0
 11
8.612328615003747E-18
 21
0.1406499999999998
 31
0.0
210
0.0
220
0.0
230
1.0
 40
0.7071067811865542
 41
3.798906696793621
 42
5.625871263975759
  0
ELLIPSE
  5
B3
330
8F
100
AcDbEntity
  8
AM_9
100
AcDbEllipse
 10
1.009739443942746
 20
0.0000000000000009
 30
0.0
 11
6.694498085252720E-18
 21
0.1093294505797703
 31
0.0
210
0.0
220
0.0
230
1.0
 40
0.7071067811865378
 41
5.365847011058557
 42
5.928986666165891
  0
ELLIPSE
  5
B4
330
8F
100
AcDbEntity
  8
AM_9
100
AcDbEllipse
 10
1.009739443942743
 20
-0.0000000000000012
 30
0.0
 11
6.694498085252694E-18
 21
0.1093294505797698
 31
0.0
210
0.0
220
0.0
230
1.0
 40
0.7071067811865588
 41
3.495791294603515
 42
4.014842946380335
  0
ELLIPSE
  5
B5
330
8F
100
AcDbEntity
  8
AM_9
100
AcDbEllipse
 10
1.009739443943137
 20
-0.0000000000001985
 30
0.0
 11
6.694498085216612E-18
 21
0.1093294505791806
 31
0.0
210
0.0
220
0.0
230
1.0
 40
0.7071067811865477
 41
4.355316064611348
 42
5.191319708043618
  0
LWPOLYLINE
  5
B6
330
8F
100
AcDbEntity
  8
AM_9
100
AcDbPolyline
 90
       14
 70
     0
 43
0.0
 10
1.034739443942744
 20
0.0946847896390989
 10
1.03621752976581
 20
0.0946359302949885
 10
1.040452134523748
 20
0.0939610862695636
 10
1.044461656544628
 20
0.0926162251861325
 10
1.048511362147889
 20
0.0905909725785188
 10
1.052651552628827
 20
0.0878379709775704
 10
1.057277823335509
 20
0.0839214878763622
 10
1.061837548634949
 20
0.0791198835983544
 10
1.066259264951063
 20
0.0734368928853294
 10
1.070460867392922
 20
0.0668933405692272
 10
1.074353837295313
 20
0.0595342886449127
 10
1.077849070010093
 20
0.051433097943787
 10
1.080868311522689
 20
0.0426761911213683
 10
1.082630814615348
 20
0.0363327539506214
  0
LWPOLYLINE
  5
B7
330
8F
100
AcDbEntity
  8
AM_9
100
AcDbPolyline
 90
       17
 70
     0
 43
0.0
 10
1.082840097514178
 20
-0.0354905556613658
 10
1.082500720487695
 20
-0.0368451631655803
 10
1.079815655841545
 20
-0.0459732761114249
 10
1.076614651580219
 20
-0.0544945083376983
 10
1.07297640616775
 20
-0.0623068747269404
 10
1.068991710870751
 20
-0.0693258025078151
 10
1.064760640646075
 20
-0.0754878680855663
 10
1.060392363706284
 20
-0.0807499208820633
 10
1.055996177803115
 20
-0.0850985126886484
 10
1.051669430588477
 20
-0.0885539208268864
 10
1.047484951803136
 20
-0.0911666955784559
 10
1.043468938626288
 20
-0.0930112966942096
 10
1.039562434537366
 20
-0.0941676969237179
 10
1.035544697367456
 20
-0.0946702812785089
 10
1.030908273525404
 20
-0.0943577349541237
 10
1.026858777976665
 20
-0.0933169575126974
 10
1.026620389542966
 20
-0.0932341240492666
  0
LWPOLYLINE
  5
B8
330
8F
100
AcDbEntity
  8
AM_9
100
AcDbPolyline
 90
        4
 70
     0
 43
0.0
 10
1.025365405797452
 20
0.0927593803349692
 10
1.028318779102205
 20
0.0937725244205725
 10
1.032248679268301
 20
0.0945462137530147
 10
1.034739443942744
 20
0.0946847896390989
  0
LWPOLYLINE
  5
B9
330
8F
100
AcDbEntity
  8
AM_9
100
AcDbPolyline
 90
        3
 70
     0
 43
0.0
 10
1.017153995737383
 20
0.0880804874996146
 10
1.020298485901483
 20
0.0901929504409573
 10
1.020725864462403
 20
0.0904492768615292
  0
ELLIPSE
  5
BA
330
8F
100
AcDbEntity
  8
AM_9
100
AcDbEllipse
 10
1.04968125587925
 20
0.0000000000000002
 30
0.0
 11
6.084620899749627E-18
 21
0.09936940028726612
 31
0.0
210
0.0
220
0.0
230
1.0
 40
0.7071067811865438
 41
2.65648040711601
 42
6.283185307179586
  0
ELLIPSE
  5
BB
330
8F
100
AcDbEntity
  8
AM_9
100
AcDbEllipse
 10
1.09801258458372
 20
-0.0000000000000008
 30
0.0
 11
8.036249332247567E-18
 21
0.1312419113468915
 31
0.0
210
0.0
220
0.0
230
1.0
 40
0.7071067811865388
 41
2.656480407116057
 42
6.768297553653314
  0
ELLIPSE
  5
BC
330
8F
100
AcDbEntity
  8
AM_9
100
AcDbEllipse
 10
1.126768828049003
 20
0.0000000000000002
 30
0.0
 11
8.079715312105961E-18
 21
0.1319517646676801
 31
0.0
210
0.0
220
0.0
230
1.0
 40
0.7071067811865467
 41
3.5799744285438
 42
5.844803532225581
  0
ELLIPSE
  5
BD
330
8F
100
AcDbEntity
  8
AM_9
100
AcDbEllipse
 10
1.173633404722102
 20
0.0000000000002578
 30
0.0
 11
6.357083428148507E-18
 21
0.103819051053325
 31
0.0
210
0.0
220
0.0
230
1.0
 40
0.7071067811864958
 41
3.589497617455029
 42
3.625832251507482
  0
ELLIPSE
  5
BE
330
8F
100
AcDbEntity
  8
AM_9
100
AcDbEllipse
 10
1.173633404722189
 20
0.0000000000000001
 30
0.0
 11
6.357083428131019E-18
 21
0.1038190510530394
 31
0.0
210
0.0
220
0.0
230
1.0
 40
0.7071067811865503
 41
3.643772627987396
 42
5.84480353222557
  0
ELLIPSE
  5
BF
330
8F
100
AcDbEntity
  8
AM_9
100
AcDbEllipse
 10
0.9404520189781103
 20
-0.0000000000000002
 30
0.0
 11
8.612328615003806E-18
 21
0.1406500000000007
 31
0.0
210
0.0
220
0.0
230
1.0
 40
0.707106781186555
 41
0.0
 42
6.283185307179586
  0
ELLIPSE
  5
C0
330
8F
100
AcDbEntity
  8
AM_9
100
AcDbEllipse
 10
0.9404520189781085
 20
0.0000000000000002
 30
0.0
 11
7.124004163867288E-18
 21
0.1163438171532771
 31
0.0
210
0.0
220
0.0
230
1.0
 40
0.7071067811865471
 41
0.0
 42
6.283185307179586
  0
ELLIPSE
  5
C1
330
8F
100
AcDbEntity
  8
AM_9
100
AcDbEllipse
 10
0.8063334048195846
 20
0.0000000000000002
 30
0.0
 11
6.761045944280095E-18
 21
0.110416259593989
 31
0.0
210
0.0
220
0.0
230
1.0
 40
0.7071067811865689
 41
0.0
 42
6.283185307179586
  0
LINE
  5
C3
330
8F
100
AcDbEntity
  8
AM_4
100
AcDbLine
 10
1.037319755444156
 20
-0.1218064730422811
 30
0.0
 11
1.049283317925651
 21
-0.1118199743330276
 31
0.0
  0
LINE
  5
C4
330
8F
100
AcDbEntity
  8
AM_4
100
AcDbLine
 10
1.049284467896637
 20
0.111818992681682
 30
0.0
 11
1.037319755444156
 21
0.1218064730422815
 31
0.0
  0
LWPOLYLINE
  5
C5
330
8F
100
AcDbEntity
  8
AM_4
100
AcDbPolyline
 90
        3
 70
     0
 43
0.0
 10
0.9834698917765671
 20
-0.1624086307230416
 10
1.011246557162416
 20
-0.1421988309996539
 10
1.037319755444156
 20
-0.1218064730422811
  0
LWPOLYLINE
  5
C6
330
8F
100
AcDbEntity
  8
AM_4
100
AcDbPolyline
 90
        3
 70
     0
 43
0.0
 10
1.037319755444156
 20
0.1218064730422815
 10
1.01136796397577
 20
0.1421075518826617
 10
0.9834698917765671
 20
0.1624086307230418
  0
LWPOLYLINE
  5
C7
330
8F
100
AcDbEntity
  8
AM_4
100
AcDbPolyline
 90
        3
 70
     0
 43
0.0
 10
0.8907247345911645
 20
-0.1218064730422811
 10
0.8669492416726061
 20
-0.1015053942019009
 10
0.8451200294848654
 20
-0.0812043153615207
  0
LWPOLYLINE
  5
C8
330
8F
100
AcDbEntity
  8
AM_4
100
AcDbPolyline
 90
        3
 70
     0
 43
0.0
 10
0.9445745982587532
 20
-0.1624086307230416
 10
0.9167979328729046
 20
-0.1421988309996539
 10
0.8907247345911645
 20
-0.1218064730422811
  0
LINE
  5
C9
330
8F
100
AcDbEntity
  8
AM_4
100
AcDbLine
 10
0.9834698917765671
 20
-0.1624086307230416
 30
0.0
 11
0.9445745982587532
 21
-0.1624086307230416
 31
0.0
  0
LWPOLYLINE
  5
CA
330
8F
100
AcDbEntity
  8
AM_4
100
AcDbPolyline
 90
        3
 70
     0
 43
0.0
 10
0.9378651866702677
 20
-0.1218064730422811
 10
0.9616406795888262
 20
-0.1421075518826614
 10
0.9834698917765671
 20
-0.1624086307230416
  0
LWPOLYLINE
  5
CB
330
8F
100
AcDbEntity
  8
AM_4
100
AcDbPolyline
 90
        3
 70
     0
 43
0.0
 10
0.884015323002679
 20
-0.0812043153615207
 10
0.9117919883885277
 20
-0.1014141150849084
 10
0.9378651866702677
 20
-0.1218064730422811
  0
LWPOLYLINE
  5
CC
330
8F
100
AcDbEntity
  8
AM_4
100
AcDbPolyline
 90
        4
 70
     0
 43
0.0
 10
0.8409974502042207
 20
0.0000000000000002
 10
0.8416432201393025
 20
0.0311508759219517
 10
0.8434948088282784
 20
0.0623017518439033
 10
0.8451200294848654
 20
0.081204315361521
  0
LWPOLYLINE
  5
CD
330
8F
100
AcDbEntity
  8
AM_4
100
AcDbPolyline
 90
        3
 70
     0
 43
0.0
 10
0.8451200294848654
 20
-0.0812043153615207
 10
0.842095212662087
 20
-0.0407847159147453
 10
0.8409974502042207
 20
0.0000000000000002
  0
LINE
  5
CE
330
8F
100
AcDbEntity
  8
AM_4
100
AcDbLine
 10
0.884015323002679
 20
-0.0812043153615207
 30
0.0
 11
0.8451200294848654
 21
-0.0812043153615207
 31
0.0
  0
LWPOLYLINE
  5
CF
330
8F
100
AcDbEntity
  8
AM_4
100
AcDbPolyline
 90
        3
 70
     0
 43
0.0
 10
0.8881379022833238
 20
0.0000000000000002
 10
0.8870497530084103
 20
-0.0406021576807603
 10
0.884015323002679
 20
-0.0812043153615207
  0
LWPOLYLINE
  5
D0
330
8F
100
AcDbEntity
  8
AM_4
100
AcDbPolyline
 90
        4
 70
     0
 43
0.0
 10
0.884015323002679
 20
0.081204315361521
 10
0.885640543659266
 20
0.0623017518439033
 10
0.8874883598402921
 20
0.0312428256208206
 10
0.8881379022833238
 20
0.0000000000000002
  0
LINE
  5
D1
330
8F
100
AcDbEntity
  8
AM_4
100
AcDbLine
 10
0.9834698917765671
 20
0.1624086307230418
 30
0.0
 11
0.9445745982587532
 21
0.1624086307230418
 31
0.0
  0
LWPOLYLINE
  5
D2
330
8F
100
AcDbEntity
  8
AM_4
100
AcDbPolyline
 90
        3
 70
     0
 43
0.0
 10
0.8907247345911645
 20
0.1218064730422814
 10
0.9166765260595501
 20
0.1421075518826617
 10
0.9445745982587532
 20
0.1624086307230418
  0
LWPOLYLINE
  5
D3
330
8F
100
AcDbEntity
  8
AM_4
100
AcDbPolyline
 90
        3
 70
     0
 43
0.0
 10
0.8451200294848654
 20
0.081204315361521
 10
0.8668470612251572
 20
0.1014141150849087
 10
0.8907247345911645
 20
0.1218064730422814
  0
LINE
  5
D4
330
8F
100
AcDbEntity
  8
AM_4
100
AcDbLine
 10
0.884015323002679
 20
0.081204315361521
 30
0.0
 11
0.8451200294848654
 21
0.081204315361521
 31
0.0
  0
LWPOLYLINE
  5
D5
330
8F
100
AcDbEntity
  8
AM_4
100
AcDbPolyline
 90
        3
 70
     0
 43
0.0
 10
0.9378651866702677
 20
0.1218064730422814
 10
0.9119133952018822
 20
0.1015053942019012
 10
0.884015323002679
 20
0.081204315361521
  0
LWPOLYLINE
  5
D6
330
8F
100
AcDbEntity
  8
AM_4
100
AcDbPolyline
 90
        3
 70
     0
 43
0.0
 10
0.9834698917765671
 20
0.1624086307230418
 10
0.9617428600362752
 20
0.1421988309996542
 10
0.9378651866702677
 20
0.1218064730422814
  0
ELLIPSE
  5
D7
330
8F
100
AcDbEntity
  8
AM_4
100
AcDbEllipse
 10
0.9875924710572124
 20
-0.0000000000000003
 30
0.0
 11
8.612328615003800E-18
 21
0.1406500000000006
 31
0.0
210
0.0
220
0.0
230
1.0
 40
0.7071067811865491
 41
5.625871263975769
 42
10.0820920039732
  0
ELLIPSE
  5
D8
330
8F
100
AcDbEntity
  8
AM_4
100
AcDbEllipse
 10
1.009739443942747
 20
0.0000000000000012
 30
0.0
 11
6.694498085252719E-18
 21
0.1093294505797703
 31
0.0
210
0.0
220
0.0
230
1.0
 40
0.7071067811865439
 41
5.928986666165915
 42
9.778976601783043
  0
LINE
  5
D9
330
8F
100
AcDbEntity
  8
AM_4
100
AcDbLine
 10
1.016916252365589
 20
-0.0879044185632921
 30
0.0
 11
1.05473828007963
 21
-0.1160995625890069
 31
0.0
  0
LINE
  5
DA
330
8F
100
AcDbEntity
  8
AM_4
100
AcDbLine
 10
1.05473828007963
 20
0.1160995625890072
 30
0.0
 11
1.016916252365589
 21
0.0879044185632925
 31
0.0
  0
ELLIPSE
  5
DB
330
8F
100
AcDbEntity
  8
AM_4
100
AcDbEllipse
 10
1.04968125587925
 20
0.0000000000000002
 30
0.0
 11
6.084620899749658E-18
 21
0.09936940028726662
 31
0.0
210
0.0
220
0.0
230
1.0
 40
0.707106781186547
 41
0.4851122464737809
 42
2.656480407116012
  0
LWPOLYLINE
  5
DC
330
8F
100
AcDbEntity
  8
AM_4
100
AcDbPolyline
 90
        8
 70
     0
 43
0.0
 10
1.112954396520231
 20
0.1359265219950581
 10
1.105009017051209
 20
0.1355865063604381
 10
1.09484069285166
 20
0.1341487624816282
 10
1.084896099296227
 20
0.1316156566638958
 10
1.075240405794751
 20
0.1280196857676529
 10
1.065932632740889
 20
0.1233916019676193
 10
1.057028515461281
 20
0.1177603339521703
 10
1.053949791825799
 20
0.1155061386602985
  0
LINE
  5
DD
330
8F
100
AcDbEntity
  8
AM_4
100
AcDbLine
 10
1.163348305655511
 20
-0.1214064620582335
 30
0.0
 11
1.166675227907088
 21
-0.1192739277752323
 31
0.0
  0
LWPOLYLINE
  5
DE
330
8F
100
AcDbEntity
  8
AM_4
100
AcDbPolyline
 90
       13
 70
     0
 43
0.0
 10
1.054231413015624
 20
-0.1157193867760414
 10
1.06270578225963
 20
-0.1214955868699914
 10
1.07243769067124
 20
-0.1267518265194193
 10
1.082483541166884
 20
-0.1308256264852027
 10
1.092734163313445
 20
-0.133707161769897
 10
1.103087041975412
 20
-0.1354017105240531
 10
1.113447110639711
 20
-0.135925216272174
 10
1.123727106959009
 20
-0.1353007250269654
 10
1.133840754664213
 20
-0.1335570475193923
 10
1.143711728770054
 20
-0.1307271172077518
 10
1.153277012121883
 20
-0.1268430210862498
 10
1.162478770888514
 20
-0.1219349523383853
 10
1.163348305655511
 20
-0.1214064620582335
  0
LWPOLYLINE
  5
DF
330
8F
100
AcDbEntity
  8
AM_4
100
AcDbPolyline
 90
        7
 70
     0
 43
0.0
 10
1.162070972234611
 20
0.1221787876882044
 10
1.160551693606946
 20
0.1230649533090361
 10
1.150721794190749
 20
0.1279965008177336
 10
1.140608705239256
 20
0.1317410946036966
 10
1.130319884347312
 20
0.1342935779685873
 10
1.119955841225692
 20
0.1356625801839743
 10
1.112954396520231
 20
0.1359265219950581
  0
LINE
  5
E0
330
8F
100
AcDbEntity
  8
AM_4
100
AcDbLine
 10
1.166683145484054
 20
0.1192686386740718
 30
0.0
 11
1.163199157170137
 21
0.1214979462211162
 31
0.0
  0
ELLIPSE
  5
E1
330
8F
100
AcDbEntity
  8
AM_4
100
AcDbEllipse
 10
1.098012584583725
 20
0.0000000000000002
 30
0.0
 11
8.036249332247487E-18
 21
0.1312419113468902
 31
0.0
210
0.0
220
0.0
230
1.0
 40
0.7071067811865458
 41
0.4927972204833306
 42
2.651485434822407
  0
ELLIPSE
  5
E2
330
8F
100
AcDbEntity
  8
AM_4
100
AcDbEllipse
 10
1.184403858487467
 20
0.0000000000000002
 30
0.0
 11
-1.484390032546748E-17
 21
-0.08080642971672804
 31
0.0
210
0.0
220
0.0
230
1.0
 40
0.7071067811865489
 41
0.0
 42
6.283185307179586
  0
LWPOLYLINE
  5
E3
330
8F
100
AcDbEntity
  8
AM_4
100
AcDbPolyline
 90
       23
 70
     0
 43
0.0
 10
1.205524632237663
 20
-0.0935118586069412
 10
1.206181815007301
 20
-0.0930603097669166
 10
1.21341085885802
 20
-0.0873925096247297
 10
1.220156988415524
 20
-0.0807634214908605
 10
1.22634519871794
 20
-0.0732281850700661
 10
1.231899602072791
 20
-0.0648625874145369
 10
1.236749890657932
 20
-0.0557623759514643
 10
1.240836897341147
 20
-0.0460378648983633
 10
1.24411513144815
 20
-0.0358068754081547
 10
1.246551670295033
 20
-0.0251922735101122
 10
1.248126234128053
 20
-0.0143102668798512
 10
1.248826460029197
 20
-0.0032745387640755
 10
1.248646068033249
 20
0.0078030246977875
 10
1.247583884224615
 20
0.0188113161519958
 10
1.245643675850218
 20
0.0296386721963072
 10
1.242833524708281
 20
0.0401758214889788
 10
1.239166159437394
 20
0.0503129079203048
 10
1.234660321952253
 20
0.0599380899807123
 10
1.229345342020536
 20
0.0689335429843717
 10
1.223266436741717
 20
0.077176835172278
 10
1.216487931607219
 20
0.0845477201019179
 10
1.209097300815478
 20
0.0909338780305721
 10
1.205097461815691
 20
0.0938000608629817
  0
ELLIPSE
  5
E4
330
8F
100
AcDbEntity
  8
AM_4
100
AcDbEllipse
 10
1.126768828049008
 20
-0.0000000000000003
 30
0.0
 11
8.079715312105986E-18
 21
0.1319517646676805
 31
0.0
210
0.0
220
0.0
230
1.0
 40
0.7071067811865428
 41
5.844803532225621
 42
9.863159735723347
  0
ELLIPSE
  5
E5
330
8F
100
AcDbEntity
  8
AM_4
100
AcDbEllipse
 10
1.173633404722199
 20
0.0000000000000013
 30
0.0
 11
6.357083428130927E-18
 21
0.1038190510530379
 31
0.0
210
0.0
220
0.0
230
1.0
 40
0.7071067811865286
 41
5.84480353222568
 42
9.863159735723276
  0
LINE
  5
E6
330
8F
100
AcDbEntity
  8
AM_4
100
AcDbLine
 10
1.204794591255323
 20
0.0940018950300906
 30
0.0
 11
1.166374021031214
 21
0.1194743720494002
 31
0.0
  0
LINE
  5
E7
330
8F
100
AcDbEntity
  8
AM_4
100
AcDbLine
 10
1.166374021031214
 20
-0.1194743720493998
 30
0.0
 11
1.204794591255323
 21
-0.0940018950300902
 31
0.0
  0
ENDBLK
  5
92
330
8F
100
AcDbEntity
  8
0
100
AcDbBlockEnd
  0
BLOCK
  5
EA
330
E8
100
AcDbEntity
  8
0
100
AcDbBlockBegin
  2
3_128648_0_in_128435_4
 70
     2
 10
0.0
 20
0.0
 30
0.0
  3
3_128648_0_in_128435_4
  1

  0
ATTDEF
  5
EC
330
E8
100
AcDbEntity
  8
AM_6
100
AcDbText
 10
6.023071041524569
 20
0.56
 30
0.0
 40
0.5
  1
D-Lok Insert Inch Bore
100
AcDbAttributeDefinition
  3

  2
NN
 70
     8
280
     0
  0
ATTDEF
  5
ED
330
E8
100
AcDbEntity
  8
AM_6
100
AcDbText
 10
6.023071041524569
 20
0.0600000000000001
 30
0.0
 40
0.5
  1
D-LOK
100
AcDbAttributeDefinition
  3

  2
NT
 70
     8
280
     0
  0
ATTDEF
  5
EE
330
E8
100
AcDbEntity
  8
AM_6
100
AcDbText
 10
6.023071041524569
 20
-0.4399999999999999
 30
0.0
 40
0.5
  1
128648
100
AcDbAttributeDefinition
  3

  2
NB
 70
     8
280
     0
  0
ATTDEF
  5
EF
330
E8
100
AcDbEntity
  8
AM_6
100
AcDbText
 10
6.023071041524569
 20
-0.94
 30
0.0
 40
0.5
  1
$PN.
100
AcDbAttributeDefinition
  3

  2
NBSYN
 70
     8
280
     0
  0
ATTDEF
  5
F0
330
E8
100
AcDbEntity
  8
AM_6
100
AcDbText
 10
6.023071041524569
 20
-1.44
 30
0.0
 40
0.5
  1
128648
100
AcDbAttributeDefinition
  3

  2
LINA
 70
     8
280
     0
  0
ATTDEF
  5
F1
330
E8
100
AcDbEntity
  8
AM_6
100
AcDbText
 10
6.023071041524569
 20
-1.94
 30
0.0
 40
0.5
  1
205
100
AcDbAttributeDefinition
  3

  2
SERIES
 70
     8
280
     0
  0
ATTDEF
  5
F2
330
E8
100
AcDbEntity
  8
AM_6
100
AcDbText
 10
6.023071041524569
 20
-2.44
 30
0.0
 40
0.5
  1
1
100
AcDbAttributeDefinition
  3

  2
SS
 70
     8
280
     0
  0
ATTDEF
  5
F3
330
E8
100
AcDbEntity
  8
AM_6
100
AcDbText
 10
6.023071041524569
 20
-2.94
 30
0.0
 40
0.5
  1
128648
100
AcDbAttributeDefinition
  3

  2
PN
 70
     8
280
     0
  0
ATTDEF
  5
F4
330
E8
100
AcDbEntity
  8
AM_6
100
AcDbText
 10
6.023071041524569
 20
-3.44
 30
0.0
 40
0.5
  1
INS-DL-100
100
AcDbAttributeDefinition
  3

  2
DESCRIPTION
 70
     8
280
     0
  0
ATTDEF
  5
F5
330
E8
100
AcDbEntity
  8
AM_6
100
AcDbText
 10
6.023071041524569
 20
-3.94
 30
0.0
 40
0.5
  1
0.8
100
AcDbAttributeDefinition
  3

  2
WEIGHT
 70
     8
280
     0
  0
ATTDEF
  5
F6
330
E8
100
AcDbEntity
  8
AM_6
100
AcDbText
 10
6.023071041524569
 20
-4.44
 30
0.0
 40
0.5
  1
1.44
100
AcDbAttributeDefinition
  3

  2
A
 70
     8
280
     0
  0
ATTDEF
  5
F7
330
E8
100
AcDbEntity
  8
AM_6
100
AcDbText
 10
6.023071041524569
 20
-4.94
 30
0.0
 40
0.5
  1
0.59
100
AcDbAttributeDefinition
  3

  2
C
 70
     8
280
     0
  0
ATTDEF
  5
F8
330
E8
100
AcDbEntity
  8
AM_6
100
AcDbText
 10
6.023071041524569
 20
-5.44
 30
0.0
 40
0.5
  1
2.0472
100
AcDbAttributeDefinition
  3

  2
D
 70
     8
280
     0
  0
ATTDEF
  5
F9
330
E8
100
AcDbEntity
  8
AM_6
100
AcDbText
 10
6.023071041524569
 20
-5.94
 30
0.0
 40
0.5
  1
0.16
100
AcDbAttributeDefinition
  3

  2
J
 70
     8
280
     0
  0
ATTDEF
  5
FA
330
E8
100
AcDbEntity
  8
AM_6
100
AcDbText
 10
6.023071041524569
 20
-6.44
 30
0.0
 40
0.5
  1
1.99
100
AcDbAttributeDefinition
  3

  2
L
 70
     8
280
     0
  0
ATTDEF
  5
FB
330
E8
100
AcDbEntity
  8
AM_6
100
AcDbText
 10
6.023071041524569
 20
-6.94
 30
0.0
 40
0.5
  1
#10-32
100
AcDbAttributeDefinition
  3

  2
N
 70
     8
280
     0
  0
ATTDEF
  5
FC
330
E8
100
AcDbEntity
  8
AM_6
100
AcDbText
 10
6.023071041524569
 20
-7.44
 30
0.0
 40
0.5
  1
0.56
100
AcDbAttributeDefinition
  3

  2
W
 70
     8
280
     0
  0
ATTDEF
  5
FD
330
E8
100
AcDbEntity
  8
AM_6
100
AcDbText
 10
6.023071041524569
 20
-7.94
 30
0.0
 40
0.5
  1
0.88
100
AcDbAttributeDefinition
  3

  2
Y
 70
     8
280
     0
  0
ATTDEF
  5
FE
330
E8
100
AcDbEntity
  8
AM_6
100
AcDbText
 10
6.023071041524569
 20
-8.44
 30
0.0
 40
0.5
  1
1.32
100
AcDbAttributeDefinition
  3

  2
Z
 70
     8
280
     0
  0
ATTDEF
  5
FF
330
E8
100
AcDbEntity
  8
AM_6
100
AcDbText
 10
6.023071041524569
 20
-8.94
 30
0.0
 40
0.5
  1
baldor
100
AcDbAttributeDefinition
  3

  2
COMPANY
 70
     8
280
     0
  0
LINE
  5
100
330
E8
100
AcDbEntity
  8
AM_9
100
AcDbLine
 10
0.5
 20
-0.8402
 30
0.0
 11
0.5
 21
0.5202
 31
0.0
  0
LINE
  5
101
330
E8
100
AcDbEntity
  8
AM_9
100
AcDbLine
 10
-0.5
 20
0.5202
 30
0.0
 11
-0.5
 21
-0.8402
 31
0.0
  0
LINE
  5
102
330
E8
100
AcDbEntity
  8
AM_9
100
AcDbLine
 10
0.5
 20
0.5202
 30
0.0
 11
0.5398000000000001
 21
0.56
 31
0.0
  0
LINE
  5
103
330
E8
100
AcDbEntity
  8
AM_9
100
AcDbLine
 10
-0.5398000000000001
 20
0.56
 30
0.0
 11
-0.5
 21
0.5202
 31
0.0
  0
LINE
  5
104
330
E8
100
AcDbEntity
  8
AM_9
100
AcDbLine
 10
-0.5
 20
-0.8402
 30
0.0
 11
-0.5398000000000001
 21
-0.8799999999999999
 31
0.0
  0
LINE
  5
105
330
E8
100
AcDbEntity
  8
AM_9
100
AcDbLine
 10
0.5398000000000001
 20
-0.8799999999999999
 30
0.0
 11
0.5
 21
-0.8402
 31
0.0
  0
LINE
  5
106
330
E8
100
AcDbEntity
  8
AM_9
100
AcDbLine
 10
0.6600000000000003
 20
-0.4399999999999999
 30
0.0
 11
0.6600000000000003
 21
-0.295
 31
0.0
  0
LINE
  5
107
330
E8
100
AcDbEntity
  8
AM_9
100
AcDbLine
 10
-0.6600000000000003
 20
-0.295
 30
0.0
 11
-0.6600000000000003
 21
-0.4399999999999999
 31
0.0
  0
LINE
  5
108
330
E8
100
AcDbEntity
  8
AM_9
100
AcDbLine
 10
-0.6555847516108406
 20
0.5246152483891593
 30
0.0
 11
-0.6599999999999999
 21
0.5202
 31
0.0
  0
LINE
  5
109
330
E8
100
AcDbEntity
  8
AM_9
100
AcDbLine
 10
0.6599999999999999
 20
0.5202
 30
0.0
 11
0.6555847516108406
 21
0.5246152483891593
 31
0.0
  0
LINE
  5
10A
330
E8
100
AcDbEntity
  8
AM_9
100
AcDbLine
 10
0.6024293976800993
 20
0.5202
 30
0.0
 11
0.66
 21
0.5202
 31
0.0
  0
LINE
  5
10B
330
E8
100
AcDbEntity
  8
AM_9
100
AcDbLine
 10
-0.6599999999999999
 20
0.5202
 30
0.0
 11
-0.6024293976800993
 21
0.5202
 31
0.0
  0
LINE
  5
10C
330
E8
100
AcDbEntity
  8
AM_9
100
AcDbLine
 10
0.66
 20
0.295
 30
0.0
 11
0.66
 21
0.5202
 31
0.0
  0
LINE
  5
10D
330
E8
100
AcDbEntity
  8
AM_9
100
AcDbLine
 10
-0.66
 20
0.5202
 30
0.0
 11
-0.66
 21
0.295
 31
0.0
  0
LINE
  5
10E
330
E8
100
AcDbEntity
  8
AM_9
100
AcDbLine
 10
0.9702666666666667
 20
-0.1919999999999998
 30
0.0
 11
0.9702666666666667
 21
-0.128
 31
0.0
  0
LINE
  5
10F
330
E8
100
AcDbEntity
  8
AM_9
100
AcDbLine
 10
-0.9702666666666667
 20
-0.128
 30
0.0
 11
-0.9702666666666667
 21
-0.1919999999999998
 31
0.0
  0
LINE
  5
110
330
E8
100
AcDbEntity
  8
AM_9
100
AcDbLine
 10
-0.9560865860370598
 20
0.295
 30
0.0
 11
0.9560865860325376
 21
0.295
 31
0.0
  0
ARC
  5
111
330
E8
100
AcDbEntity
  8
AM_9
100
AcDbCircle
 10
0.9560865860370601
 20
0.2630000000000002
 30
0.0
 40
0.0319999999999997
100
AcDbArc
 50
15.38049883735821
 51
90.0
  0
ARC
  5
112
330
E8
100
AcDbEntity
  8
AM_9
100
AcDbCircle
 10
-0.9560865860370601
 20
0.2630000000000002
 30
0.0
 40
0.0319999999999998
100
AcDbArc
 50
90.0
 51
164.6195011626418
  0
LINE
  5
113
330
E8
100
AcDbEntity
  8
AM_9
100
AcDbLine
 10
-0.9560865860370598
 20
-0.295
 30
0.0
 11
0.9560865860325376
 21
-0.295
 31
0.0
  0
ARC
  5
114
330
E8
100
AcDbEntity
  8
AM_9
100
AcDbCircle
 10
0.9560865860370596
 20
-0.2629999999999998
 30
0.0
 40
0.0320000000000002
100
AcDbArc
 50
270.0
 51
344.6195040508816
  0
ARC
  5
115
330
E8
100
AcDbEntity
  8
AM_9
100
AcDbCircle
 10
-0.9560865860370596
 20
-0.2629999999999998
 30
0.0
 40
0.0320000000000002
100
AcDbArc
 50
195.3804959491185
 51
270.0
  0
LINE
  5
116
330
E8
100
AcDbEntity
  8
AM_9
100
AcDbLine
 10
0.995
 20
-0.5827711001586336
 30
0.0
 11
0.995
 21
-0.4797999999999999
 31
0.0
  0
LINE
  5
117
330
E8
100
AcDbEntity
  8
AM_9
100
AcDbLine
 10
-0.995
 20
-0.4797999999999999
 30
0.0
 11
-0.995
 21
-0.5827711001586336
 31
0.0
  0
LINE
  5
118
330
E8
100
AcDbEntity
  8
AM_9
100
AcDbLine
 10
-0.995
 20
-0.4797999999999999
 30
0.0
 11
0.995
 21
-0.4797999999999999
 31
0.0
  0
LINE
  5
119
330
E8
100
AcDbEntity
  8
AM_9
100
AcDbLine
 10
-0.9552
 20
-0.4399999999999999
 30
0.0
 11
0.9552
 21
-0.4399999999999999
 31
0.0
  0
LINE
  5
11A
330
E8
100
AcDbEntity
  8
AM_9
100
AcDbLine
 10
-0.9552
 20
-0.4399999999999999
 30
0.0
 11
-0.995
 21
-0.4797999999999999
 31
0.0
  0
LINE
  5
11B
330
E8
100
AcDbEntity
  8
AM_9
100
AcDbLine
 10
0.995
 20
-0.4797999999999999
 30
0.0
 11
0.9552
 21
-0.4399999999999999
 31
0.0
  0
LINE
  5
11C
330
E8
100
AcDbEntity
  8
AM_9
100
AcDbLine
 10
-0.9869405299188527
 20
-0.271487293263413
 30
0.0
 11
0.986940529918745
 21
-0.271487293263413
 31
0.0
  0
LINE
  5
11D
330
E8
100
AcDbEntity
  8
AM_9
100
AcDbLine
 10
-1.005431728164573
 20
-0.1920000000000001
 30
0.0
 11
1.005431728164465
 21
-0.1920000000000001
 31
0.0
  0
ARC
  5
11E
330
E8
100
AcDbEntity
  8
AM_9
100
AcDbCircle
 10
-0.000000000128128
 20
0.0000000000297766
 30
0.0
 40
1.023600000131333
100
AcDbArc
 50
344.6195040511759
 51
349.1888031868544
  0
ARC
  5
11F
330
E8
100
AcDbEntity
  8
AM_9
100
AcDbCircle
 10
0.0000000001282514
 20
0.0000000000298053
 30
0.0
 40
1.02360000013146
100
AcDbArc
 50
190.8111968131459
 51
195.3804959488238
  0
LINE
  5
120
330
E8
100
AcDbEntity
  8
AM_9
100
AcDbLine
 10
-1.015565340093881
 20
-0.1279999999999999
 30
0.0
 11
1.015565340093876
 21
-0.1279999999999999
 31
0.0
  0
LINE
  5
121
330
E8
100
AcDbEntity
  8
AM_9
100
AcDbLine
 10
-0.9869405294910142
 20
0.2714872948187387
 30
0.0
 11
0.9869405294910095
 21
0.2714872948187387
 31
0.0
  0
ARC
  5
122
330
E8
100
AcDbEntity
  8
AM_9
100
AcDbCircle
 10
-0.0000000000002183
 20
-0.0000000000000155
 30
0.0
 40
1.02360000000021
100
AcDbArc
 50
352.8164233462917
 51
15.38049603940815
  0
ARC
  5
123
330
E8
100
AcDbEntity
  8
AM_9
100
AcDbCircle
 10
0.0000000000002209
 20
-0.0000000000000157
 30
0.0
 40
1.023600000000213
100
AcDbArc
 50
164.6195039605919
 51
187.1835766537083
  0
LINE
  5
124
330
E8
100
AcDbEntity
  8
AM_4
100
AcDbLine
 10
-0.6201999999999999
 20
0.56
 30
0.0
 11
0.6201999999999999
 21
0.56
 31
0.0
  0
LINE
  5
125
330
E8
100
AcDbEntity
  8
AM_4
100
AcDbLine
 10
-0.6201999999999999
 20
0.56
 30
0.0
 11
-0.6555847516108406
 21
0.5246152483891593
 31
0.0
  0
LINE
  5
126
330
E8
100
AcDbEntity
  8
AM_4
100
AcDbLine
 10
0.6555847516108406
 20
0.5246152483891593
 30
0.0
 11
0.6201999999999999
 21
0.56
 31
0.0
  0
LINE
  5
127
330
E8
100
AcDbEntity
  8
AM_4
100
AcDbLine
 10
-0.6024293976800993
 20
0.5202
 30
0.0
 11
0.6024293976800993
 21
0.5202
 31
0.0
  0
LINE
  5
128
330
E8
100
AcDbEntity
  8
AM_4
100
AcDbLine
 10
0.995
 20
-0.8402
 30
0.0
 11
0.995
 21
-0.5827711001586336
 31
0.0
  0
LINE
  5
129
330
E8
100
AcDbEntity
  8
AM_4
100
AcDbLine
 10
-0.995
 20
-0.5827711001586336
 30
0.0
 11
-0.995
 21
-0.8402
 31
0.0
  0
LINE
  5
12A
330
E8
100
AcDbEntity
  8
AM_4
100
AcDbLine
 10
-0.9552
 20
-0.8799999999999999
 30
0.0
 11
0.9552
 21
-0.8799999999999999
 31
0.0
  0
LINE
  5
12B
330
E8
100
AcDbEntity
  8
AM_4
100
AcDbLine
 10
-0.995
 20
-0.8402
 30
0.0
 11
0.995
 21
-0.8402
 31
0.0
  0
LINE
  5
12C
330
E8
100
AcDbEntity
  8
AM_4
100
AcDbLine
 10
0.9552
 20
-0.8799999999999999
 30
0.0
 11
0.995
 21
-0.8402
 31
0.0
  0
LINE
  5
12D
330
E8
100
AcDbEntity
  8
AM_4
100
AcDbLine
 10
-0.995
 20
-0.8402
 30
0.0
 11
-0.9552
 21
-0.8799999999999999
 31
0.0
  0
ENDBLK
  5
EB
330
E8
100
AcDbEntity
  8
0
100
AcDbBlockEnd
  0
BLOCK
  5
130
330
12E
100
AcDbEntity
  8
0
100
AcDbBlockBegin
  2
4_128435h_0_in_128435_4
 70
     2
 10
0.0
 20
0.0
 30
0.0
  3
4_128435h_0_in_128435_4
  1

  0
ATTDEF
  5
132
330
12E
100
AcDbEntity
  8
AM_6
100
AcDbText
 10
7.75
 20
0.77
 30
0.0
 40
0.5
  1
P2B-DLAH - Inch - Housing
100
AcDbAttributeDefinition
  3

  2
NN
 70
     8
280
     0
  0
ATTDEF
  5
133
330
12E
100
AcDbEntity
  8
AM_6
100
AcDbText
 10
7.75
 20
0.27
 30
0.0
 40
0.5
  1
DLAH Normal Duty Air Handling Pillow Blocks
100
AcDbAttributeDefinition
  3

  2
NT
 70
     8
280
     0
  0
ATTDEF
  5
134
330
12E
100
AcDbEntity
  8
AM_6
100
AcDbText
 10
7.75
 20
-0.23
 30
0.0
 40
0.5
  1
128435h
100
AcDbAttributeDefinition
  3

  2
NB
 70
     8
280
     0
  0
ATTDEF
  5
135
330
12E
100
AcDbEntity
  8
AM_6
100
AcDbText
 10
7.75
 20
-0.73
 30
0.0
 40
0.5
  1
$PN.h
100
AcDbAttributeDefinition
  3

  2
NBSYN
 70
     8
280
     0
  0
ATTDEF
  5
136
330
12E
100
AcDbEntity
  8
AM_6
100
AcDbText
 10
7.75
 20
-1.23
 30
0.0
 40
0.5
  1
128435
100
AcDbAttributeDefinition
  3

  2
LINA
 70
     8
280
     0
  0
ATTDEF
  5
137
330
12E
100
AcDbEntity
  8
AM_6
100
AcDbText
 10
7.75
 20
-1.73
 30
0.0
 40
0.5
  1
205
100
AcDbAttributeDefinition
  3

  2
SERIES
 70
     8
280
     0
  0
ATTDEF
  5
138
330
12E
100
AcDbEntity
  8
AM_6
100
AcDbText
 10
7.75
 20
-2.23
 30
0.0
 40
0.5
  1
1
100
AcDbAttributeDefinition
  3

  2
SS
 70
     8
280
     0
  0
ATTDEF
  5
139
330
12E
100
AcDbEntity
  8
AM_6
100
AcDbText
 10
7.75
 20
-2.73
 30
0.0
 40
0.5
  1
1.00000
100
AcDbAttributeDefinition
  3

  2
SS1
 70
     8
280
     0
  0
ATTDEF
  5
13A
330
12E
100
AcDbEntity
  8
AM_6
100
AcDbText
 10
7.75
 20
-3.23
 30
0.0
 40
0.5
  1
128435
100
AcDbAttributeDefinition
  3

  2
PN
 70
     8
280
     0
  0
ATTDEF
  5
13B
330
12E
100
AcDbEntity
  8
AM_6
100
AcDbText
 10
7.75
 20
-3.73
 30
0.0
 40
0.5
  1
P2B-DLAH-100
100
AcDbAttributeDefinition
  3

  2
DESCRIPTION
 70
     8
280
     0
  0
ATTDEF
  5
13C
330
12E
100
AcDbEntity
  8
AM_6
100
AcDbText
 10
7.75
 20
-4.23
 30
0.0
 40
0.5
  1
2.3
100
AcDbAttributeDefinition
  3

  2
WEIGHT
 70
     8
280
     0
  0
ATTDEF
  5
13D
330
12E
100
AcDbEntity
  8
AM_6
100
AcDbText
 10
7.75
 20
-4.73
 30
0.0
 40
0.5
  1
2.047200
100
AcDbAttributeDefinition
  3

  2
BOD
 70
     8
280
     0
  0
ATTDEF
  5
13E
330
12E
100
AcDbEntity
  8
AM_6
100
AcDbText
 10
7.75
 20
-5.23
 30
0.0
 40
0.5
  1
1.44
100
AcDbAttributeDefinition
  3

  2
A
 70
     8
280
     0
  0
ATTDEF
  5
13F
330
12E
100
AcDbEntity
  8
AM_6
100
AcDbText
 10
7.75
 20
-5.73
 30
0.0
 40
0.5
  1
1.440000
100
AcDbAttributeDefinition
  3

  2
A1
 70
     8
280
     0
  0
ATTDEF
  5
140
330
12E
100
AcDbEntity
  8
AM_6
100
AcDbText
 10
7.75
 20
-6.23
 30
0.0
 40
0.5
  1
5.50
100
AcDbAttributeDefinition
  3

  2
B
 70
     8
280
     0
  0
ATTDEF
  5
141
330
12E
100
AcDbEntity
  8
AM_6
100
AcDbText
 10
7.75
 20
-6.73
 30
0.0
 40
0.5
  1
5.500000
100
AcDbAttributeDefinition
  3

  2
B1
 70
     8
280
     0
  0
ATTDEF
  5
142
330
12E
100
AcDbEntity
  8
AM_6
100
AcDbText
 10
7.75
 20
-7.23
 30
0.0
 40
0.5
  1
1.40
100
AcDbAttributeDefinition
  3

  2
C
 70
     8
280
     0
  0
ATTDEF
  5
143
330
12E
100
AcDbEntity
  8
AM_6
100
AcDbText
 10
7.75
 20
-7.73
 30
0.0
 40
0.5
  1
1.400000
100
AcDbAttributeDefinition
  3

  2
C1
 70
     8
280
     0
  0
ATTDEF
  5
144
330
12E
100
AcDbEntity
  8
AM_6
100
AcDbText
 10
7.75
 20
-8.23
 30
0.0
 40
0.5
  1
3.69
100
AcDbAttributeDefinition
  3

  2
DMIN
 70
     8
280
     0
  0
ATTDEF
  5
145
330
12E
100
AcDbEntity
  8
AM_6
100
AcDbText
 10
7.75
 20
-8.73
 30
0.0
 40
0.5
  1
3.690000
100
AcDbAttributeDefinition
  3

  2
DMIN1
 70
     8
280
     0
  0
ATTDEF
  5
146
330
12E
100
AcDbEntity
  8
AM_6
100
AcDbText
 10
7.75
 20
-9.23
 30
0.0
 40
0.5
  1
4.50
100
AcDbAttributeDefinition
  3

  2
DMAX
 70
     8
280
     0
  0
ATTDEF
  5
147
330
12E
100
AcDbEntity
  8
AM_6
100
AcDbText
 10
7.75
 20
-9.73
 30
0.0
 40
0.5
  1
4.500000
100
AcDbAttributeDefinition
  3

  2
DMAX1
 70
     8
280
     0
  0
ATTDEF
  5
148
330
12E
100
AcDbEntity
  8
AM_6
100
AcDbText
 10
7.75
 20
-10.23
 30
0.0
 40
0.5
  1
3/8
100
AcDbAttributeDefinition
  3

  2
F
 70
     8
280
     0
  0
ATTDEF
  5
149
330
12E
100
AcDbEntity
  8
AM_6
100
AcDbText
 10
7.75
 20
-10.73
 30
0.0
 40
0.5
  1
0.375000
100
AcDbAttributeDefinition
  3

  2
F1
 70
     8
280
     0
  0
ATTDEF
  5
14A
330
12E
100
AcDbEntity
  8
AM_6
100
AcDbText
 10
7.75
 20
-11.23
 30
0.0
 40
0.5
  1
0.85
100
AcDbAttributeDefinition
  3

  2
G
 70
     8
280
     0
  0
ATTDEF
  5
14B
330
12E
100
AcDbEntity
  8
AM_6
100
AcDbText
 10
7.75
 20
-11.73
 30
0.0
 40
0.5
  1
0.850000
100
AcDbAttributeDefinition
  3

  2
G1
 70
     8
280
     0
  0
ATTDEF
  5
14C
330
12E
100
AcDbEntity
  8
AM_6
100
AcDbText
 10
7.75
 20
-12.23
 30
0.0
 40
0.5
  1
0.58
100
AcDbAttributeDefinition
  3

  2
H
 70
     8
280
     0
  0
ATTDEF
  5
14D
330
12E
100
AcDbEntity
  8
AM_6
100
AcDbText
 10
7.75
 20
-12.73
 30
0.0
 40
0.5
  1
0.580000
100
AcDbAttributeDefinition
  3

  2
H1
 70
     8
280
     0
  0
ATTDEF
  5
14E
330
12E
100
AcDbEntity
  8
AM_6
100
AcDbText
 10
7.75
 20
-13.23
 30
0.0
 40
0.5
  1
2.77
100
AcDbAttributeDefinition
  3

  2
J
 70
     8
280
     0
  0
ATTDEF
  5
14F
330
12E
100
AcDbEntity
  8
AM_6
100
AcDbText
 10
7.75
 20
-13.73
 30
0.0
 40
0.5
  1
2.770000
100
AcDbAttributeDefinition
  3

  2
J1
 70
     8
280
     0
  0
ATTDEF
  5
150
330
12E
100
AcDbEntity
  8
AM_6
100
AcDbText
 10
7.75
 20
-14.23
 30
0.0
 40
0.5
  1
1.99
100
AcDbAttributeDefinition
  3

  2
L
 70
     8
280
     0
  0
ATTDEF
  5
151
330
12E
100
AcDbEntity
  8
AM_6
100
AcDbText
 10
7.75
 20
-14.73
 30
0.0
 40
0.5
  1
1.990000
100
AcDbAttributeDefinition
  3

  2
L1
 70
     8
280
     0
  0
ATTDEF
  5
152
330
12E
100
AcDbEntity
  8
AM_6
100
AcDbText
 10
7.75
 20
-15.23
 30
0.0
 40
0.5
  1
1.44
100
AcDbAttributeDefinition
  3

  2
M
 70
     8
280
     0
  0
ATTDEF
  5
153
330
12E
100
AcDbEntity
  8
AM_6
100
AcDbText
 10
7.75
 20
-15.73
 30
0.0
 40
0.5
  1
1.440000
100
AcDbAttributeDefinition
  3

  2
M1
 70
     8
280
     0
  0
ATTDEF
  5
154
330
12E
100
AcDbEntity
  8
AM_6
100
AcDbText
 10
7.75
 20
-16.23
 30
0.0
 40
0.5
  1
0.56
100
AcDbAttributeDefinition
  3

  2
R
 70
     8
280
     0
  0
ATTDEF
  5
155
330
12E
100
AcDbEntity
  8
AM_6
100
AcDbText
 10
7.75
 20
-16.73
 30
0.0
 40
0.5
  1
0.560000
100
AcDbAttributeDefinition
  3

  2
R1
 70
     8
280
     0
  0
ATTDEF
  5
156
330
12E
100
AcDbEntity
  8
AM_6
100
AcDbText
 10
7.75
 20
-17.23
 30
0.0
 40
0.5
  1
0.88
100
AcDbAttributeDefinition
  3

  2
S
 70
     8
280
     0
  0
ATTDEF
  5
157
330
12E
100
AcDbEntity
  8
AM_6
100
AcDbText
 10
7.75
 20
-17.73
 30
0.0
 40
0.5
  1
0.880000
100
AcDbAttributeDefinition
  3

  2
S1
 70
     8
280
     0
  0
ATTDEF
  5
158
330
12E
100
AcDbEntity
  8
AM_6
100
AcDbText
 10
7.75
 20
-18.23
 30
0.0
 40
0.5
  1
2.50
100
AcDbAttributeDefinition
  3

  2
U
 70
     8
280
     0
  0
ATTDEF
  5
159
330
12E
100
AcDbEntity
  8
AM_6
100
AcDbText
 10
7.75
 20
-18.73
 30
0.0
 40
0.5
  1
2.500000
100
AcDbAttributeDefinition
  3

  2
U1
 70
     8
280
     0
  0
ATTDEF
  5
15A
330
12E
100
AcDbEntity
  8
AM_6
100
AcDbText
 10
7.75
 20
-19.23
 30
0.0
 40
0.5
  1
5.00
100
AcDbAttributeDefinition
  3

  2
V
 70
     8
280
     0
  0
ATTDEF
  5
15B
330
12E
100
AcDbEntity
  8
AM_6
100
AcDbText
 10
7.75
 20
-19.73
 30
0.0
 40
0.5
  1
5.000000
100
AcDbAttributeDefinition
  3

  2
V1
 70
     8
280
     0
  0
ATTDEF
  5
15C
330
12E
100
AcDbEntity
  8
AM_6
100
AcDbText
 10
7.75
 20
-20.23
 30
0.0
 40
0.5
  1
0.50
100
AcDbAttributeDefinition
  3

  2
W
 70
     8
280
     0
  0
ATTDEF
  5
15D
330
12E
100
AcDbEntity
  8
AM_6
100
AcDbText
 10
7.75
 20
-20.73
 30
0.0
 40
0.5
  1
0.500000
100
AcDbAttributeDefinition
  3

  2
W1
 70
     8
280
     0
  0
ATTDEF
  5
15E
330
12E
100
AcDbEntity
  8
AM_6
100
AcDbText
 10
7.75
 20
-21.23
 30
0.0
 40
0.5
  1
0.12
100
AcDbAttributeDefinition
  3

  2
X
 70
     8
280
     0
  0
ATTDEF
  5
15F
330
12E
100
AcDbEntity
  8
AM_6
100
AcDbText
 10
7.75
 20
-21.73
 30
0.0
 40
0.5
  1
0.120000
100
AcDbAttributeDefinition
  3

  2
X1
 70
     8
280
     0
  0
ATTDEF
  5
160
330
12E
100
AcDbEntity
  8
AM_6
100
AcDbText
 10
7.75
 20
-22.23
 30
0.0
 40
0.5
  1
1565
100
AcDbAttributeDefinition
  3

  2
CAPS
 70
     8
280
     0
  0
ATTDEF
  5
161
330
12E
100
AcDbEntity
  8
AM_6
100
AcDbText
 10
7.75
 20
-22.73
 30
0.0
 40
0.5
  1
3146
100
AcDbAttributeDefinition
  3

  2
CAPD
 70
     8
280
     0
  0
ATTDEF
  5
162
330
12E
100
AcDbEntity
  8
AM_6
100
AcDbText
 10
7.75
 20
-23.23
 30
0.0
 40
0.5
  1
baldor
100
AcDbAttributeDefinition
  3

  2
COMPANY
 70
     8
280
     0
  0
LINE
  5
163
330
12E
100
AcDbEntity
  8
AM_9
100
AcDbLine
 10
-1.0464449
 20
-0.5973333800000001
 30
0.0
 11
-1.0464449
 21
0.5973333799999998
 31
0.0
  0
LINE
  5
164
330
12E
100
AcDbEntity
  8
AM_9
100
AcDbLine
 10
-1.1055
 20
-0.694242282479997
 30
0.0
 11
-1.1055
 21
0.694242282479997
 31
0.0
  0
LINE
  5
165
330
12E
100
AcDbEntity
  8
AM_9
100
AcDbLine
 10
1.1055
 20
-0.694242282479997
 30
0.0
 11
1.1055
 21
0.694242282479997
 31
0.0
  0
LINE
  5
166
330
12E
100
AcDbEntity
  8
AM_9
100
AcDbLine
 10
1.046444900000001
 20
-0.5973333799999999
 30
0.0
 11
1.046444900000001
 21
0.59733338
 31
0.0
  0
LINE
  5
167
330
12E
100
AcDbEntity
  8
AM_9
100
AcDbLine
 10
1.0236
 20
-0.5973333799999999
 30
0.0
 11
1.0236
 21
0.5973333800000001
 31
0.0
  0
LINE
  5
168
330
12E
100
AcDbEntity
  8
AM_9
100
AcDbLine
 10
-1.0236
 20
0.5973333800000001
 30
0.0
 11
-1.0236
 21
-0.5973333800000001
 31
0.0
  0
LINE
  5
169
330
12E
100
AcDbEntity
  8
AM_9
100
AcDbLine
 10
0.995
 20
-0.5973333799999999
 30
0.0
 11
-0.995
 21
-0.5973333800000001
 31
0.0
  0
LINE
  5
16C
330
12E
100
AcDbEntity
  8
AM_7
100
AcDbLine
 10
2.437
 20
-0.4999999999999998
 30
0.0
 11
2.563
 21
-0.4999999999999998
 31
0.0
  0
LINE
  5
16D
330
12E
100
AcDbEntity
  8
AM_7
100
AcDbLine
 10
2.5
 20
-0.5629999999999997
 30
0.0
 11
2.5
 21
-0.4369999999999998
 31
0.0
  0
LINE
  5
16E
330
12E
100
AcDbEntity
  8
AM_7
100
AcDbLine
 10
-2.563
 20
-0.5000000000000001
 30
0.0
 11
-2.437
 21
-0.5000000000000001
 31
0.0
  0
LINE
  5
16F
330
12E
100
AcDbEntity
  8
AM_7
100
AcDbLine
 10
-2.5
 20
-0.5630000000000002
 30
0.0
 11
-2.5
 21
-0.4370000000000001
 31
0.0
  0
LINE
  5
170
330
12E
100
AcDbEntity
  8
AM_7
100
AcDbLine
 10
0.0
 20
0.77
 30
0.0
 11
0.0
 21
-0.9519999999999998
 31
0.0
  0
LINE
  5
171
330
12E
100
AcDbEntity
  8
AM_7
100
AcDbLine
 10
-2.041875
 20
0.0000000000000003
 30
0.0
 11
-1.648125
 21
0.0000000000000003
 31
0.0
  0
LINE
  5
172
330
12E
100
AcDbEntity
  8
AM_7
100
AcDbLine
 10
-1.845
 20
-0.1968749999999997
 30
0.0
 11
-1.845
 21
0.1968750000000003
 31
0.0
  0
LINE
  5
173
330
12E
100
AcDbEntity
  8
AM_7
100
AcDbLine
 10
1.648125
 20
0.0000000000000002
 30
0.0
 11
2.041875
 21
0.0000000000000002
 31
0.0
  0
LINE
  5
174
330
12E
100
AcDbEntity
  8
AM_7
100
AcDbLine
 10
1.845
 20
-0.1968749999999999
 30
0.0
 11
1.845
 21
0.1968750000000002
 31
0.0
  0
LINE
  5
175
330
12E
100
AcDbEntity
  8
AM_7
100
AcDbLine
 10
2.053125
 20
0.0000000000000001
 30
0.0
 11
2.446875
 21
0.0000000000000001
 31
0.0
  0
LINE
  5
176
330
12E
100
AcDbEntity
  8
AM_7
100
AcDbLine
 10
2.25
 20
-0.1968749999999999
 30
0.0
 11
2.25
 21
0.1968750000000001
 31
0.0
  0
LINE
  5
177
330
12E
100
AcDbEntity
  8
AM_7
100
AcDbLine
 10
-2.446875
 20
0.0000000000000002
 30
0.0
 11
-2.053125000000001
 21
0.0000000000000002
 31
0.0
  0
LINE
  5
178
330
12E
100
AcDbEntity
  8
AM_7
100
AcDbLine
 10
-2.25
 20
-0.1968749999999993
 30
0.0
 11
-2.25
 21
0.1968749999999998
 31
0.0
  0
LINE
  5
179
330
12E
100
AcDbEntity
  8
AM_4
100
AcDbLine
 10
2.609
 20
0.7
 30
0.0
 11
1.109602631692859
 21
0.7
 31
0.0
  0
LINE
  5
17A
330
12E
100
AcDbEntity
  8
AM_4
100
AcDbLine
 10
2.75
 20
-0.5590000000000002
 30
0.0
 11
2.75
 21
0.5590000000000005
 31
0.0
  0
LINE
  5
17B
330
12E
100
AcDbEntity
  8
AM_4
100
AcDbLine
 10
2.75
 20
0.5590000000000005
 30
0.0
 11
2.609
 21
0.7
 31
0.0
  0
LINE
  5
17C
330
12E
100
AcDbEntity
  8
AM_4
100
AcDbLine
 10
-1.109602631692859
 20
0.7
 30
0.0
 11
-2.609
 21
0.7
 31
0.0
  0
LINE
  5
17D
330
12E
100
AcDbEntity
  8
AM_4
100
AcDbLine
 10
-2.75
 20
0.559
 30
0.0
 11
-2.75
 21
-0.5590000000000005
 31
0.0
  0
LINE
  5
17E
330
12E
100
AcDbEntity
  8
AM_4
100
AcDbLine
 10
-2.609
 20
0.7
 30
0.0
 11
-2.75
 21
0.559
 31
0.0
  0
LINE
  5
17F
330
12E
100
AcDbEntity
  8
AM_4
100
AcDbLine
 10
2.609
 20
-0.7
 30
0.0
 11
2.75
 21
-0.5590000000000002
 31
0.0
  0
LWPOLYLINE
  5
180
330
12E
100
AcDbEntity
  8
AM_4
100
AcDbPolyline
 90
       10
 70
     0
 43
0.0
 10
2.75
 20
0.0000000000000002
 10
2.749999295773738
 20
0.0008391816048649
 10
2.748630779557053
 20
0.0369768053909844
 10
2.744634464202151
 20
0.0730530411649743
 10
2.737797227398482
 20
0.1097866285205412
 10
2.728121924185353
 20
0.1462854251567641
 10
2.720646742497317
 20
0.1687932572675497
 10
2.712037396275927
 20
0.1911058461757849
 10
2.70206831573675
 20
0.2136177742897301
 10
2.6909449
 20
0.2357277988782623
  0
LWPOLYLINE
  5
181
330
12E
100
AcDbEntity
  8
AM_4
100
AcDbPolyline
 90
       10
 70
     0
 43
0.0
 10
-2.6909449
 20
0.2357277988782619
 10
-2.701832000886008
 20
0.2141174572389422
 10
-2.711616523285442
 20
0.1921202369087161
 10
-2.720462559491004
 20
0.1693057799489327
 10
-2.728121924185353
 20
0.146285425156763
 10
-2.737613457754927
 20
0.1106002140263487
 10
-2.744390181146138
 20
0.07468834438042
 10
-2.74856929564062
 20
0.0377966507656695
 10
-2.749999295773738
 20
0.0008391816048417
 10
-2.75
 20
0.0000000000000004
  0
LINE
  5
182
330
12E
100
AcDbEntity
  8
AM_4
100
AcDbLine
 10
-2.75
 20
-0.5590000000000005
 30
0.0
 11
-2.609
 21
-0.7
 31
0.0
  0
LINE
  5
183
330
12E
100
AcDbEntity
  8
AM_4
100
AcDbLine
 10
2.609
 20
-0.7
 30
0.0
 11
1.109602631692859
 21
-0.7
 31
0.0
  0
CIRCLE
  5
184
330
12E
100
AcDbEntity
  8
AM_4
100
AcDbCircle
 10
2.5
 20
-0.4999999999999998
 30
0.0
 40
0.06
  0
LINE
  5
185
330
12E
100
AcDbEntity
  8
AM_4
100
AcDbLine
 10
2.25
 20
0.1875000000000003
 30
0.0
 11
1.845
 21
0.1875000000000001
 31
0.0
  0
ARC
  5
186
330
12E
100
AcDbEntity
  8
AM_4
100
AcDbCircle
 10
2.25
 20
0.0000000000000002
 30
0.0
 40
0.1875
100
AcDbArc
 50
270.0
 51
90.0
  0
LINE
  5
187
330
12E
100
AcDbEntity
  8
AM_4
100
AcDbLine
 10
1.845
 20
-0.1874999999999998
 30
0.0
 11
2.25
 21
-0.1874999999999998
 31
0.0
  0
ARC
  5
188
330
12E
100
AcDbEntity
  8
AM_4
100
AcDbCircle
 10
1.845
 20
0.0000000000000002
 30
0.0
 40
0.1875
100
AcDbArc
 50
90.0
 51
270.0
  0
ARC
  5
189
330
12E
100
AcDbEntity
  8
AM_4
100
AcDbCircle
 10
1.7761402
 20
0.5787402000000001
 30
0.0
 40
0.0787402000000004
100
AcDbArc
 50
180.0
 51
270.0
  0
LINE
  5
18A
330
12E
100
AcDbEntity
  8
AM_4
100
AcDbLine
 10
2.6909449
 20
-0.6180551000000002
 30
0.0
 11
2.6909449
 21
0.2357277988782623
 31
0.0
  0
ARC
  5
18B
330
12E
100
AcDbEntity
  8
AM_4
100
AcDbCircle
 10
2.25
 20
-0.0000000000000008
 30
0.0
 40
0.5000000000000007
100
AcDbArc
 50
28.1288240863371
 51
90.0
  0
LINE
  5
18C
330
12E
100
AcDbEntity
  8
AM_4
100
AcDbLine
 10
1.7761402
 20
0.4999999999999997
 30
0.0
 11
2.25
 21
0.4999999999999999
 31
0.0
  0
CIRCLE
  5
18D
330
12E
100
AcDbEntity
  8
AM_4
100
AcDbCircle
 10
-2.5
 20
-0.5000000000000001
 30
0.0
 40
0.06
  0
LINE
  5
18E
330
12E
100
AcDbEntity
  8
AM_4
100
AcDbLine
 10
-1.845
 20
0.1875000000000002
 30
0.0
 11
-2.25
 21
0.1875000000000002
 31
0.0
  0
ARC
  5
18F
330
12E
100
AcDbEntity
  8
AM_4
100
AcDbCircle
 10
-1.845
 20
0.0000000000000003
 30
0.0
 40
0.1875000000000002
100
AcDbArc
 50
270.0
 51
90.0
  0
LINE
  5
190
330
12E
100
AcDbEntity
  8
AM_4
100
AcDbLine
 10
-2.25
 20
-0.1874999999999998
 30
0.0
 11
-1.845
 21
-0.1874999999999998
 31
0.0
  0
ARC
  5
191
330
12E
100
AcDbEntity
  8
AM_4
100
AcDbCircle
 10
-2.25
 20
0.0000000000000002
 30
0.0
 40
0.1875
100
AcDbArc
 50
90.0
 51
270.0
  0
LINE
  5
192
330
12E
100
AcDbEntity
  8
AM_4
100
AcDbLine
 10
-2.25
 20
0.4999999999999998
 30
0.0
 11
-1.7761402
 21
0.4999999999999999
 31
0.0
  0
ARC
  5
193
330
12E
100
AcDbEntity
  8
AM_4
100
AcDbCircle
 10
-2.249999999999999
 20
-0.0000000000000025
 30
0.0
 40
0.5000000000000022
100
AcDbArc
 50
90.0
 51
151.8711759136629
  0
LINE
  5
194
330
12E
100
AcDbEntity
  8
AM_4
100
AcDbLine
 10
-2.6909449
 20
-0.6180551000000004
 30
0.0
 11
-2.6909449
 21
0.2357277988782619
 31
0.0
  0
LINE
  5
195
330
12E
100
AcDbEntity
  8
AM_4
100
AcDbLine
 10
-1.109602631692859
 20
-0.7
 30
0.0
 11
-2.609
 21
-0.7
 31
0.0
  0
ARC
  5
196
330
12E
100
AcDbEntity
  8
AM_4
100
AcDbCircle
 10
-1.776140200000001
 20
0.5787402
 30
0.0
 40
0.0787402000000001
100
AcDbArc
 50
270.0
 51
0.0
  0
LWPOLYLINE
  5
197
330
12E
100
AcDbEntity
  8
AM_4
100
AcDbPolyline
 90
       31
 70
     0
 43
0.0
 10
1.6974
 20
0.477717740930772
 10
1.656325818027104
 20
0.4630356930700468
 10
1.616687560503607
 20
0.4448296639964629
 10
1.578786898503498
 20
0.4232382125843711
 10
1.542912278949643
 20
0.3984256628162923
 10
1.509336729358534
 20
0.3705808531781888
 10
1.478315779936031
 20
0.3399156994845621
 10
1.450085518838201
 20
0.306663582071147
 10
1.424860795397895
 20
0.2710775696296369
 10
1.402833584991599
 20
0.2334284932021335
 10
1.384171527990897
 20
0.194002884993384
 10
1.369016653918025
 20
0.1531007976876901
 10
1.357484300515439
 20
0.1110335208668038
 10
1.349662235955957
 20
0.0681212119082481
 10
1.345609990873971
 20
0.0246904593943584
 10
1.345358405301365
 20
-0.0189282024240295
 10
1.348909393956259
 20
-0.0624028091928094
 10
1.356235931670845
 20
-0.1054024929037856
 10
1.367282259069228
 20
-0.1475999999999987
 10
1.381964306929953
 20
-0.1886741819728951
 10
1.400170336003537
 20
-0.2283124394963919
 10
1.421761787415629
 20
-0.2662131014965009
 10
1.446574337183707
 20
-0.302087721050356
 10
1.474419146821811
 20
-0.3356632706414648
 10
1.505084300515438
 20
-0.3666842200639678
 10
1.538336417928853
 20
-0.3949144811617985
 10
1.573922430370363
 20
-0.4201392046021045
 10
1.611571506797866
 20
-0.4421664150084006
 10
1.650997115006615
 20
-0.4608284720091018
 10
1.691899202312309
 20
-0.4759833460819745
 10
1.6974
 20
-0.4777177409307717
  0
LINE
  5
198
330
12E
100
AcDbEntity
  8
AM_4
100
AcDbLine
 10
1.6974
 20
0.477717740930772
 30
0.0
 11
1.6974
 21
0.7
 31
0.0
  0
LINE
  5
199
330
12E
100
AcDbEntity
  8
AM_4
100
AcDbLine
 10
1.697400000000001
 20
-0.7
 30
0.0
 11
1.6974
 21
-0.4777177409307717
 31
0.0
  0
LWPOLYLINE
  5
19A
330
12E
100
AcDbEntity
  8
AM_4
100
AcDbPolyline
 90
       31
 70
     0
 43
0.0
 10
-1.6974
 20
-0.4777177409307719
 10
-1.656325818027104
 20
-0.4630356930700467
 10
-1.616687560503607
 20
-0.4448296639964628
 10
-1.578786898503498
 20
-0.4232382125843711
 10
-1.542912278949643
 20
-0.3984256628162922
 10
-1.509336729358534
 20
-0.3705808531781887
 10
-1.478315779936031
 20
-0.339915699484562
 10
-1.450085518838201
 20
-0.3066635820711468
 10
-1.424860795397895
 20
-0.2710775696296367
 10
-1.402833584991599
 20
-0.2334284932021333
 10
-1.384171527990897
 20
-0.1940028849933838
 10
-1.369016653918025
 20
-0.15310079768769
 10
-1.357484300515439
 20
-0.1110335208668036
 10
-1.349662235955957
 20
-0.068121211908248
 10
-1.345609990873971
 20
-0.0246904593943582
 10
-1.345358405301365
 20
0.0189282024240297
 10
-1.348909393956259
 20
0.0624028091928096
 10
-1.356235931670845
 20
0.1054024929037858
 10
-1.367282259069228
 20
0.1475999999999989
 10
-1.381964306929953
 20
0.1886741819728952
 10
-1.400170336003537
 20
0.228312439496392
 10
-1.421761787415629
 20
0.2662131014965011
 10
-1.446574337183707
 20
0.3020877210503562
 10
-1.474419146821811
 20
0.335663270641465
 10
-1.505084300515438
 20
0.3666842200639679
 10
-1.538336417928853
 20
0.3949144811617987
 10
-1.573922430370363
 20
0.4201392046021046
 10
-1.611571506797866
 20
0.4421664150084007
 10
-1.650997115006615
 20
0.4608284720091018
 10
-1.691899202312309
 20
0.4759833460819746
 10
-1.6974
 20
0.4777177409307719
  0
LINE
  5
19B
330
12E
100
AcDbEntity
  8
AM_4
100
AcDbLine
 10
-1.6974
 20
-0.7
 30
0.0
 11
-1.6974
 21
-0.4777177409307719
 31
0.0
  0
LINE
  5
19C
330
12E
100
AcDbEntity
  8
AM_4
100
AcDbLine
 10
-1.6974
 20
0.4777177409307719
 30
0.0
 11
-1.6974
 21
0.7
 31
0.0
  0
LINE
  5
19D
330
12E
100
AcDbEntity
  8
AM_4
100
AcDbLine
 10
-0.995
 20
-0.5973333800000001
 30
0.0
 11
-1.055
 21
-0.59733338
 31
0.0
  0
LINE
  5
19E
330
12E
100
AcDbEntity
  8
AM_4
100
AcDbLine
 10
1.055
 20
-0.5973333799999999
 30
0.0
 11
0.995
 21
-0.5973333799999999
 31
0.0
  0
LINE
  5
19F
330
12E
100
AcDbEntity
  8
AM_4
100
AcDbLine
 10
1.697400000000001
 20
-0.7
 30
0.0
 11
1.259139866287708
 21
-0.5627347071828711
 31
0.0
  0
LINE
  5
1A0
330
12E
100
AcDbEntity
  8
AM_4
100
AcDbLine
 10
-1.259139866287707
 20
-0.562734707182871
 30
0.0
 11
-1.6974
 21
-0.7
 31
0.0
  0
LWPOLYLINE
  5
1A1
330
12E
100
AcDbEntity
  8
AM_4
100
AcDbPolyline
 90
       10
 70
     0
 43
0.0
 10
-1.109602631692859
 20
-0.7
 10
-1.107452253545045
 20
-0.6972517569380023
 10
-1.10554958340062
 20
-0.6943265539659117
 10
-1.103909101728246
 20
-0.6912466536446317
 10
-1.102543293584001
 20
-0.6880354958753019
 10
-1.101462553592559
 20
-0.6847175195074967
 10
-1.100675106837824
 20
-0.6813179763448245
 10
-1.100186946265073
 20
-0.6778627389634531
 10
-1.100001787071024
 20
-0.6743781038061843
 10
-1.1
 20
-0.6739999999999997
  0
LINE
  5
1A2
330
12E
100
AcDbEntity
  8
AM_4
100
AcDbLine
 10
-1.1
 20
-0.6739999999999997
 30
0.0
 11
-1.1
 21
-0.64233338
 31
0.0
  0
LWPOLYLINE
  5
1A3
330
12E
100
AcDbEntity
  8
AM_4
100
AcDbPolyline
 90
       19
 70
     0
 43
0.0
 10
-1.055
 20
-0.5973333800000002
 10
-1.058922008423645
 20
-0.5975046185858716
 10
-1.062814167995012
 20
-0.5980170311144508
 10
-1.066646857029613
 20
-0.5988667178169921
 10
-1.070390906449655
 20
-0.6000472120646343
 10
-1.074017821778332
 20
-0.601549529583351
 10
-1.0775
 20
-0.6033622368297005
 10
-1.080810939635797
 20
-0.6054715380069956
 10
-1.083925442435894
 20
-0.6078613800596462
 10
-1.086819805153395
 20
-0.6105135748466056
 10
-1.089471999940354
 20
-0.6134079375641059
 10
-1.091861841993005
 20
-0.6165224403642032
 10
-1.0939711431703
 20
-0.6198333800000003
 10
-1.095783850416649
 20
-0.6233155582216688
 10
-1.097286167935366
 20
-0.6269424735503453
 10
-1.098466662183008
 20
-0.630686522970387
 10
-1.09931634888555
 20
-0.6345192120049885
 10
-1.099828761414129
 20
-0.6384113715763557
 10
-1.1
 20
-0.64233338
  0
LWPOLYLINE
  5
1A4
330
12E
100
AcDbEntity
  8
AM_4
100
AcDbPolyline
 90
       35
 70
     0
 43
0.0
 10
1.018343993973974
 20
-0.5973333799999999
 10
1.005439758822139
 20
-0.5879190210156113
 10
0.9848835200045418
 20
-0.5786603154765578
 10
0.9568317229107814
 20
-0.569627727722551
 10
0.9214978586548794
 20
-0.5608900012004243
 10
0.8791508392789938
 20
-0.5525136352849948
 10
0.8301129511704046
 20
-0.5445623791786668
 10
0.7747574022675042
 20
-0.5370967467415092
 10
0.7135054817220383
 20
-0.530173555944241
 10
0.6468233536342787
 20
-0.523845496449166
 10
0.5752185092627429
 20
-0.5181607286100289
 10
0.4992359047092855
 20
-0.513162516942642
 10
0.4194538134741093
 20
-0.5088889008557969
 10
0.3364794254452579
 20
-0.5053724051483943
 10
0.250944225816936
 20
-0.5026397924760859
 10
0.1634991891058809
 20
-0.5007118596713045
 10
0.0748098248422204
 20
-0.499603279466812
 10
-0.0144488873598966
 20
-0.4993224888273439
 10
-0.103597634804728
 20
-0.4998716247392124
 10
-0.1919579416947334
 20
-0.5012465079465509
 10
-0.2788573327410676
 20
-0.5034366747579744
 10
-0.363634451106581
 20
-0.506425456681589
 10
-0.4456440917306887
 20
-0.5101901072822802
 10
-0.5242621117294661
 20
-0.5147019752958186
 10
-0.5988901804998642
 20
-0.5199267226822807
 10
-0.6689603333768804
 20
-0.5258245859592667
 10
-0.7339392941876054
 20
-0.5323506788260117
 10
-0.7933325338049002
 20
-0.5394553337752371
 10
-0.8466880338126589
 20
-0.5470844800928715
 10
-0.8935997266388904
 20
-0.5551800553688329
 10
-0.9337105859751328
 20
-0.5636804473870294
 10
-0.966715343962238
 20
-0.5725209630315253
 10
-0.9923628144631065
 20
-0.5816343206402171
 10
-1.010457804740861
 20
-0.5909511620589066
 10
-1.018343993973974
 20
-0.59733338
  0
LWPOLYLINE
  5
1A5
330
12E
100
AcDbEntity
  8
AM_4
100
AcDbPolyline
 90
       19
 70
     0
 43
0.0
 10
1.1
 20
-0.6423333799999995
 10
1.099828761414129
 20
-0.638411371576355
 10
1.099316348885549
 20
-0.6345192120049876
 10
1.098466662183008
 20
-0.6306865229703861
 10
1.097286167935366
 20
-0.6269424735503445
 10
1.095783850416649
 20
-0.6233155582216682
 10
1.0939711431703
 20
-0.6198333799999997
 10
1.091861841993005
 20
-0.6165224403642027
 10
1.089471999940354
 20
-0.6134079375641054
 10
1.086819805153395
 20
-0.6105135748466051
 10
1.083925442435894
 20
-0.6078613800596457
 10
1.080810939635797
 20
-0.6054715380069952
 10
1.0775
 20
-0.6033622368297
 10
1.074017821778332
 20
-0.6015495295833505
 10
1.070390906449656
 20
-0.600047212064634
 10
1.066646857029614
 20
-0.5988667178169916
 10
1.062814167995012
 20
-0.5980170311144505
 10
1.058922008423645
 20
-0.5975046185858712
 10
1.055000000000001
 20
-0.5973333799999998
  0
LINE
  5
1A6
330
12E
100
AcDbEntity
  8
AM_4
100
AcDbLine
 10
1.1
 20
-0.6423333799999995
 30
0.0
 11
1.1
 21
-0.6739999999999998
 31
0.0
  0
LWPOLYLINE
  5
1A7
330
12E
100
AcDbEntity
  8
AM_4
100
AcDbPolyline
 90
       10
 70
     0
 43
0.0
 10
1.1
 20
-0.6739999999999999
 10
1.10015221207633
 20
-0.6774862297099062
 10
1.100607689879512
 20
-0.6809459271066772
 10
1.101362966948437
 20
-0.6843527618041009
 10
1.102412295168564
 20
-0.6876808057330268
 10
1.103747688518534
 20
-0.6909047304696281
 10
1.105358983848623
 20
-0.6940000000000002
 10
1.107233918228441
 20
-0.696943057454042
 10
1.109358222275241
 20
-0.6997115043874618
 10
1.109602631692859
 20
-0.7
  0
LWPOLYLINE
  5
1A8
330
12E
100
AcDbEntity
  8
AM_4
100
AcDbPolyline
 90
       30
 70
     0
 43
0.0
 10
1.259139866287708
 20
-0.5627347071828711
 10
1.217017018476062
 20
-0.5512159716546192
 10
1.165631936298847
 20
-0.5401322219392467
 10
1.10537569125859
 20
-0.5295678120646387
 10
1.036706869763765
 20
-0.5196031435689061
 10
0.9601480830093145
 20
-0.5103140535961326
 10
0.8762819895898997
 20
-0.501771237729917
 10
0.785746861116174
 20
-0.4940397119572946
 10
0.6892317245824275
 20
-0.4871783178578177
 10
0.5874711184551151
 20
-0.4812392747836065
 10
0.4812395023915995
 20
-0.4762677824385478
 10
0.3713453631345274
 20
-0.4723016768812569
 10
0.2586250614395408
 20
-0.4693711425698248
 10
0.1439364668649176
 20
-0.4674984826398663
 10
0.0281524288662375
 20
-0.4666979491641914
 10
-0.0878458661150161
 20
-0.4669756346859255
 10
-0.2031756010123501
 20
-0.4683294258505769
 10
-0.3169590469051982
 20
-0.4707490194899413
 10
-0.4283302430659924
 20
-0.4742160010354324
 10
-0.5364415874441825
 20
-0.4787039846640684
 10
-0.6404702874296356
 20
-0.4841788141105168
 10
-0.7396246218012164
 20
-0.4905988226168976
 10
-0.8331499662033327
 20
-0.4979151500419704
 10
-0.9203345362929377
 20
-0.5060721147163109
 10
-1.000514804848167
 20
-0.5150076372134373
 10
-1.073080551611145
 20
-0.5246537128117308
 10
-1.137479507432609
 20
-0.5349369290514284
 10
-1.193221557373607
 20
-0.5457790244477705
 10
-1.239882470776116
 20
-0.5570974841081545
 10
-1.259139866287708
 20
-0.5627347071828709
  0
LINE
  5
1A9
330
12E
100
AcDbEntity
  8
AM_4
100
AcDbLine
 10
1.259139866287708
 20
-0.5627347071828711
 30
0.0
 11
1.259139866287708
 21
0.5627347071828712
 31
0.0
  0
LINE
  5
1AA
330
12E
100
AcDbEntity
  8
AM_4
100
AcDbLine
 10
-1.259139866287707
 20
-0.562734707182871
 30
0.0
 11
-1.259139866287707
 21
0.562734707182871
 31
0.0
  0
LINE
  5
1AB
330
12E
100
AcDbEntity
  8
AM_4
100
AcDbLine
 10
1.259139866287708
 20
0.5627347071828712
 30
0.0
 11
1.6974
 21
0.7
 31
0.0
  0
LWPOLYLINE
  5
1AC
330
12E
100
AcDbEntity
  8
AM_4
100
AcDbPolyline
 90
       10
 70
     0
 43
0.0
 10
1.109602631692859
 20
0.7
 10
1.107452253545045
 20
0.6972517569380023
 10
1.10554958340062
 20
0.6943265539659117
 10
1.103909101728246
 20
0.6912466536446317
 10
1.102543293584001
 20
0.6880354958753019
 10
1.101462553592559
 20
0.6847175195074968
 10
1.100675106837824
 20
0.6813179763448245
 10
1.100186946265073
 20
0.6778627389634533
 10
1.100001787071024
 20
0.6743781038061845
 10
1.1
 20
0.6739999999999997
  0
LINE
  5
1AD
330
12E
100
AcDbEntity
  8
AM_4
100
AcDbLine
 10
1.1
 20
0.6739999999999997
 30
0.0
 11
1.1
 21
0.6423333800000003
 31
0.0
  0
LWPOLYLINE
  5
1AE
330
12E
100
AcDbEntity
  8
AM_4
100
AcDbPolyline
 90
       19
 70
     0
 43
0.0
 10
1.054999997235243
 20
0.5973333800000004
 10
1.058922005669408
 20
0.5975046183449072
 10
1.062814165272257
 20
0.5980170306343559
 10
1.066646854359063
 20
0.5988667171014203
 10
1.070390903851633
 20
0.6000472111190316
 10
1.07401781927261
 20
0.6015495284149139
 10
1.07749999760565
 20
0.6033622354473216
 10
1.08081093737104
 20
0.6054715364211958
 10
1.083925440317967
 20
0.6078613782824942
 10
1.086819803198416
 20
0.6105135728916266
 10
1.089471998163202
 20
0.6134079354461787
 10
1.091861840407205
 20
0.6165224380994462
 10
1.093971141787921
 20
0.6198333776056497
 10
1.095783849248212
 20
0.6233155557159472
 10
1.097286166989763
 20
0.6269424709523226
 10
1.098466661467436
 20
0.6306865202998357
 10
1.099316348405454
 20
0.6345192092822334
 10
1.099828761173164
 20
0.6384113688221185
 10
1.1
 20
0.6423333772352423
  0
LINE
  5
1AF
330
12E
100
AcDbEntity
  8
AM_4
100
AcDbLine
 10
1.055
 20
0.5973333800000002
 30
0.0
 11
-1.054999999999999
 21
0.59733338
 31
0.0
  0
LWPOLYLINE
  5
1B0
330
12E
100
AcDbEntity
  8
AM_4
100
AcDbPolyline
 90
       35
 70
     0
 43
0.0
 10
-1.018343993973974
 20
0.59733338
 10
-1.005439758822139
 20
0.5879190210156114
 10
-0.9848835200045422
 20
0.5786603154765579
 10
-0.9568317229107819
 20
0.5696277277225511
 10
-0.9214978586548799
 20
0.5608900012004244
 10
-0.8791508392789943
 20
0.5525136352849949
 10
-0.8301129511704052
 20
0.5445623791786669
 10
-0.7747574022675048
 20
0.5370967467415093
 10
-0.713505481722039
 20
0.530173555944241
 10
-0.6468233536342793
 20
0.5238454964491662
 10
-0.5752185092627435
 20
0.518160728610029
 10
-0.4992359047092862
 20
0.5131625169426421
 10
-0.4194538134741101
 20
0.508888900855797
 10
-0.3364794254452586
 20
0.5053724051483944
 10
-0.2509442258169368
 20
0.502639792476086
 10
-0.1634991891058817
 20
0.5007118596713045
 10
-0.0748098248422212
 20
0.4996032794668122
 10
0.0144488873598958
 20
0.499322488827344
 10
0.1035976348047273
 20
0.4998716247392125
 10
0.1919579416947325
 20
0.501246507946551
 10
0.2788573327410668
 20
0.5034366747579745
 10
0.3636344511065804
 20
0.506425456681589
 10
0.4456440917306879
 20
0.5101901072822802
 10
0.5242621117294655
 20
0.5147019752958186
 10
0.5988901804998635
 20
0.5199267226822807
 10
0.6689603333768797
 20
0.5258245859592667
 10
0.7339392941876048
 20
0.5323506788260117
 10
0.7933325338048999
 20
0.5394553337752371
 10
0.8466880338126583
 20
0.5470844800928714
 10
0.8935997266388902
 20
0.5551800553688329
 10
0.9337105859751326
 20
0.5636804473870293
 10
0.9667153439622378
 20
0.5725209630315253
 10
0.9923628144631063
 20
0.581634320640217
 10
1.010457804740861
 20
0.5909511620589065
 10
1.018343993973975
 20
0.5973333800000002
  0
LWPOLYLINE
  5
1B1
330
12E
100
AcDbEntity
  8
AM_4
100
AcDbPolyline
 90
       19
 70
     0
 43
0.0
 10
-1.1
 20
0.64233338
 10
-1.099828761414129
 20
0.6384113715763553
 10
-1.099316348885549
 20
0.6345192120049882
 10
-1.098466662183008
 20
0.6306865229703866
 10
-1.097286167935366
 20
0.6269424735503449
 10
-1.095783850416649
 20
0.6233155582216686
 10
-1.0939711431703
 20
0.61983338
 10
-1.091861841993005
 20
0.616522440364203
 10
-1.089471999940354
 20
0.6134079375641058
 10
-1.086819805153395
 20
0.6105135748466055
 10
-1.083925442435894
 20
0.6078613800596461
 10
-1.080810939635797
 20
0.6054715380069955
 10
-1.0775
 20
0.6033622368297004
 10
-1.074017821778332
 20
0.6015495295833508
 10
-1.070390906449655
 20
0.6000472120646343
 10
-1.066646857029613
 20
0.598866717816992
 10
-1.062814167995012
 20
0.5980170311144507
 10
-1.058922008423645
 20
0.5975046185858716
 10
-1.055
 20
0.59733338
  0
LINE
  5
1B2
330
12E
100
AcDbEntity
  8
AM_4
100
AcDbLine
 10
-1.1
 20
0.64233338
 30
0.0
 11
-1.1
 21
0.6739999999999999
 31
0.0
  0
LWPOLYLINE
  5
1B3
330
12E
100
AcDbEntity
  8
AM_4
100
AcDbPolyline
 90
       10
 70
     0
 43
0.0
 10
-1.1
 20
0.6739999999999999
 10
-1.10015221207633
 20
0.6774862297099062
 10
-1.100607689879512
 20
0.6809459271066772
 10
-1.101362966948437
 20
0.6843527618041009
 10
-1.102412295168564
 20
0.6876808057330268
 10
-1.103747688518534
 20
0.6909047304696281
 10
-1.105358983848623
 20
0.6940000000000002
 10
-1.107233918228441
 20
0.696943057454042
 10
-1.109358222275241
 20
0.6997115043874618
 10
-1.109602631692859
 20
0.7
  0
LINE
  5
1B4
330
12E
100
AcDbEntity
  8
AM_4
100
AcDbLine
 10
-1.6974
 20
0.7
 30
0.0
 11
-1.259139866287707
 21
0.562734707182871
 31
0.0
  0
LWPOLYLINE
  5
1B5
330
12E
100
AcDbEntity
  8
AM_4
100
AcDbPolyline
 90
       30
 70
     0
 43
0.0
 10
-1.259139866287708
 20
0.5627347071828711
 10
-1.217017018476062
 20
0.5512159716546191
 10
-1.165631936298847
 20
0.5401322219392466
 10
-1.10537569125859
 20
0.5295678120646387
 10
-1.036706869763765
 20
0.519603143568906
 10
-0.9601480830093143
 20
0.5103140535961326
 10
-0.8762819895898993
 20
0.501771237729917
 10
-0.7857468611161736
 20
0.4940397119572946
 10
-0.6892317245824272
 20
0.4871783178578177
 10
-0.5874711184551148
 20
0.4812392747836065
 10
-0.481239502391599
 20
0.4762677824385478
 10
-0.3713453631345269
 20
0.472301676881257
 10
-0.2586250614395403
 20
0.4693711425698248
 10
-0.1439364668649172
 20
0.4674984826398663
 10
-0.028152428866237
 20
0.4666979491641914
 10
0.0878458661150166
 20
0.4669756346859255
 10
0.2031756010123506
 20
0.468329425850577
 10
0.3169590469051986
 20
0.4707490194899414
 10
0.4283302430659928
 20
0.4742160010354324
 10
0.5364415874441829
 20
0.4787039846640684
 10
0.6404702874296361
 20
0.4841788141105169
 10
0.7396246218012167
 20
0.4905988226168978
 10
0.833149966203333
 20
0.4979151500419705
 10
0.920334536292938
 20
0.506072114716311
 10
1.000514804848167
 20
0.5150076372134373
 10
1.073080551611145
 20
0.5246537128117308
 10
1.13747950743261
 20
0.5349369290514285
 10
1.193221557373607
 20
0.5457790244477705
 10
1.239882470776116
 20
0.5570974841081546
 10
1.259139866287708
 20
0.5627347071828711
  0
ENDBLK
  5
131
330
12E
100
AcDbEntity
  8
0
100
AcDbBlockEnd
  0
ENDSEC
  0
SECTION
  2
ENTITIES
  0
INSERT
  5
6F
330
1F
100
AcDbEntity
  8
0
100
AcDbBlockReference
  2
1_128435_4
 10
0.0
 20
0.0
 30
0.0
  0
POINT
  5
1B7
330
1F
100
AcDbEntity
  8
ConnectionPoints
100
AcDbPoint
 10
0.0
 20
-0.8799999999999999
 30
1.44
  0
POINT
  5
1B8
330
1F
100
AcDbEntity
  8
ConnectionPoints
100
AcDbPoint
 10
0.0
 20
0.56
 30
1.44
  0
POINT
  5
1B9
330
1F
100
AcDbEntity
  8
ConnectionPoints
100
AcDbPoint
 10
0.0
 20
0.0
 30
1.44
  0
POINT
  5
1BA
330
1F
100
AcDbEntity
  8
ConnectionPoints
100
AcDbPoint
 10
0.0
 20
-0.8799999999999999
 30
1.44
  0
POINT
  5
1BB
330
1F
100
AcDbEntity
  8
ConnectionPoints
100
AcDbPoint
 10
0.9404520189781085
 20
0.0000000000000001
 30
2.380452018978108
  0
ENDSEC
  0
SECTION
  2
OBJECTS
  0
DICTIONARY
  5
C
330
0
100
AcDbDictionary
281
     1
  3
ACAD_DETAILVIEWSTYLE
350
1C3
  3
ACAD_GROUP
350
D
  3
ACAD_LAYOUT
350
1A
  3
ACAD_MATERIAL
350
43
  3
ACAD_MLEADERSTYLE
350
6B
  3
ACAD_MLINESTYLE
350
17
  3
ACAD_PLOTSETTINGS
350
19
  3
ACAD_PLOTSTYLENAME
350
E
  3
ACAD_SCALELIST
350
47
  3
ACAD_SECTIONVIEWSTYLE
350
1C4
  3
ACAD_TABLESTYLE
350
69
  3
ACAD_VISUALSTYLE
350
2A
  3
ACDB_RECOMPOSE_DATA
350
1C0
  3
AcDbVariableDictionary
350
1BC
  0
SUN
  5
6D
330
29
100
AcDbSun
 90
        1
290
     0
 63
     7
421
 16777215
 40
1.0
291
     1
 91
  2455826
 92
 54000000
292
     0
 70
     2
 71
   256
280
     1
  0
DICTIONARY
  5
1C3
102
{ACAD_REACTORS
330
C
102
}
330
C
100
AcDbDictionary
281
     1
  0
DICTIONARY
  5
D
102
{ACAD_REACTORS
330
C
102
}
330
C
100
AcDbDictionary
281
     1
  0
DICTIONARY
  5
1A
102
{ACAD_REACTORS
330
C
102
}
330
C
100
AcDbDictionary
281
     1
  3
Layout1
350
1E
  3
Layout2
350
26
  3
Model
350
22
  0
DICTIONARY
  5
43
102
{ACAD_REACTORS
330
C
102
}
330
C
100
AcDbDictionary
281
     1
  3
ByBlock
350
45
  3
ByLayer
350
44
  3
Global
350
46
  0
DICTIONARY
  5
6B
102
{ACAD_REACTORS
330
C
102
}
330
C
100
AcDbDictionary
281
     1
  3
Standard
350
6C
  0
DICTIONARY
  5
17
102
{ACAD_REACTORS
330
C
102
}
330
C
100
AcDbDictionary
281
     1
  3
Standard
350
18
  0
DICTIONARY
  5
19
102
{ACAD_REACTORS
330
C
102
}
330
C
100
AcDbDictionary
281
     1
  0
ACDBDICTIONARYWDFLT
  5
E
102
{ACAD_REACTORS
330
C
102
}
330
C
100
AcDbDictionary
281
     1
  3
Normal
350
F
100
AcDbDictionaryWithDefault
340
F
  0
DICTIONARY
  5
47
102
{ACAD_REACTORS
330
C
102
}
330
C
100
AcDbDictionary
281
     1
  3
A0
350
48
  3
A1
350
49
  3
A2
350
4A
  3
A3
350
4B
  3
A4
350
4C
  3
A5
350
4D
  3
A6
350
4E
  3
A7
350
4F
  3
A8
350
50
  3
A9
350
51
  3
B0
350
52
  3
B1
350
53
  3
B2
350
54
  3
B3
350
55
  3
B4
350
56
  3
B5
350
57
  3
B6
350
58
  3
B7
350
59
  3
B8
350
5A
  3
B9
350
5B
  3
C0
350
5C
  3
C1
350
5D
  3
C2
350
5E
  3
C3
350
5F
  3
C4
350
60
  3
C5
350
61
  3
C6
350
62
  3
C7
350
63
  3
C8
350
64
  3
C9
350
65
  3
D0
350
66
  3
D1
350
67
  3
D2
350
68
  0
DICTIONARY
  5
1C4
102
{ACAD_REACTORS
330
C
102
}
330
C
100
AcDbDictionary
281
     1
  0
DICTIONARY
  5
69
102
{ACAD_REACTORS
330
C
102
}
330
C
100
AcDbDictionary
281
     1
  3
Standard
350
6A
  0
DICTIONARY
  5
2A
102
{ACAD_REACTORS
330
C
102
}
330
C
100
AcDbDictionary
281
     1
  3
2dWireframe
350
2F
  3
Basic
350
32
  3
Brighten
350
36
  3
ColorChange
350
3A
  3
Conceptual
350
34
  3
Dim
350
35
  3
EdgeColorOff
350
3D
  3
Facepattern
350
39
  3
Flat
350
2B
  3
FlatWithEdges
350
2C
  3
Gouraud
350
2D
  3
GouraudWithEdges
350
2E
  3
Hidden
350
31
  3
JitterOff
350
3B
  3
Linepattern
350
38
  3
OverhangOff
350
3C
  3
Realistic
350
33
  3
Shaded
350
42
  3
Shaded with edges
350
41
  3
Shades of Gray
350
3E
  3
Sketchy
350
3F
  3
Thicken
350
37
  3
Wireframe
350
30
  3
X-Ray
350
40
  0
XRECORD
  5
1C0
102
{ACAD_REACTORS
330
C
102
}
330
C
100
AcDbXrecord
280
     1
 90
        1
330
6A
  0
DICTIONARY
  5
1BC
102
{ACAD_REACTORS
330
C
102
}
330
C
100
AcDbDictionary
281
     1
  3
CANNOSCALE
350
1BD
  3
CMLEADERSTYLE
350
1C2
  3
CTABLESTYLE
350
1C1
  0
LAYOUT
  5
1E
102
{ACAD_REACTORS
330
1A
102
}
330
1A
100
AcDbPlotSettings
  1

  2
none_device
  4

  6

 40
0.0
 41
0.0
 42
0.0
 43
0.0
 44
0.0
 45
0.0
 46
0.0
 47
0.0
 48
0.0
 49
0.0
140
0.0
141
0.0
142
1.0
143
1.0
 70
   688
 72
     0
 73
     0
 74
     5
  7

 75
    16
 76
     0
 77
     2
 78
   300
147
1.0
148
0.0
149
0.0
100
AcDbLayout
  1
Layout1
 70
     1
 71
     1
 10
0.0
 20
0.0
 11
12.0
 21
9.0
 12
0.0
 22
0.0
 32
0.0
 14
1.000000000000000E+20
 24
1.000000000000000E+20
 34
1.000000000000000E+20
 15
-1.000000000000000E+20
 25
-1.000000000000000E+20
 35
-1.000000000000000E+20
146
0.0
 13
0.0
 23
0.0
 33
0.0
 16
1.0
 26
0.0
 36
0.0
 17
0.0
 27
1.0
 37
0.0
 76
     0
330
1B
  0
LAYOUT
  5
26
102
{ACAD_REACTORS
330
1A
102
}
330
1A
100
AcDbPlotSettings
  1

  2
none_device
  4

  6

 40
0.0
 41
0.0
 42
0.0
 43
0.0
 44
0.0
 45
0.0
 46
0.0
 47
0.0
 48
0.0
 49
0.0
140
0.0
141
0.0
142
1.0
143
1.0
 70
   688
 72
     0
 73
     0
 74
     5
  7

 75
    16
 76
     0
 77
     2
 78
   300
147
1.0
148
0.0
149
0.0
100
AcDbLayout
  1
Layout2
 70
     1
 71
     2
 10
0.0
 20
0.0
 11
0.0
 21
0.0
 12
0.0
 22
0.0
 32
0.0
 14
0.0
 24
0.0
 34
0.0
 15
0.0
 25
0.0
 35
0.0
146
0.0
 13
0.0
 23
0.0
 33
0.0
 16
1.0
 26
0.0
 36
0.0
 17
0.0
 27
1.0
 37
0.0
 76
     0
330
23
  0
LAYOUT
  5
22
102
{ACAD_REACTORS
330
1A
102
}
330
1A
100
AcDbPlotSettings
  1

  2
none_device
  4
Letter_(8.50_x_11.00_Inches)
  6

 40
6.35
 41
6.35
 42
6.35000508
 43
6.35000508
 44
215.9
 45
279.4
 46
0.0
 47
0.0
 48
0.0
 49
0.0
140
0.0
141
0.0
142
1.0
143
1.0
 70
  1712
 72
     0
 73
     0
 74
     0
  7

 75
     0
 76
     0
 77
     2
 78
   300
147
1.0
148
0.0
149
0.0
100
AcDbLayout
  1
Model
 70
     1
 71
     0
 10
0.0
 20
0.0
 11
12.0
 21
9.0
 12
0.0
 22
0.0
 32
0.0
 14
1.000000000000000E+20
 24
1.000000000000000E+20
 34
1.000000000000000E+20
 15
-1.000000000000000E+20
 25
-1.000000000000000E+20
 35
-1.000000000000000E+20
146
0.0
 13
0.0
 23
0.0
 33
0.0
 16
1.0
 26
0.0
 36
0.0
 17
0.0
 27
1.0
 37
0.0
 76
     0
330
1F
331
29
  0
MATERIAL
  5
45
102
{ACAD_REACTORS
330
43
102
}
330
43
100
AcDbMaterial
  1
ByBlock
 72
     1
 94
      127
  0
MATERIAL
  5
44
102
{ACAD_REACTORS
330
43
102
}
330
43
100
AcDbMaterial
  1
ByLayer
 72
     1
 94
      127
  0
MATERIAL
  5
46
102
{ACAD_REACTORS
330
43
102
}
330
43
100
AcDbMaterial
  1
Global
 72
     1
 94
      127
  0
MLEADERSTYLE
  5
6C
102
{ACAD_REACTORS
330
6B
102
}
330
6B
100
AcDbMLeaderStyle
179
     2
170
     2
171
     1
172
     0
 90
        2
 40
0.0
 41
0.0
173
     1
 91
-1056964608
340
14
 92
       -2
290
     1
 42
0.09
291
     1
 43
0.36
  3
Standard
341
0
 44
0.18
300

342
11
174
     1
178
     6
175
     1
176
     0
 93
-1056964608
 45
0.18
292
     0
297
     0
 46
0.18
343
0
 94
-1056964608
 47
1.0
 49
1.0
140
1.0
293
     1
141
0.0
294
     1
177
     0
142
1.0
295
     0
296
     0
143
0.125
271
     0
272
     9
273
     9
298
     0
  0
MLINESTYLE
  5
18
102
{ACAD_REACTORS
330
17
102
}
330
17
100
AcDbMlineStyle
  2
Standard
 70
     0
  3

 62
   256
 51
90.0
 52
90.0
 71
     2
 49
0.5
 62
   256
  6
BYLAYER
 49
-0.5
 62
   256
  6
BYLAYER
  0
ACDBPLACEHOLDER
  5
F
102
{ACAD_REACTORS
330
E
102
}
330
E
  0
SCALE
  5
48
102
{ACAD_REACTORS
330
47
102
}
330
47
100
AcDbScale
 70
     0
300
1:1
140
1.0
141
1.0
290
     1
  0
SCALE
  5
49
102
{ACAD_REACTORS
330
47
102
}
330
47
100
AcDbScale
 70
     0
300
1:2
140
1.0
141
2.0
290
     0
  0
SCALE
  5
4A
102
{ACAD_REACTORS
330
47
102
}
330
47
100
AcDbScale
 70
     0
300
1:4
140
1.0
141
4.0
290
     0
  0
SCALE
  5
4B
102
{ACAD_REACTORS
330
47
102
}
330
47
100
AcDbScale
 70
     0
300
1:5
140
1.0
141
5.0
290
     0
  0
SCALE
  5
4C
102
{ACAD_REACTORS
330
47
102
}
330
47
100
AcDbScale
 70
     0
300
1:8
140
1.0
141
8.0
290
     0
  0
SCALE
  5
4D
102
{ACAD_REACTORS
330
47
102
}
330
47
100
AcDbScale
 70
     0
300
1:10
140
1.0
141
10.0
290
     0
  0
SCALE
  5
4E
102
{ACAD_REACTORS
330
47
102
}
330
47
100
AcDbScale
 70
     0
300
1:16
140
1.0
141
16.0
290
     0
  0
SCALE
  5
4F
102
{ACAD_REACTORS
330
47
102
}
330
47
100
AcDbScale
 70
     0
300
1:20
140
1.0
141
20.0
290
     0
  0
SCALE
  5
50
102
{ACAD_REACTORS
330
47
102
}
330
47
100
AcDbScale
 70
     0
300
1:30
140
1.0
141
30.0
290
     0
  0
SCALE
  5
51
102
{ACAD_REACTORS
330
47
102
}
330
47
100
AcDbScale
 70
     0
300
1:40
140
1.0
141
40.0
290
     0
  0
SCALE
  5
52
102
{ACAD_REACTORS
330
47
102
}
330
47
100
AcDbScale
 70
     0
300
1:50
140
1.0
141
50.0
290
     0
  0
SCALE
  5
53
102
{ACAD_REACTORS
330
47
102
}
330
47
100
AcDbScale
 70
     0
300
1:100
140
1.0
141
100.0
290
     0
  0
SCALE
  5
54
102
{ACAD_REACTORS
330
47
102
}
330
47
100
AcDbScale
 70
     0
300
2:1
140
2.0
141
1.0
290
     0
  0
SCALE
  5
55
102
{ACAD_REACTORS
330
47
102
}
330
47
100
AcDbScale
 70
     0
300
4:1
140
4.0
141
1.0
290
     0
  0
SCALE
  5
56
102
{ACAD_REACTORS
330
47
102
}
330
47
100
AcDbScale
 70
     0
300
8:1
140
8.0
141
1.0
290
     0
  0
SCALE
  5
57
102
{ACAD_REACTORS
330
47
102
}
330
47
100
AcDbScale
 70
     0
300
10:1
140
10.0
141
1.0
290
     0
  0
SCALE
  5
58
102
{ACAD_REACTORS
330
47
102
}
330
47
100
AcDbScale
 70
     0
300
100:1
140
100.0
141
1.0
290
     0
  0
SCALE
  5
59
102
{ACAD_REACTORS
330
47
102
}
330
47
100
AcDbScale
 70
     0
300
1/128" = 1'-0"
140
0.0078125
141
12.0
290
     0
  0
SCALE
  5
5A
102
{ACAD_REACTORS
330
47
102
}
330
47
100
AcDbScale
 70
     0
300
1/64" = 1'-0"
140
0.015625
141
12.0
290
     0
  0
SCALE
  5
5B
102
{ACAD_REACTORS
330
47
102
}
330
47
100
AcDbScale
 70
     0
300
1/32" = 1'-0"
140
0.03125
141
12.0
290
     0
  0
SCALE
  5
5C
102
{ACAD_REACTORS
330
47
102
}
330
47
100
AcDbScale
 70
     0
300
1/16" = 1'-0"
140
0.0625
141
12.0
290
     0
  0
SCALE
  5
5D
102
{ACAD_REACTORS
330
47
102
}
330
47
100
AcDbScale
 70
     0
300
3/32" = 1'-0"
140
0.09375
141
12.0
290
     0
  0
SCALE
  5
5E
102
{ACAD_REACTORS
330
47
102
}
330
47
100
AcDbScale
 70
     0
300
1/8" = 1'-0"
140
0.125
141
12.0
290
     0
  0
SCALE
  5
5F
102
{ACAD_REACTORS
330
47
102
}
330
47
100
AcDbScale
 70
     0
300
3/16" = 1'-0"
140
0.1875
141
12.0
290
     0
  0
SCALE
  5
60
102
{ACAD_REACTORS
330
47
102
}
330
47
100
AcDbScale
 70
     0
300
1/4" = 1'-0"
140
0.25
141
12.0
290
     0
  0
SCALE
  5
61
102
{ACAD_REACTORS
330
47
102
}
330
47
100
AcDbScale
 70
     0
300
3/8" = 1'-0"
140
0.375
141
12.0
290
     0
  0
SCALE
  5
62
102
{ACAD_REACTORS
330
47
102
}
330
47
100
AcDbScale
 70
     0
300
1/2" = 1'-0"
140
0.5
141
12.0
290
     0
  0
SCALE
  5
63
102
{ACAD_REACTORS
330
47
102
}
330
47
100
AcDbScale
 70
     0
300
3/4" = 1'-0"
140
0.75
141
12.0
290
     0
  0
SCALE
  5
64
102
{ACAD_REACTORS
330
47
102
}
330
47
100
AcDbScale
 70
     0
300
1" = 1'-0"
140
1.0
141
12.0
290
     0
  0
SCALE
  5
65
102
{ACAD_REACTORS
330
47
102
}
330
47
100
AcDbScale
 70
     0
300
1-1/2" = 1'-0"
140
1.5
141
12.0
290
     0
  0
SCALE
  5
66
102
{ACAD_REACTORS
330
47
102
}
330
47
100
AcDbScale
 70
     0
300
3" = 1'-0"
140
3.0
141
12.0
290
     0
  0
SCALE
  5
67
102
{ACAD_REACTORS
330
47
102
}
330
47
100
AcDbScale
 70
     0
300
6" = 1'-0"
140
6.0
141
12.0
290
     0
  0
SCALE
  5
68
102
{ACAD_REACTORS
330
47
102
}
330
47
100
AcDbScale
 70
     0
300
1'-0" = 1'-0"
140
12.0
141
12.0
290
     0
  0
TABLESTYLE
  5
6A
102
{ACAD_REACTORS
330
69
102
}
102
{ACAD_XDICTIONARY
360
1BE
102
}
330
69
100
AcDbTableStyle
  3
Standard
 70
     0
 71
     0
 40
0.06
 41
0.06
280
     0
281
     0
  7
Standard
140
0.18
170
     2
 62
     0
 63
   257
283
     0
 90
        4
 91
        0
  1

274
    -2
284
     1
 64
     0
275
    -2
285
     1
 65
     0
276
    -2
286
     1
 66
     0
277
    -2
287
     1
 67
     0
278
    -2
288
     1
 68
     0
279
    -2
289
     1
 69
     0
  7
Standard
140
0.25
170
     5
 62
     0
 63
   257
283
     0
 90
        4
 91
        0
  1

274
    -2
284
     1
 64
     0
275
    -2
285
     1
 65
     0
276
    -2
286
     1
 66
     0
277
    -2
287
     1
 67
     0
278
    -2
288
     1
 68
     0
279
    -2
289
     1
 69
     0
  7
Standard
140
0.18
170
     5
 62
     0
 63
   257
283
     0
 90
        4
 91
        0
  1

274
    -2
284
     1
 64
     0
275
    -2
285
     1
 65
     0
276
    -2
286
     1
 66
     0
277
    -2
287
     1
 67
     0
278
    -2
288
     1
 68
     0
279
    -2
289
     1
 69
     0
  0
VISUALSTYLE
  5
2F
102
{ACAD_REACTORS
330
2A
102
}
330
2A
100
AcDbVisualStyle
  2
2dWireframe
 70
     4
177
     3
291
     0
 70
    58
 90
        0
176
     1
 90
        2
176
     1
 90
        0
176
     1
 90
        0
176
     1
 40
0.6
176
     1
 40
30.0
176
     1
 62
     7
420
 16777215
176
     1
 90
        1
176
     1
 90
        4
176
     1
 62
     7
176
     1
 62
   257
176
     1
 90
        1
176
     1
 90
        1
176
     1
 40
1.0
176
     1
 90
        0
176
     1
 62
   257
176
     1
 40
1.0
176
     1
 90
        1
176
     1
 90
        6
176
     1
 90
        2
176
     1
 62
     7
176
     1
 90
        5
176
     1
 90
        0
176
     1
 90
        0
176
     1
290
     0
176
     1
 90
        1
176
     1
 40
0.0
176
     1
 90
        0
176
     1
290
     1
176
     1
290
     1
176
     1
290
     0
176
     1
290
     0
176
     1
290
     0
176
     1
290
     0
176
     1
290
     0
176
     1
290
     0
176
     1
290
     0
176
     1
 90
       50
176
     1
 40
0.0
176
     1
 40
1.0
176
     1
 90
        0
176
     1
 62
    18
420
        0
176
     1
 90
       50
176
     1
 90
        3
176
     1
 62
     5
420
      255
176
     1
290
     0
176
     1
 90
       50
176
     1
 90
       50
176
     1
 90
       50
176
     1
290
     0
176
     1
 90
       50
176
     1
 62
   256
176
     0
 40
1.0
176
     0
 90
        2
176
     1
  1
strokes_ogs.tif
176
     1
290
     0
176
     1
 40
1.0
176
     1
 40
1.0
176
     1
  0
VISUALSTYLE
  5
32
102
{ACAD_REACTORS
330
2A
102
}
330
2A
100
AcDbVisualStyle
  2
Basic
 70
     7
177
     3
291
     1
 70
    58
 90
        1
176
     1
 90
        0
176
     1
 90
        1
176
     1
 90
        0
176
     1
 40
0.6
176
     1
 40
30.0
176
     1
 62
     7
420
 16777215
176
     1
 90
        0
176
     1
 90
        4
176
     1
 62
     7
176
     1
 62
   257
176
     1
 90
        1
176
     1
 90
        1
176
     1
 40
1.0
176
     1
 90
        8
176
     1
 62
     7
176
     1
 40
1.0
176
     1
 90
        1
176
     1
 90
        6
176
     1
 90
        2
176
     1
 62
     7
176
     1
 90
        5
176
     1
 90
        0
176
     1
 90
        0
176
     1
290
     0
176
     1
 90
        1
176
     1
 40
0.0
176
     1
 90
        0
176
     1
290
     0
176
     1
290
     1
176
     1
290
     1
176
     1
290
     0
176
     1
290
     0
176
     1
290
     0
176
     1
290
     0
176
     1
290
     0
176
     1
290
     0
176
     1
 90
       50
176
     1
 40
0.0
176
     1
 40
1.0
176
     1
 90
        0
176
     1
 62
    18
420
        0
176
     1
 90
       50
176
     1
 90
        3
176
     1
 62
     5
420
      255
176
     1
290
     0
176
     1
 90
       50
176
     1
 90
       50
176
     1
 90
       50
176
     1
290
     0
176
     1
 90
       50
176
     1
 62
   256
176
     0
 40
1.0
176
     0
 90
        2
176
     1
  1
strokes_ogs.tif
176
     1
290
     0
176
     1
 40
1.0
176
     1
 40
1.0
176
     1
  0
VISUALSTYLE
  5
36
102
{ACAD_REACTORS
330
2A
102
}
330
2A
100
AcDbVisualStyle
  2
Brighten
 70
    12
177
     3
291
     1
 70
    58
 90
        2
176
     1
 90
        2
176
     1
 90
        0
176
     1
 90
        0
176
     1
 40
0.6
176
     1
 40
30.0
176
     1
 62
     7
420
 16777215
176
     1
 90
        1
176
     1
 90
        4
176
     1
 62
     7
176
     1
 62
   257
176
     1
 90
        1
176
     1
 90
        1
176
     1
 40
1.0
176
     1
 90
        8
176
     1
 62
     7
176
     1
 40
1.0
176
     1
 90
        1
176
     1
 90
        6
176
     1
 90
        2
176
     1
 62
     7
176
     1
 90
        5
176
     1
 90
        0
176
     1
 90
        0
176
     1
290
     0
176
     1
 90
        1
176
     1
 40
50.0
176
     1
 90
        0
176
     1
290
     0
176
     1
290
     1
176
     1
290
     1
176
     1
290
     0
176
     1
290
     0
176
     1
290
     0
176
     1
290
     0
176
     1
290
     0
176
     1
290
     0
176
     1
 90
       50
176
     1
 40
0.0
176
     1
 40
1.0
176
     1
 90
        0
176
     1
 62
    18
420
        0
176
     1
 90
       50
176
     1
 90
        3
176
     1
 62
     5
420
      255
176
     1
290
     0
176
     1
 90
       50
176
     1
 90
       50
176
     1
 90
       50
176
     1
290
     0
176
     1
 90
       50
176
     1
 62
   256
176
     0
 40
1.0
176
     0
 90
        2
176
     1
  1
strokes_ogs.tif
176
     1
290
     0
176
     1
 40
1.0
176
     1
 40
1.0
176
     1
  0
VISUALSTYLE
  5
3A
102
{ACAD_REACTORS
330
2A
102
}
330
2A
100
AcDbVisualStyle
  2
ColorChange
 70
    16
177
     3
291
     1
 70
    58
 90
        2
176
     1
 90
        2
176
     1
 90
        3
176
     1
 90
        0
176
     1
 40
0.6
176
     1
 40
30.0
176
     1
 62
     8
420
  8421504
176
     1
 90
        1
176
     1
 90
        4
176
     1
 62
     7
176
     1
 62
   257
176
     1
 90
        1
176
     1
 90
        1
176
     1
 40
1.0
176
     1
 90
        8
176
     1
 62
     8
420
  8421504
176
     1
 40
1.0
176
     1
 90
        1
176
     1
 90
        6
176
     1
 90
        2
176
     1
 62
     7
176
     1
 90
        5
176
     1
 90
        0
176
     1
 90
        0
176
     1
290
     0
176
     1
 90
        1
176
     1
 40
0.0
176
     1
 90
        0
176
     1
290
     0
176
     1
290
     1
176
     1
290
     1
176
     1
290
     0
176
     1
290
     0
176
     1
290
     0
176
     1
290
     0
176
     1
290
     0
176
     1
290
     0
176
     1
 90
       50
176
     1
 40
0.0
176
     1
 40
1.0
176
     1
 90
        0
176
     1
 62
    18
420
        0
176
     1
 90
       50
176
     1
 90
        3
176
     1
 62
     5
420
      255
176
     1
290
     0
176
     1
 90
       50
176
     1
 90
       50
176
     1
 90
       50
176
     1
290
     0
176
     1
 90
       50
176
     1
 62
   256
176
     0
 40
1.0
176
     0
 90
        2
176
     1
  1
strokes_ogs.tif
176
     1
290
     0
176
     1
 40
1.0
176
     1
 40
1.0
176
     1
  0
VISUALSTYLE
  5
34
102
{ACAD_REACTORS
330
2A
102
}
330
2A
100
AcDbVisualStyle
  2
Conceptual
 70
     9
177
     3
291
     0
 70
    58
 90
        3
176
     1
 90
        2
176
     1
 90
        0
176
     1
 90
        0
176
     1
 40
0.6
176
     1
 40
30.0
176
     1
 62
     7
420
 16777215
176
     1
 90
        2
176
     1
 90
        2
176
     1
 62
     7
176
     1
 62
   257
176
     1
 90
        1
176
     1
 90
        1
176
     1
 40
179.0
176
     1
 90
        8
176
     1
 62
     7
176
     1
 40
1.0
176
     1
 90
        1
176
     1
 90
        6
176
     1
 90
        2
176
     1
 62
     7
176
     1
 90
        3
176
     1
 90
        0
176
     1
 90
        0
176
     1
290
     0
176
     1
 90
        1
176
     1
 40
0.0
176
     1
 90
        0
176
     1
290
     0
176
     1
290
     1
176
     1
290
     1
176
     1
290
     0
176
     1
290
     0
176
     1
290
     0
176
     1
290
     0
176
     1
290
     0
176
     1
290
     0
176
     1
 90
       50
176
     1
 40
0.0
176
     1
 40
1.0
176
     1
 90
        0
176
     1
 62
    18
420
        0
176
     1
 90
       50
176
     1
 90
        3
176
     1
 62
     5
420
      255
176
     1
290
     0
176
     1
 90
       50
176
     1
 90
       50
176
     1
 90
       50
176
     1
290
     0
176
     1
 90
       50
176
     1
 62
   256
176
     0
 40
1.0
176
     0
 90
        2
176
     1
  1
strokes_ogs.tif
176
     1
290
     0
176
     1
 40
1.0
176
     1
 40
1.0
176
     1
  0
VISUALSTYLE
  5
35
102
{ACAD_REACTORS
330
2A
102
}
330
2A
100
AcDbVisualStyle
  2
Dim
 70
    11
177
     3
291
     1
 70
    58
 90
        2
176
     1
 90
        2
176
     1
 90
        0
176
     1
 90
        0
176
     1
 40
0.6
176
     1
 40
30.0
176
     1
 62
     7
420
 16777215
176
     1
 90
        1
176
     1
 90
        4
176
     1
 62
     7
176
     1
 62
   257
176
     1
 90
        1
176
     1
 90
        1
176
     1
 40
1.0
176
     1
 90
        8
176
     1
 62
     7
176
     1
 40
1.0
176
     1
 90
        1
176
     1
 90
        6
176
     1
 90
        2
176
     1
 62
     7
176
     1
 90
        5
176
     1
 90
        0
176
     1
 90
        0
176
     1
290
     0
176
     1
 90
        1
176
     1
 40
-50.0
176
     1
 90
        0
176
     1
290
     0
176
     1
290
     1
176
     1
290
     1
176
     1
290
     0
176
     1
290
     0
176
     1
290
     0
176
     1
290
     0
176
     1
290
     0
176
     1
290
     0
176
     1
 90
       50
176
     1
 40
0.0
176
     1
 40
1.0
176
     1
 90
        0
176
     1
 62
    18
420
        0
176
     1
 90
       50
176
     1
 90
        3
176
     1
 62
     5
420
      255
176
     1
290
     0
176
     1
 90
       50
176
     1
 90
       50
176
     1
 90
       50
176
     1
290
     0
176
     1
 90
       50
176
     1
 62
   256
176
     0
 40
1.0
176
     0
 90
        2
176
     1
  1
strokes_ogs.tif
176
     1
290
     0
176
     1
 40
1.0
176
     1
 40
1.0
176
     1
  0
VISUALSTYLE
  5
3D
102
{ACAD_REACTORS
330
2A
102
}
330
2A
100
AcDbVisualStyle
  2
EdgeColorOff
 70
    22
177
     3
291
     1
 70
    58
 90
        2
176
     0
 90
        2
176
     0
 90
        0
176
     0
 90
        0
176
     0
 40
0.6
176
     0
 40
30.0
176
     0
 62
     7
420
 16777215
176
     0
 90
        1
176
     0
 90
        4
176
     0
 62
     7
176
     0
 62
   257
176
     0
 90
        1
176
     0
 90
        1
176
     0
 40
1.0
176
     0
 90
        8
176
     2
 62
     7
176
     0
 40
1.0
176
     0
 90
        1
176
     0
 90
        6
176
     0
 90
        2
176
     0
 62
     7
176
     0
 90
        5
176
     0
 90
        0
176
     0
 90
        0
176
     0
290
     0
176
     0
 90
        1
176
     0
 40
0.0
176
     0
 90
        0
176
     0
290
     0
176
     0
290
     1
176
     0
290
     1
176
     0
290
     0
176
     0
290
     0
176
     0
290
     0
176
     0
290
     0
176
     0
290
     0
176
     0
290
     0
176
     0
 90
       50
176
     0
 40
0.0
176
     0
 40
1.0
176
     0
 90
        0
176
     0
 62
    18
420
        0
176
     0
 90
       50
176
     0
 90
        3
176
     0
 62
     5
420
      255
176
     0
290
     0
176
     0
 90
       50
176
     0
 90
       50
176
     0
 90
       50
176
     0
290
     0
176
     0
 90
       50
176
     0
 62
   256
176
     0
 40
1.0
176
     0
 90
        2
176
     0
  1
strokes_ogs.tif
176
     0
290
     0
176
     0
 40
1.0
176
     0
 40
1.0
176
     0
  0
VISUALSTYLE
  5
39
102
{ACAD_REACTORS
330
2A
102
}
330
2A
100
AcDbVisualStyle
  2
Facepattern
 70
    15
177
     3
291
     1
 70
    58
 90
        2
176
     1
 90
        2
176
     1
 90
        0
176
     1
 90
        0
176
     1
 40
0.6
176
     1
 40
30.0
176
     1
 62
     7
420
 16777215
176
     1
 90
        1
176
     1
 90
        4
176
     1
 62
     7
176
     1
 62
   257
176
     1
 90
        1
176
     1
 90
        1
176
     1
 40
1.0
176
     1
 90
        8
176
     1
 62
     7
176
     1
 40
1.0
176
     1
 90
        1
176
     1
 90
        6
176
     1
 90
        2
176
     1
 62
     7
176
     1
 90
        5
176
     1
 90
        0
176
     1
 90
        0
176
     1
290
     0
176
     1
 90
        1
176
     1
 40
0.0
176
     1
 90
        0
176
     1
290
     0
176
     1
290
     1
176
     1
290
     1
176
     1
290
     0
176
     1
290
     0
176
     1
290
     0
176
     1
290
     0
176
     1
290
     0
176
     1
290
     0
176
     1
 90
       50
176
     1
 40
0.0
176
     1
 40
1.0
176
     1
 90
        0
176
     1
 62
    18
420
        0
176
     1
 90
       50
176
     1
 90
        3
176
     1
 62
     5
420
      255
176
     1
290
     0
176
     1
 90
       50
176
     1
 90
       50
176
     1
 90
       50
176
     1
290
     0
176
     1
 90
       50
176
     1
 62
   256
176
     0
 40
1.0
176
     0
 90
        2
176
     1
  1
strokes_ogs.tif
176
     1
290
     0
176
     1
 40
1.0
176
     1
 40
1.0
176
     1
  0
VISUALSTYLE
  5
2B
102
{ACAD_REACTORS
330
2A
102
}
330
2A
100
AcDbVisualStyle
  2
Flat
 70
     0
177
     3
291
     1
 70
    58
 90
        2
176
     1
 90
        1
176
     1
 90
        1
176
     1
 90
        2
176
     1
 40
0.6
176
     1
 40
30.0
176
     1
 62
     7
420
 16777215
176
     1
 90
        0
176
     1
 90
        0
176
     1
 62
     7
176
     1
 62
   257
176
     1
 90
        1
176
     1
 90
        1
176
     1
 40
1.0
176
     1
 90
        8
176
     1
 62
     7
176
     1
 40
1.0
176
     1
 90
        1
176
     1
 90
        6
176
     1
 90
        2
176
     1
 62
     7
176
     1
 90
        5
176
     1
 90
        0
176
     1
 90
        0
176
     1
290
     0
176
     1
 90
       13
176
     1
 40
0.0
176
     1
 90
        0
176
     1
290
     0
176
     1
290
     1
176
     1
290
     1
176
     1
290
     0
176
     1
290
     0
176
     1
290
     0
176
     1
290
     0
176
     1
290
     0
176
     1
290
     0
176
     1
 90
       50
176
     1
 40
0.0
176
     1
 40
1.0
176
     1
 90
        0
176
     1
 62
    18
420
        0
176
     1
 90
       50
176
     1
 90
        3
176
     1
 62
     5
420
      255
176
     1
290
     0
176
     1
 90
       50
176
     1
 90
       50
176
     1
 90
       50
176
     1
290
     0
176
     1
 90
       50
176
     1
 62
   256
176
     0
 40
1.0
176
     0
 90
        2
176
     1
  1
strokes_ogs.tif
176
     1
290
     0
176
     1
 40
1.0
176
     1
 40
1.0
176
     1
  0
VISUALSTYLE
  5
2C
102
{ACAD_REACTORS
330
2A
102
}
330
2A
100
AcDbVisualStyle
  2
FlatWithEdges
 70
     1
177
     3
291
     1
 70
    58
 90
        2
176
     1
 90
        1
176
     1
 90
        1
176
     1
 90
        2
176
     1
 40
0.6
176
     1
 40
30.0
176
     1
 62
     7
420
 16777215
176
     1
 90
        1
176
     1
 90
        0
176
     1
 62
     7
176
     1
 62
   257
176
     1
 90
        1
176
     1
 90
        1
176
     1
 40
1.0
176
     1
 90
        0
176
     1
 62
   257
176
     1
 40
1.0
176
     1
 90
        1
176
     1
 90
        6
176
     1
 90
        2
176
     1
 62
     7
176
     1
 90
        5
176
     1
 90
        0
176
     1
 90
        0
176
     1
290
     0
176
     1
 90
       13
176
     1
 40
0.0
176
     1
 90
        0
176
     1
290
     0
176
     1
290
     1
176
     1
290
     1
176
     1
290
     0
176
     1
290
     0
176
     1
290
     0
176
     1
290
     0
176
     1
290
     0
176
     1
290
     0
176
     1
 90
       50
176
     1
 40
0.0
176
     1
 40
1.0
176
     1
 90
        0
176
     1
 62
    18
420
        0
176
     1
 90
       50
176
     1
 90
        3
176
     1
 62
     5
420
      255
176
     1
290
     0
176
     1
 90
       50
176
     1
 90
       50
176
     1
 90
       50
176
     1
290
     0
176
     1
 90
       50
176
     1
 62
   256
176
     0
 40
1.0
176
     0
 90
        2
176
     1
  1
strokes_ogs.tif
176
     1
290
     0
176
     1
 40
1.0
176
     1
 40
1.0
176
     1
  0
VISUALSTYLE
  5
2D
102
{ACAD_REACTORS
330
2A
102
}
330
2A
100
AcDbVisualStyle
  2
Gouraud
 70
     2
177
     3
291
     1
 70
    58
 90
        2
176
     1
 90
        2
176
     1
 90
        1
176
     1
 90
        2
176
     1
 40
0.6
176
     1
 40
30.0
176
     1
 62
     7
420
 16777215
176
     1
 90
        0
176
     1
 90
        0
176
     1
 62
     7
176
     1
 62
   257
176
     1
 90
        1
176
     1
 90
        1
176
     1
 40
1.0
176
     1
 90
        0
176
     1
 62
     7
176
     1
 40
1.0
176
     1
 90
        1
176
     1
 90
        6
176
     1
 90
        2
176
     1
 62
     7
176
     1
 90
        5
176
     1
 90
        0
176
     1
 90
        0
176
     1
290
     0
176
     1
 90
       13
176
     1
 40
0.0
176
     1
 90
        0
176
     1
290
     0
176
     1
290
     1
176
     1
290
     1
176
     1
290
     0
176
     1
290
     0
176
     1
290
     0
176
     1
290
     0
176
     1
290
     0
176
     1
290
     0
176
     1
 90
       50
176
     1
 40
0.0
176
     1
 40
1.0
176
     1
 90
        0
176
     1
 62
    18
420
        0
176
     1
 90
       50
176
     1
 90
        3
176
     1
 62
     5
420
      255
176
     1
290
     0
176
     1
 90
       50
176
     1
 90
       50
176
     1
 90
       50
176
     1
290
     0
176
     1
 90
       50
176
     1
 62
   256
176
     0
 40
1.0
176
     0
 90
        2
176
     1
  1
strokes_ogs.tif
176
     1
290
     0
176
     1
 40
1.0
176
     1
 40
1.0
176
     1
  0
VISUALSTYLE
  5
2E
102
{ACAD_REACTORS
330
2A
102
}
330
2A
100
AcDbVisualStyle
  2
GouraudWithEdges
 70
     3
177
     3
291
     1
 70
    58
 90
        2
176
     1
 90
        2
176
     1
 90
        1
176
     1
 90
        2
176
     1
 40
0.6
176
     1
 40
30.0
176
     1
 62
     7
420
 16777215
176
     1
 90
        1
176
     1
 90
        0
176
     1
 62
     7
176
     1
 62
   257
176
     1
 90
        1
176
     1
 90
        1
176
     1
 40
1.0
176
     1
 90
        0
176
     1
 62
   257
176
     1
 40
1.0
176
     1
 90
        1
176
     1
 90
        6
176
     1
 90
        2
176
     1
 62
     7
176
     1
 90
        5
176
     1
 90
        0
176
     1
 90
        0
176
     1
290
     0
176
     1
 90
       13
176
     1
 40
0.0
176
     1
 90
        0
176
     1
290
     0
176
     1
290
     1
176
     1
290
     1
176
     1
290
     0
176
     1
290
     0
176
     1
290
     0
176
     1
290
     0
176
     1
290
     0
176
     1
290
     0
176
     1
 90
       50
176
     1
 40
0.0
176
     1
 40
1.0
176
     1
 90
        0
176
     1
 62
    18
420
        0
176
     1
 90
       50
176
     1
 90
        3
176
     1
 62
     5
420
      255
176
     1
290
     0
176
     1
 90
       50
176
     1
 90
       50
176
     1
 90
       50
176
     1
290
     0
176
     1
 90
       50
176
     1
 62
   256
176
     0
 40
1.0
176
     0
 90
        2
176
     1
  1
strokes_ogs.tif
176
     1
290
     0
176
     1
 40
1.0
176
     1
 40
1.0
176
     1
  0
VISUALSTYLE
  5
31
102
{ACAD_REACTORS
330
2A
102
}
330
2A
100
AcDbVisualStyle
  2
Hidden
 70
     6
177
     3
291
     0
 70
    58
 90
        1
176
     1
 90
        2
176
     1
 90
        2
176
     1
 90
        0
176
     1
 40
0.6
176
     1
 40
30.0
176
     1
 62
     7
420
 16777215
176
     1
 90
        2
176
     1
 90
        2
176
     1
 62
     7
176
     1
 62
   257
176
     1
 90
        2
176
     1
 90
        1
176
     1
 40
40.0
176
     1
 90
        0
176
     1
 62
   257
176
     1
 40
1.0
176
     1
 90
        1
176
     1
 90
        6
176
     1
 90
        2
176
     1
 62
     7
176
     1
 90
        3
176
     1
 90
        0
176
     1
 90
        0
176
     1
290
     0
176
     1
 90
        1
176
     1
 40
0.0
176
     1
 90
        0
176
     1
290
     0
176
     1
290
     1
176
     1
290
     1
176
     1
290
     0
176
     1
290
     0
176
     1
290
     0
176
     1
290
     0
176
     1
290
     0
176
     1
290
     0
176
     1
 90
       50
176
     1
 40
0.0
176
     1
 40
1.0
176
     1
 90
        0
176
     1
 62
    18
420
        0
176
     1
 90
       50
176
     1
 90
        3
176
     1
 62
     5
420
      255
176
     1
290
     0
176
     1
 90
       50
176
     1
 90
       50
176
     1
 90
       50
176
     1
290
     0
176
     1
 90
       50
176
     1
 62
   256
176
     0
 40
1.0
176
     0
 90
        2
176
     1
  1
strokes_ogs.tif
176
     1
290
     0
176
     1
 40
1.0
176
     1
 40
1.0
176
     1
  0
VISUALSTYLE
  5
3B
102
{ACAD_REACTORS
330
2A
102
}
330
2A
100
AcDbVisualStyle
  2
JitterOff
 70
    20
177
     3
291
     1
 70
    58
 90
        2
176
     0
 90
        2
176
     0
 90
        0
176
     0
 90
        0
176
     0
 40
0.6
176
     0
 40
30.0
176
     0
 62
     7
420
 16777215
176
     0
 90
        1
176
     0
 90
        4
176
     0
 62
     7
176
     0
 62
   257
176
     0
 90
        1
176
     0
 90
        1
176
     0
 40
1.0
176
     0
 90
       10
176
     2
 62
     7
176
     0
 40
1.0
176
     0
 90
        1
176
     0
 90
        6
176
     0
 90
        2
176
     0
 62
     7
176
     0
 90
        5
176
     0
 90
        0
176
     0
 90
        0
176
     0
290
     0
176
     0
 90
        1
176
     0
 40
0.0
176
     0
 90
        0
176
     0
290
     0
176
     0
290
     1
176
     0
290
     1
176
     0
290
     0
176
     0
290
     0
176
     0
290
     0
176
     0
290
     0
176
     0
290
     0
176
     0
290
     0
176
     0
 90
       50
176
     0
 40
0.0
176
     0
 40
1.0
176
     0
 90
        0
176
     0
 62
    18
420
        0
176
     0
 90
       50
176
     0
 90
        3
176
     0
 62
     5
420
      255
176
     0
290
     0
176
     0
 90
       50
176
     0
 90
       50
176
     0
 90
       50
176
     0
290
     0
176
     0
 90
       50
176
     0
 62
   256
176
     0
 40
1.0
176
     0
 90
        2
176
     0
  1
strokes_ogs.tif
176
     0
290
     0
176
     0
 40
1.0
176
     0
 40
1.0
176
     0
  0
VISUALSTYLE
  5
38
102
{ACAD_REACTORS
330
2A
102
}
330
2A
100
AcDbVisualStyle
  2
Linepattern
 70
    14
177
     3
291
     1
 70
    58
 90
        2
176
     1
 90
        2
176
     1
 90
        0
176
     1
 90
        0
176
     1
 40
0.6
176
     1
 40
30.0
176
     1
 62
     7
420
 16777215
176
     1
 90
        1
176
     1
 90
        4
176
     1
 62
     7
176
     1
 62
   257
176
     1
 90
        7
176
     1
 90
        7
176
     1
 40
1.0
176
     1
 90
        8
176
     1
 62
     7
176
     1
 40
1.0
176
     1
 90
        1
176
     1
 90
        6
176
     1
 90
        2
176
     1
 62
     7
176
     1
 90
        5
176
     1
 90
        0
176
     1
 90
        0
176
     1
290
     0
176
     1
 90
        1
176
     1
 40
0.0
176
     1
 90
        0
176
     1
290
     0
176
     1
290
     1
176
     1
290
     1
176
     1
290
     0
176
     1
290
     0
176
     1
290
     0
176
     1
290
     0
176
     1
290
     0
176
     1
290
     0
176
     1
 90
       50
176
     1
 40
0.0
176
     1
 40
1.0
176
     1
 90
        0
176
     1
 62
    18
420
        0
176
     1
 90
       50
176
     1
 90
        3
176
     1
 62
     5
420
      255
176
     1
290
     0
176
     1
 90
       50
176
     1
 90
       50
176
     1
 90
       50
176
     1
290
     0
176
     1
 90
       50
176
     1
 62
   256
176
     0
 40
1.0
176
     0
 90
        2
176
     1
  1
strokes_ogs.tif
176
     1
290
     0
176
     1
 40
1.0
176
     1
 40
1.0
176
     1
  0
VISUALSTYLE
  5
3C
102
{ACAD_REACTORS
330
2A
102
}
330
2A
100
AcDbVisualStyle
  2
OverhangOff
 70
    21
177
     3
291
     1
 70
    58
 90
        2
176
     0
 90
        2
176
     0
 90
        0
176
     0
 90
        0
176
     0
 40
0.6
176
     0
 40
30.0
176
     0
 62
     7
420
 16777215
176
     0
 90
        1
176
     0
 90
        4
176
     0
 62
     7
176
     0
 62
   257
176
     0
 90
        1
176
     0
 90
        1
176
     0
 40
1.0
176
     0
 90
        9
176
     2
 62
     7
176
     0
 40
1.0
176
     0
 90
        1
176
     0
 90
        6
176
     0
 90
        2
176
     0
 62
     7
176
     0
 90
        5
176
     0
 90
        0
176
     0
 90
        0
176
     0
290
     0
176
     0
 90
        1
176
     0
 40
0.0
176
     0
 90
        0
176
     0
290
     0
176
     0
290
     1
176
     0
290
     1
176
     0
290
     0
176
     0
290
     0
176
     0
290
     0
176
     0
290
     0
176
     0
290
     0
176
     0
290
     0
176
     0
 90
       50
176
     0
 40
0.0
176
     0
 40
1.0
176
     0
 90
        0
176
     0
 62
    18
420
        0
176
     0
 90
       50
176
     0
 90
        3
176
     0
 62
     5
420
      255
176
     0
290
     0
176
     0
 90
       50
176
     0
 90
       50
176
     0
 90
       50
176
     0
290
     0
176
     0
 90
       50
176
     0
 62
   256
176
     0
 40
1.0
176
     0
 90
        2
176
     0
  1
strokes_ogs.tif
176
     0
290
     0
176
     0
 40
1.0
176
     0
 40
1.0
176
     0
  0
VISUALSTYLE
  5
33
102
{ACAD_REACTORS
330
2A
102
}
330
2A
100
AcDbVisualStyle
  2
Realistic
 70
     8
177
     3
291
     0
 70
    58
 90
        2
176
     1
 90
        3
176
     1
 90
        0
176
     1
 90
        2
176
     1
 40
0.6
176
     1
 40
30.0
176
     1
 62
     7
420
 16777215
176
     1
 90
        0
176
     1
 90
        0
176
     1
 62
     7
176
     1
 62
   257
176
     1
 90
        1
176
     1
 90
        1
176
     1
 40
1.0
176
     1
 90
        8
176
     1
 62
   257
176
     1
 40
1.0
176
     1
 90
        1
176
     1
 90
        6
176
     1
 90
        2
176
     1
 62
     7
176
     1
 90
        3
176
     1
 90
        0
176
     1
 90
        0
176
     1
290
     0
176
     1
 90
       13
176
     1
 40
0.0
176
     1
 90
        0
176
     1
290
     0
176
     1
290
     1
176
     1
290
     1
176
     1
290
     0
176
     1
290
     0
176
     1
290
     0
176
     1
290
     0
176
     1
290
     0
176
     1
290
     0
176
     1
 90
       50
176
     1
 40
0.0
176
     1
 40
1.0
176
     1
 90
        0
176
     1
 62
    18
420
        0
176
     1
 90
       50
176
     1
 90
        3
176
     1
 62
     5
420
      255
176
     1
290
     0
176
     1
 90
       50
176
     1
 90
       50
176
     1
 90
       50
176
     1
290
     0
176
     1
 90
       50
176
     1
 62
   256
176
     0
 40
1.0
176
     0
 90
        2
176
     1
  1
strokes_ogs.tif
176
     1
290
     0
176
     1
 40
1.0
176
     1
 40
1.0
176
     1
  0
VISUALSTYLE
  5
42
102
{ACAD_REACTORS
330
2A
102
}
330
2A
100
AcDbVisualStyle
  2
Shaded
 70
    27
177
     3
291
     0
 70
    58
 90
        2
176
     1
 90
        2
176
     1
 90
        1
176
     1
 90
        2
176
     1
 40
0.6
176
     1
 40
30.0
176
     1
 62
     7
420
 16777215
176
     1
 90
        0
176
     1
 90
        4
176
     1
 62
     7
176
     1
 62
   257
176
     1
 90
        1
176
     1
 90
        1
176
     1
 40
1.0
176
     1
 90
        8
176
     1
 62
   257
176
     1
 40
1.0
176
     1
 90
        1
176
     1
 90
        6
176
     1
 90
        2
176
     1
 62
     8
420
  7895160
176
     1
 90
        3
176
     1
 90
        0
176
     1
 90
        0
176
     1
290
     0
176
     1
 90
        5
176
     1
 40
0.0
176
     1
 90
        0
176
     1
290
     0
176
     1
290
     1
176
     1
290
     1
176
     1
290
     0
176
     1
290
     0
176
     1
290
     0
176
     1
290
     0
176
     1
290
     0
176
     1
290
     0
176
     1
 90
       50
176
     1
 40
0.0
176
     1
 40
1.0
176
     1
 90
        0
176
     1
 62
    18
420
        0
176
     1
 90
       50
176
     1
 90
        3
176
     1
 62
     5
420
      255
176
     1
290
     0
176
     1
 90
       50
176
     1
 90
       50
176
     1
 90
       50
176
     1
290
     0
176
     1
 90
       50
176
     1
 62
   256
176
     0
 40
1.0
176
     0
 90
        2
176
     1
  1
strokes_ogs.tif
176
     1
290
     0
176
     1
 40
1.0
176
     1
 40
1.0
176
     1
  0
VISUALSTYLE
  5
41
102
{ACAD_REACTORS
330
2A
102
}
330
2A
100
AcDbVisualStyle
  2
Shaded with edges
 70
    26
177
     3
291
     0
 70
    58
 90
        2
176
     1
 90
        2
176
     1
 90
        1
176
     1
 90
        2
176
     1
 40
0.6
176
     1
 40
30.0
176
     1
 62
     7
420
 16777215
176
     1
 90
        1
176
     1
 90
       10
176
     1
 62
     7
176
     1
 62
   257
176
     1
 90
        2
176
     1
 90
        1
176
     1
 40
1.0
176
     1
 90
        8
176
     1
 62
   257
176
     1
 40
1.0
176
     1
 90
        1
176
     1
 90
        6
176
     1
 90
        2
176
     1
 62
     7
176
     1
 90
        3
176
     1
 90
        0
176
     1
 90
        0
176
     1
290
     0
176
     1
 90
        5
176
     1
 40
0.0
176
     1
 90
        0
176
     1
290
     0
176
     1
290
     1
176
     1
290
     1
176
     1
290
     0
176
     1
290
     0
176
     1
290
     0
176
     1
290
     0
176
     1
290
     0
176
     1
290
     0
176
     1
 90
       50
176
     1
 40
0.0
176
     1
 40
1.0
176
     1
 90
        0
176
     1
 62
    18
420
        0
176
     1
 90
       50
176
     1
 90
        3
176
     1
 62
     5
420
      255
176
     1
290
     0
176
     1
 90
       50
176
     1
 90
       50
176
     1
 90
       50
176
     1
290
     0
176
     1
 90
       50
176
     1
 62
   256
176
     0
 40
1.0
176
     0
 90
        2
176
     1
  1
strokes_ogs.tif
176
     1
290
     0
176
     1
 40
1.0
176
     1
 40
1.0
176
     1
  0
VISUALSTYLE
  5
3E
102
{ACAD_REACTORS
330
2A
102
}
330
2A
100
AcDbVisualStyle
  2
Shades of Gray
 70
    23
177
     3
291
     0
 70
    58
 90
        2
176
     1
 90
        2
176
     1
 90
        3
176
     1
 90
        0
176
     1
 40
0.6
176
     1
 40
30.0
176
     1
 62
     7
420
 16777215
176
     1
 90
        2
176
     1
 90
        2
176
     1
 62
     7
176
     1
 62
     7
176
     1
 90
        1
176
     1
 90
        1
176
     1
 40
40.0
176
     1
 90
        8
176
     1
 62
     7
176
     1
 40
1.0
176
     1
 90
        1
176
     1
 90
        6
176
     1
 90
        2
176
     1
 62
     7
176
     1
 90
        3
176
     1
 90
        0
176
     1
 90
        0
176
     1
290
     0
176
     1
 90
        1
176
     1
 40
0.0
176
     1
 90
        0
176
     1
290
     0
176
     1
290
     1
176
     1
290
     1
176
     1
290
     0
176
     1
290
     0
176
     1
290
     0
176
     1
290
     0
176
     1
290
     0
176
     1
290
     0
176
     1
 90
       50
176
     1
 40
0.0
176
     1
 40
1.0
176
     1
 90
        0
176
     1
 62
    18
420
        0
176
     1
 90
       50
176
     1
 90
        3
176
     1
 62
     5
420
      255
176
     1
290
     0
176
     1
 90
       50
176
     1
 90
       50
176
     1
 90
       50
176
     1
290
     0
176
     1
 90
       50
176
     1
 62
   256
176
     0
 40
1.0
176
     0
 90
        2
176
     1
  1
strokes_ogs.tif
176
     1
290
     0
176
     1
 40
1.0
176
     1
 40
1.0
176
     1
  0
VISUALSTYLE
  5
3F
102
{ACAD_REACTORS
330
2A
102
}
330
2A
100
AcDbVisualStyle
  2
Sketchy
 70
    24
177
     3
291
     0
 70
    58
 90
        1
176
     1
 90
        2
176
     1
 90
        2
176
     1
 90
        0
176
     1
 40
0.6
176
     1
 40
30.0
176
     1
 62
     7
420
 16777215
176
     1
 90
        2
176
     1
 90
        2
176
     1
 62
     7
176
     1
 62
     7
176
     1
 90
        1
176
     1
 90
        1
176
     1
 40
40.0
176
     1
 90
       11
176
     1
 62
     7
176
     1
 40
1.0
176
     1
 90
        1
176
     1
 90
        6
176
     1
 90
        2
176
     1
 62
     7
176
     1
 90
        6
176
     1
 90
        0
176
     1
 90
        0
176
     1
290
     0
176
     1
 90
        1
176
     1
 40
0.0
176
     1
 90
        0
176
     1
290
     0
176
     1
290
     1
176
     1
290
     1
176
     1
290
     0
176
     1
290
     0
176
     1
290
     0
176
     1
290
     0
176
     1
290
     0
176
     1
290
     0
176
     1
 90
       50
176
     1
 40
0.0
176
     1
 40
1.0
176
     1
 90
        0
176
     1
 62
    18
420
        0
176
     1
 90
       50
176
     1
 90
        3
176
     1
 62
     5
420
      255
176
     1
290
     0
176
     1
 90
       50
176
     1
 90
       50
176
     1
 90
       50
176
     1
290
     0
176
     1
 90
       50
176
     1
 62
   256
176
     0
 40
1.0
176
     0
 90
        2
176
     1
  1
strokes_ogs.tif
176
     1
290
     0
176
     1
 40
1.0
176
     1
 40
1.0
176
     1
  0
VISUALSTYLE
  5
37
102
{ACAD_REACTORS
330
2A
102
}
330
2A
100
AcDbVisualStyle
  2
Thicken
 70
    13
177
     3
291
     1
 70
    58
 90
        2
176
     1
 90
        2
176
     1
 90
        0
176
     1
 90
        0
176
     1
 40
0.6
176
     1
 40
30.0
176
     1
 62
     7
420
 16777215
176
     1
 90
        1
176
     1
 90
        4
176
     1
 62
     7
176
     1
 62
   257
176
     1
 90
        1
176
     1
 90
        1
176
     1
 40
1.0
176
     1
 90
       12
176
     1
 62
     7
176
     1
 40
1.0
176
     1
 90
        1
176
     1
 90
        6
176
     1
 90
        2
176
     1
 62
     7
176
     1
 90
        5
176
     1
 90
        0
176
     1
 90
        0
176
     1
290
     0
176
     1
 90
        1
176
     1
 40
0.0
176
     1
 90
        0
176
     1
290
     0
176
     1
290
     1
176
     1
290
     1
176
     1
290
     0
176
     1
290
     0
176
     1
290
     0
176
     1
290
     0
176
     1
290
     0
176
     1
290
     0
176
     1
 90
       50
176
     1
 40
0.0
176
     1
 40
1.0
176
     1
 90
        0
176
     1
 62
    18
420
        0
176
     1
 90
       50
176
     1
 90
        3
176
     1
 62
     5
420
      255
176
     1
290
     0
176
     1
 90
       50
176
     1
 90
       50
176
     1
 90
       50
176
     1
290
     0
176
     1
 90
       50
176
     1
 62
   256
176
     0
 40
1.0
176
     0
 90
        2
176
     1
  1
strokes_ogs.tif
176
     1
290
     0
176
     1
 40
1.0
176
     1
 40
1.0
176
     1
  0
VISUALSTYLE
  5
30
102
{ACAD_REACTORS
330
2A
102
}
330
2A
100
AcDbVisualStyle
  2
Wireframe
 70
     5
177
     3
291
     0
 70
    58
 90
        0
176
     1
 90
        2
176
     1
 90
        0
176
     1
 90
        0
176
     1
 40
0.6
176
     1
 40
30.0
176
     1
 62
     7
420
 16777215
176
     1
 90
        1
176
     1
 90
        4
176
     1
 62
     7
176
     1
 62
   257
176
     1
 90
        1
176
     1
 90
        1
176
     1
 40
1.0
176
     1
 90
        0
176
     1
 62
   257
176
     1
 40
1.0
176
     1
 90
        1
176
     1
 90
        6
176
     1
 90
        2
176
     1
 62
     7
176
     1
 90
        3
176
     1
 90
        0
176
     1
 90
        0
176
     1
290
     0
176
     1
 90
        1
176
     1
 40
0.0
176
     1
 90
        0
176
     1
290
     0
176
     1
290
     1
176
     1
290
     1
176
     1
290
     0
176
     1
290
     0
176
     1
290
     0
176
     1
290
     0
176
     1
290
     0
176
     1
290
     0
176
     1
 90
       50
176
     1
 40
0.0
176
     1
 40
1.0
176
     1
 90
        0
176
     1
 62
    18
420
        0
176
     1
 90
       50
176
     1
 90
        3
176
     1
 62
     5
420
      255
176
     1
290
     0
176
     1
 90
       50
176
     1
 90
       50
176
     1
 90
       50
176
     1
290
     0
176
     1
 90
       50
176
     1
 62
   256
176
     0
 40
1.0
176
     0
 90
        2
176
     1
  1
strokes_ogs.tif
176
     1
290
     0
176
     1
 40
1.0
176
     1
 40
1.0
176
     1
  0
VISUALSTYLE
  5
40
102
{ACAD_REACTORS
330
2A
102
}
330
2A
100
AcDbVisualStyle
  2
X-Ray
 70
    25
177
     3
291
     0
 70
    58
 90
        2
176
     1
 90
        2
176
     1
 90
        1
176
     1
 90
        1
176
     1
 40
0.5
176
     1
 40
30.0
176
     1
 62
     7
420
 16777215
176
     1
 90
        1
176
     1
 90
        0
176
     1
 62
     7
176
     1
 62
   257
176
     1
 90
        1
176
     1
 90
        1
176
     1
 40
1.0
176
     1
 90
        8
176
     1
 62
     7
176
     1
 40
1.0
176
     1
 90
        1
176
     1
 90
        6
176
     1
 90
        2
176
     1
 62
     7
176
     1
 90
        3
176
     1
 90
        0
176
     1
 90
        0
176
     1
290
     0
176
     1
 90
       13
176
     1
 40
0.0
176
     1
 90
        0
176
     1
290
     0
176
     1
290
     1
176
     1
290
     1
176
     1
290
     0
176
     1
290
     0
176
     1
290
     0
176
     1
290
     0
176
     1
290
     0
176
     1
290
     0
176
     1
 90
       50
176
     1
 40
0.0
176
     1
 40
1.0
176
     1
 90
        0
176
     1
 62
    18
420
        0
176
     1
 90
       50
176
     1
 90
        3
176
     1
 62
     5
420
      255
176
     1
290
     0
176
     1
 90
       50
176
     1
 90
       50
176
     1
 90
       50
176
     1
290
     0
176
     1
 90
       50
176
     1
 62
   256
176
     0
 40
1.0
176
     0
 90
        2
176
     1
  1
strokes_ogs.tif
176
     1
290
     0
176
     1
 40
1.0
176
     1
 40
1.0
176
     1
  0
DICTIONARYVAR
  5
1BD
102
{ACAD_REACTORS
330
1BC
102
}
330
1BC
100
DictionaryVariables
280
     0
  1
1:1
  0
DICTIONARYVAR
  5
1C2
102
{ACAD_REACTORS
330
1BC
102
}
330
1BC
100
DictionaryVariables
280
     0
  1
Standard
  0
DICTIONARYVAR
  5
1C1
102
{ACAD_REACTORS
330
1BC
102
}
330
1BC
100
DictionaryVariables
280
     0
  1
Standard
  0
DICTIONARY
  5
1BE
330
6A
100
AcDbDictionary
280
     1
281
     1
  3
ACAD_ROUNDTRIP_2008_TABLESTYLE_CELLSTYLEMAP
360
1BF
  0
CELLSTYLEMAP
  5
1BF
102
{ACAD_REACTORS
330
1BE
102
}
330
1BE
100
AcDbCellStyleMap
 90
        3
300
CELLSTYLE
  1
TABLEFORMAT_BEGIN
 90
        5
170
     1
 91
        0
 92
    32768
 62
   257
 93
        1
300
CONTENTFORMAT
  1
CONTENTFORMAT_BEGIN
 90
        0
 91
        0
 92
        4
 93
        0
300

 40
0.0
140
1.0
 94
        5
 62
     0
340
11
144
0.25
309
CONTENTFORMAT_END
171
     1
301
MARGIN
  1
CELLMARGIN_BEGIN
 40
0.06
 40
0.06
 40
0.06
 40
0.06
 40
0.06
 40
0.06
309
CELLMARGIN_END
 94
        6
 95
        1
302
GRIDFORMAT
  1
GRIDFORMAT_BEGIN
 90
        0
 91
        1
 62
     0
 92
       -2
340
14
 93
        0
 40
0.045
309
GRIDFORMAT_END
 95
        2
302
GRIDFORMAT
  1
GRIDFORMAT_BEGIN
 90
        0
 91
        1
 62
     0
 92
       -2
340
14
 93
        0
 40
0.045
309
GRIDFORMAT_END
 95
        4
302
GRIDFORMAT
  1
GRIDFORMAT_BEGIN
 90
        0
 91
        1
 62
     0
 92
       -2
340
14
 93
        0
 40
0.045
309
GRIDFORMAT_END
 95
        8
302
GRIDFORMAT
  1
GRIDFORMAT_BEGIN
 90
        0
 91
        1
 62
     0
 92
       -2
340
14
 93
        0
 40
0.045
309
GRIDFORMAT_END
 95
       16
302
GRIDFORMAT
  1
GRIDFORMAT_BEGIN
 90
        0
 91
        1
 62
     0
 92
       -2
340
14
 93
        0
 40
0.045
309
GRIDFORMAT_END
 95
       32
302
GRIDFORMAT
  1
GRIDFORMAT_BEGIN
 90
        0
 91
        1
 62
     0
 92
       -2
340
14
 93
        0
 40
0.045
309
GRIDFORMAT_END
309
TABLEFORMAT_END
  1
CELLSTYLE_BEGIN
 90
        1
 91
        1
300
_TITLE
309
CELLSTYLE_END
300
CELLSTYLE
  1
TABLEFORMAT_BEGIN
 90
        5
170
     1
 91
        0
 92
        0
 62
   257
 93
        1
300
CONTENTFORMAT
  1
CONTENTFORMAT_BEGIN
 90
        0
 91
        0
 92
        4
 93
        0
300

 40
0.0
140
1.0
 94
        5
 62
     0
340
11
144
0.18
309
CONTENTFORMAT_END
171
     1
301
MARGIN
  1
CELLMARGIN_BEGIN
 40
0.06
 40
0.06
 40
0.06
 40
0.06
 40
0.06
 40
0.06
309
CELLMARGIN_END
 94
        6
 95
        1
302
GRIDFORMAT
  1
GRIDFORMAT_BEGIN
 90
        0
 91
        1
 62
     0
 92
       -2
340
14
 93
        0
 40
0.045
309
GRIDFORMAT_END
 95
        2
302
GRIDFORMAT
  1
GRIDFORMAT_BEGIN
 90
        0
 91
        1
 62
     0
 92
       -2
340
14
 93
        0
 40
0.045
309
GRIDFORMAT_END
 95
        4
302
GRIDFORMAT
  1
GRIDFORMAT_BEGIN
 90
        0
 91
        1
 62
     0
 92
       -2
340
14
 93
        0
 40
0.045
309
GRIDFORMAT_END
 95
        8
302
GRIDFORMAT
  1
GRIDFORMAT_BEGIN
 90
        0
 91
        1
 62
     0
 92
       -2
340
14
 93
        0
 40
0.045
309
GRIDFORMAT_END
 95
       16
302
GRIDFORMAT
  1
GRIDFORMAT_BEGIN
 90
        0
 91
        1
 62
     0
 92
       -2
340
14
 93
        0
 40
0.045
309
GRIDFORMAT_END
 95
       32
302
GRIDFORMAT
  1
GRIDFORMAT_BEGIN
 90
        0
 91
        1
 62
     0
 92
       -2
340
14
 93
        0
 40
0.045
309
GRIDFORMAT_END
309
TABLEFORMAT_END
  1
CELLSTYLE_BEGIN
 90
        2
 91
        1
300
_HEADER
309
CELLSTYLE_END
300
CELLSTYLE
  1
TABLEFORMAT_BEGIN
 90
        5
170
     1
 91
        0
 92
        0
 62
   257
 93
        1
300
CONTENTFORMAT
  1
CONTENTFORMAT_BEGIN
 90
        0
 91
        0
 92
        4
 93
        0
300

 40
0.0
140
1.0
 94
        2
 62
     0
340
11
144
0.18
309
CONTENTFORMAT_END
171
     1
301
MARGIN
  1
CELLMARGIN_BEGIN
 40
0.06
 40
0.06
 40
0.06
 40
0.06
 40
0.06
 40
0.06
309
CELLMARGIN_END
 94
        6
 95
        1
302
GRIDFORMAT
  1
GRIDFORMAT_BEGIN
 90
        0
 91
        1
 62
     0
 92
       -2
340
14
 93
        0
 40
0.045
309
GRIDFORMAT_END
 95
        2
302
GRIDFORMAT
  1
GRIDFORMAT_BEGIN
 90
        0
 91
        1
 62
     0
 92
       -2
340
14
 93
        0
 40
0.045
309
GRIDFORMAT_END
 95
        4
302
GRIDFORMAT
  1
GRIDFORMAT_BEGIN
 90
        0
 91
        1
 62
     0
 92
       -2
340
14
 93
        0
 40
0.045
309
GRIDFORMAT_END
 95
        8
302
GRIDFORMAT
  1
GRIDFORMAT_BEGIN
 90
        0
 91
        1
 62
     0
 92
       -2
340
14
 93
        0
 40
0.045
309
GRIDFORMAT_END
 95
       16
302
GRIDFORMAT
  1
GRIDFORMAT_BEGIN
 90
        0
 91
        1
 62
     0
 92
       -2
340
14
 93
        0
 40
0.045
309
GRIDFORMAT_END
 95
       32
302
GRIDFORMAT
  1
GRIDFORMAT_BEGIN
 90
        0
 91
        1
 62
     0
 92
       -2
340
14
 93
        0
 40
0.045
309
GRIDFORMAT_END
309
TABLEFORMAT_END
  1
CELLSTYLE_BEGIN
 90
        3
 91
        2
300
_DATA
309
CELLSTYLE_END
  0
ENDSEC
  0
EOF