0
SECTION
  2
HEADER
  9
$ACADVER
  1
AC1027
  9
$ACADMAINTVER
 70
     8
  9
$DWGCODEPAGE
  3
ANSI_1252
  9
$REQUIREDVERSIONS
160
                 0
  9
$COMMENTS
  1
File was created by Cadenas
  9
$CUSTOMPROPERTYTAG
  1
NN
  9
$CUSTOMPROPERTY
  1
Set Screw Light Duty Two-Bolt Pillow Block Inch Bore
  9
$CUSTOMPROPERTYTAG
  1
NT
  9
$CUSTOMPROPERTY
  1
SC Pillow Block Bearings -(Light Duty)
  9
$CUSTOMPROPERTYTAG
  1
NB
  9
$CUSTOMPROPERTY
  1
128171
  9
$CUSTOMPROPERTYTAG
  1
NBSYN
  9
$CUSTOMPROPERTY
  1
$PN.
  9
$CUSTOMPROPERTYTAG
  1
LINA
  9
$CUSTOMPROPERTY
  1
128171
  9
$CUSTOMPROPERTYTAG
  1
SERIES
  9
$CUSTOMPROPERTY
  1
205
  9
$CUSTOMPROPERTYTAG
  1
SS
  9
$CUSTOMPROPERTY
  1
15/16
  9
$CUSTOMPROPERTYTAG
  1
PN
  9
$CUSTOMPROPERTY
  1
128171
  9
$CUSTOMPROPERTYTAG
  1
DESCRIPTION
  9
$CUSTOMPROPERTY
  1
P2B-SL-015
  9
$CUSTOMPROPERTYTAG
  1
W
  9
$CUSTOMPROPERTY
  1
0.76
  9
$CUSTOMPROPERTYTAG
  1
A
  9
$CUSTOMPROPERTY
  1
1.06
  9
$CUSTOMPROPERTYTAG
  1
B
  9
$CUSTOMPROPERTY
  1
4.50
  9
$CUSTOMPROPERTYTAG
  1
C
  9
$CUSTOMPROPERTY
  1
1.13
  9
$CUSTOMPROPERTYTAG
  1
D
  9
$CUSTOMPROPERTY
  1
3.38
  9
$CUSTOMPROPERTYTAG
  1
F
  9
$CUSTOMPROPERTY
  1
3/8
  9
$CUSTOMPROPERTYTAG
  1
G
  9
$CUSTOMPROPERTY
  1
0.56
  9
$CUSTOMPROPERTYTAG
  1
H
  9
$CUSTOMPROPERTY
  1
0.21
  9
$CUSTOMPROPERTYTAG
  1
J
  9
$CUSTOMPROPERTY
  1
2.22
  9
$CUSTOMPROPERTYTAG
  1
L
  9
$CUSTOMPROPERTY
  1
1.32
  9
$CUSTOMPROPERTYTAG
  1
M
  9
$CUSTOMPROPERTY
  1
1.13
  9
$CUSTOMPROPERTYTAG
  1
R
  9
$CUSTOMPROPERTY
  1
0.30
  9
$CUSTOMPROPERTYTAG
  1
S
  9
$CUSTOMPROPERTY
  1
0.76
  9
$CUSTOMPROPERTYTAG
  1
COMPANY
  9
$CUSTOMPROPERTY
  1
baldor
  9
$INSBASE
 10
0.0
 20
0.0
 30
0.0
  9
$EXTMIN
 10
1.000000000000000E+20
 20
1.000000000000000E+20
 30
1.000000000000000E+20
  9
$EXTMAX
 10
-1.000000000000000E+20
 20
-1.000000000000000E+20
 30
-1.000000000000000E+20
  9
$LIMMIN
 10
0.0
 20
0.0
  9
$LIMMAX
 10
12.0
 20
9.0
  9
$ORTHOMODE
 70
     0
  9
$REGENMODE
 70
     1
  9
$FILLMODE
 70
     1
  9
$QTEXTMODE
 70
     0
  9
$MIRRTEXT
 70
     1
  9
$LTSCALE
 40
1.0
  9
$ATTMODE
 70
     1
  9
$TEXTSIZE
 40
0.2
  9
$TRACEWID
 40
0.05
  9
$TEXTSTYLE
  7
Standard
  9
$CLAYER
  8
0
  9
$CELTYPE
  6
ByLayer
  9
$CECOLOR
 62
   256
  9
$CELTSCALE
 40
1.0
  9
$DISPSILH
 70
     0
  9
$DIMSCALE
 40
1.0
  9
$DIMASZ
 40
0.18
  9
$DIMEXO
 40
0.0625
  9
$DIMDLI
 40
0.38
  9
$DIMRND
 40
0.0
  9
$DIMDLE
 40
0.0
  9
$DIMEXE
 40
0.18
  9
$DIMTP
 40
0.0
  9
$DIMTM
 40
0.0
  9
$DIMTXT
 40
0.18
  9
$DIMCEN
 40
0.09
  9
$DIMTSZ
 40
0.0
  9
$DIMTOL
 70
     0
  9
$DIMLIM
 70
     0
  9
$DIMTIH
 70
     1
  9
$DIMTOH
 70
     1
  9
$DIMSE1
 70
     0
  9
$DIMSE2
 70
     0
  9
$DIMTAD
 70
     0
  9
$DIMZIN
 70
     0
  9
$DIMBLK
  1

  9
$DIMASO
 70
     1
  9
$DIMSHO
 70
     1
  9
$DIMPOST
  1

  9
$DIMAPOST
  1

  9
$DIMALT
 70
     0
  9
$DIMALTD
 70
     2
  9
$DIMALTF
 40
25.4
  9
$DIMLFAC
 40
1.0
  9
$DIMTOFL
 70
     0
  9
$DIMTVP
 40
0.0
  9
$DIMTIX
 70
     0
  9
$DIMSOXD
 70
     0
  9
$DIMSAH
 70
     0
  9
$DIMBLK1
  1

  9
$DIMBLK2
  1

  9
$DIMSTYLE
  2
Standard
  9
$DIMCLRD
 70
     0
  9
$DIMCLRE
 70
     0
  9
$DIMCLRT
 70
     0
  9
$DIMTFAC
 40
1.0
  9
$DIMGAP
 40
0.09
  9
$DIMJUST
 70
     0
  9
$DIMSD1
 70
     0
  9
$DIMSD2
 70
     0
  9
$DIMTOLJ
 70
     1
  9
$DIMTZIN
 70
     0
  9
$DIMALTZ
 70
     0
  9
$DIMALTTZ
 70
     0
  9
$DIMUPT
 70
     0
  9
$DIMDEC
 70
     4
  9
$DIMTDEC
 70
     4
  9
$DIMALTU
 70
     2
  9
$DIMALTTD
 70
     2
  9
$DIMTXSTY
  7
Standard
  9
$DIMAUNIT
 70
     0
  9
$DIMADEC
 70
     0
  9
$DIMALTRND
 40
0.0
  9
$DIMAZIN
 70
     0
  9
$DIMDSEP
 70
    46
  9
$DIMATFIT
 70
     3
  9
$DIMFRAC
 70
     0
  9
$DIMLDRBLK
  1

  9
$DIMLUNIT
 70
     2
  9
$DIMLWD
 70
    -2
  9
$DIMLWE
 70
    -2
  9
$DIMTMOVE
 70
     0
  9
$DIMFXL
 40
1.0
  9
$DIMFXLON
 70
     0
  9
$DIMJOGANG
 40
0.7853981633974483
  9
$DIMTFILL
 70
     0
  9
$DIMTFILLCLR
 70
     0
  9
$DIMARCSYM
 70
     0
  9
$DIMLTYPE
  6

  9
$DIMLTEX1
  6

  9
$DIMLTEX2
  6

  9
$DIMTXTDIRECTION
 70
     0
  9
$LUNITS
 70
     2
  9
$LUPREC
 70
     4
  9
$SKETCHINC
 40
0.1
  9
$FILLETRAD
 40
0.5
  9
$AUNITS
 70
     0
  9
$AUPREC
 70
     0
  9
$MENU
  1
.
  9
$ELEVATION
 40
0.0
  9
$PELEVATION
 40
0.0
  9
$THICKNESS
 40
0.0
  9
$LIMCHECK
 70
     0
  9
$CHAMFERA
 40
0.0
  9
$CHAMFERB
 40
0.0
  9
$CHAMFERC
 40
0.0
  9
$CHAMFERD
 40
0.0
  9
$SKPOLY
 70
     0
  9
$TDCREATE
 40
2458169.002793449
  9
$TDUCREATE
 40
2458168.961126782
  9
$TDUPDATE
 40
2458169.002793623
  9
$TDUUPDATE
 40
2458168.961126956
  9
$TDINDWG
 40
0.0000000116
  9
$TDUSRTIMER
 40
0.0000000116
  9
$USRTIMER
 70
     1
  9
$ANGBASE
 50
0.0
  9
$ANGDIR
 70
     0
  9
$PDMODE
 70
     0
  9
$PDSIZE
 40
0.0
  9
$PLINEWID
 40
0.0
  9
$SPLFRAME
 70
     0
  9
$SPLINETYPE
 70
     6
  9
$SPLINESEGS
 70
     8
  9
$HANDSEED
  5
169
  9
$SURFTAB1
 70
     6
  9
$SURFTAB2
 70
     6
  9
$SURFTYPE
 70
     6
  9
$SURFU
 70
     6
  9
$SURFV
 70
     6
  9
$UCSBASE
  2

  9
$UCSNAME
  2

  9
$UCSORG
 10
0.0
 20
0.0
 30
0.0
  9
$UCSXDIR
 10
1.0
 20
0.0
 30
0.0
  9
$UCSYDIR
 10
0.0
 20
1.0
 30
0.0
  9
$UCSORTHOREF
  2

  9
$UCSORTHOVIEW
 70
     0
  9
$UCSORGTOP
 10
0.0
 20
0.0
 30
0.0
  9
$UCSORGBOTTOM
 10
0.0
 20
0.0
 30
0.0
  9
$UCSORGLEFT
 10
0.0
 20
0.0
 30
0.0
  9
$UCSORGRIGHT
 10
0.0
 20
0.0
 30
0.0
  9
$UCSORGFRONT
 10
0.0
 20
0.0
 30
0.0
  9
$UCSORGBACK
 10
0.0
 20
0.0
 30
0.0
  9
$PUCSBASE
  2

  9
$PUCSNAME
  2

  9
$PUCSORG
 10
0.0
 20
0.0
 30
0.0
  9
$PUCSXDIR
 10
1.0
 20
0.0
 30
0.0
  9
$PUCSYDIR
 10
0.0
 20
1.0
 30
0.0
  9
$PUCSORTHOREF
  2

  9
$PUCSORTHOVIEW
 70
     0
  9
$PUCSORGTOP
 10
0.0
 20
0.0
 30
0.0
  9
$PUCSORGBOTTOM
 10
0.0
 20
0.0
 30
0.0
  9
$PUCSORGLEFT
 10
0.0
 20
0.0
 30
0.0
  9
$PUCSORGRIGHT
 10
0.0
 20
0.0
 30
0.0
  9
$PUCSORGFRONT
 10
0.0
 20
0.0
 30
0.0
  9
$PUCSORGBACK
 10
0.0
 20
0.0
 30
0.0
  9
$USERI1
 70
     0
  9
$USERI2
 70
     0
  9
$USERI3
 70
     0
  9
$USERI4
 70
     0
  9
$USERI5
 70
     0
  9
$USERR1
 40
0.0
  9
$USERR2
 40
0.0
  9
$USERR3
 40
0.0
  9
$USERR4
 40
0.0
  9
$USERR5
 40
0.0
  9
$WORLDVIEW
 70
     1
  9
$SHADEDGE
 70
     3
  9
$SHADEDIF
 70
    70
  9
$TILEMODE
 70
     1
  9
$MAXACTVP
 70
    64
  9
$PINSBASE
 10
0.0
 20
0.0
 30
0.0
  9
$PLIMCHECK
 70
     0
  9
$PEXTMIN
 10
1.000000000000000E+20
 20
1.000000000000000E+20
 30
1.000000000000000E+20
  9
$PEXTMAX
 10
-1.000000000000000E+20
 20
-1.000000000000000E+20
 30
-1.000000000000000E+20
  9
$PLIMMIN
 10
0.0
 20
0.0
  9
$PLIMMAX
 10
12.0
 20
9.0
  9
$UNITMODE
 70
     0
  9
$VISRETAIN
 70
     1
  9
$PLINEGEN
 70
     0
  9
$PSLTSCALE
 70
     1
  9
$TREEDEPTH
 70
  3020
  9
$CMLSTYLE
  2
Standard
  9
$CMLJUST
 70
     0
  9
$CMLSCALE
 40
1.0
  9
$PROXYGRAPHICS
 70
     1
  9
$MEASUREMENT
 70
     0
  9
$CELWEIGHT
370
    -1
  9
$ENDCAPS
280
     0
  9
$JOINSTYLE
280
     0
  9
$LWDISPLAY
290
     0
  9
$INSUNITS
 70
     1
  9
$HYPERLINKBASE
  1

  9
$STYLESHEET
  1

  9
$XEDIT
290
     1
  9
$CEPSNTYPE
380
     0
  9
$PSTYLEMODE
290
     1
  9
$FINGERPRINTGUID
  2
{F147C3C7-E74A-4FAA-822A-FCE36FF56F1C}
  9
$VERSIONGUID
  2
{FAEB1C32-E019-11D5-929B-00C0DF256EC4}
  9
$EXTNAMES
290
     1
  9
$PSVPSCALE
 40
0.0
  9
$OLESTARTUP
290
     0
  9
$SORTENTS
280
   127
  9
$INDEXCTL
280
     0
  9
$HIDETEXT
280
     1
  9
$XCLIPFRAME
280
     2
  9
$HALOGAP
280
     0
  9
$OBSCOLOR
 70
   257
  9
$OBSLTYPE
280
     0
  9
$INTERSECTIONDISPLAY
280
     0
  9
$INTERSECTIONCOLOR
 70
   257
  9
$DIMASSOC
280
     2
  9
$PROJECTNAME
  1

  9
$CAMERADISPLAY
290
     0
  9
$LENSLENGTH
 40
50.0
  9
$CAMERAHEIGHT
 40
0.0
  9
$STEPSPERSEC
 40
2.0
  9
$STEPSIZE
 40
6.0
  9
$3DDWFPREC
 40
2.0
  9
$PSOLWIDTH
 40
0.25
  9
$PSOLHEIGHT
 40
4.0
  9
$LOFTANG1
 40
1.570796326794897
  9
$LOFTANG2
 40
1.570796326794897
  9
$LOFTMAG1
 40
0.0
  9
$LOFTMAG2
 40
0.0
  9
$LOFTPARAM
 70
     7
  9
$LOFTNORMALS
280
     1
  9
$LATITUDE
 40
37.795
  9
$LONGITUDE
 40
-122.394
  9
$NORTHDIRECTION
 40
0.0
  9
$TIMEZONE
 70
 -8000
  9
$LIGHTGLYPHDISPLAY
280
     1
  9
$TILEMODELIGHTSYNCH
280
     1
  9
$CMATERIAL
347
44
  9
$SOLIDHIST
280
     0
  9
$SHOWHIST
280
     1
  9
$DWFFRAME
280
     2
  9
$DGNFRAME
280
     2
  9
$REALWORLDSCALE
290
     1
  9
$INTERFERECOLOR
 62
   256
  9
$CSHADOW
280
     0
  9
$SHADOWPLANELOCATION
 40
0.0
  0
ENDSEC
  0
SECTION
  2
CLASSES
  0
CLASS
  1
ACDBDICTIONARYWDFLT
  2
AcDbDictionaryWithDefault
  3
ObjectDBX Classes
 90
        0
 91
        4
280
     0
281
     0
  0
CLASS
  1
VISUALSTYLE
  2
AcDbVisualStyle
  3
ObjectDBX Classes
 90
     4095
 91
        4
280
     0
281
     0
  0
CLASS
  1
MATERIAL
  2
AcDbMaterial
  3
ObjectDBX Classes
 90
     1153
 91
        4
280
     0
281
     0
  0
CLASS
  1
SCALE
  2
AcDbScale
  3
ObjectDBX Classes
 90
     1153
 91
        4
280
     0
281
     0
  0
CLASS
  1
TABLESTYLE
  2
AcDbTableStyle
  3
ObjectDBX Classes
 90
     4095
 91
        4
280
     0
281
     0
  0
CLASS
  1
MLEADERSTYLE
  2
AcDbMLeaderStyle
  3
ACDB_MLEADERSTYLE_CLASS
 90
     4095
 91
        4
280
     0
281
     0
  0
CLASS
  1
SUN
  2
AcDbSun
  3
SCENEOE
 90
     1153
 91
        4
280
     0
281
     0
  0
CLASS
  1
DICTIONARYVAR
  2
AcDbDictionaryVar
  3
ObjectDBX Classes
 90
        0
 91
        4
280
     0
281
     0
  0
CLASS
  1
CELLSTYLEMAP
  2
AcDbCellStyleMap
  3
ObjectDBX Classes
 90
     1152
 91
        4
280
     0
281
     0
  0
ENDSEC
  0
SECTION
  2
TABLES
  0
TABLE
  2
VPORT
  5
8
330
0
100
AcDbSymbolTable
 70
     1
  0
VPORT
  5
29
330
8
100
AcDbSymbolTableRecord
100
AcDbViewportTableRecord
  2
*Active
 70
     0
 10
0.0
 20
0.0
 11
1.0
 21
1.0
 12
0.0
 22
0.0
 13
0.0
 23
0.0
 14
0.5
 24
0.5
 15
0.5
 25
0.5
 16
0.0
 26
0.0
 36
1.0
 17
0.0
 27
0.0
 37
0.0
 40
2.334780000000002
 41
1.965923984272607
 42
50.0
 43
0.0
 44
0.0
 50
0.0
 51
0.0
 71
     0
 72
   100
 73
     1
 74
     3
 75
     0
 76
     0
 77
     0
 78
     0
281
     0
 65
     1
110
0.0
120
0.0
130
0.0
111
1.0
121
0.0
131
0.0
112
0.0
122
1.0
132
0.0
 79
     0
146
0.0
348
2F
 60
     3
 61
     5
292
     1
282
     1
141
0.0
142
0.0
 63
   250
361
6D
  0
ENDTAB
  0
TABLE
  2
LTYPE
  5
5
330
0
100
AcDbSymbolTable
 70
     3
  0
LTYPE
  5
14
330
5
100
AcDbSymbolTableRecord
100
AcDbLinetypeTableRecord
  2
ByBlock
 70
     0
  3

 72
    65
 73
     0
 40
0.0
  0
LTYPE
  5
15
330
5
100
AcDbSymbolTableRecord
100
AcDbLinetypeTableRecord
  2
ByLayer
 70
     0
  3

 72
    65
 73
     0
 40
0.0
  0
LTYPE
  5
16
330
5
100
AcDbSymbolTableRecord
100
AcDbLinetypeTableRecord
  2
Continuous
 70
     0
  3
Solid line
 72
    65
 73
     0
 40
0.0
  0
LTYPE
  5
A7
330
5
100
AcDbSymbolTableRecord
100
AcDbLinetypeTableRecord
  2
Dashed
 70
     0
  3

 72
    65
 73
     2
 40
2.0
 49
1.0
 74
     0
 49
-1.0
 74
     0
  0
LTYPE
  5
B1
330
5
100
AcDbSymbolTableRecord
100
AcDbLinetypeTableRecord
  2
Center
 70
     0
  3

 72
    65
 73
     4
 40
1.5
 49
0.45
 74
     0
 49
-0.5
 74
     0
 49
0.05
 74
     0
 49
-0.5
 74
     0
  0
ENDTAB
  0
TABLE
  2
LAYER
  5
2
330
0
100
AcDbSymbolTable
 70
     7
  0
LAYER
  5
10
330
2
100
AcDbSymbolTableRecord
100
AcDbLayerTableRecord
  2
0
 70
     0
 62
     7
  6
Continuous
370
    -3
390
F
347
46
348
0
  0
LAYER
  5
72
330
2
100
AcDbSymbolTableRecord
100
AcDbLayerTableRecord
  2
AM_6
 70
     0
 62
    -2
  6
Continuous
370
    35
390
F
347
46
348
0
  0
LAYER
  5
A8
330
2
100
AcDbSymbolTableRecord
100
AcDbLayerTableRecord
  2
AM_9
 70
     0
 62
     6
  6
Dashed
370
    25
390
F
347
46
348
0
  0
LAYER
  5
B2
330
2
100
AcDbSymbolTableRecord
100
AcDbLayerTableRecord
  2
AM_7
 70
     0
 62
     7
  6
Center
370
    25
390
F
347
46
348
0
  0
LAYER
  5
B5
330
2
100
AcDbSymbolTableRecord
100
AcDbLayerTableRecord
  2
AM_4
 70
     0
 62
     7
  6
Continuous
370
    50
390
F
347
46
348
0
  0
LAYER
  5
FE
330
2
100
AcDbSymbolTableRecord
100
AcDbLayerTableRecord
  2
AM_5
 70
     0
 62
     3
  6
Continuous
370
    25
390
F
347
46
348
0
  0
LAYER
  5
15C
330
2
100
AcDbSymbolTableRecord
100
AcDbLayerTableRecord
  2
ConnectionPoints
 70
     0
 62
     7
  6
Continuous
370
    50
390
F
347
46
348
0
  0
ENDTAB
  0
TABLE
  2
STYLE
  5
3
330
0
100
AcDbSymbolTable
 70
     1
  0
STYLE
  5
11
330
3
100
AcDbSymbolTableRecord
100
AcDbTextStyleTableRecord
  2
Standard
 70
     0
 40
0.0
 41
1.0
 50
0.0
 71
     0
 42
0.2
  3
txt
  4

  0
ENDTAB
  0
TABLE
  2
VIEW
  5
6
330
0
100
AcDbSymbolTable
 70
     0
  0
ENDTAB
  0
TABLE
  2
UCS
  5
7
330
0
100
AcDbSymbolTable
 70
     0
  0
ENDTAB
  0
TABLE
  2
APPID
  5
9
330
0
100
AcDbSymbolTable
 70
     1
  0
APPID
  5
12
330
9
100
AcDbSymbolTableRecord
100
AcDbRegAppTableRecord
  2
ACAD
 70
     0
  0
ENDTAB
  0
TABLE
  2
DIMSTYLE
  5
A
330
0
100
AcDbSymbolTable
 70
     1
100
AcDbDimStyleTable
  0
DIMSTYLE
105
27
330
A
100
AcDbSymbolTableRecord
100
AcDbDimStyleTableRecord
  2
Standard
 70
     0
178
     0
340
11
  0
ENDTAB
  0
TABLE
  2
BLOCK_RECORD
  5
1
330
0
100
AcDbSymbolTable
 70
     5
  0
BLOCK_RECORD
  5
1F
330
1
100
AcDbSymbolTableRecord
100
AcDbBlockTableRecord
  2
*Model_Space
340
22
 70
     0
280
     1
281
     0
  0
BLOCK_RECORD
  5
1B
330
1
100
AcDbSymbolTableRecord
100
AcDbBlockTableRecord
  2
*Paper_Space
340
1E
 70
     0
280
     1
281
     0
  0
BLOCK_RECORD
  5
23
330
1
100
AcDbSymbolTableRecord
100
AcDbBlockTableRecord
  2
*Paper_Space0
340
26
 70
     0
280
     1
281
     0
  0
BLOCK_RECORD
  5
6E
330
1
100
AcDbSymbolTableRecord
100
AcDbBlockTableRecord
  2
1_128171_0
340
0
102
{BLKREFS
331
6F
102
}
 70
     0
280
     1
281
     0
  0
BLOCK_RECORD
  5
8A
330
1
100
AcDbSymbolTableRecord
100
AcDbBlockTableRecord
  2
2_128171HU_0_in_128171_0
340
0
102
{BLKREFS
331
8B
102
}
 70
     0
280
     1
281
     0
  0
BLOCK_RECORD
  5
CE
330
1
100
AcDbSymbolTableRecord
100
AcDbBlockTableRecord
  2
3_077978_0_in_128171_0
340
0
102
{BLKREFS
331
CF
102
}
 70
     0
280
     1
281
     0
  0
BLOCK_RECORD
  5
10F
330
1
100
AcDbSymbolTableRecord
100
AcDbBlockTableRecord
  2
4_128171HL_0_in_128171_0
340
0
102
{BLKREFS
331
110
102
}
 70
     0
280
     1
281
     0
  0
ENDTAB
  0
ENDSEC
  0
SECTION
  2
BLOCKS
  0
BLOCK
  5
20
330
1F
100
AcDbEntity
  8
0
100
AcDbBlockBegin
  2
*Model_Space
 70
     0
 10
0.0
 20
0.0
 30
0.0
  3
*Model_Space
  1

  0
ENDBLK
  5
21
330
1F
100
AcDbEntity
  8
0
100
AcDbBlockEnd
  0
BLOCK
  5
1C
330
1B
100
AcDbEntity
 67
     1
  8
0
100
AcDbBlockBegin
  2
*Paper_Space
 70
     0
 10
0.0
 20
0.0
 30
0.0
  3
*Paper_Space
  1

  0
ENDBLK
  5
1D
330
1B
100
AcDbEntity
 67
     1
  8
0
100
AcDbBlockEnd
  0
BLOCK
  5
24
330
23
100
AcDbEntity
  8
0
100
AcDbBlockBegin
  2
*Paper_Space0
 70
     0
 10
0.0
 20
0.0
 30
0.0
  3
*Paper_Space0
  1

  0
ENDBLK
  5
25
330
23
100
AcDbEntity
  8
0
100
AcDbBlockEnd
  0
BLOCK
  5
70
330
6E
100
AcDbEntity
  8
0
100
AcDbBlockBegin
  2
1_128171_0
 70
     2
 10
0.0
 20
0.0
 30
0.0
  3
1_128171_0
  1

  0
ATTDEF
  5
73
330
6E
100
AcDbEntity
  8
AM_6
100
AcDbText
 10
7.25
 20
1.1445
 30
0.0
 40
0.5
  1
Set Screw Light Duty Two-Bolt Pillow Block Inch Bore
100
AcDbAttributeDefinition
  3

  2
NN
 70
     8
280
     0
  0
ATTDEF
  5
74
330
6E
100
AcDbEntity
  8
AM_6
100
AcDbText
 10
7.25
 20
0.6445000000000003
 30
0.0
 40
0.5
  1
SC Pillow Block Bearings -(Light Duty)
100
AcDbAttributeDefinition
  3

  2
NT
 70
     8
280
     0
  0
ATTDEF
  5
75
330
6E
100
AcDbEntity
  8
AM_6
100
AcDbText
 10
7.25
 20
0.1445000000000003
 30
0.0
 40
0.5
  1
128171
100
AcDbAttributeDefinition
  3

  2
NB
 70
     8
280
     0
  0
ATTDEF
  5
76
330
6E
100
AcDbEntity
  8
AM_6
100
AcDbText
 10
7.25
 20
-0.3554999999999997
 30
0.0
 40
0.5
  1
$PN.
100
AcDbAttributeDefinition
  3

  2
NBSYN
 70
     8
280
     0
  0
ATTDEF
  5
77
330
6E
100
AcDbEntity
  8
AM_6
100
AcDbText
 10
7.25
 20
-0.8554999999999997
 30
0.0
 40
0.5
  1
128171
100
AcDbAttributeDefinition
  3

  2
LINA
 70
     8
280
     0
  0
ATTDEF
  5
78
330
6E
100
AcDbEntity
  8
AM_6
100
AcDbText
 10
7.25
 20
-1.3555
 30
0.0
 40
0.5
  1
205
100
AcDbAttributeDefinition
  3

  2
SERIES
 70
     8
280
     0
  0
ATTDEF
  5
79
330
6E
100
AcDbEntity
  8
AM_6
100
AcDbText
 10
7.25
 20
-1.8555
 30
0.0
 40
0.5
  1
15/16
100
AcDbAttributeDefinition
  3

  2
SS
 70
     8
280
     0
  0
ATTDEF
  5
7A
330
6E
100
AcDbEntity
  8
AM_6
100
AcDbText
 10
7.25
 20
-2.3555
 30
0.0
 40
0.5
  1
128171
100
AcDbAttributeDefinition
  3

  2
PN
 70
     8
280
     0
  0
ATTDEF
  5
7B
330
6E
100
AcDbEntity
  8
AM_6
100
AcDbText
 10
7.25
 20
-2.8555
 30
0.0
 40
0.5
  1
P2B-SL-015
100
AcDbAttributeDefinition
  3

  2
DESCRIPTION
 70
     8
280
     0
  0
ATTDEF
  5
7C
330
6E
100
AcDbEntity
  8
AM_6
100
AcDbText
 10
7.25
 20
-3.3555
 30
0.0
 40
0.5
  1
0.76
100
AcDbAttributeDefinition
  3

  2
W
 70
     8
280
     0
  0
ATTDEF
  5
7D
330
6E
100
AcDbEntity
  8
AM_6
100
AcDbText
 10
7.25
 20
-3.8555
 30
0.0
 40
0.5
  1
1.06
100
AcDbAttributeDefinition
  3

  2
A
 70
     8
280
     0
  0
ATTDEF
  5
7E
330
6E
100
AcDbEntity
  8
AM_6
100
AcDbText
 10
7.25
 20
-4.355499999999999
 30
0.0
 40
0.5
  1
4.50
100
AcDbAttributeDefinition
  3

  2
B
 70
     8
280
     0
  0
ATTDEF
  5
7F
330
6E
100
AcDbEntity
  8
AM_6
100
AcDbText
 10
7.25
 20
-4.855499999999999
 30
0.0
 40
0.5
  1
1.13
100
AcDbAttributeDefinition
  3

  2
C
 70
     8
280
     0
  0
ATTDEF
  5
80
330
6E
100
AcDbEntity
  8
AM_6
100
AcDbText
 10
7.25
 20
-5.355499999999999
 30
0.0
 40
0.5
  1
3.38
100
AcDbAttributeDefinition
  3

  2
D
 70
     8
280
     0
  0
ATTDEF
  5
81
330
6E
100
AcDbEntity
  8
AM_6
100
AcDbText
 10
7.25
 20
-5.855499999999999
 30
0.0
 40
0.5
  1
3/8
100
AcDbAttributeDefinition
  3

  2
F
 70
     8
280
     0
  0
ATTDEF
  5
82
330
6E
100
AcDbEntity
  8
AM_6
100
AcDbText
 10
7.25
 20
-6.355499999999999
 30
0.0
 40
0.5
  1
0.56
100
AcDbAttributeDefinition
  3

  2
G
 70
     8
280
     0
  0
ATTDEF
  5
83
330
6E
100
AcDbEntity
  8
AM_6
100
AcDbText
 10
7.25
 20
-6.855499999999999
 30
0.0
 40
0.5
  1
0.21
100
AcDbAttributeDefinition
  3

  2
H
 70
     8
280
     0
  0
ATTDEF
  5
84
330
6E
100
AcDbEntity
  8
AM_6
100
AcDbText
 10
7.25
 20
-7.355499999999999
 30
0.0
 40
0.5
  1
2.22
100
AcDbAttributeDefinition
  3

  2
J
 70
     8
280
     0
  0
ATTDEF
  5
85
330
6E
100
AcDbEntity
  8
AM_6
100
AcDbText
 10
7.25
 20
-7.855499999999999
 30
0.0
 40
0.5
  1
1.32
100
AcDbAttributeDefinition
  3

  2
L
 70
     8
280
     0
  0
ATTDEF
  5
86
330
6E
100
AcDbEntity
  8
AM_6
100
AcDbText
 10
7.25
 20
-8.3555
 30
0.0
 40
0.5
  1
1.13
100
AcDbAttributeDefinition
  3

  2
M
 70
     8
280
     0
  0
ATTDEF
  5
87
330
6E
100
AcDbEntity
  8
AM_6
100
AcDbText
 10
7.25
 20
-8.8555
 30
0.0
 40
0.5
  1
0.30
100
AcDbAttributeDefinition
  3

  2
R
 70
     8
280
     0
  0
ATTDEF
  5
88
330
6E
100
AcDbEntity
  8
AM_6
100
AcDbText
 10
7.25
 20
-9.3555
 30
0.0
 40
0.5
  1
0.76
100
AcDbAttributeDefinition
  3

  2
S
 70
     8
280
     0
  0
ATTDEF
  5
89
330
6E
100
AcDbEntity
  8
AM_6
100
AcDbText
 10
7.25
 20
-9.8555
 30
0.0
 40
0.5
  1
baldor
100
AcDbAttributeDefinition
  3

  2
COMPANY
 70
     8
280
     0
  0
INSERT
  5
8B
330
6E
100
AcDbEntity
  8
0
100
AcDbBlockReference
  2
2_128171HU_0_in_128171_0
 10
0.0
 20
0.0
 30
0.0
  0
INSERT
  5
CF
330
6E
100
AcDbEntity
  8
0
100
AcDbBlockReference
  2
3_077978_0_in_128171_0
 10
0.0
 20
0.0
 30
0.0
  0
INSERT
  5
110
330
6E
100
AcDbEntity
  8
0
100
AcDbBlockReference
  2
4_128171HL_0_in_128171_0
 10
0.0
 20
0.0
 30
0.0
  0
ENDBLK
  5
71
330
6E
100
AcDbEntity
  8
0
100
AcDbBlockEnd
  0
BLOCK
  5
8C
330
8A
100
AcDbEntity
  8
0
100
AcDbBlockBegin
  2
2_128171HU_0_in_128171_0
 70
     2
 10
0.0
 20
0.0
 30
0.0
  3
2_128171HU_0_in_128171_0
  1

  0
ATTDEF
  5
8E
330
8A
100
AcDbEntity
  8
AM_6
100
AcDbText
 10
7.25
 20
1.1445
 30
0.0
 40
0.5
  1
P2B-SL -I-Housing-(UP)
100
AcDbAttributeDefinition
  3

  2
NN
 70
     8
280
     0
  0
ATTDEF
  5
8F
330
8A
100
AcDbEntity
  8
AM_6
100
AcDbText
 10
7.25
 20
0.6445000000000003
 30
0.0
 40
0.5
  1
SC Pillow Block Bearings -(Light Duty)
100
AcDbAttributeDefinition
  3

  2
NT
 70
     8
280
     0
  0
ATTDEF
  5
90
330
8A
100
AcDbEntity
  8
AM_6
100
AcDbText
 10
7.25
 20
0.1445000000000003
 30
0.0
 40
0.5
  1
128171HU
100
AcDbAttributeDefinition
  3

  2
NB
 70
     8
280
     0
  0
ATTDEF
  5
91
330
8A
100
AcDbEntity
  8
AM_6
100
AcDbText
 10
7.25
 20
-0.3554999999999997
 30
0.0
 40
0.5
  1
$PN.HU
100
AcDbAttributeDefinition
  3

  2
NBSYN
 70
     8
280
     0
  0
ATTDEF
  5
92
330
8A
100
AcDbEntity
  8
AM_6
100
AcDbText
 10
7.25
 20
-0.8554999999999997
 30
0.0
 40
0.5
  1
128171
100
AcDbAttributeDefinition
  3

  2
LINA
 70
     8
280
     0
  0
ATTDEF
  5
93
330
8A
100
AcDbEntity
  8
AM_6
100
AcDbText
 10
7.25
 20
-1.3555
 30
0.0
 40
0.5
  1
205
100
AcDbAttributeDefinition
  3

  2
SERIES
 70
     8
280
     0
  0
ATTDEF
  5
94
330
8A
100
AcDbEntity
  8
AM_6
100
AcDbText
 10
7.25
 20
-1.8555
 30
0.0
 40
0.5
  1
15/16
100
AcDbAttributeDefinition
  3

  2
SS
 70
     8
280
     0
  0
ATTDEF
  5
95
330
8A
100
AcDbEntity
  8
AM_6
100
AcDbText
 10
7.25
 20
-2.3555
 30
0.0
 40
0.5
  1
128171
100
AcDbAttributeDefinition
  3

  2
PN
 70
     8
280
     0
  0
ATTDEF
  5
96
330
8A
100
AcDbEntity
  8
AM_6
100
AcDbText
 10
7.25
 20
-2.8555
 30
0.0
 40
0.5
  1
P2B-SL-015
100
AcDbAttributeDefinition
  3

  2
DESCRIPTION
 70
     8
280
     0
  0
ATTDEF
  5
97
330
8A
100
AcDbEntity
  8
AM_6
100
AcDbText
 10
7.25
 20
-3.3555
 30
0.0
 40
0.5
  1
0.76
100
AcDbAttributeDefinition
  3

  2
W
 70
     8
280
     0
  0
ATTDEF
  5
98
330
8A
100
AcDbEntity
  8
AM_6
100
AcDbText
 10
7.25
 20
-3.8555
 30
0.0
 40
0.5
  1
1.06
100
AcDbAttributeDefinition
  3

  2
A
 70
     8
280
     0
  0
ATTDEF
  5
99
330
8A
100
AcDbEntity
  8
AM_6
100
AcDbText
 10
7.25
 20
-4.355499999999999
 30
0.0
 40
0.5
  1
4.50
100
AcDbAttributeDefinition
  3

  2
B
 70
     8
280
     0
  0
ATTDEF
  5
9A
330
8A
100
AcDbEntity
  8
AM_6
100
AcDbText
 10
7.25
 20
-4.855499999999999
 30
0.0
 40
0.5
  1
1.13
100
AcDbAttributeDefinition
  3

  2
C
 70
     8
280
     0
  0
ATTDEF
  5
9B
330
8A
100
AcDbEntity
  8
AM_6
100
AcDbText
 10
7.25
 20
-5.355499999999999
 30
0.0
 40
0.5
  1
3.38
100
AcDbAttributeDefinition
  3

  2
D
 70
     8
280
     0
  0
ATTDEF
  5
9C
330
8A
100
AcDbEntity
  8
AM_6
100
AcDbText
 10
7.25
 20
-5.855499999999999
 30
0.0
 40
0.5
  1
3/8
100
AcDbAttributeDefinition
  3

  2
F
 70
     8
280
     0
  0
ATTDEF
  5
9D
330
8A
100
AcDbEntity
  8
AM_6
100
AcDbText
 10
7.25
 20
-6.355499999999999
 30
0.0
 40
0.5
  1
0.56
100
AcDbAttributeDefinition
  3

  2
G
 70
     8
280
     0
  0
ATTDEF
  5
9E
330
8A
100
AcDbEntity
  8
AM_6
100
AcDbText
 10
7.25
 20
-6.855499999999999
 30
0.0
 40
0.5
  1
0.21
100
AcDbAttributeDefinition
  3

  2
H
 70
     8
280
     0
  0
ATTDEF
  5
9F
330
8A
100
AcDbEntity
  8
AM_6
100
AcDbText
 10
7.25
 20
-7.355499999999999
 30
0.0
 40
0.5
  1
2.22
100
AcDbAttributeDefinition
  3

  2
J
 70
     8
280
     0
  0
ATTDEF
  5
A0
330
8A
100
AcDbEntity
  8
AM_6
100
AcDbText
 10
7.25
 20
-7.855499999999999
 30
0.0
 40
0.5
  1
1.32
100
AcDbAttributeDefinition
  3

  2
L
 70
     8
280
     0
  0
ATTDEF
  5
A1
330
8A
100
AcDbEntity
  8
AM_6
100
AcDbText
 10
7.25
 20
-8.3555
 30
0.0
 40
0.5
  1
1.13
100
AcDbAttributeDefinition
  3

  2
M
 70
     8
280
     0
  0
ATTDEF
  5
A2
330
8A
100
AcDbEntity
  8
AM_6
100
AcDbText
 10
7.25
 20
-8.8555
 30
0.0
 40
0.5
  1
0.30
100
AcDbAttributeDefinition
  3

  2
R
 70
     8
280
     0
  0
ATTDEF
  5
A3
330
8A
100
AcDbEntity
  8
AM_6
100
AcDbText
 10
7.25
 20
-9.3555
 30
0.0
 40
0.5
  1
0.76
100
AcDbAttributeDefinition
  3

  2
S
 70
     8
280
     0
  0
ATTDEF
  5
A4
330
8A
100
AcDbEntity
  8
AM_6
100
AcDbText
 10
7.25
 20
-9.8555
 30
0.0
 40
0.5
  1
1565
100
AcDbAttributeDefinition
  3

  2
CAPS
 70
     8
280
     0
  0
ATTDEF
  5
A5
330
8A
100
AcDbEntity
  8
AM_6
100
AcDbText
 10
7.25
 20
-10.3555
 30
0.0
 40
0.5
  1
3146
100
AcDbAttributeDefinition
  3

  2
CAPD
 70
     8
280
     0
  0
ATTDEF
  5
A6
330
8A
100
AcDbEntity
  8
AM_6
100
AcDbText
 10
7.25
 20
-10.8555
 30
0.0
 40
0.5
  1
baldor
100
AcDbAttributeDefinition
  3

  2
COMPANY
 70
     8
280
     0
  0
LINE
  5
A9
330
8A
100
AcDbEntity
  8
AM_9
100
AcDbLine
 10
-1.597499999999999
 20
-0.9199999999999999
 30
0.0
 11
-1.597499999999999
 21
-1.025
 31
0.0
  0
LINE
  5
AA
330
8A
100
AcDbEntity
  8
AM_9
100
AcDbLine
 10
-1.41
 20
-1.025
 30
0.0
 11
-1.41
 21
-0.9199999999999999
 31
0.0
  0
LINE
  5
AB
330
8A
100
AcDbEntity
  8
AM_9
100
AcDbLine
 10
-1.782499999999999
 20
-0.9199999999999999
 30
0.0
 11
-1.782499999999999
 21
-1.025
 31
0.0
  0
LINE
  5
AC
330
8A
100
AcDbEntity
  8
AM_9
100
AcDbLine
 10
-1.97
 20
-0.9199999999999999
 30
0.0
 11
-1.97
 21
-1.025
 31
0.0
  0
LINE
  5
AD
330
8A
100
AcDbEntity
  8
AM_9
100
AcDbLine
 10
1.5975
 20
-0.92
 30
0.0
 11
1.5975
 21
-1.025
 31
0.0
  0
LINE
  5
AE
330
8A
100
AcDbEntity
  8
AM_9
100
AcDbLine
 10
1.41
 20
-0.92
 30
0.0
 11
1.41
 21
-1.025
 31
0.0
  0
LINE
  5
AF
330
8A
100
AcDbEntity
  8
AM_9
100
AcDbLine
 10
1.7825
 20
-0.92
 30
0.0
 11
1.7825
 21
-1.025
 31
0.0
  0
LINE
  5
B0
330
8A
100
AcDbEntity
  8
AM_9
100
AcDbLine
 10
1.97
 20
-1.025
 30
0.0
 11
1.97
 21
-0.92
 31
0.0
  0
LINE
  5
B3
330
8A
100
AcDbEntity
  8
AM_7
100
AcDbLine
 10
-1.144500000000001
 20
-0.0000000000000002
 30
0.0
 11
1.144500000000001
 21
-0.0000000000000002
 31
0.0
  0
LINE
  5
B4
330
8A
100
AcDbEntity
  8
AM_7
100
AcDbLine
 10
0.0
 20
-1.144500000000001
 30
0.0
 11
0.0
 21
1.1445
 31
0.0
  0
ARC
  5
B6
330
8A
100
AcDbEntity
  8
AM_4
100
AcDbCircle
 10
0.0
 20
-0.0000000000000001
 30
0.0
 40
1.0236
100
AcDbArc
 50
0.0
 51
180.0
  0
ARC
  5
B7
330
8A
100
AcDbEntity
  8
AM_4
100
AcDbCircle
 10
-0.0000000000000001
 20
-0.0000000000000003
 30
0.0
 40
1.090000000000001
100
AcDbArc
 50
0.0
 51
180.0
  0
LINE
  5
B8
330
8A
100
AcDbEntity
  8
AM_4
100
AcDbLine
 10
1.090000000000001
 20
-0.1426979962573175
 30
0.0
 11
1.0236
 21
-0.1426979962573175
 31
0.0
  0
LINE
  5
B9
330
8A
100
AcDbEntity
  8
AM_4
100
AcDbLine
 10
-1.0236
 20
-0.1426979962573175
 30
0.0
 11
-1.09
 21
-0.1426979962573175
 31
0.0
  0
LINE
  5
BA
330
8A
100
AcDbEntity
  8
AM_4
100
AcDbLine
 10
1.2336
 20
-1.025
 30
0.0
 11
2.25
 21
-1.025
 31
0.0
  0
LINE
  5
BB
330
8A
100
AcDbEntity
  8
AM_4
100
AcDbLine
 10
2.25
 20
-0.9199999999999999
 30
0.0
 11
2.25
 21
-1.025
 31
0.0
  0
LWPOLYLINE
  5
BC
330
8A
100
AcDbEntity
  8
AM_4
100
AcDbPolyline
 90
        7
 70
     0
 43
0.0
 10
-1.0236
 20
-0.8150000000000001
 10
-1.024399113400734
 20
-0.8333027059770082
 10
-1.026790371867436
 20
-0.8514661173100554
 10
-1.030755576479296
 20
-0.8693519994715294
 10
-1.036264549634959
 20
-0.8868242300983904
 10
-1.043275364722304
 20
-0.9037498349655468
 10
-1.051734665205268
 20
-0.9199999999999999
  0
LWPOLYLINE
  5
BD
330
8A
100
AcDbEntity
  8
AM_4
100
AcDbPolyline
 90
       19
 70
     0
 43
0.0
 10
-1.090000000000001
 20
-0.815
 10
-1.090399556700367
 20
-0.824151352988504
 10
-1.091595185933719
 20
-0.8332330586550276
 10
-1.093577788239648
 20
-0.8421759997357646
 10
-1.09633227481748
 20
-0.8509121150491951
 10
-1.099837682361152
 20
-0.8593749174827733
 10
-1.104067332602634
 20
-0.8674999999999998
 10
-1.108989035349657
 20
-0.8752255258168596
 10
-1.114565333472508
 20
-0.8824926990170865
 10
-1.120753787975413
 20
-0.8892462120245873
 10
-1.127507300982914
 20
-0.8954346665274925
 10
-1.134774474183141
 20
-0.9010109646503439
 10
-1.142500000000001
 20
-0.9059326673973659
 10
-1.150625082517227
 20
-0.9101623176388481
 10
-1.159087884950805
 20
-0.9136677251825202
 10
-1.167824000264236
 20
-0.916422211760352
 10
-1.176766941344973
 20
-0.9184048140662817
 10
-1.185848647011496
 20
-0.9196004432996332
 10
-1.195000000000001
 20
-0.9199999999999999
  0
LINE
  5
BE
330
8A
100
AcDbEntity
  8
AM_4
100
AcDbLine
 10
-1.0236
 20
-0.0000000000000001
 30
0.0
 11
-1.0236
 21
-0.8150000000000001
 31
0.0
  0
LINE
  5
BF
330
8A
100
AcDbEntity
  8
AM_4
100
AcDbLine
 10
-1.0236
 20
-0.3248316800363539
 30
0.0
 11
-1.09
 21
-0.3248316800363539
 31
0.0
  0
LINE
  5
C0
330
8A
100
AcDbEntity
  8
AM_4
100
AcDbLine
 10
-1.090000000000001
 20
-0.815
 30
0.0
 11
-1.090000000000001
 21
-0.0000000000000001
 31
0.0
  0
LWPOLYLINE
  5
C1
330
8A
100
AcDbEntity
  8
AM_4
100
AcDbPolyline
 90
       19
 70
     0
 43
0.0
 10
1.194999995306135
 20
-0.9199999999999999
 10
1.185848642335492
 20
-0.9196004428905358
 10
1.176766936722417
 20
-0.9184048132512005
 10
1.16782399573031
 20
-0.9164222105454903
 10
1.159087880540014
 20
-0.9136677235771236
 10
1.15062507826314
 20
-0.9101623156551347
 10
1.142499995934993
 20
-0.9059326650504331
 10
1.134774470338151
 20
-0.9010109619580532
 10
1.127507297387204
 20
-0.8954346635103339
 10
1.120753784656348
 20
-0.8892462087055232
 10
1.114565330455349
 20
-0.8824926954213769
 10
1.108989032657365
 20
-0.8752255219718701
 10
1.104067330255701
 20
-0.8674999959349929
 10
1.099837680377439
 20
-0.8593749132286863
 10
1.096332273212083
 20
-0.8509121106384041
 10
1.093577787024786
 20
-0.8421759952018384
 10
1.091595185118637
 20
-0.8332330540324722
 10
1.09039955629127
 20
-0.8241513483124999
 10
1.09
 20
-0.8149999999999997
  0
LWPOLYLINE
  5
C2
330
8A
100
AcDbEntity
  8
AM_4
100
AcDbPolyline
 90
        7
 70
     0
 43
0.0
 10
1.051734665205268
 20
-0.9199999999999999
 10
1.043275364722304
 20
-0.9037498349655468
 10
1.036264549634959
 20
-0.8868242300983904
 10
1.030755576479296
 20
-0.8693519994715292
 10
1.026790371867436
 20
-0.8514661173100554
 10
1.024399113400734
 20
-0.8333027059770081
 10
1.0236
 20
-0.8150000000000001
  0
LINE
  5
C3
330
8A
100
AcDbEntity
  8
AM_4
100
AcDbLine
 10
1.090000000000001
 20
-0.0000000000000003
 30
0.0
 11
1.09
 21
-0.8149999999999997
 31
0.0
  0
LINE
  5
C4
330
8A
100
AcDbEntity
  8
AM_4
100
AcDbLine
 10
1.09
 20
-0.3248316800363539
 30
0.0
 11
1.0236
 21
-0.3248316800363539
 31
0.0
  0
LINE
  5
C5
330
8A
100
AcDbEntity
  8
AM_4
100
AcDbLine
 10
1.0236
 20
-0.8150000000000001
 30
0.0
 11
1.0236
 21
-0.0000000000000001
 31
0.0
  0
LINE
  5
C6
330
8A
100
AcDbEntity
  8
AM_4
100
AcDbLine
 10
-2.25
 20
-1.025
 30
0.0
 11
-1.2336
 21
-1.025
 31
0.0
  0
LINE
  5
C7
330
8A
100
AcDbEntity
  8
AM_4
100
AcDbLine
 10
-2.25
 20
-0.9199999999999999
 30
0.0
 11
-2.25
 21
-1.025
 31
0.0
  0
LINE
  5
C8
330
8A
100
AcDbEntity
  8
AM_4
100
AcDbLine
 10
-1.051734665205268
 20
-0.9199999999999999
 30
0.0
 11
-2.25
 21
-0.9199999999999999
 31
0.0
  0
LINE
  5
C9
330
8A
100
AcDbEntity
  8
AM_4
100
AcDbLine
 10
-2.1369999435
 20
-1.025
 30
0.0
 11
-2.1369999435
 21
-0.9199999999999999
 31
0.0
  0
ARC
  5
CA
330
8A
100
AcDbEntity
  8
AM_4
100
AcDbCircle
 10
-1.2336
 20
-0.8150000000000006
 30
0.0
 40
0.2099999999999993
100
AcDbArc
 50
270.0
 51
330.0000000000002
  0
LINE
  5
CB
330
8A
100
AcDbEntity
  8
AM_4
100
AcDbLine
 10
2.25
 20
-0.9199999999999999
 30
0.0
 11
1.051734665205268
 21
-0.9199999999999999
 31
0.0
  0
ARC
  5
CC
330
8A
100
AcDbEntity
  8
AM_4
100
AcDbCircle
 10
1.2336
 20
-0.8149999999999994
 30
0.0
 40
0.2100000000000004
100
AcDbArc
 50
210.0000000000001
 51
270.0
  0
LINE
  5
CD
330
8A
100
AcDbEntity
  8
AM_4
100
AcDbLine
 10
2.1369999435
 20
-1.025
 30
0.0
 11
2.1369999435
 21
-0.9199999999999999
 31
0.0
  0
ENDBLK
  5
8D
330
8A
100
AcDbEntity
  8
0
100
AcDbBlockEnd
  0
BLOCK
  5
D0
330
CE
100
AcDbEntity
  8
0
100
AcDbBlockBegin
  2
3_077978_0_in_128171_0
 70
     2
 10
0.0
 20
0.0
 30
0.0
  3
3_077978_0_in_128171_0
  1

  0
ATTDEF
  5
D2
330
CE
100
AcDbEntity
  8
AM_6
100
AcDbText
 10
6.023599999999986
 20
1.015565340093881
 30
0.0
 40
0.5
  1
Set Screw Light Duty Insert with Pin Inch Bore
100
AcDbAttributeDefinition
  3

  2
NN
 70
     8
280
     0
  0
ATTDEF
  5
D3
330
CE
100
AcDbEntity
  8
AM_6
100
AcDbText
 10
6.023599999999986
 20
0.5155653400938811
 30
0.0
 40
0.5
  1
SCP Bearing Inserts
100
AcDbAttributeDefinition
  3

  2
NT
 70
     8
280
     0
  0
ATTDEF
  5
D4
330
CE
100
AcDbEntity
  8
AM_6
100
AcDbText
 10
6.023599999999986
 20
0.0155653400938811
 30
0.0
 40
0.5
  1
077978
100
AcDbAttributeDefinition
  3

  2
NB
 70
     8
280
     0
  0
ATTDEF
  5
D5
330
CE
100
AcDbEntity
  8
AM_6
100
AcDbText
 10
6.023599999999986
 20
-0.4844346599061189
 30
0.0
 40
0.5
  1
$PN.
100
AcDbAttributeDefinition
  3

  2
NBSYN
 70
     8
280
     0
  0
ATTDEF
  5
D6
330
CE
100
AcDbEntity
  8
AM_6
100
AcDbText
 10
6.023599999999986
 20
-0.9844346599061189
 30
0.0
 40
0.5
  1
077978
100
AcDbAttributeDefinition
  3

  2
LINA
 70
     8
280
     0
  0
ATTDEF
  5
D7
330
CE
100
AcDbEntity
  8
AM_6
100
AcDbText
 10
6.023599999999986
 20
-1.484434659906119
 30
0.0
 40
0.5
  1
205
100
AcDbAttributeDefinition
  3

  2
SERIES
 70
     8
280
     0
  0
ATTDEF
  5
D8
330
CE
100
AcDbEntity
  8
AM_6
100
AcDbText
 10
6.023599999999986
 20
-1.984434659906119
 30
0.0
 40
0.5
  1
15/16
100
AcDbAttributeDefinition
  3

  2
SS
 70
     8
280
     0
  0
ATTDEF
  5
D9
330
CE
100
AcDbEntity
  8
AM_6
100
AcDbText
 10
6.023599999999986
 20
-2.484434659906119
 30
0.0
 40
0.5
  1
077978
100
AcDbAttributeDefinition
  3

  2
PN
 70
     8
280
     0
  0
ATTDEF
  5
DA
330
CE
100
AcDbEntity
  8
AM_6
100
AcDbText
 10
6.023599999999986
 20
-2.984434659906119
 30
0.0
 40
0.5
  1
INS-SCP-015
100
AcDbAttributeDefinition
  3

  2
DESCRIPTION
 70
     8
280
     0
  0
ATTDEF
  5
DB
330
CE
100
AcDbEntity
  8
AM_6
100
AcDbText
 10
6.023599999999986
 20
-3.484434659906119
 30
0.0
 40
0.5
  1
1.06
100
AcDbAttributeDefinition
  3

  2
A
 70
     8
280
     0
  0
ATTDEF
  5
DC
330
CE
100
AcDbEntity
  8
AM_6
100
AcDbText
 10
6.023599999999986
 20
-3.984434659906119
 30
0.0
 40
0.5
  1
0.59
100
AcDbAttributeDefinition
  3

  2
C
 70
     8
280
     0
  0
ATTDEF
  5
DD
330
CE
100
AcDbEntity
  8
AM_6
100
AcDbText
 10
6.023599999999986
 20
-4.484434659906119
 30
0.0
 40
0.5
  1
2.0472
100
AcDbAttributeDefinition
  3

  2
D
 70
     8
280
     0
  0
ATTDEF
  5
DE
330
CE
100
AcDbEntity
  8
AM_6
100
AcDbText
 10
6.023599999999986
 20
-4.984434659906119
 30
0.0
 40
0.5
  1
0.16
100
AcDbAttributeDefinition
  3

  2
J
 70
     8
280
     0
  0
ATTDEF
  5
DF
330
CE
100
AcDbEntity
  8
AM_6
100
AcDbText
 10
6.023599999999986
 20
-5.484434659906119
 30
0.0
 40
0.5
  1
1.32
100
AcDbAttributeDefinition
  3

  2
L
 70
     8
280
     0
  0
ATTDEF
  5
E0
330
CE
100
AcDbEntity
  8
AM_6
100
AcDbText
 10
6.023599999999986
 20
-5.984434659906119
 30
0.0
 40
0.5
  1
1/4 - 28
100
AcDbAttributeDefinition
  3

  2
N
 70
     8
280
     0
  0
ATTDEF
  5
E1
330
CE
100
AcDbEntity
  8
AM_6
100
AcDbText
 10
6.023599999999986
 20
-6.484434659906119
 30
0.0
 40
0.5
  1
0.30
100
AcDbAttributeDefinition
  3

  2
W
 70
     8
280
     0
  0
ATTDEF
  5
E2
330
CE
100
AcDbEntity
  8
AM_6
100
AcDbText
 10
6.023599999999986
 20
-6.984434659906119
 30
0.0
 40
0.5
  1
0.76
100
AcDbAttributeDefinition
  3

  2
Y
 70
     8
280
     0
  0
ATTDEF
  5
E3
330
CE
100
AcDbEntity
  8
AM_6
100
AcDbText
 10
6.023599999999986
 20
-7.484434659906119
 30
0.0
 40
0.5
  1
baldor
100
AcDbAttributeDefinition
  3

  2
COMPANY
 70
     8
280
     0
  0
LINE
  5
E4
330
CE
100
AcDbEntity
  8
AM_9
100
AcDbLine
 10
-1.016838636363636
 20
-0.0833333333333381
 30
0.0
 11
-1.007576143942759
 21
-0.0833333333333381
 31
0.0
  0
LINE
  5
E5
330
CE
100
AcDbEntity
  8
AM_9
100
AcDbLine
 10
-1.007575504108627
 20
0.083333333333338
 30
0.0
 11
-1.016838636363636
 21
0.083333333333338
 31
0.0
  0
LWPOLYLINE
  5
E6
330
CE
100
AcDbEntity
  8
AM_9
100
AcDbPolyline
 90
       21
 70
     0
 43
0.0
 10
-1.007576748540628
 20
-0.0833333331812014
 10
-1.006680630978843
 20
-0.0831335764339547
 10
-1.004451867050995
 20
-0.0809827373508924
 10
-1.00230116446482
 20
-0.0764509633461744
 10
-1.000296593816078
 20
-0.0696944317065021
 10
-0.9985087325799433
 20
-0.0609161169194671
 10
-0.996978114153345
 20
-0.0503570742175566
 10
-0.9957682223921792
 20
-0.0384325934593674
 10
-0.9948939232889481
 20
-0.0253919247097217
 10
-0.9943922543159933
 20
-0.0117689816543653
 10
-0.9942610649838358
 20
0.0021907548703096
 10
-0.9945067056470738
 20
0.0159815306936026
 10
-0.995113652848227
 20
0.0293222502576094
 10
-0.996068373392672
 20
0.0418323624496996
 10
-0.9973368140187548
 20
0.0531761249307519
 10
-0.998898508914082
 20
0.0631001390498154
 10
-1.000694741458299
 20
0.0712642682635439
 10
-1.002701479194513
 20
0.077490615734892
 10
-1.004838525842064
 20
0.0815336627612082
 10
-1.007071270676085
 20
0.0832641300730692
 10
-1.007575950642298
 20
0.0833333327261003
  0
LWPOLYLINE
  5
E7
330
CE
100
AcDbEntity
  8
AM_9
100
AcDbPolyline
 90
        6
 70
     0
 43
0.0
 10
-1.007575950642298
 20
0.0833333327261003
 10
-1.009313377712515
 20
0.082612036735749
 10
-1.01151209567619
 20
0.0795405839699511
 10
-1.013595147833221
 20
0.0741608046145583
 10
-1.015306254511203
 20
0.0675017483333988
 10
-1.016838636363803
 20
0.0592607845917761
  0
LINE
  5
E8
330
CE
100
AcDbEntity
  8
AM_9
100
AcDbLine
 10
-1.070475
 20
0.0296969696969725
 30
0.0
 11
-1.070475
 21
-0.0296969661198727
 31
0.0
  0
ARC
  5
E9
330
CE
100
AcDbEntity
  8
AM_9
100
AcDbCircle
 10
-1.016838636363636
 20
-0.0296969696970168
 30
0.0
 40
0.0536363636363215
100
AcDbArc
 50
266.3953288976363
 51
270.0
  0
ARC
  5
EA
330
CE
100
AcDbEntity
  8
AM_9
100
AcDbCircle
 10
-1.016838636363636
 20
-0.0296969696969741
 30
0.0
 40
0.0536363636363639
100
AcDbArc
 50
180.0
 51
262.7580656028452
  0
ARC
  5
EB
330
CE
100
AcDbEntity
  8
AM_9
100
AcDbCircle
 10
-1.016838636363636
 20
0.029696969696974
 30
0.0
 40
0.053636363636364
100
AcDbArc
 50
90.0
 51
180.0
  0
LINE
  5
EC
330
CE
100
AcDbEntity
  8
AM_9
100
AcDbLine
 10
-1.016838636363636
 20
0.083333333333338
 30
0.0
 11
-1.016838636363636
 21
-0.0833333333333381
 31
0.0
  0
LWPOLYLINE
  5
ED
330
CE
100
AcDbEntity
  8
AM_9
100
AcDbPolyline
 90
       10
 70
     0
 43
0.0
 10
-1.016838636363636
 20
-0.0592607845928132
 10
-1.018224032086711
 20
-0.0489779703813297
 10
-1.019330682674335
 20
-0.0373786966785383
 10
-1.02013856513132
 20
-0.0244812806267991
 10
-1.02060244819192
 20
-0.0109015832306893
 10
-1.020704235898706
 20
0.0030585558687466
 10
-1.020442771639359
 20
0.0169327508538473
 10
-1.019818801800739
 20
0.0303484269434421
 10
-1.018854881945976
 20
0.0429052978435628
 10
-1.016838636363803
 20
0.0592607845917767
  0
LWPOLYLINE
  5
EE
330
CE
100
AcDbEntity
  8
AM_9
100
AcDbPolyline
 90
        6
 70
     0
 43
0.0
 10
-1.016838636363637
 20
-0.0592607845928132
 10
-1.015130618269489
 20
-0.0682910770184439
 10
-1.013208852167516
 20
-0.0753646338774824
 10
-1.011120583013002
 20
-0.0802714778236758
 10
-1.008929765854663
 20
-0.0828965321335361
 10
-1.007576748540628
 20
-0.0833333331812014
  0
CIRCLE
  5
EF
330
CE
100
AcDbEntity
  8
AM_9
100
AcDbCircle
 10
0.0
 20
0.0
 30
0.0
 40
0.9702666666666678
  0
LINE
  5
F0
330
CE
100
AcDbEntity
  8
AM_9
100
AcDbLine
 10
0.09795
 20
0.45882600921253
 30
0.0
 11
0.09795
 21
0.6410047816350097
 31
0.0
  0
LINE
  5
F1
330
CE
100
AcDbEntity
  8
AM_9
100
AcDbLine
 10
-0.09795
 20
0.6410047816350097
 30
0.0
 11
-0.09795
 21
0.45882600921253
 31
0.0
  0
LINE
  5
F2
330
CE
100
AcDbEntity
  8
AM_9
100
AcDbLine
 10
-0.09795
 20
0.45882600921253
 30
0.0
 11
-0.0959440241500396
 21
0.45882600921253
 31
0.0
  0
LINE
  5
F3
330
CE
100
AcDbEntity
  8
AM_9
100
AcDbLine
 10
0.09795
 20
0.45882600921253
 30
0.0
 11
0.0959440241500396
 21
0.45882600921253
 31
0.0
  0
LINE
  5
F4
330
CE
100
AcDbEntity
  8
AM_9
100
AcDbLine
 10
0.4572330437817672
 20
0.1051354027145818
 30
0.0
 11
0.6223430838610382
 21
0.1821274788418246
 31
0.0
  0
LINE
  5
F5
330
CE
100
AcDbEntity
  8
AM_9
100
AcDbLine
 10
0.5395521663860352
 20
0.3596731743223043
 30
0.0
 11
0.3744421263067642
 21
0.2826810981950614
 31
0.0
  0
LINE
  5
F6
330
CE
100
AcDbEntity
  8
AM_9
100
AcDbLine
 10
0.4572330437817672
 20
0.1051354027145818
 30
0.0
 11
0.4563852817549631
 21
0.1069534342480084
 31
0.0
  0
LINE
  5
F7
330
CE
100
AcDbEntity
  8
AM_9
100
AcDbLine
 10
0.3744421263067642
 20
0.2826810981950614
 30
0.0
 11
0.3752898883335682
 21
0.280863066661635
 31
0.0
  0
LINE
  5
F8
330
CE
100
AcDbEntity
  8
AM_9
100
AcDbLine
 10
-0.09795
 20
0.6410047816350097
 30
0.0
 11
0.09795
 21
0.6410047816350097
 31
0.0
  0
LINE
  5
F9
330
CE
100
AcDbEntity
  8
AM_9
100
AcDbLine
 10
0.09795
 20
0.6410047816350097
 30
0.0
 11
0.1078912791427814
 21
0.6509460607777912
 31
0.0
  0
LINE
  5
FA
330
CE
100
AcDbEntity
  8
AM_9
100
AcDbLine
 10
-0.1078766698427778
 20
0.6509314514777875
 30
0.0
 11
-0.09795
 21
0.6410047816350097
 31
0.0
  0
LINE
  5
FB
330
CE
100
AcDbEntity
  8
AM_9
100
AcDbLine
 10
0.5395521663860352
 20
0.3596731743223043
 30
0.0
 11
0.6223430838610382
 21
0.1821274788418247
 31
0.0
  0
LINE
  5
FC
330
CE
100
AcDbEntity
  8
AM_9
100
AcDbLine
 10
0.6223430838610382
 20
0.1821274788418247
 30
0.0
 11
0.6355226871559447
 21
0.1773304955430419
 31
0.0
  0
LINE
  5
FD
330
CE
100
AcDbEntity
  8
AM_9
100
AcDbLine
 10
0.5443805568595408
 20
0.3729390681205707
 30
0.0
 11
0.5395521663860352
 21
0.3596731743223043
 31
0.0
  0
LINE
  5
FF
330
CE
100
AcDbEntity
  8
AM_5
100
AcDbLine
 10
-0.125
 20
0.45177600921253
 30
0.0
 11
-0.125
 21
0.6480547816350023
 31
0.0
  0
LINE
  5
100
330
CE
100
AcDbEntity
  8
AM_5
100
AcDbLine
 10
0.125
 20
0.45177600921253
 30
0.0
 11
0.125
 21
0.6480547816350023
 31
0.0
  0
LINE
  5
101
330
CE
100
AcDbEntity
  8
AM_5
100
AcDbLine
 10
0.3566208324280699
 20
0.3042172650891309
 30
0.0
 11
0.534509812304551
 21
0.3871682587069145
 31
0.0
  0
LINE
  5
102
330
CE
100
AcDbEntity
  8
AM_5
100
AcDbLine
 10
0.4622753978632447
 20
0.0776403183299684
 30
0.0
 11
0.6401643777397258
 21
0.1605913119477521
 31
0.0
  0
LINE
  5
103
330
CE
100
AcDbEntity
  8
AM_7
100
AcDbLine
 10
0.3328836918110034
 20
0.1552262147663793
 30
0.0
 11
0.6639015183567989
 21
0.3095823622705068
 31
0.0
  0
ARC
  5
104
330
CE
100
AcDbEntity
  8
AM_4
100
AcDbCircle
 10
-1.016838636363639
 20
-0.0296969696970084
 30
0.0
 40
0.0536363636363297
100
AcDbArc
 50
262.7580656028431
 51
266.3953288976396
  0
CIRCLE
  5
105
330
CE
100
AcDbEntity
  8
AM_4
100
AcDbCircle
 10
0.0
 20
0.0
 30
0.0
 40
1.015565340093881
  0
ARC
  5
106
330
CE
100
AcDbEntity
  8
AM_4
100
AcDbCircle
 10
-0.0000000000000001
 20
0.0000000000000143
 30
0.0
 40
1.023599999999986
100
AcDbArc
 50
319.4084680311684
 51
0.0
  0
ARC
  5
107
330
CE
100
AcDbEntity
  8
AM_4
100
AcDbCircle
 10
0.0000000000002885
 20
0.000000000000107
 30
0.0
 40
1.023600000000289
100
AcDbArc
 50
180.0
 51
220.5915319688251
  0
CIRCLE
  5
108
330
CE
100
AcDbEntity
  8
AM_4
100
AcDbCircle
 10
0.0
 20
0.0
 30
0.0
 40
1.005431728164573
  0
CIRCLE
  5
109
330
CE
100
AcDbEntity
  8
AM_4
100
AcDbCircle
 10
0.0
 20
0.0
 30
0.0
 40
0.9869405303466913
  0
CIRCLE
  5
10A
330
CE
100
AcDbEntity
  8
AM_4
100
AcDbCircle
 10
0.0
 20
0.0
 30
0.0
 40
0.9560865860370598
  0
CIRCLE
  5
10B
330
CE
100
AcDbEntity
  8
AM_4
100
AcDbCircle
 10
0.0
 20
0.0
 30
0.0
 40
0.6599999999999931
  0
CIRCLE
  5
10C
330
CE
100
AcDbEntity
  8
AM_4
100
AcDbCircle
 10
0.0
 20
0.0
 30
0.0
 40
0.6336000000000167
  0
CIRCLE
  5
10D
330
CE
100
AcDbEntity
  8
AM_4
100
AcDbCircle
 10
0.0
 20
0.0
 30
0.0
 40
0.4951500000000048
  0
CIRCLE
  5
10E
330
CE
100
AcDbEntity
  8
AM_4
100
AcDbCircle
 10
0.0
 20
0.0
 30
0.0
 40
0.46875
  0
ENDBLK
  5
D1
330
CE
100
AcDbEntity
  8
0
100
AcDbBlockEnd
  0
BLOCK
  5
111
330
10F
100
AcDbEntity
  8
0
100
AcDbBlockBegin
  2
4_128171HL_0_in_128171_0
 70
     2
 10
0.0
 20
0.0
 30
0.0
  3
4_128171HL_0_in_128171_0
  1

  0
ATTDEF
  5
113
330
10F
100
AcDbEntity
  8
AM_6
100
AcDbText
 10
7.25
 20
-0.6171488206978032
 30
0.0
 40
0.5
  1
P2B-SL -I-Housing-(Low)
100
AcDbAttributeDefinition
  3

  2
NN
 70
     8
280
     0
  0
ATTDEF
  5
114
330
10F
100
AcDbEntity
  8
AM_6
100
AcDbText
 10
7.25
 20
-1.117148820697803
 30
0.0
 40
0.5
  1
SC Pillow Block Bearings -(Light Duty)
100
AcDbAttributeDefinition
  3

  2
NT
 70
     8
280
     0
  0
ATTDEF
  5
115
330
10F
100
AcDbEntity
  8
AM_6
100
AcDbText
 10
7.25
 20
-1.617148820697803
 30
0.0
 40
0.5
  1
128171HL
100
AcDbAttributeDefinition
  3

  2
NB
 70
     8
280
     0
  0
ATTDEF
  5
116
330
10F
100
AcDbEntity
  8
AM_6
100
AcDbText
 10
7.25
 20
-2.117148820697803
 30
0.0
 40
0.5
  1
$PN.HL
100
AcDbAttributeDefinition
  3

  2
NBSYN
 70
     8
280
     0
  0
ATTDEF
  5
117
330
10F
100
AcDbEntity
  8
AM_6
100
AcDbText
 10
7.25
 20
-2.617148820697803
 30
0.0
 40
0.5
  1
128171
100
AcDbAttributeDefinition
  3

  2
LINA
 70
     8
280
     0
  0
ATTDEF
  5
118
330
10F
100
AcDbEntity
  8
AM_6
100
AcDbText
 10
7.25
 20
-3.117148820697803
 30
0.0
 40
0.5
  1
205
100
AcDbAttributeDefinition
  3

  2
SERIES
 70
     8
280
     0
  0
ATTDEF
  5
119
330
10F
100
AcDbEntity
  8
AM_6
100
AcDbText
 10
7.25
 20
-3.617148820697803
 30
0.0
 40
0.5
  1
15/16
100
AcDbAttributeDefinition
  3

  2
SS
 70
     8
280
     0
  0
ATTDEF
  5
11A
330
10F
100
AcDbEntity
  8
AM_6
100
AcDbText
 10
7.25
 20
-4.117148820697803
 30
0.0
 40
0.5
  1
128171
100
AcDbAttributeDefinition
  3

  2
PN
 70
     8
280
     0
  0
ATTDEF
  5
11B
330
10F
100
AcDbEntity
  8
AM_6
100
AcDbText
 10
7.25
 20
-4.617148820697803
 30
0.0
 40
0.5
  1
P2B-SL-015
100
AcDbAttributeDefinition
  3

  2
DESCRIPTION
 70
     8
280
     0
  0
ATTDEF
  5
11C
330
10F
100
AcDbEntity
  8
AM_6
100
AcDbText
 10
7.25
 20
-5.117148820697803
 30
0.0
 40
0.5
  1
0.76
100
AcDbAttributeDefinition
  3

  2
W
 70
     8
280
     0
  0
ATTDEF
  5
11D
330
10F
100
AcDbEntity
  8
AM_6
100
AcDbText
 10
7.25
 20
-5.617148820697803
 30
0.0
 40
0.5
  1
1.06
100
AcDbAttributeDefinition
  3

  2
A
 70
     8
280
     0
  0
ATTDEF
  5
11E
330
10F
100
AcDbEntity
  8
AM_6
100
AcDbText
 10
7.25
 20
-6.117148820697803
 30
0.0
 40
0.5
  1
4.50
100
AcDbAttributeDefinition
  3

  2
B
 70
     8
280
     0
  0
ATTDEF
  5
11F
330
10F
100
AcDbEntity
  8
AM_6
100
AcDbText
 10
7.25
 20
-6.617148820697803
 30
0.0
 40
0.5
  1
1.13
100
AcDbAttributeDefinition
  3

  2
C
 70
     8
280
     0
  0
ATTDEF
  5
120
330
10F
100
AcDbEntity
  8
AM_6
100
AcDbText
 10
7.25
 20
-7.117148820697803
 30
0.0
 40
0.5
  1
3.38
100
AcDbAttributeDefinition
  3

  2
D
 70
     8
280
     0
  0
ATTDEF
  5
121
330
10F
100
AcDbEntity
  8
AM_6
100
AcDbText
 10
7.25
 20
-7.617148820697803
 30
0.0
 40
0.5
  1
3/8
100
AcDbAttributeDefinition
  3

  2
F
 70
     8
280
     0
  0
ATTDEF
  5
122
330
10F
100
AcDbEntity
  8
AM_6
100
AcDbText
 10
7.25
 20
-8.117148820697803
 30
0.0
 40
0.5
  1
0.56
100
AcDbAttributeDefinition
  3

  2
G
 70
     8
280
     0
  0
ATTDEF
  5
123
330
10F
100
AcDbEntity
  8
AM_6
100
AcDbText
 10
7.25
 20
-8.617148820697803
 30
0.0
 40
0.5
  1
0.21
100
AcDbAttributeDefinition
  3

  2
H
 70
     8
280
     0
  0
ATTDEF
  5
124
330
10F
100
AcDbEntity
  8
AM_6
100
AcDbText
 10
7.25
 20
-9.117148820697803
 30
0.0
 40
0.5
  1
2.22
100
AcDbAttributeDefinition
  3

  2
J
 70
     8
280
     0
  0
ATTDEF
  5
125
330
10F
100
AcDbEntity
  8
AM_6
100
AcDbText
 10
7.25
 20
-9.617148820697803
 30
0.0
 40
0.5
  1
1.32
100
AcDbAttributeDefinition
  3

  2
L
 70
     8
280
     0
  0
ATTDEF
  5
126
330
10F
100
AcDbEntity
  8
AM_6
100
AcDbText
 10
7.25
 20
-10.1171488206978
 30
0.0
 40
0.5
  1
1.13
100
AcDbAttributeDefinition
  3

  2
M
 70
     8
280
     0
  0
ATTDEF
  5
127
330
10F
100
AcDbEntity
  8
AM_6
100
AcDbText
 10
7.25
 20
-10.6171488206978
 30
0.0
 40
0.5
  1
0.30
100
AcDbAttributeDefinition
  3

  2
R
 70
     8
280
     0
  0
ATTDEF
  5
128
330
10F
100
AcDbEntity
  8
AM_6
100
AcDbText
 10
7.25
 20
-11.1171488206978
 30
0.0
 40
0.5
  1
0.76
100
AcDbAttributeDefinition
  3

  2
S
 70
     8
280
     0
  0
ATTDEF
  5
129
330
10F
100
AcDbEntity
  8
AM_6
100
AcDbText
 10
7.25
 20
-11.6171488206978
 30
0.0
 40
0.5
  1
1565
100
AcDbAttributeDefinition
  3

  2
CAPS
 70
     8
280
     0
  0
ATTDEF
  5
12A
330
10F
100
AcDbEntity
  8
AM_6
100
AcDbText
 10
7.25
 20
-12.1171488206978
 30
0.0
 40
0.5
  1
3146
100
AcDbAttributeDefinition
  3

  2
CAPD
 70
     8
280
     0
  0
ATTDEF
  5
12B
330
10F
100
AcDbEntity
  8
AM_6
100
AcDbText
 10
7.25
 20
-12.6171488206978
 30
0.0
 40
0.5
  1
baldor
100
AcDbAttributeDefinition
  3

  2
COMPANY
 70
     8
280
     0
  0
LINE
  5
12C
330
10F
100
AcDbEntity
  8
AM_9
100
AcDbLine
 10
-1.5975
 20
-1.025
 30
0.0
 11
-1.5975
 21
-1.13
 31
0.0
  0
LINE
  5
12D
330
10F
100
AcDbEntity
  8
AM_9
100
AcDbLine
 10
-1.41
 20
-1.13
 30
0.0
 11
-1.41
 21
-1.025
 31
0.0
  0
LINE
  5
12E
330
10F
100
AcDbEntity
  8
AM_9
100
AcDbLine
 10
-1.7825
 20
-1.025
 30
0.0
 11
-1.7825
 21
-1.13
 31
0.0
  0
LINE
  5
12F
330
10F
100
AcDbEntity
  8
AM_9
100
AcDbLine
 10
-1.97
 20
-1.025
 30
0.0
 11
-1.97
 21
-1.13
 31
0.0
  0
LINE
  5
130
330
10F
100
AcDbEntity
  8
AM_9
100
AcDbLine
 10
1.7825
 20
-1.025
 30
0.0
 11
1.7825
 21
-1.13
 31
0.0
  0
LINE
  5
131
330
10F
100
AcDbEntity
  8
AM_9
100
AcDbLine
 10
1.97
 20
-1.13
 30
0.0
 11
1.97
 21
-1.025
 31
0.0
  0
LINE
  5
132
330
10F
100
AcDbEntity
  8
AM_9
100
AcDbLine
 10
1.5975
 20
-1.025
 30
0.0
 11
1.5975
 21
-1.13
 31
0.0
  0
LINE
  5
133
330
10F
100
AcDbEntity
  8
AM_9
100
AcDbLine
 10
1.41
 20
-1.025
 30
0.0
 11
1.41
 21
-1.13
 31
0.0
  0
ARC
  5
134
330
10F
100
AcDbEntity
  8
AM_4
100
AcDbCircle
 10
-0.8836000000000049
 20
-0.7571102957958032
 30
0.0
 40
0.1400000000000074
100
AcDbArc
 50
40.5915319688317
 51
59.99999999999941
  0
ARC
  5
135
330
10F
100
AcDbEntity
  8
AM_4
100
AcDbCircle
 10
0.8836000000000046
 20
-0.7571102957958032
 30
0.0
 40
0.1400000000000074
100
AcDbArc
 50
120.0000000000005
 51
139.4084649819767
  0
ARC
  5
136
330
10F
100
AcDbEntity
  8
AM_4
100
AcDbCircle
 10
-0.0000000000000001
 20
0.0
 30
0.0
 40
1.13
100
AcDbArc
 50
223.9455195623088
 51
316.0544804376912
  0
ARC
  5
137
330
10F
100
AcDbEntity
  8
AM_4
100
AcDbCircle
 10
0.0000000000000001
 20
-0.0000000000000011
 30
0.0
 40
1.023599999999999
100
AcDbArc
 50
220.591531968831
 51
319.4084684482135
  0
LINE
  5
138
330
10F
100
AcDbEntity
  8
AM_4
100
AcDbLine
 10
0.8135999999999999
 20
-0.7841906910949656
 30
0.0
 11
0.8276473572938685
 21
-0.7693502791085964
 31
0.0
  0
LWPOLYLINE
  5
139
330
10F
100
AcDbEntity
  8
AM_4
100
AcDbPolyline
 90
       11
 70
     0
 43
0.0
 10
0.9178678582776232
 20
-0.7963572186280987
 10
0.9144088646686732
 20
-0.7845375054890961
 10
0.9079986706192998
 20
-0.7734597741908543
 10
0.9008501413094006
 20
-0.7657405399182059
 10
0.8916930913054563
 20
-0.7592551046698444
 10
0.8834659428843745
 20
-0.755552079543955
 10
0.8741193091924598
 20
-0.7532105138167903
 10
0.8576023067136949
 20
-0.7532867154477512
 10
0.8489185719619343
 20
-0.7554955945110915
 10
0.8404638033405029
 20
-0.7592791979249309
 10
0.8276473572938685
 20
-0.7693502791085963
  0
LWPOLYLINE
  5
13A
330
10F
100
AcDbEntity
  8
AM_4
100
AcDbPolyline
 90
        9
 70
     0
 43
0.0
 10
0.9100487428991146
 20
-0.6196313374092243
 10
0.907929998327884
 20
-0.6192406066637578
 10
0.8988778418925879
 20
-0.617946834660466
 10
0.8874214956717662
 20
-0.617162462047537
 10
0.8739538024053674
 20
-0.6174519763025345
 10
0.858919258630492
 20
-0.6193029628796878
 10
0.8446320399245251
 20
-0.6226544346167264
 10
0.8301582789458327
 20
-0.6277117546495828
 10
0.8135999999999999
 20
-0.635866739265976
  0
LINE
  5
13B
330
10F
100
AcDbEntity
  8
AM_4
100
AcDbLine
 10
0.8135999999999999
 20
-0.635866739265976
 30
0.0
 11
0.8135999999999998
 21
-0.7841906910949658
 31
0.0
  0
LINE
  5
13C
330
10F
100
AcDbEntity
  8
AM_4
100
AcDbLine
 10
-0.8276473580704583
 20
-0.7693502782731613
 30
0.0
 11
-0.8136000000000002
 21
-0.7841906910949656
 31
0.0
  0
LINE
  5
13D
330
10F
100
AcDbEntity
  8
AM_4
100
AcDbLine
 10
-0.8136
 20
-0.6358667392659761
 30
0.0
 11
-0.8136
 21
-0.7841906910949656
 31
0.0
  0
LWPOLYLINE
  5
13E
330
10F
100
AcDbEntity
  8
AM_4
100
AcDbPolyline
 90
       10
 70
     0
 43
0.0
 10
-0.8136
 20
-0.6358667392659761
 10
-0.8271340948274972
 20
-0.6290126320638585
 10
-0.8410955111410484
 20
-0.6237185103409232
 10
-0.8550501127926577
 20
-0.6200612434715704
 10
-0.8684478899904378
 20
-0.6179326626708659
 10
-0.8804586268632233
 20
-0.6171488206978032
 10
-0.8911748964989767
 20
-0.6173153711989805
 10
-0.9010301309162232
 20
-0.6181993858966617
 10
-0.9088539853091548
 20
-0.6194068600143874
 10
-0.9100487428991151
 20
-0.6196313374092236
  0
LWPOLYLINE
  5
13F
330
10F
100
AcDbEntity
  8
AM_4
100
AcDbPolyline
 90
       11
 70
     0
 43
0.0
 10
-0.8276473580704583
 20
-0.7693502782731609
 10
-0.8405345255415723
 20
-0.7592396964926289
 10
-0.8553065709167956
 20
-0.7537159134167778
 10
-0.8700135041887637
 20
-0.75274049448312
 10
-0.8794103152002491
 20
-0.7543128803796394
 10
-0.8878266842609785
 20
-0.757301111813555
 10
-0.8977272271910887
 20
-0.7631900837210153
 10
-0.9055947771146533
 20
-0.7705052317879169
 10
-0.9133660128108155
 20
-0.782240255688456
 10
-0.9176170083536328
 20
-0.7949826613327591
 10
-0.9178678582776151
 20
-0.7963572186277164
  0
LINE
  5
140
330
10F
100
AcDbEntity
  8
AM_4
100
AcDbLine
 10
-2.25
 20
-1.13
 30
0.0
 11
-1.1986
 21
-1.13
 31
0.0
  0
LINE
  5
141
330
10F
100
AcDbEntity
  8
AM_4
100
AcDbLine
 10
-2.25
 20
-1.025
 30
0.0
 11
-1.2336
 21
-1.025
 31
0.0
  0
LINE
  5
142
330
10F
100
AcDbEntity
  8
AM_4
100
AcDbLine
 10
-2.25
 20
-1.025
 30
0.0
 11
-2.25
 21
-1.13
 31
0.0
  0
LINE
  5
143
330
10F
100
AcDbEntity
  8
AM_4
100
AcDbLine
 10
1.1986
 20
-1.13
 30
0.0
 11
2.25
 21
-1.13
 31
0.0
  0
LINE
  5
144
330
10F
100
AcDbEntity
  8
AM_4
100
AcDbLine
 10
2.25
 20
-1.025
 30
0.0
 11
1.2336
 21
-1.025
 31
0.0
  0
ARC
  5
145
330
10F
100
AcDbEntity
  8
AM_4
100
AcDbCircle
 10
1.2336
 20
-0.8150000000000002
 30
0.0
 40
0.2099999999999997
100
AcDbArc
 50
209.9999999999999
 51
270.0
  0
ARC
  5
146
330
10F
100
AcDbEntity
  8
AM_4
100
AcDbCircle
 10
1.1986
 20
-0.8500000000000001
 30
0.0
 40
0.2799999999999995
100
AcDbArc
 50
194.4775121859299
 51
270.0
  0
LWPOLYLINE
  5
147
330
10F
100
AcDbEntity
  8
AM_4
100
AcDbPolyline
 90
        4
 70
     0
 43
0.0
 10
-0.9185999999999999
 20
-0.8500000000000002
 10
-0.9196654845343112
 20
-0.8744036079693445
 10
-0.9228538291565817
 20
-0.8986214897467406
 10
-0.9274911657654806
 20
-0.9199999999999997
  0
LWPOLYLINE
  5
148
330
10F
100
AcDbEntity
  8
AM_4
100
AcDbPolyline
 90
        5
 70
     0
 43
0.0
 10
-0.9100487428991152
 20
-0.6196313374092233
 10
-0.9132990991343825
 20
-0.6715932163180705
 10
-0.9157906850252752
 20
-0.7250762034806104
 10
-0.9175045380987028
 20
-0.7796732610706254
 10
-0.9178678582776161
 20
-0.7963572186277166
  0
LWPOLYLINE
  5
149
330
10F
100
AcDbEntity
  8
AM_4
100
AcDbPolyline
 90
       17
 70
     0
 43
0.0
 10
-1.0236
 20
-0.7571102957957977
 10
-1.023067257732845
 20
-0.7449084918111255
 10
-1.021473085421709
 20
-0.7327995509224274
 10
-1.01882961568047
 20
-0.7208756294814448
 10
-1.015156966910027
 20
-0.7092274757302042
 10
-1.010483090185131
 20
-0.6979437391520998
 10
-1.004843556529821
 20
-0.6871102957957977
 10
-0.9982812862004591
 20
-0.6768095947066513
 10
-0.9908462220366572
 20
-0.6671200304396824
 10
-0.9825949493661169
 20
-0.6581153464296811
 10
-0.9735902653561157
 20
-0.6498640737591408
 10
-0.9639007010891467
 20
-0.642429009595339
 10
-0.9536000000000003
 20
-0.6358667392659765
 10
-0.9427665566436982
 20
-0.6302272056106667
 10
-0.9314828200655939
 20
-0.6255533288857706
 10
-0.9198346663143532
 20
-0.6218806801153283
 10
-0.9100487428990991
 20
-0.6196313374092236
  0
LINE
  5
14A
330
10F
100
AcDbEntity
  8
AM_4
100
AcDbLine
 10
-1.0236
 20
-0.815
 30
0.0
 11
-1.0236
 21
-0.7571102957957977
 31
0.0
  0
LWPOLYLINE
  5
14B
330
10F
100
AcDbEntity
  8
AM_4
100
AcDbPolyline
 90
        7
 70
     0
 43
0.0
 10
-1.0236
 20
-0.815
 10
-1.024399113400734
 20
-0.8333027059770081
 10
-1.026790371867436
 20
-0.8514661173100552
 10
-1.030755576479296
 20
-0.8693519994715291
 10
-1.036264549634959
 20
-0.8868242300983903
 10
-1.043275364722303
 20
-0.9037498349655467
 10
-1.051734665205268
 20
-0.9199999999999997
  0
LINE
  5
14C
330
10F
100
AcDbEntity
  8
AM_4
100
AcDbLine
 10
-0.9186
 20
-0.8050944292441722
 30
0.0
 11
-0.9186
 21
-0.8500000000000002
 31
0.0
  0
LWPOLYLINE
  5
14D
330
10F
100
AcDbEntity
  8
AM_4
100
AcDbPolyline
 90
        3
 70
     0
 43
0.0
 10
-0.9186
 20
-0.8050944292441722
 10
-0.9184002216498166
 20
-0.8005187527499202
 10
-0.9178678582775421
 20
-0.7963572186277164
  0
LWPOLYLINE
  5
14E
330
10F
100
AcDbEntity
  8
AM_4
100
AcDbPolyline
 90
        7
 70
     0
 43
0.0
 10
1.051734665205268
 20
-0.9199999999999999
 10
1.043275364722303
 20
-0.9037498349655468
 10
1.036264549634959
 20
-0.8868242300983904
 10
1.030755576479296
 20
-0.8693519994715294
 10
1.026790371867436
 20
-0.8514661173100554
 10
1.024399113400734
 20
-0.8333027059770082
 10
1.0236
 20
-0.8150000000000001
  0
LWPOLYLINE
  5
14F
330
10F
100
AcDbEntity
  8
AM_4
100
AcDbPolyline
 90
        5
 70
     0
 43
0.0
 10
0.9178678582776234
 20
-0.7963572186280986
 10
0.9163922778758935
 20
-0.7415045441856181
 10
0.9141343861718537
 20
-0.6876409105781441
 10
0.9111113670847242
 20
-0.6351762525811808
 10
0.9100487428991147
 20
-0.6196313374092242
  0
LWPOLYLINE
  5
150
330
10F
100
AcDbEntity
  8
AM_4
100
AcDbPolyline
 90
        3
 70
     0
 43
0.0
 10
0.9178678582776066
 20
-0.7963572186280987
 10
0.9184323640285031
 20
-0.8009023324909692
 10
0.9185999999999999
 20
-0.8050944292441722
  0
LINE
  5
151
330
10F
100
AcDbEntity
  8
AM_4
100
AcDbLine
 10
0.9186
 20
-0.8500000000000001
 30
0.0
 11
0.9186
 21
-0.8050944292441722
 31
0.0
  0
LWPOLYLINE
  5
152
330
10F
100
AcDbEntity
  8
AM_4
100
AcDbPolyline
 90
        4
 70
     0
 43
0.0
 10
0.9274911657654807
 20
-0.9199999999999997
 10
0.922421914737402
 20
-0.8961049370532608
 10
0.9194545456990588
 20
-0.8718589876966243
 10
0.9185999999999999
 20
-0.8500000000000002
  0
LINE
  5
153
330
10F
100
AcDbEntity
  8
AM_4
100
AcDbLine
 10
1.051734665205268
 20
-0.9199999999999997
 30
0.0
 11
0.9274911657654809
 21
-0.9199999999999997
 31
0.0
  0
LINE
  5
154
330
10F
100
AcDbEntity
  8
AM_4
100
AcDbLine
 10
1.0236
 20
-0.7571102957957973
 30
0.0
 11
1.0236
 21
-0.8150000000000001
 31
0.0
  0
LWPOLYLINE
  5
155
330
10F
100
AcDbEntity
  8
AM_4
100
AcDbPolyline
 90
       17
 70
     0
 43
0.0
 10
0.9100487428991051
 20
-0.6196313374092243
 10
0.9219301781776362
 20
-0.6224596461840309
 10
0.9335198976558413
 20
-0.6263127277066682
 10
0.944729696570427
 20
-0.6311612577001946
 10
0.955474261582992
 20
-0.6369683359237372
 10
0.9656718200660446
 20
-0.6436897670056049
 10
0.9752447624420747
 20
-0.6512743967967538
 10
0.9841202328393002
 20
-0.6596645016847483
 10
0.9922306835688424
 20
-0.6687962279053072
 10
0.9995143892034256
 20
-0.6786000775080049
 10
1.005915916345149
 20
-0.6890014372776385
 10
1.011386545507116
 20
-0.6999211465858486
 10
1.015884641898148
 20
-0.7112760998512988
 10
1.019375972288685
 20
-0.7229798790233307
 10
1.021833965546331
 20
-0.7349434112755102
 10
1.023239914858219
 20
-0.74707564690362
 10
1.0236
 20
-0.7571102957957973
  0
LINE
  5
156
330
10F
100
AcDbEntity
  8
AM_4
100
AcDbLine
 10
2.137
 20
-1.13
 30
0.0
 11
2.137
 21
-1.025
 31
0.0
  0
LINE
  5
157
330
10F
100
AcDbEntity
  8
AM_4
100
AcDbLine
 10
2.25
 20
-1.025
 30
0.0
 11
2.25
 21
-1.13
 31
0.0
  0
LINE
  5
158
330
10F
100
AcDbEntity
  8
AM_4
100
AcDbLine
 10
-0.9274911657654806
 20
-0.9199999999999997
 30
0.0
 11
-1.051734665205268
 21
-0.9199999999999997
 31
0.0
  0
ARC
  5
159
330
10F
100
AcDbEntity
  8
AM_4
100
AcDbCircle
 10
-1.2336
 20
-0.8149999999999997
 30
0.0
 40
0.2100000000000002
100
AcDbArc
 50
270.0
 51
330.0
  0
LINE
  5
15A
330
10F
100
AcDbEntity
  8
AM_4
100
AcDbLine
 10
-2.137000000000001
 20
-1.13
 30
0.0
 11
-2.137000000000001
 21
-1.025
 31
0.0
  0
ARC
  5
15B
330
10F
100
AcDbEntity
  8
AM_4
100
AcDbCircle
 10
-1.198599999999999
 20
-0.8500000000000003
 30
0.0
 40
0.2799999999999996
100
AcDbArc
 50
270.0
 51
345.5224878140701
  0
ENDBLK
  5
112
330
10F
100
AcDbEntity
  8
0
100
AcDbBlockEnd
  0
ENDSEC
  0
SECTION
  2
ENTITIES
  0
INSERT
  5
6F
330
1F
100
AcDbEntity
  8
0
100
AcDbBlockReference
  2
1_128171_0
 10
0.0
 20
0.0
 30
0.0
  0
POINT
  5
15D
330
1F
100
AcDbEntity
  8
ConnectionPoints
100
AcDbPoint
 10
0.0
 20
0.0
 30
0.76
  0
POINT
  5
15E
330
1F
100
AcDbEntity
  8
ConnectionPoints
100
AcDbPoint
 10
0.0
 20
0.0
 30
0.0
  0
POINT
  5
15F
330
1F
100
AcDbEntity
  8
ConnectionPoints
100
AcDbPoint
 10
0.0
 20
0.0
 30
0.76
  0
ENDSEC
  0
SECTION
  2
OBJECTS
  0
DICTIONARY
  5
C
330
0
100
AcDbDictionary
281
     1
  3
ACAD_DETAILVIEWSTYLE
350
167
  3
ACAD_GROUP
350
D
  3
ACAD_LAYOUT
350
1A
  3
ACAD_MATERIAL
350
43
  3
ACAD_MLEADERSTYLE
350
6B
  3
ACAD_MLINESTYLE
350
17
  3
ACAD_PLOTSETTINGS
350
19
  3
ACAD_PLOTSTYLENAME
350
E
  3
ACAD_SCALELIST
350
47
  3
ACAD_SECTIONVIEWSTYLE
350
168
  3
ACAD_TABLESTYLE
350
69
  3
ACAD_VISUALSTYLE
350
2A
  3
ACDB_RECOMPOSE_DATA
350
164
  3
AcDbVariableDictionary
350
160
  0
SUN
  5
6D
330
29
100
AcDbSun
 90
        1
290
     0
 63
     7
421
 16777215
 40
1.0
291
     1
 91
  2455826
 92
 54000000
292
     0
 70
     2
 71
   256
280
     1
  0
DICTIONARY
  5
167
102
{ACAD_REACTORS
330
C
102
}
330
C
100
AcDbDictionary
281
     1
  0
DICTIONARY
  5
D
102
{ACAD_REACTORS
330
C
102
}
330
C
100
AcDbDictionary
281
     1
  0
DICTIONARY
  5
1A
102
{ACAD_REACTORS
330
C
102
}
330
C
100
AcDbDictionary
281
     1
  3
Layout1
350
1E
  3
Layout2
350
26
  3
Model
350
22
  0
DICTIONARY
  5
43
102
{ACAD_REACTORS
330
C
102
}
330
C
100
AcDbDictionary
281
     1
  3
ByBlock
350
45
  3
ByLayer
350
44
  3
Global
350
46
  0
DICTIONARY
  5
6B
102
{ACAD_REACTORS
330
C
102
}
330
C
100
AcDbDictionary
281
     1
  3
Standard
350
6C
  0
DICTIONARY
  5
17
102
{ACAD_REACTORS
330
C
102
}
330
C
100
AcDbDictionary
281
     1
  3
Standard
350
18
  0
DICTIONARY
  5
19
102
{ACAD_REACTORS
330
C
102
}
330
C
100
AcDbDictionary
281
     1
  0
ACDBDICTIONARYWDFLT
  5
E
102
{ACAD_REACTORS
330
C
102
}
330
C
100
AcDbDictionary
281
     1
  3
Normal
350
F
100
AcDbDictionaryWithDefault
340
F
  0
DICTIONARY
  5
47
102
{ACAD_REACTORS
330
C
102
}
330
C
100
AcDbDictionary
281
     1
  3
A0
350
48
  3
A1
350
49
  3
A2
350
4A
  3
A3
350
4B
  3
A4
350
4C
  3
A5
350
4D
  3
A6
350
4E
  3
A7
350
4F
  3
A8
350
50
  3
A9
350
51
  3
B0
350
52
  3
B1
350
53
  3
B2
350
54
  3
B3
350
55
  3
B4
350
56
  3
B5
350
57
  3
B6
350
58
  3
B7
350
59
  3
B8
350
5A
  3
B9
350
5B
  3
C0
350
5C
  3
C1
350
5D
  3
C2
350
5E
  3
C3
350
5F
  3
C4
350
60
  3
C5
350
61
  3
C6
350
62
  3
C7
350
63
  3
C8
350
64
  3
C9
350
65
  3
D0
350
66
  3
D1
350
67
  3
D2
350
68
  0
DICTIONARY
  5
168
102
{ACAD_REACTORS
330
C
102
}
330
C
100
AcDbDictionary
281
     1
  0
DICTIONARY
  5
69
102
{ACAD_REACTORS
330
C
102
}
330
C
100
AcDbDictionary
281
     1
  3
Standard
350
6A
  0
DICTIONARY
  5
2A
102
{ACAD_REACTORS
330
C
102
}
330
C
100
AcDbDictionary
281
     1
  3
2dWireframe
350
2F
  3
Basic
350
32
  3
Brighten
350
36
  3
ColorChange
350
3A
  3
Conceptual
350
34
  3
Dim
350
35
  3
EdgeColorOff
350
3D
  3
Facepattern
350
39
  3
Flat
350
2B
  3
FlatWithEdges
350
2C
  3
Gouraud
350
2D
  3
GouraudWithEdges
350
2E
  3
Hidden
350
31
  3
JitterOff
350
3B
  3
Linepattern
350
38
  3
OverhangOff
350
3C
  3
Realistic
350
33
  3
Shaded
350
42
  3
Shaded with edges
350
41
  3
Shades of Gray
350
3E
  3
Sketchy
350
3F
  3
Thicken
350
37
  3
Wireframe
350
30
  3
X-Ray
350
40
  0
XRECORD
  5
164
102
{ACAD_REACTORS
330
C
102
}
330
C
100
AcDbXrecord
280
     1
 90
        1
330
6A
  0
DICTIONARY
  5
160
102
{ACAD_REACTORS
330
C
102
}
330
C
100
AcDbDictionary
281
     1
  3
CANNOSCALE
350
161
  3
CMLEADERSTYLE
350
166
  3
CTABLESTYLE
350
165
  0
LAYOUT
  5
1E
102
{ACAD_REACTORS
330
1A
102
}
330
1A
100
AcDbPlotSettings
  1

  2
none_device
  4

  6

 40
0.0
 41
0.0
 42
0.0
 43
0.0
 44
0.0
 45
0.0
 46
0.0
 47
0.0
 48
0.0
 49
0.0
140
0.0
141
0.0
142
1.0
143
1.0
 70
   688
 72
     0
 73
     0
 74
     5
  7

 75
    16
 76
     0
 77
     2
 78
   300
147
1.0
148
0.0
149
0.0
100
AcDbLayout
  1
Layout1
 70
     1
 71
     1
 10
0.0
 20
0.0
 11
12.0
 21
9.0
 12
0.0
 22
0.0
 32
0.0
 14
1.000000000000000E+20
 24
1.000000000000000E+20
 34
1.000000000000000E+20
 15
-1.000000000000000E+20
 25
-1.000000000000000E+20
 35
-1.000000000000000E+20
146
0.0
 13
0.0
 23
0.0
 33
0.0
 16
1.0
 26
0.0
 36
0.0
 17
0.0
 27
1.0
 37
0.0
 76
     0
330
1B
  0
LAYOUT
  5
26
102
{ACAD_REACTORS
330
1A
102
}
330
1A
100
AcDbPlotSettings
  1

  2
none_device
  4

  6

 40
0.0
 41
0.0
 42
0.0
 43
0.0
 44
0.0
 45
0.0
 46
0.0
 47
0.0
 48
0.0
 49
0.0
140
0.0
141
0.0
142
1.0
143
1.0
 70
   688
 72
     0
 73
     0
 74
     5
  7

 75
    16
 76
     0
 77
     2
 78
   300
147
1.0
148
0.0
149
0.0
100
AcDbLayout
  1
Layout2
 70
     1
 71
     2
 10
0.0
 20
0.0
 11
0.0
 21
0.0
 12
0.0
 22
0.0
 32
0.0
 14
0.0
 24
0.0
 34
0.0
 15
0.0
 25
0.0
 35
0.0
146
0.0
 13
0.0
 23
0.0
 33
0.0
 16
1.0
 26
0.0
 36
0.0
 17
0.0
 27
1.0
 37
0.0
 76
     0
330
23
  0
LAYOUT
  5
22
102
{ACAD_REACTORS
330
1A
102
}
330
1A
100
AcDbPlotSettings
  1

  2
none_device
  4
Letter_(8.50_x_11.00_Inches)
  6

 40
6.35
 41
6.35
 42
6.35000508
 43
6.35000508
 44
215.9
 45
279.4
 46
0.0
 47
0.0
 48
0.0
 49
0.0
140
0.0
141
0.0
142
1.0
143
1.0
 70
  1712
 72
     0
 73
     0
 74
     0
  7

 75
     0
 76
     0
 77
     2
 78
   300
147
1.0
148
0.0
149
0.0
100
AcDbLayout
  1
Model
 70
     1
 71
     0
 10
0.0
 20
0.0
 11
12.0
 21
9.0
 12
0.0
 22
0.0
 32
0.0
 14
1.000000000000000E+20
 24
1.000000000000000E+20
 34
1.000000000000000E+20
 15
-1.000000000000000E+20
 25
-1.000000000000000E+20
 35
-1.000000000000000E+20
146
0.0
 13
0.0
 23
0.0
 33
0.0
 16
1.0
 26
0.0
 36
0.0
 17
0.0
 27
1.0
 37
0.0
 76
     0
330
1F
331
29
  0
MATERIAL
  5
45
102
{ACAD_REACTORS
330
43
102
}
330
43
100
AcDbMaterial
  1
ByBlock
 72
     1
 94
      127
  0
MATERIAL
  5
44
102
{ACAD_REACTORS
330
43
102
}
330
43
100
AcDbMaterial
  1
ByLayer
 72
     1
 94
      127
  0
MATERIAL
  5
46
102
{ACAD_REACTORS
330
43
102
}
330
43
100
AcDbMaterial
  1
Global
 72
     1
 94
      127
  0
MLEADERSTYLE
  5
6C
102
{ACAD_REACTORS
330
6B
102
}
330
6B
100
AcDbMLeaderStyle
179
     2
170
     2
171
     1
172
     0
 90
        2
 40
0.0
 41
0.0
173
     1
 91
-1056964608
340
14
 92
       -2
290
     1
 42
0.09
291
     1
 43
0.36
  3
Standard
341
0
 44
0.18
300

342
11
174
     1
178
     6
175
     1
176
     0
 93
-1056964608
 45
0.18
292
     0
297
     0
 46
0.18
343
0
 94
-1056964608
 47
1.0
 49
1.0
140
1.0
293
     1
141
0.0
294
     1
177
     0
142
1.0
295
     0
296
     0
143
0.125
271
     0
272
     9
273
     9
298
     0
  0
MLINESTYLE
  5
18
102
{ACAD_REACTORS
330
17
102
}
330
17
100
AcDbMlineStyle
  2
Standard
 70
     0
  3

 62
   256
 51
90.0
 52
90.0
 71
     2
 49
0.5
 62
   256
  6
BYLAYER
 49
-0.5
 62
   256
  6
BYLAYER
  0
ACDBPLACEHOLDER
  5
F
102
{ACAD_REACTORS
330
E
102
}
330
E
  0
SCALE
  5
48
102
{ACAD_REACTORS
330
47
102
}
330
47
100
AcDbScale
 70
     0
300
1:1
140
1.0
141
1.0
290
     1
  0
SCALE
  5
49
102
{ACAD_REACTORS
330
47
102
}
330
47
100
AcDbScale
 70
     0
300
1:2
140
1.0
141
2.0
290
     0
  0
SCALE
  5
4A
102
{ACAD_REACTORS
330
47
102
}
330
47
100
AcDbScale
 70
     0
300
1:4
140
1.0
141
4.0
290
     0
  0
SCALE
  5
4B
102
{ACAD_REACTORS
330
47
102
}
330
47
100
AcDbScale
 70
     0
300
1:5
140
1.0
141
5.0
290
     0
  0
SCALE
  5
4C
102
{ACAD_REACTORS
330
47
102
}
330
47
100
AcDbScale
 70
     0
300
1:8
140
1.0
141
8.0
290
     0
  0
SCALE
  5
4D
102
{ACAD_REACTORS
330
47
102
}
330
47
100
AcDbScale
 70
     0
300
1:10
140
1.0
141
10.0
290
     0
  0
SCALE
  5
4E
102
{ACAD_REACTORS
330
47
102
}
330
47
100
AcDbScale
 70
     0
300
1:16
140
1.0
141
16.0
290
     0
  0
SCALE
  5
4F
102
{ACAD_REACTORS
330
47
102
}
330
47
100
AcDbScale
 70
     0
300
1:20
140
1.0
141
20.0
290
     0
  0
SCALE
  5
50
102
{ACAD_REACTORS
330
47
102
}
330
47
100
AcDbScale
 70
     0
300
1:30
140
1.0
141
30.0
290
     0
  0
SCALE
  5
51
102
{ACAD_REACTORS
330
47
102
}
330
47
100
AcDbScale
 70
     0
300
1:40
140
1.0
141
40.0
290
     0
  0
SCALE
  5
52
102
{ACAD_REACTORS
330
47
102
}
330
47
100
AcDbScale
 70
     0
300
1:50
140
1.0
141
50.0
290
     0
  0
SCALE
  5
53
102
{ACAD_REACTORS
330
47
102
}
330
47
100
AcDbScale
 70
     0
300
1:100
140
1.0
141
100.0
290
     0
  0
SCALE
  5
54
102
{ACAD_REACTORS
330
47
102
}
330
47
100
AcDbScale
 70
     0
300
2:1
140
2.0
141
1.0
290
     0
  0
SCALE
  5
55
102
{ACAD_REACTORS
330
47
102
}
330
47
100
AcDbScale
 70
     0
300
4:1
140
4.0
141
1.0
290
     0
  0
SCALE
  5
56
102
{ACAD_REACTORS
330
47
102
}
330
47
100
AcDbScale
 70
     0
300
8:1
140
8.0
141
1.0
290
     0
  0
SCALE
  5
57
102
{ACAD_REACTORS
330
47
102
}
330
47
100
AcDbScale
 70
     0
300
10:1
140
10.0
141
1.0
290
     0
  0
SCALE
  5
58
102
{ACAD_REACTORS
330
47
102
}
330
47
100
AcDbScale
 70
     0
300
100:1
140
100.0
141
1.0
290
     0
  0
SCALE
  5
59
102
{ACAD_REACTORS
330
47
102
}
330
47
100
AcDbScale
 70
     0
300
1/128" = 1'-0"
140
0.0078125
141
12.0
290
     0
  0
SCALE
  5
5A
102
{ACAD_REACTORS
330
47
102
}
330
47
100
AcDbScale
 70
     0
300
1/64" = 1'-0"
140
0.015625
141
12.0
290
     0
  0
SCALE
  5
5B
102
{ACAD_REACTORS
330
47
102
}
330
47
100
AcDbScale
 70
     0
300
1/32" = 1'-0"
140
0.03125
141
12.0
290
     0
  0
SCALE
  5
5C
102
{ACAD_REACTORS
330
47
102
}
330
47
100
AcDbScale
 70
     0
300
1/16" = 1'-0"
140
0.0625
141
12.0
290
     0
  0
SCALE
  5
5D
102
{ACAD_REACTORS
330
47
102
}
330
47
100
AcDbScale
 70
     0
300
3/32" = 1'-0"
140
0.09375
141
12.0
290
     0
  0
SCALE
  5
5E
102
{ACAD_REACTORS
330
47
102
}
330
47
100
AcDbScale
 70
     0
300
1/8" = 1'-0"
140
0.125
141
12.0
290
     0
  0
SCALE
  5
5F
102
{ACAD_REACTORS
330
47
102
}
330
47
100
AcDbScale
 70
     0
300
3/16" = 1'-0"
140
0.1875
141
12.0
290
     0
  0
SCALE
  5
60
102
{ACAD_REACTORS
330
47
102
}
330
47
100
AcDbScale
 70
     0
300
1/4" = 1'-0"
140
0.25
141
12.0
290
     0
  0
SCALE
  5
61
102
{ACAD_REACTORS
330
47
102
}
330
47
100
AcDbScale
 70
     0
300
3/8" = 1'-0"
140
0.375
141
12.0
290
     0
  0
SCALE
  5
62
102
{ACAD_REACTORS
330
47
102
}
330
47
100
AcDbScale
 70
     0
300
1/2" = 1'-0"
140
0.5
141
12.0
290
     0
  0
SCALE
  5
63
102
{ACAD_REACTORS
330
47
102
}
330
47
100
AcDbScale
 70
     0
300
3/4" = 1'-0"
140
0.75
141
12.0
290
     0
  0
SCALE
  5
64
102
{ACAD_REACTORS
330
47
102
}
330
47
100
AcDbScale
 70
     0
300
1" = 1'-0"
140
1.0
141
12.0
290
     0
  0
SCALE
  5
65
102
{ACAD_REACTORS
330
47
102
}
330
47
100
AcDbScale
 70
     0
300
1-1/2" = 1'-0"
140
1.5
141
12.0
290
     0
  0
SCALE
  5
66
102
{ACAD_REACTORS
330
47
102
}
330
47
100
AcDbScale
 70
     0
300
3" = 1'-0"
140
3.0
141
12.0
290
     0
  0
SCALE
  5
67
102
{ACAD_REACTORS
330
47
102
}
330
47
100
AcDbScale
 70
     0
300
6" = 1'-0"
140
6.0
141
12.0
290
     0
  0
SCALE
  5
68
102
{ACAD_REACTORS
330
47
102
}
330
47
100
AcDbScale
 70
     0
300
1'-0" = 1'-0"
140
12.0
141
12.0
290
     0
  0
TABLESTYLE
  5
6A
102
{ACAD_REACTORS
330
69
102
}
102
{ACAD_XDICTIONARY
360
162
102
}
330
69
100
AcDbTableStyle
  3
Standard
 70
     0
 71
     0
 40
0.06
 41
0.06
280
     0
281
     0
  7
Standard
140
0.18
170
     2
 62
     0
 63
   257
283
     0
 90
        4
 91
        0
  1

274
    -2
284
     1
 64
     0
275
    -2
285
     1
 65
     0
276
    -2
286
     1
 66
     0
277
    -2
287
     1
 67
     0
278
    -2
288
     1
 68
     0
279
    -2
289
     1
 69
     0
  7
Standard
140
0.25
170
     5
 62
     0
 63
   257
283
     0
 90
        4
 91
        0
  1

274
    -2
284
     1
 64
     0
275
    -2
285
     1
 65
     0
276
    -2
286
     1
 66
     0
277
    -2
287
     1
 67
     0
278
    -2
288
     1
 68
     0
279
    -2
289
     1
 69
     0
  7
Standard
140
0.18
170
     5
 62
     0
 63
   257
283
     0
 90
        4
 91
        0
  1

274
    -2
284
     1
 64
     0
275
    -2
285
     1
 65
     0
276
    -2
286
     1
 66
     0
277
    -2
287
     1
 67
     0
278
    -2
288
     1
 68
     0
279
    -2
289
     1
 69
     0
  0
VISUALSTYLE
  5
2F
102
{ACAD_REACTORS
330
2A
102
}
330
2A
100
AcDbVisualStyle
  2
2dWireframe
 70
     4
177
     3
291
     0
 70
    58
 90
        0
176
     1
 90
        2
176
     1
 90
        0
176
     1
 90
        0
176
     1
 40
0.6
176
     1
 40
30.0
176
     1
 62
     7
420
 16777215
176
     1
 90
        1
176
     1
 90
        4
176
     1
 62
     7
176
     1
 62
   257
176
     1
 90
        1
176
     1
 90
        1
176
     1
 40
1.0
176
     1
 90
        0
176
     1
 62
   257
176
     1
 40
1.0
176
     1
 90
        1
176
     1
 90
        6
176
     1
 90
        2
176
     1
 62
     7
176
     1
 90
        5
176
     1
 90
        0
176
     1
 90
        0
176
     1
290
     0
176
     1
 90
        1
176
     1
 40
0.0
176
     1
 90
        0
176
     1
290
     1
176
     1
290
     1
176
     1
290
     0
176
     1
290
     0
176
     1
290
     0
176
     1
290
     0
176
     1
290
     0
176
     1
290
     0
176
     1
290
     0
176
     1
 90
       50
176
     1
 40
0.0
176
     1
 40
1.0
176
     1
 90
        0
176
     1
 62
    18
420
        0
176
     1
 90
       50
176
     1
 90
        3
176
     1
 62
     5
420
      255
176
     1
290
     0
176
     1
 90
       50
176
     1
 90
       50
176
     1
 90
       50
176
     1
290
     0
176
     1
 90
       50
176
     1
 62
   256
176
     0
 40
1.0
176
     0
 90
        2
176
     1
  1
strokes_ogs.tif
176
     1
290
     0
176
     1
 40
1.0
176
     1
 40
1.0
176
     1
  0
VISUALSTYLE
  5
32
102
{ACAD_REACTORS
330
2A
102
}
330
2A
100
AcDbVisualStyle
  2
Basic
 70
     7
177
     3
291
     1
 70
    58
 90
        1
176
     1
 90
        0
176
     1
 90
        1
176
     1
 90
        0
176
     1
 40
0.6
176
     1
 40
30.0
176
     1
 62
     7
420
 16777215
176
     1
 90
        0
176
     1
 90
        4
176
     1
 62
     7
176
     1
 62
   257
176
     1
 90
        1
176
     1
 90
        1
176
     1
 40
1.0
176
     1
 90
        8
176
     1
 62
     7
176
     1
 40
1.0
176
     1
 90
        1
176
     1
 90
        6
176
     1
 90
        2
176
     1
 62
     7
176
     1
 90
        5
176
     1
 90
        0
176
     1
 90
        0
176
     1
290
     0
176
     1
 90
        1
176
     1
 40
0.0
176
     1
 90
        0
176
     1
290
     0
176
     1
290
     1
176
     1
290
     1
176
     1
290
     0
176
     1
290
     0
176
     1
290
     0
176
     1
290
     0
176
     1
290
     0
176
     1
290
     0
176
     1
 90
       50
176
     1
 40
0.0
176
     1
 40
1.0
176
     1
 90
        0
176
     1
 62
    18
420
        0
176
     1
 90
       50
176
     1
 90
        3
176
     1
 62
     5
420
      255
176
     1
290
     0
176
     1
 90
       50
176
     1
 90
       50
176
     1
 90
       50
176
     1
290
     0
176
     1
 90
       50
176
     1
 62
   256
176
     0
 40
1.0
176
     0
 90
        2
176
     1
  1
strokes_ogs.tif
176
     1
290
     0
176
     1
 40
1.0
176
     1
 40
1.0
176
     1
  0
VISUALSTYLE
  5
36
102
{ACAD_REACTORS
330
2A
102
}
330
2A
100
AcDbVisualStyle
  2
Brighten
 70
    12
177
     3
291
     1
 70
    58
 90
        2
176
     1
 90
        2
176
     1
 90
        0
176
     1
 90
        0
176
     1
 40
0.6
176
     1
 40
30.0
176
     1
 62
     7
420
 16777215
176
     1
 90
        1
176
     1
 90
        4
176
     1
 62
     7
176
     1
 62
   257
176
     1
 90
        1
176
     1
 90
        1
176
     1
 40
1.0
176
     1
 90
        8
176
     1
 62
     7
176
     1
 40
1.0
176
     1
 90
        1
176
     1
 90
        6
176
     1
 90
        2
176
     1
 62
     7
176
     1
 90
        5
176
     1
 90
        0
176
     1
 90
        0
176
     1
290
     0
176
     1
 90
        1
176
     1
 40
50.0
176
     1
 90
        0
176
     1
290
     0
176
     1
290
     1
176
     1
290
     1
176
     1
290
     0
176
     1
290
     0
176
     1
290
     0
176
     1
290
     0
176
     1
290
     0
176
     1
290
     0
176
     1
 90
       50
176
     1
 40
0.0
176
     1
 40
1.0
176
     1
 90
        0
176
     1
 62
    18
420
        0
176
     1
 90
       50
176
     1
 90
        3
176
     1
 62
     5
420
      255
176
     1
290
     0
176
     1
 90
       50
176
     1
 90
       50
176
     1
 90
       50
176
     1
290
     0
176
     1
 90
       50
176
     1
 62
   256
176
     0
 40
1.0
176
     0
 90
        2
176
     1
  1
strokes_ogs.tif
176
     1
290
     0
176
     1
 40
1.0
176
     1
 40
1.0
176
     1
  0
VISUALSTYLE
  5
3A
102
{ACAD_REACTORS
330
2A
102
}
330
2A
100
AcDbVisualStyle
  2
ColorChange
 70
    16
177
     3
291
     1
 70
    58
 90
        2
176
     1
 90
        2
176
     1
 90
        3
176
     1
 90
        0
176
     1
 40
0.6
176
     1
 40
30.0
176
     1
 62
     8
420
  8421504
176
     1
 90
        1
176
     1
 90
        4
176
     1
 62
     7
176
     1
 62
   257
176
     1
 90
        1
176
     1
 90
        1
176
     1
 40
1.0
176
     1
 90
        8
176
     1
 62
     8
420
  8421504
176
     1
 40
1.0
176
     1
 90
        1
176
     1
 90
        6
176
     1
 90
        2
176
     1
 62
     7
176
     1
 90
        5
176
     1
 90
        0
176
     1
 90
        0
176
     1
290
     0
176
     1
 90
        1
176
     1
 40
0.0
176
     1
 90
        0
176
     1
290
     0
176
     1
290
     1
176
     1
290
     1
176
     1
290
     0
176
     1
290
     0
176
     1
290
     0
176
     1
290
     0
176
     1
290
     0
176
     1
290
     0
176
     1
 90
       50
176
     1
 40
0.0
176
     1
 40
1.0
176
     1
 90
        0
176
     1
 62
    18
420
        0
176
     1
 90
       50
176
     1
 90
        3
176
     1
 62
     5
420
      255
176
     1
290
     0
176
     1
 90
       50
176
     1
 90
       50
176
     1
 90
       50
176
     1
290
     0
176
     1
 90
       50
176
     1
 62
   256
176
     0
 40
1.0
176
     0
 90
        2
176
     1
  1
strokes_ogs.tif
176
     1
290
     0
176
     1
 40
1.0
176
     1
 40
1.0
176
     1
  0
VISUALSTYLE
  5
34
102
{ACAD_REACTORS
330
2A
102
}
330
2A
100
AcDbVisualStyle
  2
Conceptual
 70
     9
177
     3
291
     0
 70
    58
 90
        3
176
     1
 90
        2
176
     1
 90
        0
176
     1
 90
        0
176
     1
 40
0.6
176
     1
 40
30.0
176
     1
 62
     7
420
 16777215
176
     1
 90
        2
176
     1
 90
        2
176
     1
 62
     7
176
     1
 62
   257
176
     1
 90
        1
176
     1
 90
        1
176
     1
 40
179.0
176
     1
 90
        8
176
     1
 62
     7
176
     1
 40
1.0
176
     1
 90
        1
176
     1
 90
        6
176
     1
 90
        2
176
     1
 62
     7
176
     1
 90
        3
176
     1
 90
        0
176
     1
 90
        0
176
     1
290
     0
176
     1
 90
        1
176
     1
 40
0.0
176
     1
 90
        0
176
     1
290
     0
176
     1
290
     1
176
     1
290
     1
176
     1
290
     0
176
     1
290
     0
176
     1
290
     0
176
     1
290
     0
176
     1
290
     0
176
     1
290
     0
176
     1
 90
       50
176
     1
 40
0.0
176
     1
 40
1.0
176
     1
 90
        0
176
     1
 62
    18
420
        0
176
     1
 90
       50
176
     1
 90
        3
176
     1
 62
     5
420
      255
176
     1
290
     0
176
     1
 90
       50
176
     1
 90
       50
176
     1
 90
       50
176
     1
290
     0
176
     1
 90
       50
176
     1
 62
   256
176
     0
 40
1.0
176
     0
 90
        2
176
     1
  1
strokes_ogs.tif
176
     1
290
     0
176
     1
 40
1.0
176
     1
 40
1.0
176
     1
  0
VISUALSTYLE
  5
35
102
{ACAD_REACTORS
330
2A
102
}
330
2A
100
AcDbVisualStyle
  2
Dim
 70
    11
177
     3
291
     1
 70
    58
 90
        2
176
     1
 90
        2
176
     1
 90
        0
176
     1
 90
        0
176
     1
 40
0.6
176
     1
 40
30.0
176
     1
 62
     7
420
 16777215
176
     1
 90
        1
176
     1
 90
        4
176
     1
 62
     7
176
     1
 62
   257
176
     1
 90
        1
176
     1
 90
        1
176
     1
 40
1.0
176
     1
 90
        8
176
     1
 62
     7
176
     1
 40
1.0
176
     1
 90
        1
176
     1
 90
        6
176
     1
 90
        2
176
     1
 62
     7
176
     1
 90
        5
176
     1
 90
        0
176
     1
 90
        0
176
     1
290
     0
176
     1
 90
        1
176
     1
 40
-50.0
176
     1
 90
        0
176
     1
290
     0
176
     1
290
     1
176
     1
290
     1
176
     1
290
     0
176
     1
290
     0
176
     1
290
     0
176
     1
290
     0
176
     1
290
     0
176
     1
290
     0
176
     1
 90
       50
176
     1
 40
0.0
176
     1
 40
1.0
176
     1
 90
        0
176
     1
 62
    18
420
        0
176
     1
 90
       50
176
     1
 90
        3
176
     1
 62
     5
420
      255
176
     1
290
     0
176
     1
 90
       50
176
     1
 90
       50
176
     1
 90
       50
176
     1
290
     0
176
     1
 90
       50
176
     1
 62
   256
176
     0
 40
1.0
176
     0
 90
        2
176
     1
  1
strokes_ogs.tif
176
     1
290
     0
176
     1
 40
1.0
176
     1
 40
1.0
176
     1
  0
VISUALSTYLE
  5
3D
102
{ACAD_REACTORS
330
2A
102
}
330
2A
100
AcDbVisualStyle
  2
EdgeColorOff
 70
    22
177
     3
291
     1
 70
    58
 90
        2
176
     0
 90
        2
176
     0
 90
        0
176
     0
 90
        0
176
     0
 40
0.6
176
     0
 40
30.0
176
     0
 62
     7
420
 16777215
176
     0
 90
        1
176
     0
 90
        4
176
     0
 62
     7
176
     0
 62
   257
176
     0
 90
        1
176
     0
 90
        1
176
     0
 40
1.0
176
     0
 90
        8
176
     2
 62
     7
176
     0
 40
1.0
176
     0
 90
        1
176
     0
 90
        6
176
     0
 90
        2
176
     0
 62
     7
176
     0
 90
        5
176
     0
 90
        0
176
     0
 90
        0
176
     0
290
     0
176
     0
 90
        1
176
     0
 40
0.0
176
     0
 90
        0
176
     0
290
     0
176
     0
290
     1
176
     0
290
     1
176
     0
290
     0
176
     0
290
     0
176
     0
290
     0
176
     0
290
     0
176
     0
290
     0
176
     0
290
     0
176
     0
 90
       50
176
     0
 40
0.0
176
     0
 40
1.0
176
     0
 90
        0
176
     0
 62
    18
420
        0
176
     0
 90
       50
176
     0
 90
        3
176
     0
 62
     5
420
      255
176
     0
290
     0
176
     0
 90
       50
176
     0
 90
       50
176
     0
 90
       50
176
     0
290
     0
176
     0
 90
       50
176
     0
 62
   256
176
     0
 40
1.0
176
     0
 90
        2
176
     0
  1
strokes_ogs.tif
176
     0
290
     0
176
     0
 40
1.0
176
     0
 40
1.0
176
     0
  0
VISUALSTYLE
  5
39
102
{ACAD_REACTORS
330
2A
102
}
330
2A
100
AcDbVisualStyle
  2
Facepattern
 70
    15
177
     3
291
     1
 70
    58
 90
        2
176
     1
 90
        2
176
     1
 90
        0
176
     1
 90
        0
176
     1
 40
0.6
176
     1
 40
30.0
176
     1
 62
     7
420
 16777215
176
     1
 90
        1
176
     1
 90
        4
176
     1
 62
     7
176
     1
 62
   257
176
     1
 90
        1
176
     1
 90
        1
176
     1
 40
1.0
176
     1
 90
        8
176
     1
 62
     7
176
     1
 40
1.0
176
     1
 90
        1
176
     1
 90
        6
176
     1
 90
        2
176
     1
 62
     7
176
     1
 90
        5
176
     1
 90
        0
176
     1
 90
        0
176
     1
290
     0
176
     1
 90
        1
176
     1
 40
0.0
176
     1
 90
        0
176
     1
290
     0
176
     1
290
     1
176
     1
290
     1
176
     1
290
     0
176
     1
290
     0
176
     1
290
     0
176
     1
290
     0
176
     1
290
     0
176
     1
290
     0
176
     1
 90
       50
176
     1
 40
0.0
176
     1
 40
1.0
176
     1
 90
        0
176
     1
 62
    18
420
        0
176
     1
 90
       50
176
     1
 90
        3
176
     1
 62
     5
420
      255
176
     1
290
     0
176
     1
 90
       50
176
     1
 90
       50
176
     1
 90
       50
176
     1
290
     0
176
     1
 90
       50
176
     1
 62
   256
176
     0
 40
1.0
176
     0
 90
        2
176
     1
  1
strokes_ogs.tif
176
     1
290
     0
176
     1
 40
1.0
176
     1
 40
1.0
176
     1
  0
VISUALSTYLE
  5
2B
102
{ACAD_REACTORS
330
2A
102
}
330
2A
100
AcDbVisualStyle
  2
Flat
 70
     0
177
     3
291
     1
 70
    58
 90
        2
176
     1
 90
        1
176
     1
 90
        1
176
     1
 90
        2
176
     1
 40
0.6
176
     1
 40
30.0
176
     1
 62
     7
420
 16777215
176
     1
 90
        0
176
     1
 90
        0
176
     1
 62
     7
176
     1
 62
   257
176
     1
 90
        1
176
     1
 90
        1
176
     1
 40
1.0
176
     1
 90
        8
176
     1
 62
     7
176
     1
 40
1.0
176
     1
 90
        1
176
     1
 90
        6
176
     1
 90
        2
176
     1
 62
     7
176
     1
 90
        5
176
     1
 90
        0
176
     1
 90
        0
176
     1
290
     0
176
     1
 90
       13
176
     1
 40
0.0
176
     1
 90
        0
176
     1
290
     0
176
     1
290
     1
176
     1
290
     1
176
     1
290
     0
176
     1
290
     0
176
     1
290
     0
176
     1
290
     0
176
     1
290
     0
176
     1
290
     0
176
     1
 90
       50
176
     1
 40
0.0
176
     1
 40
1.0
176
     1
 90
        0
176
     1
 62
    18
420
        0
176
     1
 90
       50
176
     1
 90
        3
176
     1
 62
     5
420
      255
176
     1
290
     0
176
     1
 90
       50
176
     1
 90
       50
176
     1
 90
       50
176
     1
290
     0
176
     1
 90
       50
176
     1
 62
   256
176
     0
 40
1.0
176
     0
 90
        2
176
     1
  1
strokes_ogs.tif
176
     1
290
     0
176
     1
 40
1.0
176
     1
 40
1.0
176
     1
  0
VISUALSTYLE
  5
2C
102
{ACAD_REACTORS
330
2A
102
}
330
2A
100
AcDbVisualStyle
  2
FlatWithEdges
 70
     1
177
     3
291
     1
 70
    58
 90
        2
176
     1
 90
        1
176
     1
 90
        1
176
     1
 90
        2
176
     1
 40
0.6
176
     1
 40
30.0
176
     1
 62
     7
420
 16777215
176
     1
 90
        1
176
     1
 90
        0
176
     1
 62
     7
176
     1
 62
   257
176
     1
 90
        1
176
     1
 90
        1
176
     1
 40
1.0
176
     1
 90
        0
176
     1
 62
   257
176
     1
 40
1.0
176
     1
 90
        1
176
     1
 90
        6
176
     1
 90
        2
176
     1
 62
     7
176
     1
 90
        5
176
     1
 90
        0
176
     1
 90
        0
176
     1
290
     0
176
     1
 90
       13
176
     1
 40
0.0
176
     1
 90
        0
176
     1
290
     0
176
     1
290
     1
176
     1
290
     1
176
     1
290
     0
176
     1
290
     0
176
     1
290
     0
176
     1
290
     0
176
     1
290
     0
176
     1
290
     0
176
     1
 90
       50
176
     1
 40
0.0
176
     1
 40
1.0
176
     1
 90
        0
176
     1
 62
    18
420
        0
176
     1
 90
       50
176
     1
 90
        3
176
     1
 62
     5
420
      255
176
     1
290
     0
176
     1
 90
       50
176
     1
 90
       50
176
     1
 90
       50
176
     1
290
     0
176
     1
 90
       50
176
     1
 62
   256
176
     0
 40
1.0
176
     0
 90
        2
176
     1
  1
strokes_ogs.tif
176
     1
290
     0
176
     1
 40
1.0
176
     1
 40
1.0
176
     1
  0
VISUALSTYLE
  5
2D
102
{ACAD_REACTORS
330
2A
102
}
330
2A
100
AcDbVisualStyle
  2
Gouraud
 70
     2
177
     3
291
     1
 70
    58
 90
        2
176
     1
 90
        2
176
     1
 90
        1
176
     1
 90
        2
176
     1
 40
0.6
176
     1
 40
30.0
176
     1
 62
     7
420
 16777215
176
     1
 90
        0
176
     1
 90
        0
176
     1
 62
     7
176
     1
 62
   257
176
     1
 90
        1
176
     1
 90
        1
176
     1
 40
1.0
176
     1
 90
        0
176
     1
 62
     7
176
     1
 40
1.0
176
     1
 90
        1
176
     1
 90
        6
176
     1
 90
        2
176
     1
 62
     7
176
     1
 90
        5
176
     1
 90
        0
176
     1
 90
        0
176
     1
290
     0
176
     1
 90
       13
176
     1
 40
0.0
176
     1
 90
        0
176
     1
290
     0
176
     1
290
     1
176
     1
290
     1
176
     1
290
     0
176
     1
290
     0
176
     1
290
     0
176
     1
290
     0
176
     1
290
     0
176
     1
290
     0
176
     1
 90
       50
176
     1
 40
0.0
176
     1
 40
1.0
176
     1
 90
        0
176
     1
 62
    18
420
        0
176
     1
 90
       50
176
     1
 90
        3
176
     1
 62
     5
420
      255
176
     1
290
     0
176
     1
 90
       50
176
     1
 90
       50
176
     1
 90
       50
176
     1
290
     0
176
     1
 90
       50
176
     1
 62
   256
176
     0
 40
1.0
176
     0
 90
        2
176
     1
  1
strokes_ogs.tif
176
     1
290
     0
176
     1
 40
1.0
176
     1
 40
1.0
176
     1
  0
VISUALSTYLE
  5
2E
102
{ACAD_REACTORS
330
2A
102
}
330
2A
100
AcDbVisualStyle
  2
GouraudWithEdges
 70
     3
177
     3
291
     1
 70
    58
 90
        2
176
     1
 90
        2
176
     1
 90
        1
176
     1
 90
        2
176
     1
 40
0.6
176
     1
 40
30.0
176
     1
 62
     7
420
 16777215
176
     1
 90
        1
176
     1
 90
        0
176
     1
 62
     7
176
     1
 62
   257
176
     1
 90
        1
176
     1
 90
        1
176
     1
 40
1.0
176
     1
 90
        0
176
     1
 62
   257
176
     1
 40
1.0
176
     1
 90
        1
176
     1
 90
        6
176
     1
 90
        2
176
     1
 62
     7
176
     1
 90
        5
176
     1
 90
        0
176
     1
 90
        0
176
     1
290
     0
176
     1
 90
       13
176
     1
 40
0.0
176
     1
 90
        0
176
     1
290
     0
176
     1
290
     1
176
     1
290
     1
176
     1
290
     0
176
     1
290
     0
176
     1
290
     0
176
     1
290
     0
176
     1
290
     0
176
     1
290
     0
176
     1
 90
       50
176
     1
 40
0.0
176
     1
 40
1.0
176
     1
 90
        0
176
     1
 62
    18
420
        0
176
     1
 90
       50
176
     1
 90
        3
176
     1
 62
     5
420
      255
176
     1
290
     0
176
     1
 90
       50
176
     1
 90
       50
176
     1
 90
       50
176
     1
290
     0
176
     1
 90
       50
176
     1
 62
   256
176
     0
 40
1.0
176
     0
 90
        2
176
     1
  1
strokes_ogs.tif
176
     1
290
     0
176
     1
 40
1.0
176
     1
 40
1.0
176
     1
  0
VISUALSTYLE
  5
31
102
{ACAD_REACTORS
330
2A
102
}
330
2A
100
AcDbVisualStyle
  2
Hidden
 70
     6
177
     3
291
     0
 70
    58
 90
        1
176
     1
 90
        2
176
     1
 90
        2
176
     1
 90
        0
176
     1
 40
0.6
176
     1
 40
30.0
176
     1
 62
     7
420
 16777215
176
     1
 90
        2
176
     1
 90
        2
176
     1
 62
     7
176
     1
 62
   257
176
     1
 90
        2
176
     1
 90
        1
176
     1
 40
40.0
176
     1
 90
        0
176
     1
 62
   257
176
     1
 40
1.0
176
     1
 90
        1
176
     1
 90
        6
176
     1
 90
        2
176
     1
 62
     7
176
     1
 90
        3
176
     1
 90
        0
176
     1
 90
        0
176
     1
290
     0
176
     1
 90
        1
176
     1
 40
0.0
176
     1
 90
        0
176
     1
290
     0
176
     1
290
     1
176
     1
290
     1
176
     1
290
     0
176
     1
290
     0
176
     1
290
     0
176
     1
290
     0
176
     1
290
     0
176
     1
290
     0
176
     1
 90
       50
176
     1
 40
0.0
176
     1
 40
1.0
176
     1
 90
        0
176
     1
 62
    18
420
        0
176
     1
 90
       50
176
     1
 90
        3
176
     1
 62
     5
420
      255
176
     1
290
     0
176
     1
 90
       50
176
     1
 90
       50
176
     1
 90
       50
176
     1
290
     0
176
     1
 90
       50
176
     1
 62
   256
176
     0
 40
1.0
176
     0
 90
        2
176
     1
  1
strokes_ogs.tif
176
     1
290
     0
176
     1
 40
1.0
176
     1
 40
1.0
176
     1
  0
VISUALSTYLE
  5
3B
102
{ACAD_REACTORS
330
2A
102
}
330
2A
100
AcDbVisualStyle
  2
JitterOff
 70
    20
177
     3
291
     1
 70
    58
 90
        2
176
     0
 90
        2
176
     0
 90
        0
176
     0
 90
        0
176
     0
 40
0.6
176
     0
 40
30.0
176
     0
 62
     7
420
 16777215
176
     0
 90
        1
176
     0
 90
        4
176
     0
 62
     7
176
     0
 62
   257
176
     0
 90
        1
176
     0
 90
        1
176
     0
 40
1.0
176
     0
 90
       10
176
     2
 62
     7
176
     0
 40
1.0
176
     0
 90
        1
176
     0
 90
        6
176
     0
 90
        2
176
     0
 62
     7
176
     0
 90
        5
176
     0
 90
        0
176
     0
 90
        0
176
     0
290
     0
176
     0
 90
        1
176
     0
 40
0.0
176
     0
 90
        0
176
     0
290
     0
176
     0
290
     1
176
     0
290
     1
176
     0
290
     0
176
     0
290
     0
176
     0
290
     0
176
     0
290
     0
176
     0
290
     0
176
     0
290
     0
176
     0
 90
       50
176
     0
 40
0.0
176
     0
 40
1.0
176
     0
 90
        0
176
     0
 62
    18
420
        0
176
     0
 90
       50
176
     0
 90
        3
176
     0
 62
     5
420
      255
176
     0
290
     0
176
     0
 90
       50
176
     0
 90
       50
176
     0
 90
       50
176
     0
290
     0
176
     0
 90
       50
176
     0
 62
   256
176
     0
 40
1.0
176
     0
 90
        2
176
     0
  1
strokes_ogs.tif
176
     0
290
     0
176
     0
 40
1.0
176
     0
 40
1.0
176
     0
  0
VISUALSTYLE
  5
38
102
{ACAD_REACTORS
330
2A
102
}
330
2A
100
AcDbVisualStyle
  2
Linepattern
 70
    14
177
     3
291
     1
 70
    58
 90
        2
176
     1
 90
        2
176
     1
 90
        0
176
     1
 90
        0
176
     1
 40
0.6
176
     1
 40
30.0
176
     1
 62
     7
420
 16777215
176
     1
 90
        1
176
     1
 90
        4
176
     1
 62
     7
176
     1
 62
   257
176
     1
 90
        7
176
     1
 90
        7
176
     1
 40
1.0
176
     1
 90
        8
176
     1
 62
     7
176
     1
 40
1.0
176
     1
 90
        1
176
     1
 90
        6
176
     1
 90
        2
176
     1
 62
     7
176
     1
 90
        5
176
     1
 90
        0
176
     1
 90
        0
176
     1
290
     0
176
     1
 90
        1
176
     1
 40
0.0
176
     1
 90
        0
176
     1
290
     0
176
     1
290
     1
176
     1
290
     1
176
     1
290
     0
176
     1
290
     0
176
     1
290
     0
176
     1
290
     0
176
     1
290
     0
176
     1
290
     0
176
     1
 90
       50
176
     1
 40
0.0
176
     1
 40
1.0
176
     1
 90
        0
176
     1
 62
    18
420
        0
176
     1
 90
       50
176
     1
 90
        3
176
     1
 62
     5
420
      255
176
     1
290
     0
176
     1
 90
       50
176
     1
 90
       50
176
     1
 90
       50
176
     1
290
     0
176
     1
 90
       50
176
     1
 62
   256
176
     0
 40
1.0
176
     0
 90
        2
176
     1
  1
strokes_ogs.tif
176
     1
290
     0
176
     1
 40
1.0
176
     1
 40
1.0
176
     1
  0
VISUALSTYLE
  5
3C
102
{ACAD_REACTORS
330
2A
102
}
330
2A
100
AcDbVisualStyle
  2
OverhangOff
 70
    21
177
     3
291
     1
 70
    58
 90
        2
176
     0
 90
        2
176
     0
 90
        0
176
     0
 90
        0
176
     0
 40
0.6
176
     0
 40
30.0
176
     0
 62
     7
420
 16777215
176
     0
 90
        1
176
     0
 90
        4
176
     0
 62
     7
176
     0
 62
   257
176
     0
 90
        1
176
     0
 90
        1
176
     0
 40
1.0
176
     0
 90
        9
176
     2
 62
     7
176
     0
 40
1.0
176
     0
 90
        1
176
     0
 90
        6
176
     0
 90
        2
176
     0
 62
     7
176
     0
 90
        5
176
     0
 90
        0
176
     0
 90
        0
176
     0
290
     0
176
     0
 90
        1
176
     0
 40
0.0
176
     0
 90
        0
176
     0
290
     0
176
     0
290
     1
176
     0
290
     1
176
     0
290
     0
176
     0
290
     0
176
     0
290
     0
176
     0
290
     0
176
     0
290
     0
176
     0
290
     0
176
     0
 90
       50
176
     0
 40
0.0
176
     0
 40
1.0
176
     0
 90
        0
176
     0
 62
    18
420
        0
176
     0
 90
       50
176
     0
 90
        3
176
     0
 62
     5
420
      255
176
     0
290
     0
176
     0
 90
       50
176
     0
 90
       50
176
     0
 90
       50
176
     0
290
     0
176
     0
 90
       50
176
     0
 62
   256
176
     0
 40
1.0
176
     0
 90
        2
176
     0
  1
strokes_ogs.tif
176
     0
290
     0
176
     0
 40
1.0
176
     0
 40
1.0
176
     0
  0
VISUALSTYLE
  5
33
102
{ACAD_REACTORS
330
2A
102
}
330
2A
100
AcDbVisualStyle
  2
Realistic
 70
     8
177
     3
291
     0
 70
    58
 90
        2
176
     1
 90
        3
176
     1
 90
        0
176
     1
 90
        2
176
     1
 40
0.6
176
     1
 40
30.0
176
     1
 62
     7
420
 16777215
176
     1
 90
        0
176
     1
 90
        0
176
     1
 62
     7
176
     1
 62
   257
176
     1
 90
        1
176
     1
 90
        1
176
     1
 40
1.0
176
     1
 90
        8
176
     1
 62
   257
176
     1
 40
1.0
176
     1
 90
        1
176
     1
 90
        6
176
     1
 90
        2
176
     1
 62
     7
176
     1
 90
        3
176
     1
 90
        0
176
     1
 90
        0
176
     1
290
     0
176
     1
 90
       13
176
     1
 40
0.0
176
     1
 90
        0
176
     1
290
     0
176
     1
290
     1
176
     1
290
     1
176
     1
290
     0
176
     1
290
     0
176
     1
290
     0
176
     1
290
     0
176
     1
290
     0
176
     1
290
     0
176
     1
 90
       50
176
     1
 40
0.0
176
     1
 40
1.0
176
     1
 90
        0
176
     1
 62
    18
420
        0
176
     1
 90
       50
176
     1
 90
        3
176
     1
 62
     5
420
      255
176
     1
290
     0
176
     1
 90
       50
176
     1
 90
       50
176
     1
 90
       50
176
     1
290
     0
176
     1
 90
       50
176
     1
 62
   256
176
     0
 40
1.0
176
     0
 90
        2
176
     1
  1
strokes_ogs.tif
176
     1
290
     0
176
     1
 40
1.0
176
     1
 40
1.0
176
     1
  0
VISUALSTYLE
  5
42
102
{ACAD_REACTORS
330
2A
102
}
330
2A
100
AcDbVisualStyle
  2
Shaded
 70
    27
177
     3
291
     0
 70
    58
 90
        2
176
     1
 90
        2
176
     1
 90
        1
176
     1
 90
        2
176
     1
 40
0.6
176
     1
 40
30.0
176
     1
 62
     7
420
 16777215
176
     1
 90
        0
176
     1
 90
        4
176
     1
 62
     7
176
     1
 62
   257
176
     1
 90
        1
176
     1
 90
        1
176
     1
 40
1.0
176
     1
 90
        8
176
     1
 62
   257
176
     1
 40
1.0
176
     1
 90
        1
176
     1
 90
        6
176
     1
 90
        2
176
     1
 62
     8
420
  7895160
176
     1
 90
        3
176
     1
 90
        0
176
     1
 90
        0
176
     1
290
     0
176
     1
 90
        5
176
     1
 40
0.0
176
     1
 90
        0
176
     1
290
     0
176
     1
290
     1
176
     1
290
     1
176
     1
290
     0
176
     1
290
     0
176
     1
290
     0
176
     1
290
     0
176
     1
290
     0
176
     1
290
     0
176
     1
 90
       50
176
     1
 40
0.0
176
     1
 40
1.0
176
     1
 90
        0
176
     1
 62
    18
420
        0
176
     1
 90
       50
176
     1
 90
        3
176
     1
 62
     5
420
      255
176
     1
290
     0
176
     1
 90
       50
176
     1
 90
       50
176
     1
 90
       50
176
     1
290
     0
176
     1
 90
       50
176
     1
 62
   256
176
     0
 40
1.0
176
     0
 90
        2
176
     1
  1
strokes_ogs.tif
176
     1
290
     0
176
     1
 40
1.0
176
     1
 40
1.0
176
     1
  0
VISUALSTYLE
  5
41
102
{ACAD_REACTORS
330
2A
102
}
330
2A
100
AcDbVisualStyle
  2
Shaded with edges
 70
    26
177
     3
291
     0
 70
    58
 90
        2
176
     1
 90
        2
176
     1
 90
        1
176
     1
 90
        2
176
     1
 40
0.6
176
     1
 40
30.0
176
     1
 62
     7
420
 16777215
176
     1
 90
        1
176
     1
 90
       10
176
     1
 62
     7
176
     1
 62
   257
176
     1
 90
        2
176
     1
 90
        1
176
     1
 40
1.0
176
     1
 90
        8
176
     1
 62
   257
176
     1
 40
1.0
176
     1
 90
        1
176
     1
 90
        6
176
     1
 90
        2
176
     1
 62
     7
176
     1
 90
        3
176
     1
 90
        0
176
     1
 90
        0
176
     1
290
     0
176
     1
 90
        5
176
     1
 40
0.0
176
     1
 90
        0
176
     1
290
     0
176
     1
290
     1
176
     1
290
     1
176
     1
290
     0
176
     1
290
     0
176
     1
290
     0
176
     1
290
     0
176
     1
290
     0
176
     1
290
     0
176
     1
 90
       50
176
     1
 40
0.0
176
     1
 40
1.0
176
     1
 90
        0
176
     1
 62
    18
420
        0
176
     1
 90
       50
176
     1
 90
        3
176
     1
 62
     5
420
      255
176
     1
290
     0
176
     1
 90
       50
176
     1
 90
       50
176
     1
 90
       50
176
     1
290
     0
176
     1
 90
       50
176
     1
 62
   256
176
     0
 40
1.0
176
     0
 90
        2
176
     1
  1
strokes_ogs.tif
176
     1
290
     0
176
     1
 40
1.0
176
     1
 40
1.0
176
     1
  0
VISUALSTYLE
  5
3E
102
{ACAD_REACTORS
330
2A
102
}
330
2A
100
AcDbVisualStyle
  2
Shades of Gray
 70
    23
177
     3
291
     0
 70
    58
 90
        2
176
     1
 90
        2
176
     1
 90
        3
176
     1
 90
        0
176
     1
 40
0.6
176
     1
 40
30.0
176
     1
 62
     7
420
 16777215
176
     1
 90
        2
176
     1
 90
        2
176
     1
 62
     7
176
     1
 62
     7
176
     1
 90
        1
176
     1
 90
        1
176
     1
 40
40.0
176
     1
 90
        8
176
     1
 62
     7
176
     1
 40
1.0
176
     1
 90
        1
176
     1
 90
        6
176
     1
 90
        2
176
     1
 62
     7
176
     1
 90
        3
176
     1
 90
        0
176
     1
 90
        0
176
     1
290
     0
176
     1
 90
        1
176
     1
 40
0.0
176
     1
 90
        0
176
     1
290
     0
176
     1
290
     1
176
     1
290
     1
176
     1
290
     0
176
     1
290
     0
176
     1
290
     0
176
     1
290
     0
176
     1
290
     0
176
     1
290
     0
176
     1
 90
       50
176
     1
 40
0.0
176
     1
 40
1.0
176
     1
 90
        0
176
     1
 62
    18
420
        0
176
     1
 90
       50
176
     1
 90
        3
176
     1
 62
     5
420
      255
176
     1
290
     0
176
     1
 90
       50
176
     1
 90
       50
176
     1
 90
       50
176
     1
290
     0
176
     1
 90
       50
176
     1
 62
   256
176
     0
 40
1.0
176
     0
 90
        2
176
     1
  1
strokes_ogs.tif
176
     1
290
     0
176
     1
 40
1.0
176
     1
 40
1.0
176
     1
  0
VISUALSTYLE
  5
3F
102
{ACAD_REACTORS
330
2A
102
}
330
2A
100
AcDbVisualStyle
  2
Sketchy
 70
    24
177
     3
291
     0
 70
    58
 90
        1
176
     1
 90
        2
176
     1
 90
        2
176
     1
 90
        0
176
     1
 40
0.6
176
     1
 40
30.0
176
     1
 62
     7
420
 16777215
176
     1
 90
        2
176
     1
 90
        2
176
     1
 62
     7
176
     1
 62
     7
176
     1
 90
        1
176
     1
 90
        1
176
     1
 40
40.0
176
     1
 90
       11
176
     1
 62
     7
176
     1
 40
1.0
176
     1
 90
        1
176
     1
 90
        6
176
     1
 90
        2
176
     1
 62
     7
176
     1
 90
        6
176
     1
 90
        0
176
     1
 90
        0
176
     1
290
     0
176
     1
 90
        1
176
     1
 40
0.0
176
     1
 90
        0
176
     1
290
     0
176
     1
290
     1
176
     1
290
     1
176
     1
290
     0
176
     1
290
     0
176
     1
290
     0
176
     1
290
     0
176
     1
290
     0
176
     1
290
     0
176
     1
 90
       50
176
     1
 40
0.0
176
     1
 40
1.0
176
     1
 90
        0
176
     1
 62
    18
420
        0
176
     1
 90
       50
176
     1
 90
        3
176
     1
 62
     5
420
      255
176
     1
290
     0
176
     1
 90
       50
176
     1
 90
       50
176
     1
 90
       50
176
     1
290
     0
176
     1
 90
       50
176
     1
 62
   256
176
     0
 40
1.0
176
     0
 90
        2
176
     1
  1
strokes_ogs.tif
176
     1
290
     0
176
     1
 40
1.0
176
     1
 40
1.0
176
     1
  0
VISUALSTYLE
  5
37
102
{ACAD_REACTORS
330
2A
102
}
330
2A
100
AcDbVisualStyle
  2
Thicken
 70
    13
177
     3
291
     1
 70
    58
 90
        2
176
     1
 90
        2
176
     1
 90
        0
176
     1
 90
        0
176
     1
 40
0.6
176
     1
 40
30.0
176
     1
 62
     7
420
 16777215
176
     1
 90
        1
176
     1
 90
        4
176
     1
 62
     7
176
     1
 62
   257
176
     1
 90
        1
176
     1
 90
        1
176
     1
 40
1.0
176
     1
 90
       12
176
     1
 62
     7
176
     1
 40
1.0
176
     1
 90
        1
176
     1
 90
        6
176
     1
 90
        2
176
     1
 62
     7
176
     1
 90
        5
176
     1
 90
        0
176
     1
 90
        0
176
     1
290
     0
176
     1
 90
        1
176
     1
 40
0.0
176
     1
 90
        0
176
     1
290
     0
176
     1
290
     1
176
     1
290
     1
176
     1
290
     0
176
     1
290
     0
176
     1
290
     0
176
     1
290
     0
176
     1
290
     0
176
     1
290
     0
176
     1
 90
       50
176
     1
 40
0.0
176
     1
 40
1.0
176
     1
 90
        0
176
     1
 62
    18
420
        0
176
     1
 90
       50
176
     1
 90
        3
176
     1
 62
     5
420
      255
176
     1
290
     0
176
     1
 90
       50
176
     1
 90
       50
176
     1
 90
       50
176
     1
290
     0
176
     1
 90
       50
176
     1
 62
   256
176
     0
 40
1.0
176
     0
 90
        2
176
     1
  1
strokes_ogs.tif
176
     1
290
     0
176
     1
 40
1.0
176
     1
 40
1.0
176
     1
  0
VISUALSTYLE
  5
30
102
{ACAD_REACTORS
330
2A
102
}
330
2A
100
AcDbVisualStyle
  2
Wireframe
 70
     5
177
     3
291
     0
 70
    58
 90
        0
176
     1
 90
        2
176
     1
 90
        0
176
     1
 90
        0
176
     1
 40
0.6
176
     1
 40
30.0
176
     1
 62
     7
420
 16777215
176
     1
 90
        1
176
     1
 90
        4
176
     1
 62
     7
176
     1
 62
   257
176
     1
 90
        1
176
     1
 90
        1
176
     1
 40
1.0
176
     1
 90
        0
176
     1
 62
   257
176
     1
 40
1.0
176
     1
 90
        1
176
     1
 90
        6
176
     1
 90
        2
176
     1
 62
     7
176
     1
 90
        3
176
     1
 90
        0
176
     1
 90
        0
176
     1
290
     0
176
     1
 90
        1
176
     1
 40
0.0
176
     1
 90
        0
176
     1
290
     0
176
     1
290
     1
176
     1
290
     1
176
     1
290
     0
176
     1
290
     0
176
     1
290
     0
176
     1
290
     0
176
     1
290
     0
176
     1
290
     0
176
     1
 90
       50
176
     1
 40
0.0
176
     1
 40
1.0
176
     1
 90
        0
176
     1
 62
    18
420
        0
176
     1
 90
       50
176
     1
 90
        3
176
     1
 62
     5
420
      255
176
     1
290
     0
176
     1
 90
       50
176
     1
 90
       50
176
     1
 90
       50
176
     1
290
     0
176
     1
 90
       50
176
     1
 62
   256
176
     0
 40
1.0
176
     0
 90
        2
176
     1
  1
strokes_ogs.tif
176
     1
290
     0
176
     1
 40
1.0
176
     1
 40
1.0
176
     1
  0
VISUALSTYLE
  5
40
102
{ACAD_REACTORS
330
2A
102
}
330
2A
100
AcDbVisualStyle
  2
X-Ray
 70
    25
177
     3
291
     0
 70
    58
 90
        2
176
     1
 90
        2
176
     1
 90
        1
176
     1
 90
        1
176
     1
 40
0.5
176
     1
 40
30.0
176
     1
 62
     7
420
 16777215
176
     1
 90
        1
176
     1
 90
        0
176
     1
 62
     7
176
     1
 62
   257
176
     1
 90
        1
176
     1
 90
        1
176
     1
 40
1.0
176
     1
 90
        8
176
     1
 62
     7
176
     1
 40
1.0
176
     1
 90
        1
176
     1
 90
        6
176
     1
 90
        2
176
     1
 62
     7
176
     1
 90
        3
176
     1
 90
        0
176
     1
 90
        0
176
     1
290
     0
176
     1
 90
       13
176
     1
 40
0.0
176
     1
 90
        0
176
     1
290
     0
176
     1
290
     1
176
     1
290
     1
176
     1
290
     0
176
     1
290
     0
176
     1
290
     0
176
     1
290
     0
176
     1
290
     0
176
     1
290
     0
176
     1
 90
       50
176
     1
 40
0.0
176
     1
 40
1.0
176
     1
 90
        0
176
     1
 62
    18
420
        0
176
     1
 90
       50
176
     1
 90
        3
176
     1
 62
     5
420
      255
176
     1
290
     0
176
     1
 90
       50
176
     1
 90
       50
176
     1
 90
       50
176
     1
290
     0
176
     1
 90
       50
176
     1
 62
   256
176
     0
 40
1.0
176
     0
 90
        2
176
     1
  1
strokes_ogs.tif
176
     1
290
     0
176
     1
 40
1.0
176
     1
 40
1.0
176
     1
  0
DICTIONARYVAR
  5
161
102
{ACAD_REACTORS
330
160
102
}
330
160
100
DictionaryVariables
280
     0
  1
1:1
  0
DICTIONARYVAR
  5
166
102
{ACAD_REACTORS
330
160
102
}
330
160
100
DictionaryVariables
280
     0
  1
Standard
  0
DICTIONARYVAR
  5
165
102
{ACAD_REACTORS
330
160
102
}
330
160
100
DictionaryVariables
280
     0
  1
Standard
  0
DICTIONARY
  5
162
330
6A
100
AcDbDictionary
280
     1
281
     1
  3
ACAD_ROUNDTRIP_2008_TABLESTYLE_CELLSTYLEMAP
360
163
  0
CELLSTYLEMAP
  5
163
102
{ACAD_REACTORS
330
162
102
}
330
162
100
AcDbCellStyleMap
 90
        3
300
CELLSTYLE
  1
TABLEFORMAT_BEGIN
 90
        5
170
     1
 91
        0
 92
    32768
 62
   257
 93
        1
300
CONTENTFORMAT
  1
CONTENTFORMAT_BEGIN
 90
        0
 91
        0
 92
        4
 93
        0
300

 40
0.0
140
1.0
 94
        5
 62
     0
340
11
144
0.25
309
CONTENTFORMAT_END
171
     1
301
MARGIN
  1
CELLMARGIN_BEGIN
 40
0.06
 40
0.06
 40
0.06
 40
0.06
 40
0.06
 40
0.06
309
CELLMARGIN_END
 94
        6
 95
        1
302
GRIDFORMAT
  1
GRIDFORMAT_BEGIN
 90
        0
 91
        1
 62
     0
 92
       -2
340
14
 93
        0
 40
0.045
309
GRIDFORMAT_END
 95
        2
302
GRIDFORMAT
  1
GRIDFORMAT_BEGIN
 90
        0
 91
        1
 62
     0
 92
       -2
340
14
 93
        0
 40
0.045
309
GRIDFORMAT_END
 95
        4
302
GRIDFORMAT
  1
GRIDFORMAT_BEGIN
 90
        0
 91
        1
 62
     0
 92
       -2
340
14
 93
        0
 40
0.045
309
GRIDFORMAT_END
 95
        8
302
GRIDFORMAT
  1
GRIDFORMAT_BEGIN
 90
        0
 91
        1
 62
     0
 92
       -2
340
14
 93
        0
 40
0.045
309
GRIDFORMAT_END
 95
       16
302
GRIDFORMAT
  1
GRIDFORMAT_BEGIN
 90
        0
 91
        1
 62
     0
 92
       -2
340
14
 93
        0
 40
0.045
309
GRIDFORMAT_END
 95
       32
302
GRIDFORMAT
  1
GRIDFORMAT_BEGIN
 90
        0
 91
        1
 62
     0
 92
       -2
340
14
 93
        0
 40
0.045
309
GRIDFORMAT_END
309
TABLEFORMAT_END
  1
CELLSTYLE_BEGIN
 90
        1
 91
        1
300
_TITLE
309
CELLSTYLE_END
300
CELLSTYLE
  1
TABLEFORMAT_BEGIN
 90
        5
170
     1
 91
        0
 92
        0
 62
   257
 93
        1
300
CONTENTFORMAT
  1
CONTENTFORMAT_BEGIN
 90
        0
 91
        0
 92
        4
 93
        0
300

 40
0.0
140
1.0
 94
        5
 62
     0
340
11
144
0.18
309
CONTENTFORMAT_END
171
     1
301
MARGIN
  1
CELLMARGIN_BEGIN
 40
0.06
 40
0.06
 40
0.06
 40
0.06
 40
0.06
 40
0.06
309
CELLMARGIN_END
 94
        6
 95
        1
302
GRIDFORMAT
  1
GRIDFORMAT_BEGIN
 90
        0
 91
        1
 62
     0
 92
       -2
340
14
 93
        0
 40
0.045
309
GRIDFORMAT_END
 95
        2
302
GRIDFORMAT
  1
GRIDFORMAT_BEGIN
 90
        0
 91
        1
 62
     0
 92
       -2
340
14
 93
        0
 40
0.045
309
GRIDFORMAT_END
 95
        4
302
GRIDFORMAT
  1
GRIDFORMAT_BEGIN
 90
        0
 91
        1
 62
     0
 92
       -2
340
14
 93
        0
 40
0.045
309
GRIDFORMAT_END
 95
        8
302
GRIDFORMAT
  1
GRIDFORMAT_BEGIN
 90
        0
 91
        1
 62
     0
 92
       -2
340
14
 93
        0
 40
0.045
309
GRIDFORMAT_END
 95
       16
302
GRIDFORMAT
  1
GRIDFORMAT_BEGIN
 90
        0
 91
        1
 62
     0
 92
       -2
340
14
 93
        0
 40
0.045
309
GRIDFORMAT_END
 95
       32
302
GRIDFORMAT
  1
GRIDFORMAT_BEGIN
 90
        0
 91
        1
 62
     0
 92
       -2
340
14
 93
        0
 40
0.045
309
GRIDFORMAT_END
309
TABLEFORMAT_END
  1
CELLSTYLE_BEGIN
 90
        2
 91
        1
300
_HEADER
309
CELLSTYLE_END
300
CELLSTYLE
  1
TABLEFORMAT_BEGIN
 90
        5
170
     1
 91
        0
 92
        0
 62
   257
 93
        1
300
CONTENTFORMAT
  1
CONTENTFORMAT_BEGIN
 90
        0
 91
        0
 92
        4
 93
        0
300

 40
0.0
140
1.0
 94
        2
 62
     0
340
11
144
0.18
309
CONTENTFORMAT_END
171
     1
301
MARGIN
  1
CELLMARGIN_BEGIN
 40
0.06
 40
0.06
 40
0.06
 40
0.06
 40
0.06
 40
0.06
309
CELLMARGIN_END
 94
        6
 95
        1
302
GRIDFORMAT
  1
GRIDFORMAT_BEGIN
 90
        0
 91
        1
 62
     0
 92
       -2
340
14
 93
        0
 40
0.045
309
GRIDFORMAT_END
 95
        2
302
GRIDFORMAT
  1
GRIDFORMAT_BEGIN
 90
        0
 91
        1
 62
     0
 92
       -2
340
14
 93
        0
 40
0.045
309
GRIDFORMAT_END
 95
        4
302
GRIDFORMAT
  1
GRIDFORMAT_BEGIN
 90
        0
 91
        1
 62
     0
 92
       -2
340
14
 93
        0
 40
0.045
309
GRIDFORMAT_END
 95
        8
302
GRIDFORMAT
  1
GRIDFORMAT_BEGIN
 90
        0
 91
        1
 62
     0
 92
       -2
340
14
 93
        0
 40
0.045
309
GRIDFORMAT_END
 95
       16
302
GRIDFORMAT
  1
GRIDFORMAT_BEGIN
 90
        0
 91
        1
 62
     0
 92
       -2
340
14
 93
        0
 40
0.045
309
GRIDFORMAT_END
 95
       32
302
GRIDFORMAT
  1
GRIDFORMAT_BEGIN
 90
        0
 91
        1
 62
     0
 92
       -2
340
14
 93
        0
 40
0.045
309
GRIDFORMAT_END
309
TABLEFORMAT_END
  1
CELLSTYLE_BEGIN
 90
        3
 91
        2
300
_DATA
309
CELLSTYLE_END
  0
ENDSEC
  0
EOF