0
SECTION
  2
HEADER
  9
$ACADVER
  1
AC1027
  9
$ACADMAINTVER
 70
     8
  9
$DWGCODEPAGE
  3
ANSI_1252
  9
$REQUIREDVERSIONS
160
                 0
  9
$COMMENTS
  1
File was created by Cadenas
  9
$CUSTOMPROPERTYTAG
  1
NN
  9
$CUSTOMPROPERTY
  1
Set Screw Light Duty Two-Bolt Pillow Block Inch Bore
  9
$CUSTOMPROPERTYTAG
  1
NT
  9
$CUSTOMPROPERTY
  1
SC Pillow Block Bearings -(Light Duty)
  9
$CUSTOMPROPERTYTAG
  1
NB
  9
$CUSTOMPROPERTY
  1
128170
  9
$CUSTOMPROPERTYTAG
  1
NBSYN
  9
$CUSTOMPROPERTY
  1
$PN.
  9
$CUSTOMPROPERTYTAG
  1
LINA
  9
$CUSTOMPROPERTY
  1
128170
  9
$CUSTOMPROPERTYTAG
  1
SERIES
  9
$CUSTOMPROPERTY
  1
205
  9
$CUSTOMPROPERTYTAG
  1
SS
  9
$CUSTOMPROPERTY
  1
7/8
  9
$CUSTOMPROPERTYTAG
  1
PN
  9
$CUSTOMPROPERTY
  1
128170
  9
$CUSTOMPROPERTYTAG
  1
DESCRIPTION
  9
$CUSTOMPROPERTY
  1
P2B-SL-014
  9
$CUSTOMPROPERTYTAG
  1
W
  9
$CUSTOMPROPERTY
  1
0.79
  9
$CUSTOMPROPERTYTAG
  1
A
  9
$CUSTOMPROPERTY
  1
1.06
  9
$CUSTOMPROPERTYTAG
  1
B
  9
$CUSTOMPROPERTY
  1
4.50
  9
$CUSTOMPROPERTYTAG
  1
C
  9
$CUSTOMPROPERTY
  1
1.13
  9
$CUSTOMPROPERTYTAG
  1
D
  9
$CUSTOMPROPERTY
  1
3.38
  9
$CUSTOMPROPERTYTAG
  1
F
  9
$CUSTOMPROPERTY
  1
3/8
  9
$CUSTOMPROPERTYTAG
  1
G
  9
$CUSTOMPROPERTY
  1
0.56
  9
$CUSTOMPROPERTYTAG
  1
H
  9
$CUSTOMPROPERTY
  1
0.21
  9
$CUSTOMPROPERTYTAG
  1
J
  9
$CUSTOMPROPERTY
  1
2.22
  9
$CUSTOMPROPERTYTAG
  1
L
  9
$CUSTOMPROPERTY
  1
1.32
  9
$CUSTOMPROPERTYTAG
  1
M
  9
$CUSTOMPROPERTY
  1
1.13
  9
$CUSTOMPROPERTYTAG
  1
R
  9
$CUSTOMPROPERTY
  1
0.30
  9
$CUSTOMPROPERTYTAG
  1
S
  9
$CUSTOMPROPERTY
  1
0.76
  9
$CUSTOMPROPERTYTAG
  1
COMPANY
  9
$CUSTOMPROPERTY
  1
baldor
  9
$INSBASE
 10
0.0
 20
0.0
 30
0.0
  9
$EXTMIN
 10
1.000000000000000E+20
 20
1.000000000000000E+20
 30
1.000000000000000E+20
  9
$EXTMAX
 10
-1.000000000000000E+20
 20
-1.000000000000000E+20
 30
-1.000000000000000E+20
  9
$LIMMIN
 10
0.0
 20
0.0
  9
$LIMMAX
 10
12.0
 20
9.0
  9
$ORTHOMODE
 70
     0
  9
$REGENMODE
 70
     1
  9
$FILLMODE
 70
     1
  9
$QTEXTMODE
 70
     0
  9
$MIRRTEXT
 70
     1
  9
$LTSCALE
 40
1.0
  9
$ATTMODE
 70
     1
  9
$TEXTSIZE
 40
0.2
  9
$TRACEWID
 40
0.05
  9
$TEXTSTYLE
  7
Standard
  9
$CLAYER
  8
0
  9
$CELTYPE
  6
ByLayer
  9
$CECOLOR
 62
   256
  9
$CELTSCALE
 40
1.0
  9
$DISPSILH
 70
     0
  9
$DIMSCALE
 40
1.0
  9
$DIMASZ
 40
0.18
  9
$DIMEXO
 40
0.0625
  9
$DIMDLI
 40
0.38
  9
$DIMRND
 40
0.0
  9
$DIMDLE
 40
0.0
  9
$DIMEXE
 40
0.18
  9
$DIMTP
 40
0.0
  9
$DIMTM
 40
0.0
  9
$DIMTXT
 40
0.18
  9
$DIMCEN
 40
0.09
  9
$DIMTSZ
 40
0.0
  9
$DIMTOL
 70
     0
  9
$DIMLIM
 70
     0
  9
$DIMTIH
 70
     1
  9
$DIMTOH
 70
     1
  9
$DIMSE1
 70
     0
  9
$DIMSE2
 70
     0
  9
$DIMTAD
 70
     0
  9
$DIMZIN
 70
     0
  9
$DIMBLK
  1

  9
$DIMASO
 70
     1
  9
$DIMSHO
 70
     1
  9
$DIMPOST
  1

  9
$DIMAPOST
  1

  9
$DIMALT
 70
     0
  9
$DIMALTD
 70
     2
  9
$DIMALTF
 40
25.4
  9
$DIMLFAC
 40
1.0
  9
$DIMTOFL
 70
     0
  9
$DIMTVP
 40
0.0
  9
$DIMTIX
 70
     0
  9
$DIMSOXD
 70
     0
  9
$DIMSAH
 70
     0
  9
$DIMBLK1
  1

  9
$DIMBLK2
  1

  9
$DIMSTYLE
  2
Standard
  9
$DIMCLRD
 70
     0
  9
$DIMCLRE
 70
     0
  9
$DIMCLRT
 70
     0
  9
$DIMTFAC
 40
1.0
  9
$DIMGAP
 40
0.09
  9
$DIMJUST
 70
     0
  9
$DIMSD1
 70
     0
  9
$DIMSD2
 70
     0
  9
$DIMTOLJ
 70
     1
  9
$DIMTZIN
 70
     0
  9
$DIMALTZ
 70
     0
  9
$DIMALTTZ
 70
     0
  9
$DIMUPT
 70
     0
  9
$DIMDEC
 70
     4
  9
$DIMTDEC
 70
     4
  9
$DIMALTU
 70
     2
  9
$DIMALTTD
 70
     2
  9
$DIMTXSTY
  7
Standard
  9
$DIMAUNIT
 70
     0
  9
$DIMADEC
 70
     0
  9
$DIMALTRND
 40
0.0
  9
$DIMAZIN
 70
     0
  9
$DIMDSEP
 70
    46
  9
$DIMATFIT
 70
     3
  9
$DIMFRAC
 70
     0
  9
$DIMLDRBLK
  1

  9
$DIMLUNIT
 70
     2
  9
$DIMLWD
 70
    -2
  9
$DIMLWE
 70
    -2
  9
$DIMTMOVE
 70
     0
  9
$DIMFXL
 40
1.0
  9
$DIMFXLON
 70
     0
  9
$DIMJOGANG
 40
0.7853981633974483
  9
$DIMTFILL
 70
     0
  9
$DIMTFILLCLR
 70
     0
  9
$DIMARCSYM
 70
     0
  9
$DIMLTYPE
  6

  9
$DIMLTEX1
  6

  9
$DIMLTEX2
  6

  9
$DIMTXTDIRECTION
 70
     0
  9
$LUNITS
 70
     2
  9
$LUPREC
 70
     4
  9
$SKETCHINC
 40
0.1
  9
$FILLETRAD
 40
0.5
  9
$AUNITS
 70
     0
  9
$AUPREC
 70
     0
  9
$MENU
  1
.
  9
$ELEVATION
 40
0.0
  9
$PELEVATION
 40
0.0
  9
$THICKNESS
 40
0.0
  9
$LIMCHECK
 70
     0
  9
$CHAMFERA
 40
0.0
  9
$CHAMFERB
 40
0.0
  9
$CHAMFERC
 40
0.0
  9
$CHAMFERD
 40
0.0
  9
$SKPOLY
 70
     0
  9
$TDCREATE
 40
2458169.002810718
  9
$TDUCREATE
 40
2458168.961144051
  9
$TDUPDATE
 40
2458169.002810718
  9
$TDUUPDATE
 40
2458168.961144051
  9
$TDINDWG
 40
0.0000000116
  9
$TDUSRTIMER
 40
0.0000000116
  9
$USRTIMER
 70
     1
  9
$ANGBASE
 50
0.0
  9
$ANGDIR
 70
     0
  9
$PDMODE
 70
     0
  9
$PDSIZE
 40
0.0
  9
$PLINEWID
 40
0.0
  9
$SPLFRAME
 70
     0
  9
$SPLINETYPE
 70
     6
  9
$SPLINESEGS
 70
     8
  9
$HANDSEED
  5
190
  9
$SURFTAB1
 70
     6
  9
$SURFTAB2
 70
     6
  9
$SURFTYPE
 70
     6
  9
$SURFU
 70
     6
  9
$SURFV
 70
     6
  9
$UCSBASE
  2

  9
$UCSNAME
  2

  9
$UCSORG
 10
0.0
 20
0.0
 30
0.0
  9
$UCSXDIR
 10
1.0
 20
0.0
 30
0.0
  9
$UCSYDIR
 10
0.0
 20
1.0
 30
0.0
  9
$UCSORTHOREF
  2

  9
$UCSORTHOVIEW
 70
     0
  9
$UCSORGTOP
 10
0.0
 20
0.0
 30
0.0
  9
$UCSORGBOTTOM
 10
0.0
 20
0.0
 30
0.0
  9
$UCSORGLEFT
 10
0.0
 20
0.0
 30
0.0
  9
$UCSORGRIGHT
 10
0.0
 20
0.0
 30
0.0
  9
$UCSORGFRONT
 10
0.0
 20
0.0
 30
0.0
  9
$UCSORGBACK
 10
0.0
 20
0.0
 30
0.0
  9
$PUCSBASE
  2

  9
$PUCSNAME
  2

  9
$PUCSORG
 10
0.0
 20
0.0
 30
0.0
  9
$PUCSXDIR
 10
1.0
 20
0.0
 30
0.0
  9
$PUCSYDIR
 10
0.0
 20
1.0
 30
0.0
  9
$PUCSORTHOREF
  2

  9
$PUCSORTHOVIEW
 70
     0
  9
$PUCSORGTOP
 10
0.0
 20
0.0
 30
0.0
  9
$PUCSORGBOTTOM
 10
0.0
 20
0.0
 30
0.0
  9
$PUCSORGLEFT
 10
0.0
 20
0.0
 30
0.0
  9
$PUCSORGRIGHT
 10
0.0
 20
0.0
 30
0.0
  9
$PUCSORGFRONT
 10
0.0
 20
0.0
 30
0.0
  9
$PUCSORGBACK
 10
0.0
 20
0.0
 30
0.0
  9
$USERI1
 70
     0
  9
$USERI2
 70
     0
  9
$USERI3
 70
     0
  9
$USERI4
 70
     0
  9
$USERI5
 70
     0
  9
$USERR1
 40
0.0
  9
$USERR2
 40
0.0
  9
$USERR3
 40
0.0
  9
$USERR4
 40
0.0
  9
$USERR5
 40
0.0
  9
$WORLDVIEW
 70
     1
  9
$SHADEDGE
 70
     3
  9
$SHADEDIF
 70
    70
  9
$TILEMODE
 70
     1
  9
$MAXACTVP
 70
    64
  9
$PINSBASE
 10
0.0
 20
0.0
 30
0.0
  9
$PLIMCHECK
 70
     0
  9
$PEXTMIN
 10
1.000000000000000E+20
 20
1.000000000000000E+20
 30
1.000000000000000E+20
  9
$PEXTMAX
 10
-1.000000000000000E+20
 20
-1.000000000000000E+20
 30
-1.000000000000000E+20
  9
$PLIMMIN
 10
0.0
 20
0.0
  9
$PLIMMAX
 10
12.0
 20
9.0
  9
$UNITMODE
 70
     0
  9
$VISRETAIN
 70
     1
  9
$PLINEGEN
 70
     0
  9
$PSLTSCALE
 70
     1
  9
$TREEDEPTH
 70
  3020
  9
$CMLSTYLE
  2
Standard
  9
$CMLJUST
 70
     0
  9
$CMLSCALE
 40
1.0
  9
$PROXYGRAPHICS
 70
     1
  9
$MEASUREMENT
 70
     0
  9
$CELWEIGHT
370
    -1
  9
$ENDCAPS
280
     0
  9
$JOINSTYLE
280
     0
  9
$LWDISPLAY
290
     0
  9
$INSUNITS
 70
     1
  9
$HYPERLINKBASE
  1

  9
$STYLESHEET
  1

  9
$XEDIT
290
     1
  9
$CEPSNTYPE
380
     0
  9
$PSTYLEMODE
290
     1
  9
$FINGERPRINTGUID
  2
{8D77DE82-EC80-48B3-81DB-ECCFC418A30F}
  9
$VERSIONGUID
  2
{FAEB1C32-E019-11D5-929B-00C0DF256EC4}
  9
$EXTNAMES
290
     1
  9
$PSVPSCALE
 40
0.0
  9
$OLESTARTUP
290
     0
  9
$SORTENTS
280
   127
  9
$INDEXCTL
280
     0
  9
$HIDETEXT
280
     1
  9
$XCLIPFRAME
280
     2
  9
$HALOGAP
280
     0
  9
$OBSCOLOR
 70
   257
  9
$OBSLTYPE
280
     0
  9
$INTERSECTIONDISPLAY
280
     0
  9
$INTERSECTIONCOLOR
 70
   257
  9
$DIMASSOC
280
     2
  9
$PROJECTNAME
  1

  9
$CAMERADISPLAY
290
     0
  9
$LENSLENGTH
 40
50.0
  9
$CAMERAHEIGHT
 40
0.0
  9
$STEPSPERSEC
 40
2.0
  9
$STEPSIZE
 40
6.0
  9
$3DDWFPREC
 40
2.0
  9
$PSOLWIDTH
 40
0.25
  9
$PSOLHEIGHT
 40
4.0
  9
$LOFTANG1
 40
1.570796326794897
  9
$LOFTANG2
 40
1.570796326794897
  9
$LOFTMAG1
 40
0.0
  9
$LOFTMAG2
 40
0.0
  9
$LOFTPARAM
 70
     7
  9
$LOFTNORMALS
280
     1
  9
$LATITUDE
 40
37.795
  9
$LONGITUDE
 40
-122.394
  9
$NORTHDIRECTION
 40
0.0
  9
$TIMEZONE
 70
 -8000
  9
$LIGHTGLYPHDISPLAY
280
     1
  9
$TILEMODELIGHTSYNCH
280
     1
  9
$CMATERIAL
347
44
  9
$SOLIDHIST
280
     0
  9
$SHOWHIST
280
     1
  9
$DWFFRAME
280
     2
  9
$DGNFRAME
280
     2
  9
$REALWORLDSCALE
290
     1
  9
$INTERFERECOLOR
 62
   256
  9
$CSHADOW
280
     0
  9
$SHADOWPLANELOCATION
 40
0.0
  0
ENDSEC
  0
SECTION
  2
CLASSES
  0
CLASS
  1
ACDBDICTIONARYWDFLT
  2
AcDbDictionaryWithDefault
  3
ObjectDBX Classes
 90
        0
 91
        4
280
     0
281
     0
  0
CLASS
  1
VISUALSTYLE
  2
AcDbVisualStyle
  3
ObjectDBX Classes
 90
     4095
 91
        4
280
     0
281
     0
  0
CLASS
  1
MATERIAL
  2
AcDbMaterial
  3
ObjectDBX Classes
 90
     1153
 91
        4
280
     0
281
     0
  0
CLASS
  1
SCALE
  2
AcDbScale
  3
ObjectDBX Classes
 90
     1153
 91
        4
280
     0
281
     0
  0
CLASS
  1
TABLESTYLE
  2
AcDbTableStyle
  3
ObjectDBX Classes
 90
     4095
 91
        4
280
     0
281
     0
  0
CLASS
  1
MLEADERSTYLE
  2
AcDbMLeaderStyle
  3
ACDB_MLEADERSTYLE_CLASS
 90
     4095
 91
        4
280
     0
281
     0
  0
CLASS
  1
SUN
  2
AcDbSun
  3
SCENEOE
 90
     1153
 91
        4
280
     0
281
     0
  0
CLASS
  1
DICTIONARYVAR
  2
AcDbDictionaryVar
  3
ObjectDBX Classes
 90
        0
 91
        4
280
     0
281
     0
  0
CLASS
  1
CELLSTYLEMAP
  2
AcDbCellStyleMap
  3
ObjectDBX Classes
 90
     1152
 91
        4
280
     0
281
     0
  0
ENDSEC
  0
SECTION
  2
TABLES
  0
TABLE
  2
VPORT
  5
8
330
0
100
AcDbSymbolTable
 70
     1
  0
VPORT
  5
29
330
8
100
AcDbSymbolTableRecord
100
AcDbViewportTableRecord
  2
*Active
 70
     0
 10
0.0
 20
0.0
 11
1.0
 21
1.0
 12
0.0
 22
-0.1239999999999997
 13
0.0
 23
0.0
 14
0.5
 24
0.5
 15
0.5
 25
0.5
 16
0.0
 26
0.0
 36
1.0
 17
0.0
 27
0.0
 37
0.0
 40
1.40556
 41
3.265602322206095
 42
50.0
 43
0.0
 44
0.0
 50
0.0
 51
0.0
 71
     0
 72
   100
 73
     1
 74
     3
 75
     0
 76
     0
 77
     0
 78
     0
281
     0
 65
     1
110
0.0
120
0.0
130
0.0
111
1.0
121
0.0
131
0.0
112
0.0
122
1.0
132
0.0
 79
     0
146
0.0
348
2F
 60
     3
 61
     5
292
     1
282
     1
141
0.0
142
0.0
 63
   250
361
6D
  0
ENDTAB
  0
TABLE
  2
LTYPE
  5
5
330
0
100
AcDbSymbolTable
 70
     3
  0
LTYPE
  5
14
330
5
100
AcDbSymbolTableRecord
100
AcDbLinetypeTableRecord
  2
ByBlock
 70
     0
  3

 72
    65
 73
     0
 40
0.0
  0
LTYPE
  5
15
330
5
100
AcDbSymbolTableRecord
100
AcDbLinetypeTableRecord
  2
ByLayer
 70
     0
  3

 72
    65
 73
     0
 40
0.0
  0
LTYPE
  5
16
330
5
100
AcDbSymbolTableRecord
100
AcDbLinetypeTableRecord
  2
Continuous
 70
     0
  3
Solid line
 72
    65
 73
     0
 40
0.0
  0
LTYPE
  5
A7
330
5
100
AcDbSymbolTableRecord
100
AcDbLinetypeTableRecord
  2
Dashed
 70
     0
  3

 72
    65
 73
     2
 40
2.0
 49
1.0
 74
     0
 49
-1.0
 74
     0
  0
LTYPE
  5
AD
330
5
100
AcDbSymbolTableRecord
100
AcDbLinetypeTableRecord
  2
Center
 70
     0
  3

 72
    65
 73
     4
 40
1.5
 49
0.45
 74
     0
 49
-0.5
 74
     0
 49
0.05
 74
     0
 49
-0.5
 74
     0
  0
ENDTAB
  0
TABLE
  2
LAYER
  5
2
330
0
100
AcDbSymbolTable
 70
     7
  0
LAYER
  5
10
330
2
100
AcDbSymbolTableRecord
100
AcDbLayerTableRecord
  2
0
 70
     0
 62
     7
  6
Continuous
370
    -3
390
F
347
46
348
0
  0
LAYER
  5
72
330
2
100
AcDbSymbolTableRecord
100
AcDbLayerTableRecord
  2
AM_6
 70
     0
 62
    -2
  6
Continuous
370
    35
390
F
347
46
348
0
  0
LAYER
  5
A8
330
2
100
AcDbSymbolTableRecord
100
AcDbLayerTableRecord
  2
AM_9
 70
     0
 62
     6
  6
Dashed
370
    25
390
F
347
46
348
0
  0
LAYER
  5
AE
330
2
100
AcDbSymbolTableRecord
100
AcDbLayerTableRecord
  2
AM_7
 70
     0
 62
     7
  6
Center
370
    25
390
F
347
46
348
0
  0
LAYER
  5
B5
330
2
100
AcDbSymbolTableRecord
100
AcDbLayerTableRecord
  2
AM_4
 70
     0
 62
     7
  6
Continuous
370
    50
390
F
347
46
348
0
  0
LAYER
  5
126
330
2
100
AcDbSymbolTableRecord
100
AcDbLayerTableRecord
  2
AM_5
 70
     0
 62
     3
  6
Continuous
370
    25
390
F
347
46
348
0
  0
LAYER
  5
183
330
2
100
AcDbSymbolTableRecord
100
AcDbLayerTableRecord
  2
ConnectionPoints
 70
     0
 62
     7
  6
Continuous
370
    50
390
F
347
46
348
0
  0
ENDTAB
  0
TABLE
  2
STYLE
  5
3
330
0
100
AcDbSymbolTable
 70
     1
  0
STYLE
  5
11
330
3
100
AcDbSymbolTableRecord
100
AcDbTextStyleTableRecord
  2
Standard
 70
     0
 40
0.0
 41
1.0
 50
0.0
 71
     0
 42
0.2
  3
txt
  4

  0
ENDTAB
  0
TABLE
  2
VIEW
  5
6
330
0
100
AcDbSymbolTable
 70
     0
  0
ENDTAB
  0
TABLE
  2
UCS
  5
7
330
0
100
AcDbSymbolTable
 70
     0
  0
ENDTAB
  0
TABLE
  2
APPID
  5
9
330
0
100
AcDbSymbolTable
 70
     1
  0
APPID
  5
12
330
9
100
AcDbSymbolTableRecord
100
AcDbRegAppTableRecord
  2
ACAD
 70
     0
  0
ENDTAB
  0
TABLE
  2
DIMSTYLE
  5
A
330
0
100
AcDbSymbolTable
 70
     1
100
AcDbDimStyleTable
  0
DIMSTYLE
105
27
330
A
100
AcDbSymbolTableRecord
100
AcDbDimStyleTableRecord
  2
Standard
 70
     0
178
     0
340
11
  0
ENDTAB
  0
TABLE
  2
BLOCK_RECORD
  5
1
330
0
100
AcDbSymbolTable
 70
     5
  0
BLOCK_RECORD
  5
1F
330
1
100
AcDbSymbolTableRecord
100
AcDbBlockTableRecord
  2
*Model_Space
340
22
 70
     0
280
     1
281
     0
  0
BLOCK_RECORD
  5
1B
330
1
100
AcDbSymbolTableRecord
100
AcDbBlockTableRecord
  2
*Paper_Space
340
1E
 70
     0
280
     1
281
     0
  0
BLOCK_RECORD
  5
23
330
1
100
AcDbSymbolTableRecord
100
AcDbBlockTableRecord
  2
*Paper_Space0
340
26
 70
     0
280
     1
281
     0
  0
BLOCK_RECORD
  5
6E
330
1
100
AcDbSymbolTableRecord
100
AcDbBlockTableRecord
  2
1_128170_4
340
0
102
{BLKREFS
331
6F
102
}
 70
     0
280
     1
281
     0
  0
BLOCK_RECORD
  5
8A
330
1
100
AcDbSymbolTableRecord
100
AcDbBlockTableRecord
  2
2_128170HU_0_in_128170_4
340
0
102
{BLKREFS
331
8B
102
}
 70
     0
280
     1
281
     0
  0
BLOCK_RECORD
  5
DE
330
1
100
AcDbSymbolTableRecord
100
AcDbBlockTableRecord
  2
3_077977_0_in_128170_4
340
0
102
{BLKREFS
331
DF
102
}
 70
     0
280
     1
281
     0
  0
BLOCK_RECORD
  5
138
330
1
100
AcDbSymbolTableRecord
100
AcDbBlockTableRecord
  2
4_128170HL_0_in_128170_4
340
0
102
{BLKREFS
331
139
102
}
 70
     0
280
     1
281
     0
  0
ENDTAB
  0
ENDSEC
  0
SECTION
  2
BLOCKS
  0
BLOCK
  5
20
330
1F
100
AcDbEntity
  8
0
100
AcDbBlockBegin
  2
*Model_Space
 70
     0
 10
0.0
 20
0.0
 30
0.0
  3
*Model_Space
  1

  0
ENDBLK
  5
21
330
1F
100
AcDbEntity
  8
0
100
AcDbBlockEnd
  0
BLOCK
  5
1C
330
1B
100
AcDbEntity
 67
     1
  8
0
100
AcDbBlockBegin
  2
*Paper_Space
 70
     0
 10
0.0
 20
0.0
 30
0.0
  3
*Paper_Space
  1

  0
ENDBLK
  5
1D
330
1B
100
AcDbEntity
 67
     1
  8
0
100
AcDbBlockEnd
  0
BLOCK
  5
24
330
23
100
AcDbEntity
  8
0
100
AcDbBlockBegin
  2
*Paper_Space0
 70
     0
 10
0.0
 20
0.0
 30
0.0
  3
*Paper_Space0
  1

  0
ENDBLK
  5
25
330
23
100
AcDbEntity
  8
0
100
AcDbBlockEnd
  0
BLOCK
  5
70
330
6E
100
AcDbEntity
  8
0
100
AcDbBlockBegin
  2
1_128170_4
 70
     2
 10
0.0
 20
0.0
 30
0.0
  3
1_128170_4
  1

  0
ATTDEF
  5
73
330
6E
100
AcDbEntity
  8
AM_6
100
AcDbText
 10
7.25
 20
0.5649999999999998
 30
0.0
 40
0.5
  1
Set Screw Light Duty Two-Bolt Pillow Block Inch Bore
100
AcDbAttributeDefinition
  3

  2
NN
 70
     8
280
     0
  0
ATTDEF
  5
74
330
6E
100
AcDbEntity
  8
AM_6
100
AcDbText
 10
7.25
 20
0.0649999999999998
 30
0.0
 40
0.5
  1
SC Pillow Block Bearings -(Light Duty)
100
AcDbAttributeDefinition
  3

  2
NT
 70
     8
280
     0
  0
ATTDEF
  5
75
330
6E
100
AcDbEntity
  8
AM_6
100
AcDbText
 10
7.25
 20
-0.4350000000000002
 30
0.0
 40
0.5
  1
128170
100
AcDbAttributeDefinition
  3

  2
NB
 70
     8
280
     0
  0
ATTDEF
  5
76
330
6E
100
AcDbEntity
  8
AM_6
100
AcDbText
 10
7.25
 20
-0.9350000000000002
 30
0.0
 40
0.5
  1
$PN.
100
AcDbAttributeDefinition
  3

  2
NBSYN
 70
     8
280
     0
  0
ATTDEF
  5
77
330
6E
100
AcDbEntity
  8
AM_6
100
AcDbText
 10
7.25
 20
-1.435
 30
0.0
 40
0.5
  1
128170
100
AcDbAttributeDefinition
  3

  2
LINA
 70
     8
280
     0
  0
ATTDEF
  5
78
330
6E
100
AcDbEntity
  8
AM_6
100
AcDbText
 10
7.25
 20
-1.935
 30
0.0
 40
0.5
  1
205
100
AcDbAttributeDefinition
  3

  2
SERIES
 70
     8
280
     0
  0
ATTDEF
  5
79
330
6E
100
AcDbEntity
  8
AM_6
100
AcDbText
 10
7.25
 20
-2.435
 30
0.0
 40
0.5
  1
7/8
100
AcDbAttributeDefinition
  3

  2
SS
 70
     8
280
     0
  0
ATTDEF
  5
7A
330
6E
100
AcDbEntity
  8
AM_6
100
AcDbText
 10
7.25
 20
-2.935
 30
0.0
 40
0.5
  1
128170
100
AcDbAttributeDefinition
  3

  2
PN
 70
     8
280
     0
  0
ATTDEF
  5
7B
330
6E
100
AcDbEntity
  8
AM_6
100
AcDbText
 10
7.25
 20
-3.435
 30
0.0
 40
0.5
  1
P2B-SL-014
100
AcDbAttributeDefinition
  3

  2
DESCRIPTION
 70
     8
280
     0
  0
ATTDEF
  5
7C
330
6E
100
AcDbEntity
  8
AM_6
100
AcDbText
 10
7.25
 20
-3.935
 30
0.0
 40
0.5
  1
0.79
100
AcDbAttributeDefinition
  3

  2
W
 70
     8
280
     0
  0
ATTDEF
  5
7D
330
6E
100
AcDbEntity
  8
AM_6
100
AcDbText
 10
7.25
 20
-4.435
 30
0.0
 40
0.5
  1
1.06
100
AcDbAttributeDefinition
  3

  2
A
 70
     8
280
     0
  0
ATTDEF
  5
7E
330
6E
100
AcDbEntity
  8
AM_6
100
AcDbText
 10
7.25
 20
-4.935
 30
0.0
 40
0.5
  1
4.50
100
AcDbAttributeDefinition
  3

  2
B
 70
     8
280
     0
  0
ATTDEF
  5
7F
330
6E
100
AcDbEntity
  8
AM_6
100
AcDbText
 10
7.25
 20
-5.435
 30
0.0
 40
0.5
  1
1.13
100
AcDbAttributeDefinition
  3

  2
C
 70
     8
280
     0
  0
ATTDEF
  5
80
330
6E
100
AcDbEntity
  8
AM_6
100
AcDbText
 10
7.25
 20
-5.935
 30
0.0
 40
0.5
  1
3.38
100
AcDbAttributeDefinition
  3

  2
D
 70
     8
280
     0
  0
ATTDEF
  5
81
330
6E
100
AcDbEntity
  8
AM_6
100
AcDbText
 10
7.25
 20
-6.435
 30
0.0
 40
0.5
  1
3/8
100
AcDbAttributeDefinition
  3

  2
F
 70
     8
280
     0
  0
ATTDEF
  5
82
330
6E
100
AcDbEntity
  8
AM_6
100
AcDbText
 10
7.25
 20
-6.935
 30
0.0
 40
0.5
  1
0.56
100
AcDbAttributeDefinition
  3

  2
G
 70
     8
280
     0
  0
ATTDEF
  5
83
330
6E
100
AcDbEntity
  8
AM_6
100
AcDbText
 10
7.25
 20
-7.435
 30
0.0
 40
0.5
  1
0.21
100
AcDbAttributeDefinition
  3

  2
H
 70
     8
280
     0
  0
ATTDEF
  5
84
330
6E
100
AcDbEntity
  8
AM_6
100
AcDbText
 10
7.25
 20
-7.935
 30
0.0
 40
0.5
  1
2.22
100
AcDbAttributeDefinition
  3

  2
J
 70
     8
280
     0
  0
ATTDEF
  5
85
330
6E
100
AcDbEntity
  8
AM_6
100
AcDbText
 10
7.25
 20
-8.435
 30
0.0
 40
0.5
  1
1.32
100
AcDbAttributeDefinition
  3

  2
L
 70
     8
280
     0
  0
ATTDEF
  5
86
330
6E
100
AcDbEntity
  8
AM_6
100
AcDbText
 10
7.25
 20
-8.935
 30
0.0
 40
0.5
  1
1.13
100
AcDbAttributeDefinition
  3

  2
M
 70
     8
280
     0
  0
ATTDEF
  5
87
330
6E
100
AcDbEntity
  8
AM_6
100
AcDbText
 10
7.25
 20
-9.435
 30
0.0
 40
0.5
  1
0.30
100
AcDbAttributeDefinition
  3

  2
R
 70
     8
280
     0
  0
ATTDEF
  5
88
330
6E
100
AcDbEntity
  8
AM_6
100
AcDbText
 10
7.25
 20
-9.935
 30
0.0
 40
0.5
  1
0.76
100
AcDbAttributeDefinition
  3

  2
S
 70
     8
280
     0
  0
ATTDEF
  5
89
330
6E
100
AcDbEntity
  8
AM_6
100
AcDbText
 10
7.25
 20
-10.435
 30
0.0
 40
0.5
  1
baldor
100
AcDbAttributeDefinition
  3

  2
COMPANY
 70
     8
280
     0
  0
INSERT
  5
8B
330
6E
100
AcDbEntity
  8
0
100
AcDbBlockReference
  2
2_128170HU_0_in_128170_4
 10
0.0
 20
0.0
 30
0.0
  0
INSERT
  5
DF
330
6E
100
AcDbEntity
  8
0
100
AcDbBlockReference
  2
3_077977_0_in_128170_4
 10
0.0
 20
0.0
 30
0.0
  0
INSERT
  5
139
330
6E
100
AcDbEntity
  8
0
100
AcDbBlockReference
  2
4_128170HL_0_in_128170_4
 10
0.0
 20
0.0
 30
0.0
  0
ENDBLK
  5
71
330
6E
100
AcDbEntity
  8
0
100
AcDbBlockEnd
  0
BLOCK
  5
8C
330
8A
100
AcDbEntity
  8
0
100
AcDbBlockBegin
  2
2_128170HU_0_in_128170_4
 70
     2
 10
0.0
 20
0.0
 30
0.0
  3
2_128170HU_0_in_128170_4
  1

  0
ATTDEF
  5
8E
330
8A
100
AcDbEntity
  8
AM_6
100
AcDbText
 10
7.25
 20
0.5649999999999998
 30
0.0
 40
0.5
  1
P2B-SL -I-Housing-(UP)
100
AcDbAttributeDefinition
  3

  2
NN
 70
     8
280
     0
  0
ATTDEF
  5
8F
330
8A
100
AcDbEntity
  8
AM_6
100
AcDbText
 10
7.25
 20
0.0649999999999998
 30
0.0
 40
0.5
  1
SC Pillow Block Bearings -(Light Duty)
100
AcDbAttributeDefinition
  3

  2
NT
 70
     8
280
     0
  0
ATTDEF
  5
90
330
8A
100
AcDbEntity
  8
AM_6
100
AcDbText
 10
7.25
 20
-0.4350000000000002
 30
0.0
 40
0.5
  1
128170HU
100
AcDbAttributeDefinition
  3

  2
NB
 70
     8
280
     0
  0
ATTDEF
  5
91
330
8A
100
AcDbEntity
  8
AM_6
100
AcDbText
 10
7.25
 20
-0.9350000000000002
 30
0.0
 40
0.5
  1
$PN.HU
100
AcDbAttributeDefinition
  3

  2
NBSYN
 70
     8
280
     0
  0
ATTDEF
  5
92
330
8A
100
AcDbEntity
  8
AM_6
100
AcDbText
 10
7.25
 20
-1.435
 30
0.0
 40
0.5
  1
128170
100
AcDbAttributeDefinition
  3

  2
LINA
 70
     8
280
     0
  0
ATTDEF
  5
93
330
8A
100
AcDbEntity
  8
AM_6
100
AcDbText
 10
7.25
 20
-1.935
 30
0.0
 40
0.5
  1
205
100
AcDbAttributeDefinition
  3

  2
SERIES
 70
     8
280
     0
  0
ATTDEF
  5
94
330
8A
100
AcDbEntity
  8
AM_6
100
AcDbText
 10
7.25
 20
-2.435
 30
0.0
 40
0.5
  1
7/8
100
AcDbAttributeDefinition
  3

  2
SS
 70
     8
280
     0
  0
ATTDEF
  5
95
330
8A
100
AcDbEntity
  8
AM_6
100
AcDbText
 10
7.25
 20
-2.935
 30
0.0
 40
0.5
  1
128170
100
AcDbAttributeDefinition
  3

  2
PN
 70
     8
280
     0
  0
ATTDEF
  5
96
330
8A
100
AcDbEntity
  8
AM_6
100
AcDbText
 10
7.25
 20
-3.435
 30
0.0
 40
0.5
  1
P2B-SL-014
100
AcDbAttributeDefinition
  3

  2
DESCRIPTION
 70
     8
280
     0
  0
ATTDEF
  5
97
330
8A
100
AcDbEntity
  8
AM_6
100
AcDbText
 10
7.25
 20
-3.935
 30
0.0
 40
0.5
  1
0.79
100
AcDbAttributeDefinition
  3

  2
W
 70
     8
280
     0
  0
ATTDEF
  5
98
330
8A
100
AcDbEntity
  8
AM_6
100
AcDbText
 10
7.25
 20
-4.435
 30
0.0
 40
0.5
  1
1.06
100
AcDbAttributeDefinition
  3

  2
A
 70
     8
280
     0
  0
ATTDEF
  5
99
330
8A
100
AcDbEntity
  8
AM_6
100
AcDbText
 10
7.25
 20
-4.935
 30
0.0
 40
0.5
  1
4.50
100
AcDbAttributeDefinition
  3

  2
B
 70
     8
280
     0
  0
ATTDEF
  5
9A
330
8A
100
AcDbEntity
  8
AM_6
100
AcDbText
 10
7.25
 20
-5.435
 30
0.0
 40
0.5
  1
1.13
100
AcDbAttributeDefinition
  3

  2
C
 70
     8
280
     0
  0
ATTDEF
  5
9B
330
8A
100
AcDbEntity
  8
AM_6
100
AcDbText
 10
7.25
 20
-5.935
 30
0.0
 40
0.5
  1
3.38
100
AcDbAttributeDefinition
  3

  2
D
 70
     8
280
     0
  0
ATTDEF
  5
9C
330
8A
100
AcDbEntity
  8
AM_6
100
AcDbText
 10
7.25
 20
-6.435
 30
0.0
 40
0.5
  1
3/8
100
AcDbAttributeDefinition
  3

  2
F
 70
     8
280
     0
  0
ATTDEF
  5
9D
330
8A
100
AcDbEntity
  8
AM_6
100
AcDbText
 10
7.25
 20
-6.935
 30
0.0
 40
0.5
  1
0.56
100
AcDbAttributeDefinition
  3

  2
G
 70
     8
280
     0
  0
ATTDEF
  5
9E
330
8A
100
AcDbEntity
  8
AM_6
100
AcDbText
 10
7.25
 20
-7.435
 30
0.0
 40
0.5
  1
0.21
100
AcDbAttributeDefinition
  3

  2
H
 70
     8
280
     0
  0
ATTDEF
  5
9F
330
8A
100
AcDbEntity
  8
AM_6
100
AcDbText
 10
7.25
 20
-7.935
 30
0.0
 40
0.5
  1
2.22
100
AcDbAttributeDefinition
  3

  2
J
 70
     8
280
     0
  0
ATTDEF
  5
A0
330
8A
100
AcDbEntity
  8
AM_6
100
AcDbText
 10
7.25
 20
-8.435
 30
0.0
 40
0.5
  1
1.32
100
AcDbAttributeDefinition
  3

  2
L
 70
     8
280
     0
  0
ATTDEF
  5
A1
330
8A
100
AcDbEntity
  8
AM_6
100
AcDbText
 10
7.25
 20
-8.935
 30
0.0
 40
0.5
  1
1.13
100
AcDbAttributeDefinition
  3

  2
M
 70
     8
280
     0
  0
ATTDEF
  5
A2
330
8A
100
AcDbEntity
  8
AM_6
100
AcDbText
 10
7.25
 20
-9.435
 30
0.0
 40
0.5
  1
0.30
100
AcDbAttributeDefinition
  3

  2
R
 70
     8
280
     0
  0
ATTDEF
  5
A3
330
8A
100
AcDbEntity
  8
AM_6
100
AcDbText
 10
7.25
 20
-9.935
 30
0.0
 40
0.5
  1
0.76
100
AcDbAttributeDefinition
  3

  2
S
 70
     8
280
     0
  0
ATTDEF
  5
A4
330
8A
100
AcDbEntity
  8
AM_6
100
AcDbText
 10
7.25
 20
-10.435
 30
0.0
 40
0.5
  1
1565
100
AcDbAttributeDefinition
  3

  2
CAPS
 70
     8
280
     0
  0
ATTDEF
  5
A5
330
8A
100
AcDbEntity
  8
AM_6
100
AcDbText
 10
7.25
 20
-10.935
 30
0.0
 40
0.5
  1
3146
100
AcDbAttributeDefinition
  3

  2
CAPD
 70
     8
280
     0
  0
ATTDEF
  5
A6
330
8A
100
AcDbEntity
  8
AM_6
100
AcDbText
 10
7.25
 20
-11.435
 30
0.0
 40
0.5
  1
baldor
100
AcDbAttributeDefinition
  3

  2
COMPANY
 70
     8
280
     0
  0
LINE
  5
A9
330
8A
100
AcDbEntity
  8
AM_9
100
AcDbLine
 10
1.2336
 20
-0.565
 30
0.0
 11
1.2336
 21
0.5649999999999998
 31
0.0
  0
LINE
  5
AA
330
8A
100
AcDbEntity
  8
AM_9
100
AcDbLine
 10
-1.2336
 20
-0.565
 30
0.0
 11
-1.2336
 21
0.5649999999999998
 31
0.0
  0
LINE
  5
AB
330
8A
100
AcDbEntity
  8
AM_9
100
AcDbLine
 10
-1.0236
 20
-0.4519999434999999
 30
0.0
 11
-1.0236
 21
0.4519999435000001
 31
0.0
  0
LINE
  5
AC
330
8A
100
AcDbEntity
  8
AM_9
100
AcDbLine
 10
1.0236
 20
-0.4519999434999999
 30
0.0
 11
1.0236
 21
0.4519999435000001
 31
0.0
  0
LINE
  5
AF
330
8A
100
AcDbEntity
  8
AM_7
100
AcDbLine
 10
1.400625
 20
0.0
 30
0.0
 11
1.979375
 21
0.0
 31
0.0
  0
LINE
  5
B0
330
8A
100
AcDbEntity
  8
AM_7
100
AcDbLine
 10
1.7825
 20
-0.1968750000000001
 30
0.0
 11
1.7825
 21
0.196875
 31
0.0
  0
LINE
  5
B1
330
8A
100
AcDbEntity
  8
AM_7
100
AcDbLine
 10
-1.979375
 20
0.0
 30
0.0
 11
-1.400625
 21
0.0
 31
0.0
  0
LINE
  5
B2
330
8A
100
AcDbEntity
  8
AM_7
100
AcDbLine
 10
-1.5975
 20
-0.196875
 30
0.0
 11
-1.5975
 21
0.196875
 31
0.0
  0
LINE
  5
B3
330
8A
100
AcDbEntity
  8
AM_7
100
AcDbLine
 10
-1.7825
 20
-0.196875
 30
0.0
 11
-1.7825
 21
0.196875
 31
0.0
  0
LINE
  5
B4
330
8A
100
AcDbEntity
  8
AM_7
100
AcDbLine
 10
1.5975
 20
-0.196875
 30
0.0
 11
1.5975
 21
0.196875
 31
0.0
  0
ARC
  5
B6
330
8A
100
AcDbEntity
  8
AM_4
100
AcDbCircle
 10
2.136999943500001
 20
-0.4519999435000006
 30
0.0
 40
0.1130000564999993
100
AcDbArc
 50
270.0
 51
0.0
  0
LINE
  5
B7
330
8A
100
AcDbEntity
  8
AM_4
100
AcDbLine
 10
2.1369999435
 20
-0.565
 30
0.0
 11
1.051734665205268
 21
-0.565
 31
0.0
  0
LINE
  5
B8
330
8A
100
AcDbEntity
  8
AM_4
100
AcDbLine
 10
2.1369999435
 20
0.5649999999999998
 30
0.0
 11
1.051734665205268
 21
0.5649999999999998
 31
0.0
  0
LINE
  5
B9
330
8A
100
AcDbEntity
  8
AM_4
100
AcDbLine
 10
2.25
 20
-0.4519999435000002
 30
0.0
 11
2.25
 21
0.4519999434999998
 31
0.0
  0
ARC
  5
BA
330
8A
100
AcDbEntity
  8
AM_4
100
AcDbCircle
 10
2.136999943500001
 20
0.4519999435000004
 30
0.0
 40
0.1130000564999993
100
AcDbArc
 50
0.0
 51
90.0
  0
ARC
  5
BB
330
8A
100
AcDbEntity
  8
AM_4
100
AcDbCircle
 10
1.5975
 20
0.0
 30
0.0
 40
0.1874999999999999
100
AcDbArc
 50
90.0
 51
270.0
  0
LINE
  5
BC
330
8A
100
AcDbEntity
  8
AM_4
100
AcDbLine
 10
1.7825
 20
0.1875
 30
0.0
 11
1.597499999999999
 21
0.1874999999999999
 31
0.0
  0
ARC
  5
BD
330
8A
100
AcDbEntity
  8
AM_4
100
AcDbCircle
 10
1.7825
 20
-0.0000000000000001
 30
0.0
 40
0.1875
100
AcDbArc
 50
270.0
 51
90.0
  0
LINE
  5
BE
330
8A
100
AcDbEntity
  8
AM_4
100
AcDbLine
 10
1.5975
 20
-0.1875000000000001
 30
0.0
 11
1.7825
 21
-0.1875000000000001
 31
0.0
  0
LINE
  5
BF
330
8A
100
AcDbEntity
  8
AM_4
100
AcDbLine
 10
-1.051734665205268
 20
-0.565
 30
0.0
 11
-2.1369999435
 21
-0.565
 31
0.0
  0
LINE
  5
C0
330
8A
100
AcDbEntity
  8
AM_4
100
AcDbLine
 10
-1.051734665205268
 20
0.5649999999999998
 30
0.0
 11
-2.1369999435
 21
0.5649999999999998
 31
0.0
  0
ARC
  5
C1
330
8A
100
AcDbEntity
  8
AM_4
100
AcDbCircle
 10
-1.7825
 20
0.0
 30
0.0
 40
0.1875000000000001
100
AcDbArc
 50
90.0
 51
270.0
  0
LINE
  5
C2
330
8A
100
AcDbEntity
  8
AM_4
100
AcDbLine
 10
-1.5975
 20
0.1875000000000001
 30
0.0
 11
-1.7825
 21
0.1875000000000001
 31
0.0
  0
ARC
  5
C3
330
8A
100
AcDbEntity
  8
AM_4
100
AcDbCircle
 10
-1.5975
 20
0.0
 30
0.0
 40
0.1874999999999998
100
AcDbArc
 50
270.0
 51
90.0
  0
LINE
  5
C4
330
8A
100
AcDbEntity
  8
AM_4
100
AcDbLine
 10
-1.782499999999999
 20
-0.1875000000000001
 30
0.0
 11
-1.597499999999999
 21
-0.1874999999999999
 31
0.0
  0
ARC
  5
C5
330
8A
100
AcDbEntity
  8
AM_4
100
AcDbCircle
 10
-2.136999943500001
 20
0.4519999434999998
 30
0.0
 40
0.1130000565000001
100
AcDbArc
 50
90.0
 51
180.0
  0
LINE
  5
C6
330
8A
100
AcDbEntity
  8
AM_4
100
AcDbLine
 10
-2.25
 20
-0.4519999434999999
 30
0.0
 11
-2.25
 21
0.4519999435000002
 31
0.0
  0
ARC
  5
C7
330
8A
100
AcDbEntity
  8
AM_4
100
AcDbCircle
 10
-2.136999943500001
 20
-0.4519999435000005
 30
0.0
 40
0.1130000564999993
100
AcDbArc
 50
180.0
 51
270.0
  0
LINE
  5
C8
330
8A
100
AcDbEntity
  8
AM_4
100
AcDbLine
 10
-1.195000000000001
 20
-0.565
 30
0.0
 11
-1.195000000000001
 21
0.5649999999999998
 31
0.0
  0
LINE
  5
C9
330
8A
100
AcDbEntity
  8
AM_4
100
AcDbLine
 10
1.195
 20
-0.565
 30
0.0
 11
1.195
 21
0.5649999999999998
 31
0.0
  0
LWPOLYLINE
  5
CA
330
8A
100
AcDbEntity
  8
AM_4
100
AcDbPolyline
 90
       19
 70
     0
 43
0.0
 10
-1.195000000000001
 20
0.5649999999999997
 10
-1.185848647011497
 20
0.564935615073488
 10
-1.176766941344973
 20
0.5647429503021201
 10
-1.167824000264236
 20
0.5644234719811403
 10
-1.159087884950806
 20
0.5639796115334775
 10
-1.150625082517227
 20
0.5634147470051489
 10
-1.142500000000001
 20
0.5627331773562894
 10
-1.134774474183141
 20
0.5619400897434699
 10
-1.127507300982914
 20
0.5610415200423033
 10
-1.120753787975413
 20
0.5600443069107868
 10
-1.114565333472508
 20
0.5589560397429849
 10
-1.108989035349657
 20
0.5577850009091583
 10
-1.104067332602635
 20
0.556540102721925
 10
-1.099837682361152
 20
0.5552308196081799
 10
-1.09633227481748
 20
0.5538671160029852
 10
-1.093577788239648
 20
0.5524593705142036
 10
-1.091595185933719
 20
0.5510182969350242
 10
-1.090399556700367
 20
0.5495548627055291
 10
-1.090000000000001
 20
0.54808020544385
  0
LWPOLYLINE
  5
CB
330
8A
100
AcDbEntity
  8
AM_4
100
AcDbPolyline
 90
        7
 70
     0
 43
0.0
 10
-1.051734665205268
 20
0.5649999999999997
 10
-1.043275364722304
 20
0.5623814337725096
 10
-1.036264549634959
 20
0.5596540265621205
 10
-1.030755576479296
 20
0.5568385355845571
 10
-1.026790371867436
 20
0.5539563884261985
 10
-1.024399113400734
 20
0.5510295199672081
 10
-1.0236
 20
0.54808020544385
  0
LWPOLYLINE
  5
CC
330
8A
100
AcDbEntity
  8
AM_4
100
AcDbPolyline
 90
       19
 70
     0
 43
0.0
 10
1.09
 20
0.54808020544385
 10
1.090399556700367
 20
0.5495548627055291
 10
1.091595185933718
 20
0.5510182969350242
 10
1.093577788239648
 20
0.5524593705142036
 10
1.09633227481748
 20
0.5538671160029852
 10
1.099837682361152
 20
0.5552308196081799
 10
1.104067332602634
 20
0.556540102721925
 10
1.108989035349656
 20
0.5577850009091583
 10
1.114565333472507
 20
0.5589560397429849
 10
1.120753787975413
 20
0.5600443069107868
 10
1.127507300982914
 20
0.5610415200423033
 10
1.13477447418314
 20
0.56194008974347
 10
1.1425
 20
0.5627331773562895
 10
1.150625082517227
 20
0.5634147470051489
 10
1.159087884950805
 20
0.5639796115334776
 10
1.167824000264235
 20
0.5644234719811404
 10
1.176766941344972
 20
0.5647429503021201
 10
1.185848647011496
 20
0.5649356150734881
 10
1.195
 20
0.5649999999999998
  0
LWPOLYLINE
  5
CD
330
8A
100
AcDbEntity
  8
AM_4
100
AcDbPolyline
 90
        7
 70
     0
 43
0.0
 10
1.0236
 20
0.5480802054438502
 10
1.024399113400734
 20
0.5510295199672082
 10
1.026790371867436
 20
0.5539563884261987
 10
1.030755576479296
 20
0.5568385355845572
 10
1.03626454963496
 20
0.5596540265621206
 10
1.043275364722304
 20
0.5623814337725097
 10
1.051734665205268
 20
0.5649999999999998
  0
LINE
  5
CE
330
8A
100
AcDbEntity
  8
AM_4
100
AcDbLine
 10
-1.090000000000001
 20
-0.5480802054438503
 30
0.0
 11
-1.090000000000001
 21
0.54808020544385
 31
0.0
  0
LWPOLYLINE
  5
CF
330
8A
100
AcDbEntity
  8
AM_4
100
AcDbPolyline
 90
       19
 70
     0
 43
0.0
 10
-1.090000000000001
 20
-0.5480802054438503
 10
-1.090399556700367
 20
-0.5495548627055293
 10
-1.091595185933719
 20
-0.5510182969350245
 10
-1.093577788239648
 20
-0.5524593705142038
 10
-1.09633227481748
 20
-0.5538671160029854
 10
-1.099837682361152
 20
-0.55523081960818
 10
-1.104067332602635
 20
-0.5565401027219251
 10
-1.108989035349657
 20
-0.5577850009091584
 10
-1.114565333472508
 20
-0.558956039742985
 10
-1.120753787975413
 20
-0.560044306910787
 10
-1.127507300982914
 20
-0.5610415200423036
 10
-1.134774474183141
 20
-0.5619400897434701
 10
-1.142500000000001
 20
-0.5627331773562896
 10
-1.150625082517227
 20
-0.5634147470051492
 10
-1.159087884950805
 20
-0.5639796115334778
 10
-1.167824000264236
 20
-0.5644234719811405
 10
-1.176766941344973
 20
-0.5647429503021203
 10
-1.185848647011496
 20
-0.5649356150734882
 10
-1.194999998435379
 20
-0.565
  0
LWPOLYLINE
  5
D0
330
8A
100
AcDbEntity
  8
AM_4
100
AcDbPolyline
 90
        7
 70
     0
 43
0.0
 10
-1.0236
 20
-0.5480802054438503
 10
-1.024399113400734
 20
-0.5510295199672083
 10
-1.026790371867436
 20
-0.5539563884261988
 10
-1.030755576479296
 20
-0.5568385355845572
 10
-1.036264549634959
 20
-0.5596540265621207
 10
-1.043275364722304
 20
-0.5623814337725097
 10
-1.051734665205268
 20
-0.565
  0
LINE
  5
D1
330
8A
100
AcDbEntity
  8
AM_4
100
AcDbLine
 10
1.09
 20
0.5480802054438499
 30
0.0
 11
1.09
 21
-0.5480802054438503
 31
0.0
  0
LWPOLYLINE
  5
D2
330
8A
100
AcDbEntity
  8
AM_4
100
AcDbPolyline
 90
        7
 70
     0
 43
0.0
 10
1.051734665205268
 20
-0.5650000000000001
 10
1.043275364722304
 20
-0.5623814337725097
 10
1.03626454963496
 20
-0.5596540265621207
 10
1.030755576479296
 20
-0.5568385355845572
 10
1.026790371867436
 20
-0.5539563884261988
 10
1.024399113400734
 20
-0.5510295199672083
 10
1.0236
 20
-0.5480802054438503
  0
LWPOLYLINE
  5
D3
330
8A
100
AcDbEntity
  8
AM_4
100
AcDbPolyline
 90
       19
 70
     0
 43
0.0
 10
1.194999994579991
 20
-0.565
 10
1.185848641612112
 20
-0.5649356149973677
 10
1.176766936007305
 20
-0.5647429501504585
 10
1.167823995028909
 20
-0.5644234717550918
 10
1.159087879857662
 20
-0.5639796112347624
 10
1.15062507760503
 20
-0.5634147466360405
 10
1.142499995306135
 20
-0.562733176919597
 10
1.134774469743329
 20
-0.5619400892425169
 10
1.127507296830946
 20
-0.5610415194809023
 10
1.120753784142888
 20
-0.5600443062932103
 10
1.114565329988593
 20
-0.5589560390739332
 10
1.108989032240867
 20
-0.5577850001937231
 10
1.10406732989263
 20
-0.5565401019655514
 10
1.099837680070557
 20
-0.5552308188166242
 10
1.096332272963727
 20
-0.5538671151822718
 10
1.093577786836847
 20
-0.5524593696705784
 10
1.091595184992544
 20
-0.5510182960749079
 10
1.090399556227982
 20
-0.5495548618354675
 10
1.09
 20
-0.5480802054438502
  0
LINE
  5
D4
330
8A
100
AcDbEntity
  8
AM_4
100
AcDbLine
 10
-1.0236
 20
0.4519999435000001
 30
0.0
 11
-1.0236
 21
0.54808020544385
 31
0.0
  0
LINE
  5
D5
330
8A
100
AcDbEntity
  8
AM_4
100
AcDbLine
 10
-1.0236
 20
0.4662639270995925
 30
0.0
 11
-1.090000000000001
 21
0.4662639270995925
 31
0.0
  0
LINE
  5
D6
330
8A
100
AcDbEntity
  8
AM_4
100
AcDbLine
 10
1.0236
 20
0.5480802054438502
 30
0.0
 11
1.0236
 21
0.4519999435000001
 31
0.0
  0
LINE
  5
D7
330
8A
100
AcDbEntity
  8
AM_4
100
AcDbLine
 10
1.09
 20
0.4662639270995925
 30
0.0
 11
1.0236
 21
0.4662639270995925
 31
0.0
  0
LINE
  5
D8
330
8A
100
AcDbEntity
  8
AM_4
100
AcDbLine
 10
-1.0236
 20
-0.5480802054438503
 30
0.0
 11
-1.0236
 21
-0.4519999434999999
 31
0.0
  0
LINE
  5
D9
330
8A
100
AcDbEntity
  8
AM_4
100
AcDbLine
 10
-1.0236
 20
-0.4662639270995922
 30
0.0
 11
-1.09
 21
-0.4662639270995922
 31
0.0
  0
LINE
  5
DA
330
8A
100
AcDbEntity
  8
AM_4
100
AcDbLine
 10
1.0236
 20
-0.4519999434999999
 30
0.0
 11
1.0236
 21
-0.5480802054438503
 31
0.0
  0
LINE
  5
DB
330
8A
100
AcDbEntity
  8
AM_4
100
AcDbLine
 10
1.09
 20
-0.4662639270995922
 30
0.0
 11
1.0236
 21
-0.4662639270995922
 31
0.0
  0
LINE
  5
DC
330
8A
100
AcDbEntity
  8
AM_4
100
AcDbLine
 10
-1.090000000000001
 20
-0.4519999434999999
 30
0.0
 11
1.090000000000001
 21
-0.4519999434999999
 31
0.0
  0
LINE
  5
DD
330
8A
100
AcDbEntity
  8
AM_4
100
AcDbLine
 10
1.090000000000001
 20
0.4519999435000001
 30
0.0
 11
-1.090000000000001
 21
0.4519999435000001
 31
0.0
  0
ENDBLK
  5
8D
330
8A
100
AcDbEntity
  8
0
100
AcDbBlockEnd
  0
BLOCK
  5
E0
330
DE
100
AcDbEntity
  8
0
100
AcDbBlockBegin
  2
3_077977_0_in_128170_4
 70
     2
 10
0.0
 20
0.0
 30
0.0
  3
3_077977_0_in_128170_4
  1

  0
ATTDEF
  5
E2
330
DE
100
AcDbEntity
  8
AM_6
100
AcDbText
 10
6.023071041545308
 20
0.353
 30
0.0
 40
0.5
  1
Set Screw Light Duty Insert with Pin Inch Bore
100
AcDbAttributeDefinition
  3

  2
NN
 70
     8
280
     0
  0
ATTDEF
  5
E3
330
DE
100
AcDbEntity
  8
AM_6
100
AcDbText
 10
6.023071041545308
 20
-0.147
 30
0.0
 40
0.5
  1
SCP Bearing Inserts
100
AcDbAttributeDefinition
  3

  2
NT
 70
     8
280
     0
  0
ATTDEF
  5
E4
330
DE
100
AcDbEntity
  8
AM_6
100
AcDbText
 10
6.023071041545308
 20
-0.647
 30
0.0
 40
0.5
  1
077977
100
AcDbAttributeDefinition
  3

  2
NB
 70
     8
280
     0
  0
ATTDEF
  5
E5
330
DE
100
AcDbEntity
  8
AM_6
100
AcDbText
 10
6.023071041545308
 20
-1.147
 30
0.0
 40
0.5
  1
$PN.
100
AcDbAttributeDefinition
  3

  2
NBSYN
 70
     8
280
     0
  0
ATTDEF
  5
E6
330
DE
100
AcDbEntity
  8
AM_6
100
AcDbText
 10
6.023071041545308
 20
-1.647
 30
0.0
 40
0.5
  1
077977
100
AcDbAttributeDefinition
  3

  2
LINA
 70
     8
280
     0
  0
ATTDEF
  5
E7
330
DE
100
AcDbEntity
  8
AM_6
100
AcDbText
 10
6.023071041545308
 20
-2.147
 30
0.0
 40
0.5
  1
205
100
AcDbAttributeDefinition
  3

  2
SERIES
 70
     8
280
     0
  0
ATTDEF
  5
E8
330
DE
100
AcDbEntity
  8
AM_6
100
AcDbText
 10
6.023071041545308
 20
-2.647
 30
0.0
 40
0.5
  1
7/8
100
AcDbAttributeDefinition
  3

  2
SS
 70
     8
280
     0
  0
ATTDEF
  5
E9
330
DE
100
AcDbEntity
  8
AM_6
100
AcDbText
 10
6.023071041545308
 20
-3.147
 30
0.0
 40
0.5
  1
077977
100
AcDbAttributeDefinition
  3

  2
PN
 70
     8
280
     0
  0
ATTDEF
  5
EA
330
DE
100
AcDbEntity
  8
AM_6
100
AcDbText
 10
6.023071041545308
 20
-3.647
 30
0.0
 40
0.5
  1
INS-SCP-014
100
AcDbAttributeDefinition
  3

  2
DESCRIPTION
 70
     8
280
     0
  0
ATTDEF
  5
EB
330
DE
100
AcDbEntity
  8
AM_6
100
AcDbText
 10
6.023071041545308
 20
-4.147
 30
0.0
 40
0.5
  1
1.06
100
AcDbAttributeDefinition
  3

  2
A
 70
     8
280
     0
  0
ATTDEF
  5
EC
330
DE
100
AcDbEntity
  8
AM_6
100
AcDbText
 10
6.023071041545308
 20
-4.647
 30
0.0
 40
0.5
  1
0.59
100
AcDbAttributeDefinition
  3

  2
C
 70
     8
280
     0
  0
ATTDEF
  5
ED
330
DE
100
AcDbEntity
  8
AM_6
100
AcDbText
 10
6.023071041545308
 20
-5.147
 30
0.0
 40
0.5
  1
2.0472
100
AcDbAttributeDefinition
  3

  2
D
 70
     8
280
     0
  0
ATTDEF
  5
EE
330
DE
100
AcDbEntity
  8
AM_6
100
AcDbText
 10
6.023071041545308
 20
-5.647
 30
0.0
 40
0.5
  1
0.16
100
AcDbAttributeDefinition
  3

  2
J
 70
     8
280
     0
  0
ATTDEF
  5
EF
330
DE
100
AcDbEntity
  8
AM_6
100
AcDbText
 10
6.023071041545308
 20
-6.147
 30
0.0
 40
0.5
  1
1.32
100
AcDbAttributeDefinition
  3

  2
L
 70
     8
280
     0
  0
ATTDEF
  5
F0
330
DE
100
AcDbEntity
  8
AM_6
100
AcDbText
 10
6.023071041545308
 20
-6.647
 30
0.0
 40
0.5
  1
1/4 - 28
100
AcDbAttributeDefinition
  3

  2
N
 70
     8
280
     0
  0
ATTDEF
  5
F1
330
DE
100
AcDbEntity
  8
AM_6
100
AcDbText
 10
6.023071041545308
 20
-7.147
 30
0.0
 40
0.5
  1
0.30
100
AcDbAttributeDefinition
  3

  2
W
 70
     8
280
     0
  0
ATTDEF
  5
F2
330
DE
100
AcDbEntity
  8
AM_6
100
AcDbText
 10
6.023071041545308
 20
-7.647
 30
0.0
 40
0.5
  1
0.76
100
AcDbAttributeDefinition
  3

  2
Y
 70
     8
280
     0
  0
ATTDEF
  5
F3
330
DE
100
AcDbEntity
  8
AM_6
100
AcDbText
 10
6.023071041545308
 20
-8.147
 30
0.0
 40
0.5
  1
baldor
100
AcDbAttributeDefinition
  3

  2
COMPANY
 70
     8
280
     0
  0
LINE
  5
F4
330
DE
100
AcDbEntity
  8
AM_9
100
AcDbLine
 10
-1.06735
 20
0.1896969696969725
 30
0.0
 11
-1.06735
 21
0.1303030303030275
 31
0.0
  0
ARC
  5
F5
330
DE
100
AcDbEntity
  8
AM_9
100
AcDbCircle
 10
-1.013713636363671
 20
0.1303030303029951
 30
0.0
 40
0.0536363636363291
100
AcDbArc
 50
179.9999991462263
 51
262.5582720099594
  0
ARC
  5
F6
330
DE
100
AcDbEntity
  8
AM_9
100
AcDbCircle
 10
-1.013713636363637
 20
0.1896969696969744
 30
0.0
 40
0.0536363636363637
100
AcDbArc
 50
90.0
 51
180.0
  0
LINE
  5
F7
330
DE
100
AcDbEntity
  8
AM_9
100
AcDbLine
 10
-0.9942701762377514
 20
0.2433333333333381
 30
0.0
 11
-1.013713636363636
 21
0.2433333333333381
 31
0.0
  0
LINE
  5
F8
330
DE
100
AcDbEntity
  8
AM_9
100
AcDbLine
 10
-1.013713636363636
 20
0.2433333333333381
 30
0.0
 11
-1.013713636363636
 21
0.1212411843935687
 31
0.0
  0
LINE
  5
F9
330
DE
100
AcDbEntity
  8
AM_9
100
AcDbLine
 10
0.3964412749278927
 20
-0.6254500000000001
 30
0.0
 11
0.5809476251235367
 21
-0.6254500000000001
 31
0.0
  0
LINE
  5
FA
330
DE
100
AcDbEntity
  8
AM_9
100
AcDbLine
 10
0.5809476251235367
 20
-0.42955
 30
0.0
 11
0.3964718429336836
 21
-0.42955
 31
0.0
  0
LWPOLYLINE
  5
FB
330
DE
100
AcDbEntity
  8
AM_9
100
AcDbPolyline
 90
        6
 70
     0
 43
0.0
 10
0.4187934078940379
 20
-0.4519031797231149
 10
0.4151343264450465
 20
-0.4434447691132941
 10
0.4100753403541771
 20
-0.4360658865173738
 10
0.4043501581054099
 20
-0.4315072094489459
 10
0.3976758519700389
 20
-0.4295894124793213
 10
0.3965138799985955
 20
-0.4295500005097619
  0
LWPOLYLINE
  5
FC
330
DE
100
AcDbEntity
  8
AM_9
100
AcDbPolyline
 90
       17
 70
     0
 43
0.0
 10
0.3965069526749168
 20
-0.6254499997910135
 10
0.4007024480274375
 20
-0.6249201054676382
 10
0.4067208578758349
 20
-0.6219927669716421
 10
0.4121331628732897
 20
-0.6163998410193611
 10
0.4166118264167987
 20
-0.6085420625829115
 10
0.4203583349796894
 20
-0.5982418674038229
 10
0.4232567715215576
 20
-0.5860488191905975
 10
0.4254437316747205
 20
-0.571804435211044
 10
0.4268667636263318
 20
-0.5566428436223132
 10
0.4276634607272558
 20
-0.5401419969151314
 10
0.4278271713690498
 20
-0.5240938071386761
 10
0.4274004593494938
 20
-0.5076720725098489
 10
0.4264032900158415
 20
-0.4924617021322119
 10
0.424733193637049
 20
-0.4778115146676405
 10
0.4223801854313544
 20
-0.4646961887108864
 10
0.41916746737116
 20
-0.4529812645472103
 10
0.4187934078940379
 20
-0.4519031797231149
  0
LWPOLYLINE
  5
FD
330
DE
100
AcDbEntity
  8
AM_9
100
AcDbPolyline
 90
       11
 70
     0
 43
0.0
 10
0.3965138799985955
 20
-0.4295500005097619
 10
0.3907619301731799
 20
-0.4304400814078954
 10
0.3832808569340363
 20
-0.4340063998551441
 10
0.3759370920817844
 20
-0.4399565970632371
 10
0.3685842089671431
 20
-0.4484520773706499
 10
0.361794075466746
 20
-0.4590289616690343
 10
0.3556593442116657
 20
-0.4718426994131473
 10
0.3507587754180478
 20
-0.4860535376309078
 10
0.3471785902711472
 20
-0.5019299883017951
 10
0.345596435466933
 20
-0.5144797818044299
 10
0.3450489608914671
 20
-0.5275
  0
ELLIPSE
  5
FE
330
DE
100
AcDbEntity
  8
AM_9
100
AcDbEllipse
 10
0.5809476251235366
 20
-0.5275000000000003
 30
0.0
 11
-1.799312309647238E-17
 21
-0.09794999999999943
 31
0.0
210
0.0
220
0.0
230
1.0
 40
0.4226182617407008
 41
2.450895410051115
 42
5.953885680902358
  0
LINE
  5
FF
330
DE
100
AcDbEntity
  8
AM_9
100
AcDbLine
 10
0.5616446057014005
 20
-0.6141487849718646
 30
0.0
 11
0.5734853450170826
 21
-0.6289175802850534
 31
0.0
  0
LINE
  5
100
330
DE
100
AcDbEntity
  8
AM_9
100
AcDbLine
 10
0.5735656130906105
 20
-0.4259823024235754
 30
0.0
 11
0.5616446057014005
 21
-0.4408512150281353
 31
0.0
  0
LWPOLYLINE
  5
101
330
DE
100
AcDbEntity
  8
AM_9
100
AcDbPolyline
 90
        4
 70
     0
 43
0.0
 10
0.5586837406977512
 20
-0.4519084028372006
 10
0.5652867661607005
 20
-0.4383833769504561
 10
0.5734581055326967
 20
-0.4261167729003105
 10
0.5735740480938538
 20
-0.4259717815944666
  0
LWPOLYLINE
  5
102
330
DE
100
AcDbEntity
  8
AM_9
100
AcDbPolyline
 90
        9
 70
     0
 43
0.0
 10
0.5735740480938538
 20
-0.4259717815944666
 10
0.5816266571414173
 20
-0.4176373544216402
 10
0.5899796433437982
 20
-0.412345252403008
 10
0.5974928286954456
 20
-0.4105809963324571
 10
0.6046244137532618
 20
-0.4118000942647346
 10
0.6109002520462056
 20
-0.4157639755349945
 10
0.6165169241279203
 20
-0.4222612393715136
 10
0.6202281888867066
 20
-0.4286400425718337
 10
0.6235201798650335
 20
-0.4361852069615744
  0
LWPOLYLINE
  5
103
330
DE
100
AcDbEntity
  8
AM_9
100
AcDbPolyline
 90
       11
 70
     0
 43
0.0
 10
0.3450489608914671
 20
-0.5275
 10
0.3458747764791527
 20
-0.543479191730239
 10
0.3483982102283003
 20
-0.5594583834604778
 10
0.3523302675995151
 20
-0.5740860242690558
 10
0.3576709089913062
 20
-0.5878059865900952
 10
0.3639669890856648
 20
-0.5996928493070764
 10
0.3711824629778925
 20
-0.6098624862054569
 10
0.3786777311447849
 20
-0.6175469329975384
 10
0.3864835358930601
 20
-0.6228345243345854
 10
0.3937231409289277
 20
-0.6252347410473662
 10
0.3965069526749168
 20
-0.6254499997910135
  0
LINE
  5
104
330
DE
100
AcDbEntity
  8
AM_9
100
AcDbLine
 10
-0.4375000000000001
 20
0.2736000000000001
 30
0.0
 11
-0.4375000000000001
 21
-0.7336
 31
0.0
  0
LINE
  5
105
330
DE
100
AcDbEntity
  8
AM_9
100
AcDbLine
 10
0.4375000000000001
 20
-0.7336
 30
0.0
 11
0.4375000000000001
 21
0.2736000000000001
 31
0.0
  0
LINE
  5
106
330
DE
100
AcDbEntity
  8
AM_9
100
AcDbLine
 10
0.4375
 20
0.2736000000000001
 30
0.0
 11
-0.4375
 21
0.2736000000000001
 31
0.0
  0
LINE
  5
107
330
DE
100
AcDbEntity
  8
AM_9
100
AcDbLine
 10
0.4375
 20
0.2736000000000001
 30
0.0
 11
0.4639000000000049
 21
0.2999999999999999
 31
0.0
  0
LINE
  5
108
330
DE
100
AcDbEntity
  8
AM_9
100
AcDbLine
 10
-0.4639000000000049
 20
0.2999999999999999
 30
0.0
 11
-0.4375
 21
0.2736000000000001
 31
0.0
  0
LINE
  5
109
330
DE
100
AcDbEntity
  8
AM_9
100
AcDbLine
 10
-0.4375000000000001
 20
-0.7336
 30
0.0
 11
-0.4639000000000049
 21
-0.7599999999999999
 31
0.0
  0
LINE
  5
10A
330
DE
100
AcDbEntity
  8
AM_9
100
AcDbLine
 10
0.4639000000000049
 20
-0.7599999999999999
 30
0.0
 11
0.4375000000000001
 21
-0.7336
 31
0.0
  0
ARC
  5
10B
330
DE
100
AcDbEntity
  8
AM_9
100
AcDbCircle
 10
0.0
 20
-0.5275
 30
0.0
 40
0.0979500000000001
100
AcDbArc
 50
50.42596302391411
 51
129.5740369760859
  0
LINE
  5
10C
330
DE
100
AcDbEntity
  8
AM_9
100
AcDbLine
 10
0.6599999999999931
 20
0.2999999999999999
 30
0.0
 11
-0.6599999999999931
 21
0.2999999999999999
 31
0.0
  0
LINE
  5
10D
330
DE
100
AcDbEntity
  8
AM_9
100
AcDbLine
 10
-0.6599999999999931
 20
0.2999999999999999
 30
0.0
 11
-0.6599999999999931
 21
0.295
 31
0.0
  0
LINE
  5
10E
330
DE
100
AcDbEntity
  8
AM_9
100
AcDbLine
 10
0.6599999999999931
 20
0.295
 30
0.0
 11
0.6599999999999931
 21
0.2999999999999999
 31
0.0
  0
LWPOLYLINE
  5
10F
330
DE
100
AcDbEntity
  8
AM_9
100
AcDbPolyline
 90
       12
 70
     0
 43
0.0
 10
-0.0822255117511504
 20
-0.4517443474873977
 10
-0.0725715625884871
 20
-0.4409578856723269
 10
-0.0575722758133624
 20
-0.4286085552236407
 10
-0.0399697184626558
 20
-0.4188872075163487
 10
-0.022988767321439
 20
-0.4132450621894472
 10
-0.004657531144196
 20
-0.4106640123116306
 10
0.0119588649160308
 20
-0.4112767724702438
 10
0.0287138700192915
 20
-0.414779422574745
 10
0.0440039167478096
 20
-0.420736178601335
 10
0.0585126122389553
 20
-0.4292586311793881
 10
0.0689094916866091
 20
-0.4375167577600245
 10
0.0783723973826378
 20
-0.4471037726986062
  0
LINE
  5
110
330
DE
100
AcDbEntity
  8
AM_9
100
AcDbLine
 10
0.0783723973826378
 20
-0.4471037726986062
 30
0.0
 11
0.0822933824886611
 21
-0.4518306761828987
 31
0.0
  0
LWPOLYLINE
  5
111
330
DE
100
AcDbEntity
  8
AM_9
100
AcDbPolyline
 90
        3
 70
     0
 43
0.0
 10
0.6235201798650335
 20
-0.4361852069615744
 10
0.6273219536004824
 20
-0.4481058239603521
 10
0.6282767346018472
 20
-0.4518426152673445
  0
LINE
  5
112
330
DE
100
AcDbEntity
  8
AM_9
100
AcDbLine
 10
-0.6599999999999928
 20
-0.295
 30
0.0
 11
-0.6599999999999928
 21
-0.4519999434999999
 31
0.0
  0
LINE
  5
113
330
DE
100
AcDbEntity
  8
AM_9
100
AcDbLine
 10
0.6599999999999928
 20
-0.4519999434999999
 30
0.0
 11
0.6599999999999928
 21
-0.295
 31
0.0
  0
LINE
  5
114
330
DE
100
AcDbEntity
  8
AM_9
100
AcDbLine
 10
-0.9702666666666678
 20
-0.128
 30
0.0
 11
-0.9702666666666678
 21
-0.1919999999999999
 31
0.0
  0
LINE
  5
115
330
DE
100
AcDbEntity
  8
AM_9
100
AcDbLine
 10
0.9702666666666678
 20
-0.1919999999999999
 30
0.0
 11
0.9702666666666678
 21
-0.128
 31
0.0
  0
LINE
  5
116
330
DE
100
AcDbEntity
  8
AM_9
100
AcDbLine
 10
0.9560865860370594
 20
0.2950000000000002
 30
0.0
 11
-0.9560865860345217
 21
0.2950000000000002
 31
0.0
  0
ARC
  5
117
330
DE
100
AcDbEntity
  8
AM_9
100
AcDbCircle
 10
-0.9560865860370593
 20
0.2629999999999995
 30
0.0
 40
0.0320000000000007
100
AcDbArc
 50
90.0
 51
164.6195040508811
  0
ARC
  5
118
330
DE
100
AcDbEntity
  8
AM_9
100
AcDbCircle
 10
0.9560865860370594
 20
0.2629999999999997
 30
0.0
 40
0.0320000000000005
100
AcDbArc
 50
15.38049594911842
 51
90.0
  0
LINE
  5
119
330
DE
100
AcDbEntity
  8
AM_9
100
AcDbLine
 10
0.9560865860370598
 20
-0.295
 30
0.0
 11
-0.956086586034522
 21
-0.295
 31
0.0
  0
ARC
  5
11A
330
DE
100
AcDbEntity
  8
AM_9
100
AcDbCircle
 10
-0.9560865860370598
 20
-0.263
 30
0.0
 40
0.0319999999999999
100
AcDbArc
 50
195.3804930608767
 51
270.0
  0
ARC
  5
11B
330
DE
100
AcDbEntity
  8
AM_9
100
AcDbCircle
 10
0.9560865860370598
 20
-0.2630000000000001
 30
0.0
 40
0.0319999999999999
100
AcDbArc
 50
270.0
 51
344.6195069391234
  0
LINE
  5
11C
330
DE
100
AcDbEntity
  8
AM_9
100
AcDbLine
 10
1.005431728164573
 20
-0.1920000000000002
 30
0.0
 11
-1.005431728164673
 21
-0.1920000000000002
 31
0.0
  0
LINE
  5
11D
330
DE
100
AcDbEntity
  8
AM_9
100
AcDbLine
 10
0.9869405303466913
 20
-0.2714872917080865
 30
0.0
 11
-0.9869405303467907
 21
-0.2714872917080865
 31
0.0
  0
ARC
  5
11E
330
DE
100
AcDbEntity
  8
AM_9
100
AcDbCircle
 10
-0.0000000001180487
 20
-0.0000000000274381
 30
0.0
 40
1.023599999878998
100
AcDbArc
 50
190.8111968125824
 51
195.3804958590951
  0
ARC
  5
11F
330
DE
100
AcDbEntity
  8
AM_9
100
AcDbCircle
 10
0.0000000001181575
 20
-0.0000000000274631
 30
0.0
 40
1.023599999878886
100
AcDbArc
 50
344.6195041409046
 51
349.1888031874178
  0
LINE
  5
120
330
DE
100
AcDbEntity
  8
AM_9
100
AcDbLine
 10
0.9869405299188527
 20
0.2714872932634129
 30
0.0
 11
-0.9869405299188455
 21
0.2714872932634129
 31
0.0
  0
LINE
  5
121
330
DE
100
AcDbEntity
  8
AM_9
100
AcDbLine
 10
1.015565340093881
 20
-0.128
 30
0.0
 11
-1.015565340093874
 21
-0.128
 31
0.0
  0
ARC
  5
122
330
DE
100
AcDbEntity
  8
AM_9
100
AcDbCircle
 10
0.000000000032417
 20
-0.0000000000081704
 30
0.0
 40
1.023600000033416
100
AcDbArc
 50
164.6195040509225
 51
166.2527629291797
  0
ARC
  5
123
330
DE
100
AcDbEntity
  8
AM_9
100
AcDbCircle
 10
-0.0000000000005198
 20
-0.0000000000000478
 30
0.0
 40
1.023599999999472
100
AcDbArc
 50
175.6629924082307
 51
187.1835766537117
  0
ARC
  5
124
330
DE
100
AcDbEntity
  8
AM_9
100
AcDbCircle
 10
-0.0000000000001477
 20
-0.0000000000000106
 30
0.0
 40
1.023600000000138
100
AcDbArc
 50
352.8164233462908
 51
15.38049594911621
  0
LINE
  5
125
330
DE
100
AcDbEntity
  8
AM_9
100
AcDbLine
 10
-1.02069050175315
 20
0.0771223679019166
 30
0.0
 11
-0.9942564301552932
 21
0.2433333332824344
 31
0.0
  0
ARC
  5
127
330
DE
100
AcDbEntity
  8
AM_5
100
AcDbCircle
 10
0.0000000000000001
 20
-0.5274999999999999
 30
0.0
 40
0.125
100
AcDbArc
 50
75.00000000000001
 51
14.99999999999997
  0
LINE
  5
128
330
DE
100
AcDbEntity
  8
AM_7
100
AcDbLine
 10
0.0
 20
0.353
 30
0.0
 11
0.0
 21
-0.813
 31
0.0
  0
LINE
  5
129
330
DE
100
AcDbEntity
  8
AM_7
100
AcDbLine
 10
-1.0877175
 20
0.16
 30
0.0
 11
-0.6396325
 21
0.16
 31
0.0
  0
LINE
  5
12A
330
DE
100
AcDbEntity
  8
AM_7
100
AcDbLine
 10
-0.1028475
 20
-0.5274999999999999
 30
0.0
 11
0.1028475
 21
-0.5274999999999999
 31
0.0
  0
ELLIPSE
  5
12B
330
DE
100
AcDbEntity
  8
AM_4
100
AcDbEllipse
 10
0.5809476251235366
 20
-0.5274999999999999
 30
0.0
 11
-1.799312309647252E-17
 21
-0.0979500000000002
 31
0.0
210
0.0
220
0.0
230
1.0
 40
0.4226182617406996
 41
5.953885680902359
 42
8.734080717230698
  0
LWPOLYLINE
  5
12C
330
DE
100
AcDbEntity
  8
AM_4
100
AcDbPolyline
 90
       13
 70
     0
 43
0.0
 10
0.5735660731769253
 20
-0.6290182691374029
 10
0.5719726994579839
 20
-0.6269592497451528
 10
0.5650278433204309
 20
-0.6161637029898828
 10
0.5588105674882015
 20
-0.6033921213403184
 10
0.553158609426175
 20
-0.5877764563087974
 10
0.5487921335557101
 20
-0.5707132655024807
 10
0.5457453127463127
 20
-0.5513601705722373
 10
0.5444677717709605
 20
-0.531379662502821
 10
0.5450936915365804
 20
-0.5106009107289822
 10
0.5476415499847281
 20
-0.4902963876546935
 10
0.5520497310441538
 20
-0.4709914126023976
 10
0.5580875747281323
 20
-0.453346481939735
 10
0.5586837406977512
 20
-0.4519084028372006
  0
ARC
  5
12D
330
DE
100
AcDbEntity
  8
AM_4
100
AcDbCircle
 10
0.0
 20
-0.5274999999999999
 30
0.0
 40
0.09795
100
AcDbArc
 50
129.5740369760859
 51
50.42596302391408
  0
LINE
  5
12E
330
DE
100
AcDbEntity
  8
AM_4
100
AcDbLine
 10
0.6336000000000167
 20
-0.7599999999999999
 30
0.0
 11
-0.6336000000000167
 21
-0.7599999999999999
 31
0.0
  0
LINE
  5
12F
330
DE
100
AcDbEntity
  8
AM_4
100
AcDbLine
 10
0.6336000000000167
 20
-0.7599999999999999
 30
0.0
 11
0.6599999999999931
 21
-0.7336
 31
0.0
  0
LINE
  5
130
330
DE
100
AcDbEntity
  8
AM_4
100
AcDbLine
 10
-0.6599999999999931
 20
-0.7336
 30
0.0
 11
-0.6336000000000167
 21
-0.7599999999999999
 31
0.0
  0
LWPOLYLINE
  5
131
330
DE
100
AcDbEntity
  8
AM_4
100
AcDbPolyline
 90
       29
 70
     0
 43
0.0
 10
0.0822933824886611
 20
-0.4518306761828987
 10
0.0882927003008661
 20
-0.4602077979870507
 10
0.0964386074881698
 20
-0.4748774629343639
 10
0.1032779882244038
 20
-0.4932323954938125
 10
0.107201640456723
 20
-0.5129776721112377
 10
0.1079052792069236
 20
-0.5333658975798176
 10
0.1051831161124921
 20
-0.5541628350744758
 10
0.0991562433840549
 20
-0.5738494633166318
 10
0.0895923345827996
 20
-0.5927521457697115
 10
0.0775137867499855
 20
-0.6088654648402672
 10
0.062263760819969
 20
-0.6229966616728436
 10
0.0462587313234874
 20
-0.6331376757599412
 10
0.028038897964453
 20
-0.6404202969131586
 10
0.0109951432142765
 20
-0.6438351915737195
 10
-0.0069583371654788
 20
-0.6442012746140344
 10
-0.0231895963823718
 20
-0.6417071726316851
 10
-0.0392216348719989
 20
-0.6364329587683305
 10
-0.0539357832490657
 20
-0.6287702721180947
 10
-0.067594457462963
 20
-0.6186454984289714
 10
-0.0799713500900033
 20
-0.6060303953118247
 10
-0.0904938784831169
 20
-0.5912807183966329
 10
-0.099017740790964
 20
-0.574193949192598
 10
-0.1048890144443358
 20
-0.5554817854848645
 10
-0.1077872476441166
 20
-0.5355058032058374
 10
-0.107395580242193
 20
-0.5147576949674955
 10
-0.1036333836134581
 20
-0.4945081678423047
 10
-0.0963219135287693
 20
-0.4746283578702896
 10
-0.0861246251594965
 20
-0.4569972210643788
 10
-0.0822255117511504
 20
-0.4517443474873977
  0
LINE
  5
132
330
DE
100
AcDbEntity
  8
AM_4
100
AcDbLine
 10
0.6599999999999931
 20
-0.7336
 30
0.0
 11
-0.6599999999999928
 21
-0.7336
 31
0.0
  0
LWPOLYLINE
  5
133
330
DE
100
AcDbEntity
  8
AM_4
100
AcDbPolyline
 90
       18
 70
     0
 43
0.0
 10
0.6282767346018472
 20
-0.4518426152673445
 10
0.6303739018364952
 20
-0.4616296097810876
 10
0.6329915919715248
 20
-0.4787248789236411
 10
0.634724239757466
 20
-0.4970343791762455
 10
0.6356381709244592
 20
-0.5171753151555413
 10
0.6356440952072423
 20
-0.5375947258444259
 10
0.6347061407814356
 20
-0.558205292762595
 10
0.6327858771889889
 20
-0.5779399383943005
 10
0.6298389962551173
 20
-0.5960869129089068
 10
0.6257967721609009
 20
-0.6121914600345212
 10
0.6208225664245381
 20
-0.6251262712583543
 10
0.6147740775028752
 20
-0.6351159109026792
 10
0.6082798287473445
 20
-0.6412513226567025
 10
0.6010408441850225
 20
-0.6442063063425394
 10
0.5938469705060506
 20
-0.6439240693478293
 10
0.586398920611479
 20
-0.6408070913681356
 10
0.5790729773451615
 20
-0.6350775352955105
 10
0.5735660731769253
 20
-0.6290182691374029
  0
LINE
  5
134
330
DE
100
AcDbEntity
  8
AM_4
100
AcDbLine
 10
-0.6599999999999928
 20
-0.4519999434999999
 30
0.0
 11
-0.6599999999999928
 21
-0.7336
 31
0.0
  0
LINE
  5
135
330
DE
100
AcDbEntity
  8
AM_4
100
AcDbLine
 10
0.6599999999999928
 20
-0.7336
 30
0.0
 11
0.6599999999999928
 21
-0.4519999434999999
 31
0.0
  0
ARC
  5
136
330
DE
100
AcDbEntity
  8
AM_5
100
AcDbCircle
 10
0.0
 20
-0.5275000000000001
 30
0.0
 40
0.125
100
AcDbArc
 50
345.0000000000001
 51
285.0
  0
ARC
  5
137
330
DE
100
AcDbEntity
  8
AM_5
100
AcDbCircle
 10
0.0
 20
-0.51
 30
0.0
 40
0.125
100
AcDbArc
 50
75.00000000000001
 51
14.99999999999997
  0
ENDBLK
  5
E1
330
DE
100
AcDbEntity
  8
0
100
AcDbBlockEnd
  0
BLOCK
  5
13A
330
138
100
AcDbEntity
  8
0
100
AcDbBlockBegin
  2
4_128170HL_0_in_128170_4
 70
     2
 10
0.0
 20
0.0
 30
0.0
  3
4_128170HL_0_in_128170_4
  1

  0
ATTDEF
  5
13C
330
138
100
AcDbEntity
  8
AM_6
100
AcDbText
 10
6.2336
 20
0.5649999999999998
 30
0.0
 40
0.5
  1
P2B-SL -I-Housing-(Low)
100
AcDbAttributeDefinition
  3

  2
NN
 70
     8
280
     0
  0
ATTDEF
  5
13D
330
138
100
AcDbEntity
  8
AM_6
100
AcDbText
 10
6.2336
 20
0.0649999999999998
 30
0.0
 40
0.5
  1
SC Pillow Block Bearings -(Light Duty)
100
AcDbAttributeDefinition
  3

  2
NT
 70
     8
280
     0
  0
ATTDEF
  5
13E
330
138
100
AcDbEntity
  8
AM_6
100
AcDbText
 10
6.2336
 20
-0.4350000000000002
 30
0.0
 40
0.5
  1
128170HL
100
AcDbAttributeDefinition
  3

  2
NB
 70
     8
280
     0
  0
ATTDEF
  5
13F
330
138
100
AcDbEntity
  8
AM_6
100
AcDbText
 10
6.2336
 20
-0.9350000000000002
 30
0.0
 40
0.5
  1
$PN.HL
100
AcDbAttributeDefinition
  3

  2
NBSYN
 70
     8
280
     0
  0
ATTDEF
  5
140
330
138
100
AcDbEntity
  8
AM_6
100
AcDbText
 10
6.2336
 20
-1.435
 30
0.0
 40
0.5
  1
128170
100
AcDbAttributeDefinition
  3

  2
LINA
 70
     8
280
     0
  0
ATTDEF
  5
141
330
138
100
AcDbEntity
  8
AM_6
100
AcDbText
 10
6.2336
 20
-1.935
 30
0.0
 40
0.5
  1
205
100
AcDbAttributeDefinition
  3

  2
SERIES
 70
     8
280
     0
  0
ATTDEF
  5
142
330
138
100
AcDbEntity
  8
AM_6
100
AcDbText
 10
6.2336
 20
-2.435
 30
0.0
 40
0.5
  1
7/8
100
AcDbAttributeDefinition
  3

  2
SS
 70
     8
280
     0
  0
ATTDEF
  5
143
330
138
100
AcDbEntity
  8
AM_6
100
AcDbText
 10
6.2336
 20
-2.935
 30
0.0
 40
0.5
  1
128170
100
AcDbAttributeDefinition
  3

  2
PN
 70
     8
280
     0
  0
ATTDEF
  5
144
330
138
100
AcDbEntity
  8
AM_6
100
AcDbText
 10
6.2336
 20
-3.435
 30
0.0
 40
0.5
  1
P2B-SL-014
100
AcDbAttributeDefinition
  3

  2
DESCRIPTION
 70
     8
280
     0
  0
ATTDEF
  5
145
330
138
100
AcDbEntity
  8
AM_6
100
AcDbText
 10
6.2336
 20
-3.935
 30
0.0
 40
0.5
  1
0.79
100
AcDbAttributeDefinition
  3

  2
W
 70
     8
280
     0
  0
ATTDEF
  5
146
330
138
100
AcDbEntity
  8
AM_6
100
AcDbText
 10
6.2336
 20
-4.435
 30
0.0
 40
0.5
  1
1.06
100
AcDbAttributeDefinition
  3

  2
A
 70
     8
280
     0
  0
ATTDEF
  5
147
330
138
100
AcDbEntity
  8
AM_6
100
AcDbText
 10
6.2336
 20
-4.935
 30
0.0
 40
0.5
  1
4.50
100
AcDbAttributeDefinition
  3

  2
B
 70
     8
280
     0
  0
ATTDEF
  5
148
330
138
100
AcDbEntity
  8
AM_6
100
AcDbText
 10
6.2336
 20
-5.435
 30
0.0
 40
0.5
  1
1.13
100
AcDbAttributeDefinition
  3

  2
C
 70
     8
280
     0
  0
ATTDEF
  5
149
330
138
100
AcDbEntity
  8
AM_6
100
AcDbText
 10
6.2336
 20
-5.935
 30
0.0
 40
0.5
  1
3.38
100
AcDbAttributeDefinition
  3

  2
D
 70
     8
280
     0
  0
ATTDEF
  5
14A
330
138
100
AcDbEntity
  8
AM_6
100
AcDbText
 10
6.2336
 20
-6.435
 30
0.0
 40
0.5
  1
3/8
100
AcDbAttributeDefinition
  3

  2
F
 70
     8
280
     0
  0
ATTDEF
  5
14B
330
138
100
AcDbEntity
  8
AM_6
100
AcDbText
 10
6.2336
 20
-6.935
 30
0.0
 40
0.5
  1
0.56
100
AcDbAttributeDefinition
  3

  2
G
 70
     8
280
     0
  0
ATTDEF
  5
14C
330
138
100
AcDbEntity
  8
AM_6
100
AcDbText
 10
6.2336
 20
-7.435
 30
0.0
 40
0.5
  1
0.21
100
AcDbAttributeDefinition
  3

  2
H
 70
     8
280
     0
  0
ATTDEF
  5
14D
330
138
100
AcDbEntity
  8
AM_6
100
AcDbText
 10
6.2336
 20
-7.935
 30
0.0
 40
0.5
  1
2.22
100
AcDbAttributeDefinition
  3

  2
J
 70
     8
280
     0
  0
ATTDEF
  5
14E
330
138
100
AcDbEntity
  8
AM_6
100
AcDbText
 10
6.2336
 20
-8.435
 30
0.0
 40
0.5
  1
1.32
100
AcDbAttributeDefinition
  3

  2
L
 70
     8
280
     0
  0
ATTDEF
  5
14F
330
138
100
AcDbEntity
  8
AM_6
100
AcDbText
 10
6.2336
 20
-8.935
 30
0.0
 40
0.5
  1
1.13
100
AcDbAttributeDefinition
  3

  2
M
 70
     8
280
     0
  0
ATTDEF
  5
150
330
138
100
AcDbEntity
  8
AM_6
100
AcDbText
 10
6.2336
 20
-9.435
 30
0.0
 40
0.5
  1
0.30
100
AcDbAttributeDefinition
  3

  2
R
 70
     8
280
     0
  0
ATTDEF
  5
151
330
138
100
AcDbEntity
  8
AM_6
100
AcDbText
 10
6.2336
 20
-9.935
 30
0.0
 40
0.5
  1
0.76
100
AcDbAttributeDefinition
  3

  2
S
 70
     8
280
     0
  0
ATTDEF
  5
152
330
138
100
AcDbEntity
  8
AM_6
100
AcDbText
 10
6.2336
 20
-10.435
 30
0.0
 40
0.5
  1
1565
100
AcDbAttributeDefinition
  3

  2
CAPS
 70
     8
280
     0
  0
ATTDEF
  5
153
330
138
100
AcDbEntity
  8
AM_6
100
AcDbText
 10
6.2336
 20
-10.935
 30
0.0
 40
0.5
  1
3146
100
AcDbAttributeDefinition
  3

  2
CAPD
 70
     8
280
     0
  0
ATTDEF
  5
154
330
138
100
AcDbEntity
  8
AM_6
100
AcDbText
 10
6.2336
 20
-11.435
 30
0.0
 40
0.5
  1
baldor
100
AcDbAttributeDefinition
  3

  2
COMPANY
 70
     8
280
     0
  0
LINE
  5
155
330
138
100
AcDbEntity
  8
AM_9
100
AcDbLine
 10
-1.1986
 20
-0.565
 30
0.0
 11
-1.1986
 21
0.5649999999999998
 31
0.0
  0
LINE
  5
156
330
138
100
AcDbEntity
  8
AM_9
100
AcDbLine
 10
1.1986
 20
-0.565
 30
0.0
 11
1.1986
 21
0.5649999999999998
 31
0.0
  0
LINE
  5
157
330
138
100
AcDbEntity
  8
AM_9
100
AcDbLine
 10
1.2336
 20
-0.565
 30
0.0
 11
1.2336
 21
0.5649999999999998
 31
0.0
  0
LINE
  5
158
330
138
100
AcDbEntity
  8
AM_9
100
AcDbLine
 10
-1.2336
 20
-0.565
 30
0.0
 11
-1.2336
 21
0.5649999999999998
 31
0.0
  0
LINE
  5
159
330
138
100
AcDbEntity
  8
AM_9
100
AcDbLine
 10
-0.8276473580704583
 20
-0.4529439010377558
 30
0.0
 11
-0.8276473580704583
 21
0.4529439010377561
 31
0.0
  0
LINE
  5
15A
330
138
100
AcDbEntity
  8
AM_9
100
AcDbLine
 10
-0.9186
 20
-0.5464840221099344
 30
0.0
 11
-0.9186
 21
0.5464840221099342
 31
0.0
  0
LINE
  5
15B
330
138
100
AcDbEntity
  8
AM_9
100
AcDbLine
 10
0.8276473572938685
 20
-0.4529439009329182
 30
0.0
 11
0.8276473572938685
 21
0.452943900932918
 31
0.0
  0
LINE
  5
15C
330
138
100
AcDbEntity
  8
AM_9
100
AcDbLine
 10
0.9186
 20
-0.5464840221099344
 30
0.0
 11
0.9186
 21
0.5464840221099342
 31
0.0
  0
LINE
  5
15D
330
138
100
AcDbEntity
  8
AM_9
100
AcDbLine
 10
-0.7772885527672743
 20
-0.4519999999999999
 30
0.0
 11
-0.7772885527672743
 21
0.4519999999999998
 31
0.0
  0
LINE
  5
15E
330
138
100
AcDbEntity
  8
AM_9
100
AcDbLine
 10
0.7772885576150838
 20
-0.4520000000000001
 30
0.0
 11
0.7772885576150838
 21
0.4519999999999998
 31
0.0
  0
LWPOLYLINE
  5
15F
330
138
100
AcDbEntity
  8
AM_4
100
AcDbPolyline
 90
        5
 70
     0
 43
0.0
 10
0.9179273778842901
 20
-0.5451341572659794
 10
0.9164962043773334
 20
-0.5360865802715572
 10
0.9142819286246382
 20
-0.5271981670291367
 10
0.9113014026016989
 20
-0.5185365637304632
 10
0.9105221498693893
 20
-0.5166131597584608
  0
LWPOLYLINE
  5
160
330
138
100
AcDbEntity
  8
AM_4
100
AcDbPolyline
 90
        3
 70
     0
 43
0.0
 10
0.9179273778843045
 20
-0.5451341572659794
 10
0.9184602563364658
 20
-0.5458671756324562
 10
0.9185999999999999
 20
-0.5464840221099344
  0
LINE
  5
161
330
138
100
AcDbEntity
  8
AM_4
100
AcDbLine
 10
0.9186
 20
-0.5537201426024956
 30
0.0
 11
0.9186
 21
-0.5464840221099344
 31
0.0
  0
LWPOLYLINE
  5
162
330
138
100
AcDbEntity
  8
AM_4
100
AcDbPolyline
 90
        4
 70
     0
 43
0.0
 10
0.9274911657654809
 20
-0.565
 10
0.9224219147374021
 20
-0.5611495299636627
 10
0.9194545456990589
 20
-0.5572425178035202
 10
0.9186
 20
-0.5537201426024956
  0
LINE
  5
163
330
138
100
AcDbEntity
  8
AM_4
100
AcDbLine
 10
1.051734665205268
 20
-0.565
 30
0.0
 11
0.9274911657654809
 21
-0.565
 31
0.0
  0
LWPOLYLINE
  5
164
330
138
100
AcDbEntity
  8
AM_4
100
AcDbPolyline
 90
        7
 70
     0
 43
0.0
 10
1.051734665205268
 20
-0.565
 10
1.043275364722304
 20
-0.5623814350817922
 10
1.036264549634959
 20
-0.559654029235106
 10
1.030755576479296
 20
-0.5568385396652874
 10
1.026790371867436
 20
-0.5539563939480018
 10
1.024399113400734
 20
-0.5510295269524448
 10
1.0236
 20
-0.5480802139037433
  0
LINE
  5
165
330
138
100
AcDbEntity
  8
AM_4
100
AcDbLine
 10
1.0236
 20
-0.5387518195007844
 30
0.0
 11
1.0236
 21
-0.5480802139037433
 31
0.0
  0
LWPOLYLINE
  5
166
330
138
100
AcDbEntity
  8
AM_4
100
AcDbPolyline
 90
        5
 70
     0
 43
0.0
 10
-0.9105221498693896
 20
-0.5166131597584603
 10
-0.9136732768860217
 20
-0.5252141658392663
 10
-0.9160627858396547
 20
-0.5340570813108468
 10
-0.9176724911243263
 20
-0.5430746062469648
 10
-0.9179273778842956
 20
-0.5451341572660255
  0
LINE
  5
167
330
138
100
AcDbEntity
  8
AM_4
100
AcDbLine
 10
-1.0236
 20
-0.5480802139037433
 30
0.0
 11
-1.0236
 21
-0.5387518195007844
 31
0.0
  0
LWPOLYLINE
  5
168
330
138
100
AcDbEntity
  8
AM_4
100
AcDbPolyline
 90
        7
 70
     0
 43
0.0
 10
-1.0236
 20
-0.5480802139037433
 10
-1.024399113400734
 20
-0.5510295269524448
 10
-1.026790371867436
 20
-0.5539563939480017
 10
-1.030755576479296
 20
-0.5568385396652874
 10
-1.036264549634959
 20
-0.559654029235106
 10
-1.043275364722303
 20
-0.5623814350817922
 10
-1.051734665205268
 20
-0.565
  0
LINE
  5
169
330
138
100
AcDbEntity
  8
AM_4
100
AcDbLine
 10
-0.9274911657654806
 20
-0.565
 30
0.0
 11
-1.051734665205268
 21
-0.565
 31
0.0
  0
LWPOLYLINE
  5
16A
330
138
100
AcDbEntity
  8
AM_4
100
AcDbPolyline
 90
        4
 70
     0
 43
0.0
 10
-0.9186
 20
-0.5537201426024956
 10
-0.9196654845343113
 20
-0.5576525600007641
 10
-0.9228538291565817
 20
-0.5615550493281735
 10
-0.9274911657654807
 20
-0.565
  0
LINE
  5
16B
330
138
100
AcDbEntity
  8
AM_4
100
AcDbLine
 10
-0.9186
 20
-0.5464840221099344
 30
0.0
 11
-0.9186
 21
-0.5537201426024956
 31
0.0
  0
LWPOLYLINE
  5
16C
330
138
100
AcDbEntity
  8
AM_4
100
AcDbPolyline
 90
        3
 70
     0
 43
0.0
 10
-0.9186
 20
-0.5464840221099344
 10
-0.9184002216498166
 20
-0.545746693847759
 10
-0.9179273778843511
 20
-0.5451341572660257
  0
LWPOLYLINE
  5
16D
330
138
100
AcDbEntity
  8
AM_4
100
AcDbPolyline
 90
        5
 70
     0
 43
0.0
 10
0.9105221498693893
 20
0.5166131597584601
 10
0.9136732768860216
 20
0.5252141658392661
 10
0.9160627858396545
 20
0.5340570813108466
 10
0.9176724911243261
 20
0.5430746062469646
 10
0.9179273778842912
 20
0.5451341572659878
  0
LINE
  5
16E
330
138
100
AcDbEntity
  8
AM_4
100
AcDbLine
 10
1.0236
 20
0.5480802139037432
 30
0.0
 11
1.0236
 21
0.5387518195007841
 31
0.0
  0
LWPOLYLINE
  5
16F
330
138
100
AcDbEntity
  8
AM_4
100
AcDbPolyline
 90
        7
 70
     0
 43
0.0
 10
1.0236
 20
0.5480802139037431
 10
1.024399113400734
 20
0.5510295269524446
 10
1.026790371867436
 20
0.5539563939480016
 10
1.030755576479296
 20
0.5568385396652872
 10
1.036264549634959
 20
0.5596540292351058
 10
1.043275364722303
 20
0.562381435081792
 10
1.051734665205268
 20
0.5649999999999997
  0
LINE
  5
170
330
138
100
AcDbEntity
  8
AM_4
100
AcDbLine
 10
1.051734665205268
 20
0.5649999999999998
 30
0.0
 11
0.9274911657654809
 21
0.5649999999999998
 31
0.0
  0
LWPOLYLINE
  5
171
330
138
100
AcDbEntity
  8
AM_4
100
AcDbPolyline
 90
        4
 70
     0
 43
0.0
 10
0.9186
 20
0.5537201426024954
 10
0.9196654845343113
 20
0.5576525600007641
 10
0.9228538291565818
 20
0.5615550493281734
 10
0.9274911657654809
 20
0.5649999999999998
  0
LINE
  5
172
330
138
100
AcDbEntity
  8
AM_4
100
AcDbLine
 10
0.9186
 20
0.5464840221099342
 30
0.0
 11
0.9186
 21
0.5537201426024954
 31
0.0
  0
LWPOLYLINE
  5
173
330
138
100
AcDbEntity
  8
AM_4
100
AcDbPolyline
 90
        3
 70
     0
 43
0.0
 10
0.9185999999999999
 20
0.5464840221099342
 10
0.9184002216498165
 20
0.5457466938477589
 10
0.9179273778843131
 20
0.5451341572659878
  0
LWPOLYLINE
  5
174
330
138
100
AcDbEntity
  8
AM_4
100
AcDbPolyline
 90
        5
 70
     0
 43
0.0
 10
-0.9179273778842849
 20
0.5451341572659328
 10
-0.9164962043773243
 20
0.5360865802715113
 10
-0.9142819286246251
 20
0.5271981670290918
 10
-0.9113014026016819
 20
0.5185365637304197
 10
-0.9105221498693892
 20
0.5166131597584598
  0
LWPOLYLINE
  5
175
330
138
100
AcDbEntity
  8
AM_4
100
AcDbPolyline
 90
        3
 70
     0
 43
0.0
 10
-0.9179273778842582
 20
0.5451341572659328
 10
-0.9184602563364448
 20
0.5458671756324093
 10
-0.9186
 20
0.5464840221099342
  0
LINE
  5
176
330
138
100
AcDbEntity
  8
AM_4
100
AcDbLine
 10
-0.9186
 20
0.5537201426024954
 30
0.0
 11
-0.9186
 21
0.5464840221099342
 31
0.0
  0
LWPOLYLINE
  5
177
330
138
100
AcDbEntity
  8
AM_4
100
AcDbPolyline
 90
        4
 70
     0
 43
0.0
 10
-0.9274911657654807
 20
0.5649999999999998
 10
-0.922421914737402
 20
0.5611495299636626
 10
-0.9194545456990588
 20
0.5572425178035202
 10
-0.9186
 20
0.5537201426024955
  0
LINE
  5
178
330
138
100
AcDbEntity
  8
AM_4
100
AcDbLine
 10
-0.9274911657654806
 20
0.5649999999999998
 30
0.0
 11
-1.051734665205268
 21
0.5649999999999998
 31
0.0
  0
LWPOLYLINE
  5
179
330
138
100
AcDbEntity
  8
AM_4
100
AcDbPolyline
 90
        7
 70
     0
 43
0.0
 10
-1.051734665205268
 20
0.5649999999999997
 10
-1.043275364722304
 20
0.562381435081792
 10
-1.036264549634959
 20
0.5596540292351059
 10
-1.030755576479296
 20
0.5568385396652872
 10
-1.026790371867436
 20
0.5539563939480016
 10
-1.024399113400734
 20
0.5510295269524447
 10
-1.0236
 20
0.5480802139037431
  0
LINE
  5
17A
330
138
100
AcDbEntity
  8
AM_4
100
AcDbLine
 10
-1.0236
 20
0.5387518195007844
 30
0.0
 11
-1.0236
 21
0.5480802139037431
 31
0.0
  0
LWPOLYLINE
  5
17B
330
138
100
AcDbEntity
  8
AM_4
100
AcDbPolyline
 90
       10
 70
     0
 43
0.0
 10
-0.8136
 20
-0.4519999999999999
 10
-0.8269408635130873
 20
-0.4528509656274951
 10
-0.8410955111410484
 20
-0.4556639409336809
 10
-0.8548440963140882
 20
-0.4604395292097524
 10
-0.8684478899904378
 20
-0.467463923675443
 10
-0.8803254586220871
 20
-0.4759277287127578
 10
-0.8911748964989767
 20
-0.4862388847376393
 10
-0.900930170078305
 20
-0.4987038475189451
 10
-0.9088539853091548
 20
-0.5128221969454867
 10
-0.9105221498693896
 20
-0.5166131597584603
  0
LWPOLYLINE
  5
17C
330
138
100
AcDbEntity
  8
AM_4
100
AcDbPolyline
 90
        9
 70
     0
 43
0.0
 10
-0.910522149869389
 20
0.5166131597584596
 10
-0.9081994006703351
 20
0.5114373684603991
 10
-0.8993968013792794
 20
0.4964697689325035
 10
-0.8878683424259767
 20
0.4827759249751276
 10
-0.8747179213385927
 20
0.4716208474435965
 10
-0.8594457402839142
 20
0.4625374778135798
 10
-0.8453821074265531
 20
0.4569255394842067
 10
-0.8306374104185814
 20
0.4533914740659397
 10
-0.8136000000000002
 20
0.4519999999999998
  0
LWPOLYLINE
  5
17D
330
138
100
AcDbEntity
  8
AM_4
100
AcDbPolyline
 90
       17
 70
     0
 43
0.0
 10
-0.910522149869369
 20
0.5166131597584596
 10
-0.9223937721864295
 20
0.5170755080802844
 10
-0.9339701504728312
 20
0.5177028262205338
 10
-0.945163181499806
 20
0.5184903399093755
 10
-0.9558876795427022
 20
0.5194320556921238
 10
-0.966062024695784
 20
0.5205208065430483
 10
-0.975608784048999
 20
0.5217483064107677
 10
-0.9844553009991784
 20
0.5231052132801043
 10
-0.9925342482106584
 20
0.5245812002704592
 10
-0.9997841400169577
 20
0.5261650342296107
 10
-1.006149800363826
 20
0.5278446612247847
 10
-1.011582782732333
 20
0.5296072982803611
 10
-1.01604173884613
 20
0.531439530664038
 10
-1.0194927333568
 20
0.5333274139810431
 10
-1.021909502112348
 20
0.5352565802993992
 10
-1.023273652043261
 20
0.5372123474985608
 10
-1.0236
 20
0.5387518195007843
  0
LWPOLYLINE
  5
17E
330
138
100
AcDbEntity
  8
AM_4
100
AcDbPolyline
 90
       17
 70
     0
 43
0.0
 10
-1.0236
 20
-0.5387518195007844
 10
-1.023067257732844
 20
-0.5367856108016502
 10
-1.021473085421709
 20
-0.5348343661379454
 10
-1.01882961568047
 20
-0.5329129356597551
 10
-1.015156966910027
 20
-0.5310359426132093
 10
-1.010483090185131
 20
-0.5292176720487519
 10
-1.004843556529821
 20
-0.5274719621032801
 10
-0.9982812862004591
 20
-0.5258120986835673
 10
-0.9908462220366571
 20
-0.5242507143524907
 10
-0.9825949493661168
 20
-0.5227996921875991
 10
-0.9735902653561157
 20
-0.5214700753437189
 10
-0.9639007010891467
 20
-0.5202719830078764
 10
-0.9536000000000003
 20
-0.5192145333861752
 10
-0.9427665566436981
 20
-0.518305774308742
 10
-0.9314828200655939
 20
-0.5175526219808799
 10
-0.9198346663143532
 20
-0.5169608083465698
 10
-0.9105221498693864
 20
-0.5166131597584603
  0
LWPOLYLINE
  5
17F
330
138
100
AcDbEntity
  8
AM_4
100
AcDbPolyline
 90
        9
 70
     0
 43
0.0
 10
0.9105221498693895
 20
-0.5166131597584608
 10
0.9081994006703348
 20
-0.5114373684603991
 10
0.899396801379279
 20
-0.4964697689325035
 10
0.8878683424259761
 20
-0.4827759249751276
 10
0.8747179213385922
 20
-0.4716208474435966
 10
0.8594457402839135
 20
-0.46253747781358
 10
0.8453821074265523
 20
-0.4569255394842068
 10
0.8306374104185805
 20
-0.45339147406594
 10
0.8136
 20
-0.4520000000000002
  0
LWPOLYLINE
  5
180
330
138
100
AcDbEntity
  8
AM_4
100
AcDbPolyline
 90
       17
 70
     0
 43
0.0
 10
0.9105221498694027
 20
-0.5166131597584608
 10
0.9223937721864626
 20
-0.517075508080286
 10
0.933970150472863
 20
-0.5177028262205359
 10
0.9451631814998369
 20
-0.5184903399093781
 10
0.9558876795427317
 20
-0.5194320556921268
 10
0.9660620246958118
 20
-0.5205208065430518
 10
0.975608784049025
 20
-0.5217483064107716
 10
0.9844553009992023
 20
-0.5231052132801084
 10
0.9925342482106799
 20
-0.5245812002704636
 10
0.9997841400169769
 20
-0.5261650342296155
 10
1.006149800363843
 20
-0.5278446612247897
 10
1.011582782732347
 20
-0.5296072982803663
 10
1.016041738846142
 20
-0.5314395306640434
 10
1.019492733356808
 20
-0.5333274139810487
 10
1.021909502112354
 20
-0.5352565802994048
 10
1.023273652043263
 20
-0.5372123474985665
 10
1.0236
 20
-0.5387518195007844
  0
LWPOLYLINE
  5
181
330
138
100
AcDbEntity
  8
AM_4
100
AcDbPolyline
 90
       17
 70
     0
 43
0.0
 10
1.0236
 20
0.5387518195007841
 10
1.023067257732845
 20
0.5367856108016498
 10
1.021473085421709
 20
0.5348343661379452
 10
1.01882961568047
 20
0.5329129356597547
 10
1.015156966910027
 20
0.531035942613209
 10
1.010483090185131
 20
0.5292176720487516
 10
1.004843556529821
 20
0.5274719621032797
 10
0.9982812862004591
 20
0.525812098683567
 10
0.9908462220366572
 20
0.5242507143524904
 10
0.9825949493661169
 20
0.5227996921875989
 10
0.9735902653561158
 20
0.5214700753437186
 10
0.9639007010891469
 20
0.520271983007876
 10
0.9536000000000004
 20
0.5192145333861748
 10
0.9427665566436985
 20
0.5183057743087417
 10
0.9314828200655941
 20
0.5175526219808796
 10
0.9198346663143535
 20
0.5169608083465695
 10
0.9105221498693845
 20
0.5166131597584599
  0
LWPOLYLINE
  5
182
330
138
100
AcDbEntity
  8
AM_4
100
AcDbPolyline
 90
       10
 70
     0
 43
0.0
 10
0.8136
 20
0.4519999999999998
 10
0.8269408635130872
 20
0.4528509656274951
 10
0.8410955111410484
 20
0.4556639409336809
 10
0.8548440963140883
 20
0.4604395292097525
 10
0.8684478899904379
 20
0.4674639236754431
 10
0.8803254586220871
 20
0.475927728712758
 10
0.8911748964989767
 20
0.4862388847376394
 10
0.9009301700783049
 20
0.4987038475189454
 10
0.9088539853091548
 20
0.5128221969454869
 10
0.9105221498693892
 20
0.5166131597584599
  0
ENDBLK
  5
13B
330
138
100
AcDbEntity
  8
0
100
AcDbBlockEnd
  0
ENDSEC
  0
SECTION
  2
ENTITIES
  0
INSERT
  5
6F
330
1F
100
AcDbEntity
  8
0
100
AcDbBlockReference
  2
1_128170_4
 10
0.0
 20
0.0
 30
0.0
  0
POINT
  5
184
330
1F
100
AcDbEntity
  8
ConnectionPoints
100
AcDbPoint
 10
0.0
 20
-0.76
 30
0.0
  0
POINT
  5
185
330
1F
100
AcDbEntity
  8
ConnectionPoints
100
AcDbPoint
 10
0.0
 20
0.0
 30
0.0
  0
POINT
  5
186
330
1F
100
AcDbEntity
  8
ConnectionPoints
100
AcDbPoint
 10
0.0
 20
-0.76
 30
0.0
  0
ENDSEC
  0
SECTION
  2
OBJECTS
  0
DICTIONARY
  5
C
330
0
100
AcDbDictionary
281
     1
  3
ACAD_DETAILVIEWSTYLE
350
18E
  3
ACAD_GROUP
350
D
  3
ACAD_LAYOUT
350
1A
  3
ACAD_MATERIAL
350
43
  3
ACAD_MLEADERSTYLE
350
6B
  3
ACAD_MLINESTYLE
350
17
  3
ACAD_PLOTSETTINGS
350
19
  3
ACAD_PLOTSTYLENAME
350
E
  3
ACAD_SCALELIST
350
47
  3
ACAD_SECTIONVIEWSTYLE
350
18F
  3
ACAD_TABLESTYLE
350
69
  3
ACAD_VISUALSTYLE
350
2A
  3
ACDB_RECOMPOSE_DATA
350
18B
  3
AcDbVariableDictionary
350
187
  0
SUN
  5
6D
330
29
100
AcDbSun
 90
        1
290
     0
 63
     7
421
 16777215
 40
1.0
291
     1
 91
  2455826
 92
 54000000
292
     0
 70
     2
 71
   256
280
     1
  0
DICTIONARY
  5
18E
102
{ACAD_REACTORS
330
C
102
}
330
C
100
AcDbDictionary
281
     1
  0
DICTIONARY
  5
D
102
{ACAD_REACTORS
330
C
102
}
330
C
100
AcDbDictionary
281
     1
  0
DICTIONARY
  5
1A
102
{ACAD_REACTORS
330
C
102
}
330
C
100
AcDbDictionary
281
     1
  3
Layout1
350
1E
  3
Layout2
350
26
  3
Model
350
22
  0
DICTIONARY
  5
43
102
{ACAD_REACTORS
330
C
102
}
330
C
100
AcDbDictionary
281
     1
  3
ByBlock
350
45
  3
ByLayer
350
44
  3
Global
350
46
  0
DICTIONARY
  5
6B
102
{ACAD_REACTORS
330
C
102
}
330
C
100
AcDbDictionary
281
     1
  3
Standard
350
6C
  0
DICTIONARY
  5
17
102
{ACAD_REACTORS
330
C
102
}
330
C
100
AcDbDictionary
281
     1
  3
Standard
350
18
  0
DICTIONARY
  5
19
102
{ACAD_REACTORS
330
C
102
}
330
C
100
AcDbDictionary
281
     1
  0
ACDBDICTIONARYWDFLT
  5
E
102
{ACAD_REACTORS
330
C
102
}
330
C
100
AcDbDictionary
281
     1
  3
Normal
350
F
100
AcDbDictionaryWithDefault
340
F
  0
DICTIONARY
  5
47
102
{ACAD_REACTORS
330
C
102
}
330
C
100
AcDbDictionary
281
     1
  3
A0
350
48
  3
A1
350
49
  3
A2
350
4A
  3
A3
350
4B
  3
A4
350
4C
  3
A5
350
4D
  3
A6
350
4E
  3
A7
350
4F
  3
A8
350
50
  3
A9
350
51
  3
B0
350
52
  3
B1
350
53
  3
B2
350
54
  3
B3
350
55
  3
B4
350
56
  3
B5
350
57
  3
B6
350
58
  3
B7
350
59
  3
B8
350
5A
  3
B9
350
5B
  3
C0
350
5C
  3
C1
350
5D
  3
C2
350
5E
  3
C3
350
5F
  3
C4
350
60
  3
C5
350
61
  3
C6
350
62
  3
C7
350
63
  3
C8
350
64
  3
C9
350
65
  3
D0
350
66
  3
D1
350
67
  3
D2
350
68
  0
DICTIONARY
  5
18F
102
{ACAD_REACTORS
330
C
102
}
330
C
100
AcDbDictionary
281
     1
  0
DICTIONARY
  5
69
102
{ACAD_REACTORS
330
C
102
}
330
C
100
AcDbDictionary
281
     1
  3
Standard
350
6A
  0
DICTIONARY
  5
2A
102
{ACAD_REACTORS
330
C
102
}
330
C
100
AcDbDictionary
281
     1
  3
2dWireframe
350
2F
  3
Basic
350
32
  3
Brighten
350
36
  3
ColorChange
350
3A
  3
Conceptual
350
34
  3
Dim
350
35
  3
EdgeColorOff
350
3D
  3
Facepattern
350
39
  3
Flat
350
2B
  3
FlatWithEdges
350
2C
  3
Gouraud
350
2D
  3
GouraudWithEdges
350
2E
  3
Hidden
350
31
  3
JitterOff
350
3B
  3
Linepattern
350
38
  3
OverhangOff
350
3C
  3
Realistic
350
33
  3
Shaded
350
42
  3
Shaded with edges
350
41
  3
Shades of Gray
350
3E
  3
Sketchy
350
3F
  3
Thicken
350
37
  3
Wireframe
350
30
  3
X-Ray
350
40
  0
XRECORD
  5
18B
102
{ACAD_REACTORS
330
C
102
}
330
C
100
AcDbXrecord
280
     1
 90
        1
330
6A
  0
DICTIONARY
  5
187
102
{ACAD_REACTORS
330
C
102
}
330
C
100
AcDbDictionary
281
     1
  3
CANNOSCALE
350
188
  3
CMLEADERSTYLE
350
18D
  3
CTABLESTYLE
350
18C
  0
LAYOUT
  5
1E
102
{ACAD_REACTORS
330
1A
102
}
330
1A
100
AcDbPlotSettings
  1

  2
none_device
  4

  6

 40
0.0
 41
0.0
 42
0.0
 43
0.0
 44
0.0
 45
0.0
 46
0.0
 47
0.0
 48
0.0
 49
0.0
140
0.0
141
0.0
142
1.0
143
1.0
 70
   688
 72
     0
 73
     0
 74
     5
  7

 75
    16
 76
     0
 77
     2
 78
   300
147
1.0
148
0.0
149
0.0
100
AcDbLayout
  1
Layout1
 70
     1
 71
     1
 10
0.0
 20
0.0
 11
12.0
 21
9.0
 12
0.0
 22
0.0
 32
0.0
 14
1.000000000000000E+20
 24
1.000000000000000E+20
 34
1.000000000000000E+20
 15
-1.000000000000000E+20
 25
-1.000000000000000E+20
 35
-1.000000000000000E+20
146
0.0
 13
0.0
 23
0.0
 33
0.0
 16
1.0
 26
0.0
 36
0.0
 17
0.0
 27
1.0
 37
0.0
 76
     0
330
1B
  0
LAYOUT
  5
26
102
{ACAD_REACTORS
330
1A
102
}
330
1A
100
AcDbPlotSettings
  1

  2
none_device
  4

  6

 40
0.0
 41
0.0
 42
0.0
 43
0.0
 44
0.0
 45
0.0
 46
0.0
 47
0.0
 48
0.0
 49
0.0
140
0.0
141
0.0
142
1.0
143
1.0
 70
   688
 72
     0
 73
     0
 74
     5
  7

 75
    16
 76
     0
 77
     2
 78
   300
147
1.0
148
0.0
149
0.0
100
AcDbLayout
  1
Layout2
 70
     1
 71
     2
 10
0.0
 20
0.0
 11
0.0
 21
0.0
 12
0.0
 22
0.0
 32
0.0
 14
0.0
 24
0.0
 34
0.0
 15
0.0
 25
0.0
 35
0.0
146
0.0
 13
0.0
 23
0.0
 33
0.0
 16
1.0
 26
0.0
 36
0.0
 17
0.0
 27
1.0
 37
0.0
 76
     0
330
23
  0
LAYOUT
  5
22
102
{ACAD_REACTORS
330
1A
102
}
330
1A
100
AcDbPlotSettings
  1

  2
none_device
  4
Letter_(8.50_x_11.00_Inches)
  6

 40
6.35
 41
6.35
 42
6.35000508
 43
6.35000508
 44
215.9
 45
279.4
 46
0.0
 47
0.0
 48
0.0
 49
0.0
140
0.0
141
0.0
142
1.0
143
1.0
 70
  1712
 72
     0
 73
     0
 74
     0
  7

 75
     0
 76
     0
 77
     2
 78
   300
147
1.0
148
0.0
149
0.0
100
AcDbLayout
  1
Model
 70
     1
 71
     0
 10
0.0
 20
0.0
 11
12.0
 21
9.0
 12
0.0
 22
0.0
 32
0.0
 14
1.000000000000000E+20
 24
1.000000000000000E+20
 34
1.000000000000000E+20
 15
-1.000000000000000E+20
 25
-1.000000000000000E+20
 35
-1.000000000000000E+20
146
0.0
 13
0.0
 23
0.0
 33
0.0
 16
1.0
 26
0.0
 36
0.0
 17
0.0
 27
1.0
 37
0.0
 76
     0
330
1F
331
29
  0
MATERIAL
  5
45
102
{ACAD_REACTORS
330
43
102
}
330
43
100
AcDbMaterial
  1
ByBlock
 72
     1
 94
      127
  0
MATERIAL
  5
44
102
{ACAD_REACTORS
330
43
102
}
330
43
100
AcDbMaterial
  1
ByLayer
 72
     1
 94
      127
  0
MATERIAL
  5
46
102
{ACAD_REACTORS
330
43
102
}
330
43
100
AcDbMaterial
  1
Global
 72
     1
 94
      127
  0
MLEADERSTYLE
  5
6C
102
{ACAD_REACTORS
330
6B
102
}
330
6B
100
AcDbMLeaderStyle
179
     2
170
     2
171
     1
172
     0
 90
        2
 40
0.0
 41
0.0
173
     1
 91
-1056964608
340
14
 92
       -2
290
     1
 42
0.09
291
     1
 43
0.36
  3
Standard
341
0
 44
0.18
300

342
11
174
     1
178
     6
175
     1
176
     0
 93
-1056964608
 45
0.18
292
     0
297
     0
 46
0.18
343
0
 94
-1056964608
 47
1.0
 49
1.0
140
1.0
293
     1
141
0.0
294
     1
177
     0
142
1.0
295
     0
296
     0
143
0.125
271
     0
272
     9
273
     9
298
     0
  0
MLINESTYLE
  5
18
102
{ACAD_REACTORS
330
17
102
}
330
17
100
AcDbMlineStyle
  2
Standard
 70
     0
  3

 62
   256
 51
90.0
 52
90.0
 71
     2
 49
0.5
 62
   256
  6
BYLAYER
 49
-0.5
 62
   256
  6
BYLAYER
  0
ACDBPLACEHOLDER
  5
F
102
{ACAD_REACTORS
330
E
102
}
330
E
  0
SCALE
  5
48
102
{ACAD_REACTORS
330
47
102
}
330
47
100
AcDbScale
 70
     0
300
1:1
140
1.0
141
1.0
290
     1
  0
SCALE
  5
49
102
{ACAD_REACTORS
330
47
102
}
330
47
100
AcDbScale
 70
     0
300
1:2
140
1.0
141
2.0
290
     0
  0
SCALE
  5
4A
102
{ACAD_REACTORS
330
47
102
}
330
47
100
AcDbScale
 70
     0
300
1:4
140
1.0
141
4.0
290
     0
  0
SCALE
  5
4B
102
{ACAD_REACTORS
330
47
102
}
330
47
100
AcDbScale
 70
     0
300
1:5
140
1.0
141
5.0
290
     0
  0
SCALE
  5
4C
102
{ACAD_REACTORS
330
47
102
}
330
47
100
AcDbScale
 70
     0
300
1:8
140
1.0
141
8.0
290
     0
  0
SCALE
  5
4D
102
{ACAD_REACTORS
330
47
102
}
330
47
100
AcDbScale
 70
     0
300
1:10
140
1.0
141
10.0
290
     0
  0
SCALE
  5
4E
102
{ACAD_REACTORS
330
47
102
}
330
47
100
AcDbScale
 70
     0
300
1:16
140
1.0
141
16.0
290
     0
  0
SCALE
  5
4F
102
{ACAD_REACTORS
330
47
102
}
330
47
100
AcDbScale
 70
     0
300
1:20
140
1.0
141
20.0
290
     0
  0
SCALE
  5
50
102
{ACAD_REACTORS
330
47
102
}
330
47
100
AcDbScale
 70
     0
300
1:30
140
1.0
141
30.0
290
     0
  0
SCALE
  5
51
102
{ACAD_REACTORS
330
47
102
}
330
47
100
AcDbScale
 70
     0
300
1:40
140
1.0
141
40.0
290
     0
  0
SCALE
  5
52
102
{ACAD_REACTORS
330
47
102
}
330
47
100
AcDbScale
 70
     0
300
1:50
140
1.0
141
50.0
290
     0
  0
SCALE
  5
53
102
{ACAD_REACTORS
330
47
102
}
330
47
100
AcDbScale
 70
     0
300
1:100
140
1.0
141
100.0
290
     0
  0
SCALE
  5
54
102
{ACAD_REACTORS
330
47
102
}
330
47
100
AcDbScale
 70
     0
300
2:1
140
2.0
141
1.0
290
     0
  0
SCALE
  5
55
102
{ACAD_REACTORS
330
47
102
}
330
47
100
AcDbScale
 70
     0
300
4:1
140
4.0
141
1.0
290
     0
  0
SCALE
  5
56
102
{ACAD_REACTORS
330
47
102
}
330
47
100
AcDbScale
 70
     0
300
8:1
140
8.0
141
1.0
290
     0
  0
SCALE
  5
57
102
{ACAD_REACTORS
330
47
102
}
330
47
100
AcDbScale
 70
     0
300
10:1
140
10.0
141
1.0
290
     0
  0
SCALE
  5
58
102
{ACAD_REACTORS
330
47
102
}
330
47
100
AcDbScale
 70
     0
300
100:1
140
100.0
141
1.0
290
     0
  0
SCALE
  5
59
102
{ACAD_REACTORS
330
47
102
}
330
47
100
AcDbScale
 70
     0
300
1/128" = 1'-0"
140
0.0078125
141
12.0
290
     0
  0
SCALE
  5
5A
102
{ACAD_REACTORS
330
47
102
}
330
47
100
AcDbScale
 70
     0
300
1/64" = 1'-0"
140
0.015625
141
12.0
290
     0
  0
SCALE
  5
5B
102
{ACAD_REACTORS
330
47
102
}
330
47
100
AcDbScale
 70
     0
300
1/32" = 1'-0"
140
0.03125
141
12.0
290
     0
  0
SCALE
  5
5C
102
{ACAD_REACTORS
330
47
102
}
330
47
100
AcDbScale
 70
     0
300
1/16" = 1'-0"
140
0.0625
141
12.0
290
     0
  0
SCALE
  5
5D
102
{ACAD_REACTORS
330
47
102
}
330
47
100
AcDbScale
 70
     0
300
3/32" = 1'-0"
140
0.09375
141
12.0
290
     0
  0
SCALE
  5
5E
102
{ACAD_REACTORS
330
47
102
}
330
47
100
AcDbScale
 70
     0
300
1/8" = 1'-0"
140
0.125
141
12.0
290
     0
  0
SCALE
  5
5F
102
{ACAD_REACTORS
330
47
102
}
330
47
100
AcDbScale
 70
     0
300
3/16" = 1'-0"
140
0.1875
141
12.0
290
     0
  0
SCALE
  5
60
102
{ACAD_REACTORS
330
47
102
}
330
47
100
AcDbScale
 70
     0
300
1/4" = 1'-0"
140
0.25
141
12.0
290
     0
  0
SCALE
  5
61
102
{ACAD_REACTORS
330
47
102
}
330
47
100
AcDbScale
 70
     0
300
3/8" = 1'-0"
140
0.375
141
12.0
290
     0
  0
SCALE
  5
62
102
{ACAD_REACTORS
330
47
102
}
330
47
100
AcDbScale
 70
     0
300
1/2" = 1'-0"
140
0.5
141
12.0
290
     0
  0
SCALE
  5
63
102
{ACAD_REACTORS
330
47
102
}
330
47
100
AcDbScale
 70
     0
300
3/4" = 1'-0"
140
0.75
141
12.0
290
     0
  0
SCALE
  5
64
102
{ACAD_REACTORS
330
47
102
}
330
47
100
AcDbScale
 70
     0
300
1" = 1'-0"
140
1.0
141
12.0
290
     0
  0
SCALE
  5
65
102
{ACAD_REACTORS
330
47
102
}
330
47
100
AcDbScale
 70
     0
300
1-1/2" = 1'-0"
140
1.5
141
12.0
290
     0
  0
SCALE
  5
66
102
{ACAD_REACTORS
330
47
102
}
330
47
100
AcDbScale
 70
     0
300
3" = 1'-0"
140
3.0
141
12.0
290
     0
  0
SCALE
  5
67
102
{ACAD_REACTORS
330
47
102
}
330
47
100
AcDbScale
 70
     0
300
6" = 1'-0"
140
6.0
141
12.0
290
     0
  0
SCALE
  5
68
102
{ACAD_REACTORS
330
47
102
}
330
47
100
AcDbScale
 70
     0
300
1'-0" = 1'-0"
140
12.0
141
12.0
290
     0
  0
TABLESTYLE
  5
6A
102
{ACAD_REACTORS
330
69
102
}
102
{ACAD_XDICTIONARY
360
189
102
}
330
69
100
AcDbTableStyle
  3
Standard
 70
     0
 71
     0
 40
0.06
 41
0.06
280
     0
281
     0
  7
Standard
140
0.18
170
     2
 62
     0
 63
   257
283
     0
 90
        4
 91
        0
  1

274
    -2
284
     1
 64
     0
275
    -2
285
     1
 65
     0
276
    -2
286
     1
 66
     0
277
    -2
287
     1
 67
     0
278
    -2
288
     1
 68
     0
279
    -2
289
     1
 69
     0
  7
Standard
140
0.25
170
     5
 62
     0
 63
   257
283
     0
 90
        4
 91
        0
  1

274
    -2
284
     1
 64
     0
275
    -2
285
     1
 65
     0
276
    -2
286
     1
 66
     0
277
    -2
287
     1
 67
     0
278
    -2
288
     1
 68
     0
279
    -2
289
     1
 69
     0
  7
Standard
140
0.18
170
     5
 62
     0
 63
   257
283
     0
 90
        4
 91
        0
  1

274
    -2
284
     1
 64
     0
275
    -2
285
     1
 65
     0
276
    -2
286
     1
 66
     0
277
    -2
287
     1
 67
     0
278
    -2
288
     1
 68
     0
279
    -2
289
     1
 69
     0
  0
VISUALSTYLE
  5
2F
102
{ACAD_REACTORS
330
2A
102
}
330
2A
100
AcDbVisualStyle
  2
2dWireframe
 70
     4
177
     3
291
     0
 70
    58
 90
        0
176
     1
 90
        2
176
     1
 90
        0
176
     1
 90
        0
176
     1
 40
0.6
176
     1
 40
30.0
176
     1
 62
     7
420
 16777215
176
     1
 90
        1
176
     1
 90
        4
176
     1
 62
     7
176
     1
 62
   257
176
     1
 90
        1
176
     1
 90
        1
176
     1
 40
1.0
176
     1
 90
        0
176
     1
 62
   257
176
     1
 40
1.0
176
     1
 90
        1
176
     1
 90
        6
176
     1
 90
        2
176
     1
 62
     7
176
     1
 90
        5
176
     1
 90
        0
176
     1
 90
        0
176
     1
290
     0
176
     1
 90
        1
176
     1
 40
0.0
176
     1
 90
        0
176
     1
290
     1
176
     1
290
     1
176
     1
290
     0
176
     1
290
     0
176
     1
290
     0
176
     1
290
     0
176
     1
290
     0
176
     1
290
     0
176
     1
290
     0
176
     1
 90
       50
176
     1
 40
0.0
176
     1
 40
1.0
176
     1
 90
        0
176
     1
 62
    18
420
        0
176
     1
 90
       50
176
     1
 90
        3
176
     1
 62
     5
420
      255
176
     1
290
     0
176
     1
 90
       50
176
     1
 90
       50
176
     1
 90
       50
176
     1
290
     0
176
     1
 90
       50
176
     1
 62
   256
176
     0
 40
1.0
176
     0
 90
        2
176
     1
  1
strokes_ogs.tif
176
     1
290
     0
176
     1
 40
1.0
176
     1
 40
1.0
176
     1
  0
VISUALSTYLE
  5
32
102
{ACAD_REACTORS
330
2A
102
}
330
2A
100
AcDbVisualStyle
  2
Basic
 70
     7
177
     3
291
     1
 70
    58
 90
        1
176
     1
 90
        0
176
     1
 90
        1
176
     1
 90
        0
176
     1
 40
0.6
176
     1
 40
30.0
176
     1
 62
     7
420
 16777215
176
     1
 90
        0
176
     1
 90
        4
176
     1
 62
     7
176
     1
 62
   257
176
     1
 90
        1
176
     1
 90
        1
176
     1
 40
1.0
176
     1
 90
        8
176
     1
 62
     7
176
     1
 40
1.0
176
     1
 90
        1
176
     1
 90
        6
176
     1
 90
        2
176
     1
 62
     7
176
     1
 90
        5
176
     1
 90
        0
176
     1
 90
        0
176
     1
290
     0
176
     1
 90
        1
176
     1
 40
0.0
176
     1
 90
        0
176
     1
290
     0
176
     1
290
     1
176
     1
290
     1
176
     1
290
     0
176
     1
290
     0
176
     1
290
     0
176
     1
290
     0
176
     1
290
     0
176
     1
290
     0
176
     1
 90
       50
176
     1
 40
0.0
176
     1
 40
1.0
176
     1
 90
        0
176
     1
 62
    18
420
        0
176
     1
 90
       50
176
     1
 90
        3
176
     1
 62
     5
420
      255
176
     1
290
     0
176
     1
 90
       50
176
     1
 90
       50
176
     1
 90
       50
176
     1
290
     0
176
     1
 90
       50
176
     1
 62
   256
176
     0
 40
1.0
176
     0
 90
        2
176
     1
  1
strokes_ogs.tif
176
     1
290
     0
176
     1
 40
1.0
176
     1
 40
1.0
176
     1
  0
VISUALSTYLE
  5
36
102
{ACAD_REACTORS
330
2A
102
}
330
2A
100
AcDbVisualStyle
  2
Brighten
 70
    12
177
     3
291
     1
 70
    58
 90
        2
176
     1
 90
        2
176
     1
 90
        0
176
     1
 90
        0
176
     1
 40
0.6
176
     1
 40
30.0
176
     1
 62
     7
420
 16777215
176
     1
 90
        1
176
     1
 90
        4
176
     1
 62
     7
176
     1
 62
   257
176
     1
 90
        1
176
     1
 90
        1
176
     1
 40
1.0
176
     1
 90
        8
176
     1
 62
     7
176
     1
 40
1.0
176
     1
 90
        1
176
     1
 90
        6
176
     1
 90
        2
176
     1
 62
     7
176
     1
 90
        5
176
     1
 90
        0
176
     1
 90
        0
176
     1
290
     0
176
     1
 90
        1
176
     1
 40
50.0
176
     1
 90
        0
176
     1
290
     0
176
     1
290
     1
176
     1
290
     1
176
     1
290
     0
176
     1
290
     0
176
     1
290
     0
176
     1
290
     0
176
     1
290
     0
176
     1
290
     0
176
     1
 90
       50
176
     1
 40
0.0
176
     1
 40
1.0
176
     1
 90
        0
176
     1
 62
    18
420
        0
176
     1
 90
       50
176
     1
 90
        3
176
     1
 62
     5
420
      255
176
     1
290
     0
176
     1
 90
       50
176
     1
 90
       50
176
     1
 90
       50
176
     1
290
     0
176
     1
 90
       50
176
     1
 62
   256
176
     0
 40
1.0
176
     0
 90
        2
176
     1
  1
strokes_ogs.tif
176
     1
290
     0
176
     1
 40
1.0
176
     1
 40
1.0
176
     1
  0
VISUALSTYLE
  5
3A
102
{ACAD_REACTORS
330
2A
102
}
330
2A
100
AcDbVisualStyle
  2
ColorChange
 70
    16
177
     3
291
     1
 70
    58
 90
        2
176
     1
 90
        2
176
     1
 90
        3
176
     1
 90
        0
176
     1
 40
0.6
176
     1
 40
30.0
176
     1
 62
     8
420
  8421504
176
     1
 90
        1
176
     1
 90
        4
176
     1
 62
     7
176
     1
 62
   257
176
     1
 90
        1
176
     1
 90
        1
176
     1
 40
1.0
176
     1
 90
        8
176
     1
 62
     8
420
  8421504
176
     1
 40
1.0
176
     1
 90
        1
176
     1
 90
        6
176
     1
 90
        2
176
     1
 62
     7
176
     1
 90
        5
176
     1
 90
        0
176
     1
 90
        0
176
     1
290
     0
176
     1
 90
        1
176
     1
 40
0.0
176
     1
 90
        0
176
     1
290
     0
176
     1
290
     1
176
     1
290
     1
176
     1
290
     0
176
     1
290
     0
176
     1
290
     0
176
     1
290
     0
176
     1
290
     0
176
     1
290
     0
176
     1
 90
       50
176
     1
 40
0.0
176
     1
 40
1.0
176
     1
 90
        0
176
     1
 62
    18
420
        0
176
     1
 90
       50
176
     1
 90
        3
176
     1
 62
     5
420
      255
176
     1
290
     0
176
     1
 90
       50
176
     1
 90
       50
176
     1
 90
       50
176
     1
290
     0
176
     1
 90
       50
176
     1
 62
   256
176
     0
 40
1.0
176
     0
 90
        2
176
     1
  1
strokes_ogs.tif
176
     1
290
     0
176
     1
 40
1.0
176
     1
 40
1.0
176
     1
  0
VISUALSTYLE
  5
34
102
{ACAD_REACTORS
330
2A
102
}
330
2A
100
AcDbVisualStyle
  2
Conceptual
 70
     9
177
     3
291
     0
 70
    58
 90
        3
176
     1
 90
        2
176
     1
 90
        0
176
     1
 90
        0
176
     1
 40
0.6
176
     1
 40
30.0
176
     1
 62
     7
420
 16777215
176
     1
 90
        2
176
     1
 90
        2
176
     1
 62
     7
176
     1
 62
   257
176
     1
 90
        1
176
     1
 90
        1
176
     1
 40
179.0
176
     1
 90
        8
176
     1
 62
     7
176
     1
 40
1.0
176
     1
 90
        1
176
     1
 90
        6
176
     1
 90
        2
176
     1
 62
     7
176
     1
 90
        3
176
     1
 90
        0
176
     1
 90
        0
176
     1
290
     0
176
     1
 90
        1
176
     1
 40
0.0
176
     1
 90
        0
176
     1
290
     0
176
     1
290
     1
176
     1
290
     1
176
     1
290
     0
176
     1
290
     0
176
     1
290
     0
176
     1
290
     0
176
     1
290
     0
176
     1
290
     0
176
     1
 90
       50
176
     1
 40
0.0
176
     1
 40
1.0
176
     1
 90
        0
176
     1
 62
    18
420
        0
176
     1
 90
       50
176
     1
 90
        3
176
     1
 62
     5
420
      255
176
     1
290
     0
176
     1
 90
       50
176
     1
 90
       50
176
     1
 90
       50
176
     1
290
     0
176
     1
 90
       50
176
     1
 62
   256
176
     0
 40
1.0
176
     0
 90
        2
176
     1
  1
strokes_ogs.tif
176
     1
290
     0
176
     1
 40
1.0
176
     1
 40
1.0
176
     1
  0
VISUALSTYLE
  5
35
102
{ACAD_REACTORS
330
2A
102
}
330
2A
100
AcDbVisualStyle
  2
Dim
 70
    11
177
     3
291
     1
 70
    58
 90
        2
176
     1
 90
        2
176
     1
 90
        0
176
     1
 90
        0
176
     1
 40
0.6
176
     1
 40
30.0
176
     1
 62
     7
420
 16777215
176
     1
 90
        1
176
     1
 90
        4
176
     1
 62
     7
176
     1
 62
   257
176
     1
 90
        1
176
     1
 90
        1
176
     1
 40
1.0
176
     1
 90
        8
176
     1
 62
     7
176
     1
 40
1.0
176
     1
 90
        1
176
     1
 90
        6
176
     1
 90
        2
176
     1
 62
     7
176
     1
 90
        5
176
     1
 90
        0
176
     1
 90
        0
176
     1
290
     0
176
     1
 90
        1
176
     1
 40
-50.0
176
     1
 90
        0
176
     1
290
     0
176
     1
290
     1
176
     1
290
     1
176
     1
290
     0
176
     1
290
     0
176
     1
290
     0
176
     1
290
     0
176
     1
290
     0
176
     1
290
     0
176
     1
 90
       50
176
     1
 40
0.0
176
     1
 40
1.0
176
     1
 90
        0
176
     1
 62
    18
420
        0
176
     1
 90
       50
176
     1
 90
        3
176
     1
 62
     5
420
      255
176
     1
290
     0
176
     1
 90
       50
176
     1
 90
       50
176
     1
 90
       50
176
     1
290
     0
176
     1
 90
       50
176
     1
 62
   256
176
     0
 40
1.0
176
     0
 90
        2
176
     1
  1
strokes_ogs.tif
176
     1
290
     0
176
     1
 40
1.0
176
     1
 40
1.0
176
     1
  0
VISUALSTYLE
  5
3D
102
{ACAD_REACTORS
330
2A
102
}
330
2A
100
AcDbVisualStyle
  2
EdgeColorOff
 70
    22
177
     3
291
     1
 70
    58
 90
        2
176
     0
 90
        2
176
     0
 90
        0
176
     0
 90
        0
176
     0
 40
0.6
176
     0
 40
30.0
176
     0
 62
     7
420
 16777215
176
     0
 90
        1
176
     0
 90
        4
176
     0
 62
     7
176
     0
 62
   257
176
     0
 90
        1
176
     0
 90
        1
176
     0
 40
1.0
176
     0
 90
        8
176
     2
 62
     7
176
     0
 40
1.0
176
     0
 90
        1
176
     0
 90
        6
176
     0
 90
        2
176
     0
 62
     7
176
     0
 90
        5
176
     0
 90
        0
176
     0
 90
        0
176
     0
290
     0
176
     0
 90
        1
176
     0
 40
0.0
176
     0
 90
        0
176
     0
290
     0
176
     0
290
     1
176
     0
290
     1
176
     0
290
     0
176
     0
290
     0
176
     0
290
     0
176
     0
290
     0
176
     0
290
     0
176
     0
290
     0
176
     0
 90
       50
176
     0
 40
0.0
176
     0
 40
1.0
176
     0
 90
        0
176
     0
 62
    18
420
        0
176
     0
 90
       50
176
     0
 90
        3
176
     0
 62
     5
420
      255
176
     0
290
     0
176
     0
 90
       50
176
     0
 90
       50
176
     0
 90
       50
176
     0
290
     0
176
     0
 90
       50
176
     0
 62
   256
176
     0
 40
1.0
176
     0
 90
        2
176
     0
  1
strokes_ogs.tif
176
     0
290
     0
176
     0
 40
1.0
176
     0
 40
1.0
176
     0
  0
VISUALSTYLE
  5
39
102
{ACAD_REACTORS
330
2A
102
}
330
2A
100
AcDbVisualStyle
  2
Facepattern
 70
    15
177
     3
291
     1
 70
    58
 90
        2
176
     1
 90
        2
176
     1
 90
        0
176
     1
 90
        0
176
     1
 40
0.6
176
     1
 40
30.0
176
     1
 62
     7
420
 16777215
176
     1
 90
        1
176
     1
 90
        4
176
     1
 62
     7
176
     1
 62
   257
176
     1
 90
        1
176
     1
 90
        1
176
     1
 40
1.0
176
     1
 90
        8
176
     1
 62
     7
176
     1
 40
1.0
176
     1
 90
        1
176
     1
 90
        6
176
     1
 90
        2
176
     1
 62
     7
176
     1
 90
        5
176
     1
 90
        0
176
     1
 90
        0
176
     1
290
     0
176
     1
 90
        1
176
     1
 40
0.0
176
     1
 90
        0
176
     1
290
     0
176
     1
290
     1
176
     1
290
     1
176
     1
290
     0
176
     1
290
     0
176
     1
290
     0
176
     1
290
     0
176
     1
290
     0
176
     1
290
     0
176
     1
 90
       50
176
     1
 40
0.0
176
     1
 40
1.0
176
     1
 90
        0
176
     1
 62
    18
420
        0
176
     1
 90
       50
176
     1
 90
        3
176
     1
 62
     5
420
      255
176
     1
290
     0
176
     1
 90
       50
176
     1
 90
       50
176
     1
 90
       50
176
     1
290
     0
176
     1
 90
       50
176
     1
 62
   256
176
     0
 40
1.0
176
     0
 90
        2
176
     1
  1
strokes_ogs.tif
176
     1
290
     0
176
     1
 40
1.0
176
     1
 40
1.0
176
     1
  0
VISUALSTYLE
  5
2B
102
{ACAD_REACTORS
330
2A
102
}
330
2A
100
AcDbVisualStyle
  2
Flat
 70
     0
177
     3
291
     1
 70
    58
 90
        2
176
     1
 90
        1
176
     1
 90
        1
176
     1
 90
        2
176
     1
 40
0.6
176
     1
 40
30.0
176
     1
 62
     7
420
 16777215
176
     1
 90
        0
176
     1
 90
        0
176
     1
 62
     7
176
     1
 62
   257
176
     1
 90
        1
176
     1
 90
        1
176
     1
 40
1.0
176
     1
 90
        8
176
     1
 62
     7
176
     1
 40
1.0
176
     1
 90
        1
176
     1
 90
        6
176
     1
 90
        2
176
     1
 62
     7
176
     1
 90
        5
176
     1
 90
        0
176
     1
 90
        0
176
     1
290
     0
176
     1
 90
       13
176
     1
 40
0.0
176
     1
 90
        0
176
     1
290
     0
176
     1
290
     1
176
     1
290
     1
176
     1
290
     0
176
     1
290
     0
176
     1
290
     0
176
     1
290
     0
176
     1
290
     0
176
     1
290
     0
176
     1
 90
       50
176
     1
 40
0.0
176
     1
 40
1.0
176
     1
 90
        0
176
     1
 62
    18
420
        0
176
     1
 90
       50
176
     1
 90
        3
176
     1
 62
     5
420
      255
176
     1
290
     0
176
     1
 90
       50
176
     1
 90
       50
176
     1
 90
       50
176
     1
290
     0
176
     1
 90
       50
176
     1
 62
   256
176
     0
 40
1.0
176
     0
 90
        2
176
     1
  1
strokes_ogs.tif
176
     1
290
     0
176
     1
 40
1.0
176
     1
 40
1.0
176
     1
  0
VISUALSTYLE
  5
2C
102
{ACAD_REACTORS
330
2A
102
}
330
2A
100
AcDbVisualStyle
  2
FlatWithEdges
 70
     1
177
     3
291
     1
 70
    58
 90
        2
176
     1
 90
        1
176
     1
 90
        1
176
     1
 90
        2
176
     1
 40
0.6
176
     1
 40
30.0
176
     1
 62
     7
420
 16777215
176
     1
 90
        1
176
     1
 90
        0
176
     1
 62
     7
176
     1
 62
   257
176
     1
 90
        1
176
     1
 90
        1
176
     1
 40
1.0
176
     1
 90
        0
176
     1
 62
   257
176
     1
 40
1.0
176
     1
 90
        1
176
     1
 90
        6
176
     1
 90
        2
176
     1
 62
     7
176
     1
 90
        5
176
     1
 90
        0
176
     1
 90
        0
176
     1
290
     0
176
     1
 90
       13
176
     1
 40
0.0
176
     1
 90
        0
176
     1
290
     0
176
     1
290
     1
176
     1
290
     1
176
     1
290
     0
176
     1
290
     0
176
     1
290
     0
176
     1
290
     0
176
     1
290
     0
176
     1
290
     0
176
     1
 90
       50
176
     1
 40
0.0
176
     1
 40
1.0
176
     1
 90
        0
176
     1
 62
    18
420
        0
176
     1
 90
       50
176
     1
 90
        3
176
     1
 62
     5
420
      255
176
     1
290
     0
176
     1
 90
       50
176
     1
 90
       50
176
     1
 90
       50
176
     1
290
     0
176
     1
 90
       50
176
     1
 62
   256
176
     0
 40
1.0
176
     0
 90
        2
176
     1
  1
strokes_ogs.tif
176
     1
290
     0
176
     1
 40
1.0
176
     1
 40
1.0
176
     1
  0
VISUALSTYLE
  5
2D
102
{ACAD_REACTORS
330
2A
102
}
330
2A
100
AcDbVisualStyle
  2
Gouraud
 70
     2
177
     3
291
     1
 70
    58
 90
        2
176
     1
 90
        2
176
     1
 90
        1
176
     1
 90
        2
176
     1
 40
0.6
176
     1
 40
30.0
176
     1
 62
     7
420
 16777215
176
     1
 90
        0
176
     1
 90
        0
176
     1
 62
     7
176
     1
 62
   257
176
     1
 90
        1
176
     1
 90
        1
176
     1
 40
1.0
176
     1
 90
        0
176
     1
 62
     7
176
     1
 40
1.0
176
     1
 90
        1
176
     1
 90
        6
176
     1
 90
        2
176
     1
 62
     7
176
     1
 90
        5
176
     1
 90
        0
176
     1
 90
        0
176
     1
290
     0
176
     1
 90
       13
176
     1
 40
0.0
176
     1
 90
        0
176
     1
290
     0
176
     1
290
     1
176
     1
290
     1
176
     1
290
     0
176
     1
290
     0
176
     1
290
     0
176
     1
290
     0
176
     1
290
     0
176
     1
290
     0
176
     1
 90
       50
176
     1
 40
0.0
176
     1
 40
1.0
176
     1
 90
        0
176
     1
 62
    18
420
        0
176
     1
 90
       50
176
     1
 90
        3
176
     1
 62
     5
420
      255
176
     1
290
     0
176
     1
 90
       50
176
     1
 90
       50
176
     1
 90
       50
176
     1
290
     0
176
     1
 90
       50
176
     1
 62
   256
176
     0
 40
1.0
176
     0
 90
        2
176
     1
  1
strokes_ogs.tif
176
     1
290
     0
176
     1
 40
1.0
176
     1
 40
1.0
176
     1
  0
VISUALSTYLE
  5
2E
102
{ACAD_REACTORS
330
2A
102
}
330
2A
100
AcDbVisualStyle
  2
GouraudWithEdges
 70
     3
177
     3
291
     1
 70
    58
 90
        2
176
     1
 90
        2
176
     1
 90
        1
176
     1
 90
        2
176
     1
 40
0.6
176
     1
 40
30.0
176
     1
 62
     7
420
 16777215
176
     1
 90
        1
176
     1
 90
        0
176
     1
 62
     7
176
     1
 62
   257
176
     1
 90
        1
176
     1
 90
        1
176
     1
 40
1.0
176
     1
 90
        0
176
     1
 62
   257
176
     1
 40
1.0
176
     1
 90
        1
176
     1
 90
        6
176
     1
 90
        2
176
     1
 62
     7
176
     1
 90
        5
176
     1
 90
        0
176
     1
 90
        0
176
     1
290
     0
176
     1
 90
       13
176
     1
 40
0.0
176
     1
 90
        0
176
     1
290
     0
176
     1
290
     1
176
     1
290
     1
176
     1
290
     0
176
     1
290
     0
176
     1
290
     0
176
     1
290
     0
176
     1
290
     0
176
     1
290
     0
176
     1
 90
       50
176
     1
 40
0.0
176
     1
 40
1.0
176
     1
 90
        0
176
     1
 62
    18
420
        0
176
     1
 90
       50
176
     1
 90
        3
176
     1
 62
     5
420
      255
176
     1
290
     0
176
     1
 90
       50
176
     1
 90
       50
176
     1
 90
       50
176
     1
290
     0
176
     1
 90
       50
176
     1
 62
   256
176
     0
 40
1.0
176
     0
 90
        2
176
     1
  1
strokes_ogs.tif
176
     1
290
     0
176
     1
 40
1.0
176
     1
 40
1.0
176
     1
  0
VISUALSTYLE
  5
31
102
{ACAD_REACTORS
330
2A
102
}
330
2A
100
AcDbVisualStyle
  2
Hidden
 70
     6
177
     3
291
     0
 70
    58
 90
        1
176
     1
 90
        2
176
     1
 90
        2
176
     1
 90
        0
176
     1
 40
0.6
176
     1
 40
30.0
176
     1
 62
     7
420
 16777215
176
     1
 90
        2
176
     1
 90
        2
176
     1
 62
     7
176
     1
 62
   257
176
     1
 90
        2
176
     1
 90
        1
176
     1
 40
40.0
176
     1
 90
        0
176
     1
 62
   257
176
     1
 40
1.0
176
     1
 90
        1
176
     1
 90
        6
176
     1
 90
        2
176
     1
 62
     7
176
     1
 90
        3
176
     1
 90
        0
176
     1
 90
        0
176
     1
290
     0
176
     1
 90
        1
176
     1
 40
0.0
176
     1
 90
        0
176
     1
290
     0
176
     1
290
     1
176
     1
290
     1
176
     1
290
     0
176
     1
290
     0
176
     1
290
     0
176
     1
290
     0
176
     1
290
     0
176
     1
290
     0
176
     1
 90
       50
176
     1
 40
0.0
176
     1
 40
1.0
176
     1
 90
        0
176
     1
 62
    18
420
        0
176
     1
 90
       50
176
     1
 90
        3
176
     1
 62
     5
420
      255
176
     1
290
     0
176
     1
 90
       50
176
     1
 90
       50
176
     1
 90
       50
176
     1
290
     0
176
     1
 90
       50
176
     1
 62
   256
176
     0
 40
1.0
176
     0
 90
        2
176
     1
  1
strokes_ogs.tif
176
     1
290
     0
176
     1
 40
1.0
176
     1
 40
1.0
176
     1
  0
VISUALSTYLE
  5
3B
102
{ACAD_REACTORS
330
2A
102
}
330
2A
100
AcDbVisualStyle
  2
JitterOff
 70
    20
177
     3
291
     1
 70
    58
 90
        2
176
     0
 90
        2
176
     0
 90
        0
176
     0
 90
        0
176
     0
 40
0.6
176
     0
 40
30.0
176
     0
 62
     7
420
 16777215
176
     0
 90
        1
176
     0
 90
        4
176
     0
 62
     7
176
     0
 62
   257
176
     0
 90
        1
176
     0
 90
        1
176
     0
 40
1.0
176
     0
 90
       10
176
     2
 62
     7
176
     0
 40
1.0
176
     0
 90
        1
176
     0
 90
        6
176
     0
 90
        2
176
     0
 62
     7
176
     0
 90
        5
176
     0
 90
        0
176
     0
 90
        0
176
     0
290
     0
176
     0
 90
        1
176
     0
 40
0.0
176
     0
 90
        0
176
     0
290
     0
176
     0
290
     1
176
     0
290
     1
176
     0
290
     0
176
     0
290
     0
176
     0
290
     0
176
     0
290
     0
176
     0
290
     0
176
     0
290
     0
176
     0
 90
       50
176
     0
 40
0.0
176
     0
 40
1.0
176
     0
 90
        0
176
     0
 62
    18
420
        0
176
     0
 90
       50
176
     0
 90
        3
176
     0
 62
     5
420
      255
176
     0
290
     0
176
     0
 90
       50
176
     0
 90
       50
176
     0
 90
       50
176
     0
290
     0
176
     0
 90
       50
176
     0
 62
   256
176
     0
 40
1.0
176
     0
 90
        2
176
     0
  1
strokes_ogs.tif
176
     0
290
     0
176
     0
 40
1.0
176
     0
 40
1.0
176
     0
  0
VISUALSTYLE
  5
38
102
{ACAD_REACTORS
330
2A
102
}
330
2A
100
AcDbVisualStyle
  2
Linepattern
 70
    14
177
     3
291
     1
 70
    58
 90
        2
176
     1
 90
        2
176
     1
 90
        0
176
     1
 90
        0
176
     1
 40
0.6
176
     1
 40
30.0
176
     1
 62
     7
420
 16777215
176
     1
 90
        1
176
     1
 90
        4
176
     1
 62
     7
176
     1
 62
   257
176
     1
 90
        7
176
     1
 90
        7
176
     1
 40
1.0
176
     1
 90
        8
176
     1
 62
     7
176
     1
 40
1.0
176
     1
 90
        1
176
     1
 90
        6
176
     1
 90
        2
176
     1
 62
     7
176
     1
 90
        5
176
     1
 90
        0
176
     1
 90
        0
176
     1
290
     0
176
     1
 90
        1
176
     1
 40
0.0
176
     1
 90
        0
176
     1
290
     0
176
     1
290
     1
176
     1
290
     1
176
     1
290
     0
176
     1
290
     0
176
     1
290
     0
176
     1
290
     0
176
     1
290
     0
176
     1
290
     0
176
     1
 90
       50
176
     1
 40
0.0
176
     1
 40
1.0
176
     1
 90
        0
176
     1
 62
    18
420
        0
176
     1
 90
       50
176
     1
 90
        3
176
     1
 62
     5
420
      255
176
     1
290
     0
176
     1
 90
       50
176
     1
 90
       50
176
     1
 90
       50
176
     1
290
     0
176
     1
 90
       50
176
     1
 62
   256
176
     0
 40
1.0
176
     0
 90
        2
176
     1
  1
strokes_ogs.tif
176
     1
290
     0
176
     1
 40
1.0
176
     1
 40
1.0
176
     1
  0
VISUALSTYLE
  5
3C
102
{ACAD_REACTORS
330
2A
102
}
330
2A
100
AcDbVisualStyle
  2
OverhangOff
 70
    21
177
     3
291
     1
 70
    58
 90
        2
176
     0
 90
        2
176
     0
 90
        0
176
     0
 90
        0
176
     0
 40
0.6
176
     0
 40
30.0
176
     0
 62
     7
420
 16777215
176
     0
 90
        1
176
     0
 90
        4
176
     0
 62
     7
176
     0
 62
   257
176
     0
 90
        1
176
     0
 90
        1
176
     0
 40
1.0
176
     0
 90
        9
176
     2
 62
     7
176
     0
 40
1.0
176
     0
 90
        1
176
     0
 90
        6
176
     0
 90
        2
176
     0
 62
     7
176
     0
 90
        5
176
     0
 90
        0
176
     0
 90
        0
176
     0
290
     0
176
     0
 90
        1
176
     0
 40
0.0
176
     0
 90
        0
176
     0
290
     0
176
     0
290
     1
176
     0
290
     1
176
     0
290
     0
176
     0
290
     0
176
     0
290
     0
176
     0
290
     0
176
     0
290
     0
176
     0
290
     0
176
     0
 90
       50
176
     0
 40
0.0
176
     0
 40
1.0
176
     0
 90
        0
176
     0
 62
    18
420
        0
176
     0
 90
       50
176
     0
 90
        3
176
     0
 62
     5
420
      255
176
     0
290
     0
176
     0
 90
       50
176
     0
 90
       50
176
     0
 90
       50
176
     0
290
     0
176
     0
 90
       50
176
     0
 62
   256
176
     0
 40
1.0
176
     0
 90
        2
176
     0
  1
strokes_ogs.tif
176
     0
290
     0
176
     0
 40
1.0
176
     0
 40
1.0
176
     0
  0
VISUALSTYLE
  5
33
102
{ACAD_REACTORS
330
2A
102
}
330
2A
100
AcDbVisualStyle
  2
Realistic
 70
     8
177
     3
291
     0
 70
    58
 90
        2
176
     1
 90
        3
176
     1
 90
        0
176
     1
 90
        2
176
     1
 40
0.6
176
     1
 40
30.0
176
     1
 62
     7
420
 16777215
176
     1
 90
        0
176
     1
 90
        0
176
     1
 62
     7
176
     1
 62
   257
176
     1
 90
        1
176
     1
 90
        1
176
     1
 40
1.0
176
     1
 90
        8
176
     1
 62
   257
176
     1
 40
1.0
176
     1
 90
        1
176
     1
 90
        6
176
     1
 90
        2
176
     1
 62
     7
176
     1
 90
        3
176
     1
 90
        0
176
     1
 90
        0
176
     1
290
     0
176
     1
 90
       13
176
     1
 40
0.0
176
     1
 90
        0
176
     1
290
     0
176
     1
290
     1
176
     1
290
     1
176
     1
290
     0
176
     1
290
     0
176
     1
290
     0
176
     1
290
     0
176
     1
290
     0
176
     1
290
     0
176
     1
 90
       50
176
     1
 40
0.0
176
     1
 40
1.0
176
     1
 90
        0
176
     1
 62
    18
420
        0
176
     1
 90
       50
176
     1
 90
        3
176
     1
 62
     5
420
      255
176
     1
290
     0
176
     1
 90
       50
176
     1
 90
       50
176
     1
 90
       50
176
     1
290
     0
176
     1
 90
       50
176
     1
 62
   256
176
     0
 40
1.0
176
     0
 90
        2
176
     1
  1
strokes_ogs.tif
176
     1
290
     0
176
     1
 40
1.0
176
     1
 40
1.0
176
     1
  0
VISUALSTYLE
  5
42
102
{ACAD_REACTORS
330
2A
102
}
330
2A
100
AcDbVisualStyle
  2
Shaded
 70
    27
177
     3
291
     0
 70
    58
 90
        2
176
     1
 90
        2
176
     1
 90
        1
176
     1
 90
        2
176
     1
 40
0.6
176
     1
 40
30.0
176
     1
 62
     7
420
 16777215
176
     1
 90
        0
176
     1
 90
        4
176
     1
 62
     7
176
     1
 62
   257
176
     1
 90
        1
176
     1
 90
        1
176
     1
 40
1.0
176
     1
 90
        8
176
     1
 62
   257
176
     1
 40
1.0
176
     1
 90
        1
176
     1
 90
        6
176
     1
 90
        2
176
     1
 62
     8
420
  7895160
176
     1
 90
        3
176
     1
 90
        0
176
     1
 90
        0
176
     1
290
     0
176
     1
 90
        5
176
     1
 40
0.0
176
     1
 90
        0
176
     1
290
     0
176
     1
290
     1
176
     1
290
     1
176
     1
290
     0
176
     1
290
     0
176
     1
290
     0
176
     1
290
     0
176
     1
290
     0
176
     1
290
     0
176
     1
 90
       50
176
     1
 40
0.0
176
     1
 40
1.0
176
     1
 90
        0
176
     1
 62
    18
420
        0
176
     1
 90
       50
176
     1
 90
        3
176
     1
 62
     5
420
      255
176
     1
290
     0
176
     1
 90
       50
176
     1
 90
       50
176
     1
 90
       50
176
     1
290
     0
176
     1
 90
       50
176
     1
 62
   256
176
     0
 40
1.0
176
     0
 90
        2
176
     1
  1
strokes_ogs.tif
176
     1
290
     0
176
     1
 40
1.0
176
     1
 40
1.0
176
     1
  0
VISUALSTYLE
  5
41
102
{ACAD_REACTORS
330
2A
102
}
330
2A
100
AcDbVisualStyle
  2
Shaded with edges
 70
    26
177
     3
291
     0
 70
    58
 90
        2
176
     1
 90
        2
176
     1
 90
        1
176
     1
 90
        2
176
     1
 40
0.6
176
     1
 40
30.0
176
     1
 62
     7
420
 16777215
176
     1
 90
        1
176
     1
 90
       10
176
     1
 62
     7
176
     1
 62
   257
176
     1
 90
        2
176
     1
 90
        1
176
     1
 40
1.0
176
     1
 90
        8
176
     1
 62
   257
176
     1
 40
1.0
176
     1
 90
        1
176
     1
 90
        6
176
     1
 90
        2
176
     1
 62
     7
176
     1
 90
        3
176
     1
 90
        0
176
     1
 90
        0
176
     1
290
     0
176
     1
 90
        5
176
     1
 40
0.0
176
     1
 90
        0
176
     1
290
     0
176
     1
290
     1
176
     1
290
     1
176
     1
290
     0
176
     1
290
     0
176
     1
290
     0
176
     1
290
     0
176
     1
290
     0
176
     1
290
     0
176
     1
 90
       50
176
     1
 40
0.0
176
     1
 40
1.0
176
     1
 90
        0
176
     1
 62
    18
420
        0
176
     1
 90
       50
176
     1
 90
        3
176
     1
 62
     5
420
      255
176
     1
290
     0
176
     1
 90
       50
176
     1
 90
       50
176
     1
 90
       50
176
     1
290
     0
176
     1
 90
       50
176
     1
 62
   256
176
     0
 40
1.0
176
     0
 90
        2
176
     1
  1
strokes_ogs.tif
176
     1
290
     0
176
     1
 40
1.0
176
     1
 40
1.0
176
     1
  0
VISUALSTYLE
  5
3E
102
{ACAD_REACTORS
330
2A
102
}
330
2A
100
AcDbVisualStyle
  2
Shades of Gray
 70
    23
177
     3
291
     0
 70
    58
 90
        2
176
     1
 90
        2
176
     1
 90
        3
176
     1
 90
        0
176
     1
 40
0.6
176
     1
 40
30.0
176
     1
 62
     7
420
 16777215
176
     1
 90
        2
176
     1
 90
        2
176
     1
 62
     7
176
     1
 62
     7
176
     1
 90
        1
176
     1
 90
        1
176
     1
 40
40.0
176
     1
 90
        8
176
     1
 62
     7
176
     1
 40
1.0
176
     1
 90
        1
176
     1
 90
        6
176
     1
 90
        2
176
     1
 62
     7
176
     1
 90
        3
176
     1
 90
        0
176
     1
 90
        0
176
     1
290
     0
176
     1
 90
        1
176
     1
 40
0.0
176
     1
 90
        0
176
     1
290
     0
176
     1
290
     1
176
     1
290
     1
176
     1
290
     0
176
     1
290
     0
176
     1
290
     0
176
     1
290
     0
176
     1
290
     0
176
     1
290
     0
176
     1
 90
       50
176
     1
 40
0.0
176
     1
 40
1.0
176
     1
 90
        0
176
     1
 62
    18
420
        0
176
     1
 90
       50
176
     1
 90
        3
176
     1
 62
     5
420
      255
176
     1
290
     0
176
     1
 90
       50
176
     1
 90
       50
176
     1
 90
       50
176
     1
290
     0
176
     1
 90
       50
176
     1
 62
   256
176
     0
 40
1.0
176
     0
 90
        2
176
     1
  1
strokes_ogs.tif
176
     1
290
     0
176
     1
 40
1.0
176
     1
 40
1.0
176
     1
  0
VISUALSTYLE
  5
3F
102
{ACAD_REACTORS
330
2A
102
}
330
2A
100
AcDbVisualStyle
  2
Sketchy
 70
    24
177
     3
291
     0
 70
    58
 90
        1
176
     1
 90
        2
176
     1
 90
        2
176
     1
 90
        0
176
     1
 40
0.6
176
     1
 40
30.0
176
     1
 62
     7
420
 16777215
176
     1
 90
        2
176
     1
 90
        2
176
     1
 62
     7
176
     1
 62
     7
176
     1
 90
        1
176
     1
 90
        1
176
     1
 40
40.0
176
     1
 90
       11
176
     1
 62
     7
176
     1
 40
1.0
176
     1
 90
        1
176
     1
 90
        6
176
     1
 90
        2
176
     1
 62
     7
176
     1
 90
        6
176
     1
 90
        0
176
     1
 90
        0
176
     1
290
     0
176
     1
 90
        1
176
     1
 40
0.0
176
     1
 90
        0
176
     1
290
     0
176
     1
290
     1
176
     1
290
     1
176
     1
290
     0
176
     1
290
     0
176
     1
290
     0
176
     1
290
     0
176
     1
290
     0
176
     1
290
     0
176
     1
 90
       50
176
     1
 40
0.0
176
     1
 40
1.0
176
     1
 90
        0
176
     1
 62
    18
420
        0
176
     1
 90
       50
176
     1
 90
        3
176
     1
 62
     5
420
      255
176
     1
290
     0
176
     1
 90
       50
176
     1
 90
       50
176
     1
 90
       50
176
     1
290
     0
176
     1
 90
       50
176
     1
 62
   256
176
     0
 40
1.0
176
     0
 90
        2
176
     1
  1
strokes_ogs.tif
176
     1
290
     0
176
     1
 40
1.0
176
     1
 40
1.0
176
     1
  0
VISUALSTYLE
  5
37
102
{ACAD_REACTORS
330
2A
102
}
330
2A
100
AcDbVisualStyle
  2
Thicken
 70
    13
177
     3
291
     1
 70
    58
 90
        2
176
     1
 90
        2
176
     1
 90
        0
176
     1
 90
        0
176
     1
 40
0.6
176
     1
 40
30.0
176
     1
 62
     7
420
 16777215
176
     1
 90
        1
176
     1
 90
        4
176
     1
 62
     7
176
     1
 62
   257
176
     1
 90
        1
176
     1
 90
        1
176
     1
 40
1.0
176
     1
 90
       12
176
     1
 62
     7
176
     1
 40
1.0
176
     1
 90
        1
176
     1
 90
        6
176
     1
 90
        2
176
     1
 62
     7
176
     1
 90
        5
176
     1
 90
        0
176
     1
 90
        0
176
     1
290
     0
176
     1
 90
        1
176
     1
 40
0.0
176
     1
 90
        0
176
     1
290
     0
176
     1
290
     1
176
     1
290
     1
176
     1
290
     0
176
     1
290
     0
176
     1
290
     0
176
     1
290
     0
176
     1
290
     0
176
     1
290
     0
176
     1
 90
       50
176
     1
 40
0.0
176
     1
 40
1.0
176
     1
 90
        0
176
     1
 62
    18
420
        0
176
     1
 90
       50
176
     1
 90
        3
176
     1
 62
     5
420
      255
176
     1
290
     0
176
     1
 90
       50
176
     1
 90
       50
176
     1
 90
       50
176
     1
290
     0
176
     1
 90
       50
176
     1
 62
   256
176
     0
 40
1.0
176
     0
 90
        2
176
     1
  1
strokes_ogs.tif
176
     1
290
     0
176
     1
 40
1.0
176
     1
 40
1.0
176
     1
  0
VISUALSTYLE
  5
30
102
{ACAD_REACTORS
330
2A
102
}
330
2A
100
AcDbVisualStyle
  2
Wireframe
 70
     5
177
     3
291
     0
 70
    58
 90
        0
176
     1
 90
        2
176
     1
 90
        0
176
     1
 90
        0
176
     1
 40
0.6
176
     1
 40
30.0
176
     1
 62
     7
420
 16777215
176
     1
 90
        1
176
     1
 90
        4
176
     1
 62
     7
176
     1
 62
   257
176
     1
 90
        1
176
     1
 90
        1
176
     1
 40
1.0
176
     1
 90
        0
176
     1
 62
   257
176
     1
 40
1.0
176
     1
 90
        1
176
     1
 90
        6
176
     1
 90
        2
176
     1
 62
     7
176
     1
 90
        3
176
     1
 90
        0
176
     1
 90
        0
176
     1
290
     0
176
     1
 90
        1
176
     1
 40
0.0
176
     1
 90
        0
176
     1
290
     0
176
     1
290
     1
176
     1
290
     1
176
     1
290
     0
176
     1
290
     0
176
     1
290
     0
176
     1
290
     0
176
     1
290
     0
176
     1
290
     0
176
     1
 90
       50
176
     1
 40
0.0
176
     1
 40
1.0
176
     1
 90
        0
176
     1
 62
    18
420
        0
176
     1
 90
       50
176
     1
 90
        3
176
     1
 62
     5
420
      255
176
     1
290
     0
176
     1
 90
       50
176
     1
 90
       50
176
     1
 90
       50
176
     1
290
     0
176
     1
 90
       50
176
     1
 62
   256
176
     0
 40
1.0
176
     0
 90
        2
176
     1
  1
strokes_ogs.tif
176
     1
290
     0
176
     1
 40
1.0
176
     1
 40
1.0
176
     1
  0
VISUALSTYLE
  5
40
102
{ACAD_REACTORS
330
2A
102
}
330
2A
100
AcDbVisualStyle
  2
X-Ray
 70
    25
177
     3
291
     0
 70
    58
 90
        2
176
     1
 90
        2
176
     1
 90
        1
176
     1
 90
        1
176
     1
 40
0.5
176
     1
 40
30.0
176
     1
 62
     7
420
 16777215
176
     1
 90
        1
176
     1
 90
        0
176
     1
 62
     7
176
     1
 62
   257
176
     1
 90
        1
176
     1
 90
        1
176
     1
 40
1.0
176
     1
 90
        8
176
     1
 62
     7
176
     1
 40
1.0
176
     1
 90
        1
176
     1
 90
        6
176
     1
 90
        2
176
     1
 62
     7
176
     1
 90
        3
176
     1
 90
        0
176
     1
 90
        0
176
     1
290
     0
176
     1
 90
       13
176
     1
 40
0.0
176
     1
 90
        0
176
     1
290
     0
176
     1
290
     1
176
     1
290
     1
176
     1
290
     0
176
     1
290
     0
176
     1
290
     0
176
     1
290
     0
176
     1
290
     0
176
     1
290
     0
176
     1
 90
       50
176
     1
 40
0.0
176
     1
 40
1.0
176
     1
 90
        0
176
     1
 62
    18
420
        0
176
     1
 90
       50
176
     1
 90
        3
176
     1
 62
     5
420
      255
176
     1
290
     0
176
     1
 90
       50
176
     1
 90
       50
176
     1
 90
       50
176
     1
290
     0
176
     1
 90
       50
176
     1
 62
   256
176
     0
 40
1.0
176
     0
 90
        2
176
     1
  1
strokes_ogs.tif
176
     1
290
     0
176
     1
 40
1.0
176
     1
 40
1.0
176
     1
  0
DICTIONARYVAR
  5
188
102
{ACAD_REACTORS
330
187
102
}
330
187
100
DictionaryVariables
280
     0
  1
1:1
  0
DICTIONARYVAR
  5
18D
102
{ACAD_REACTORS
330
187
102
}
330
187
100
DictionaryVariables
280
     0
  1
Standard
  0
DICTIONARYVAR
  5
18C
102
{ACAD_REACTORS
330
187
102
}
330
187
100
DictionaryVariables
280
     0
  1
Standard
  0
DICTIONARY
  5
189
330
6A
100
AcDbDictionary
280
     1
281
     1
  3
ACAD_ROUNDTRIP_2008_TABLESTYLE_CELLSTYLEMAP
360
18A
  0
CELLSTYLEMAP
  5
18A
102
{ACAD_REACTORS
330
189
102
}
330
189
100
AcDbCellStyleMap
 90
        3
300
CELLSTYLE
  1
TABLEFORMAT_BEGIN
 90
        5
170
     1
 91
        0
 92
    32768
 62
   257
 93
        1
300
CONTENTFORMAT
  1
CONTENTFORMAT_BEGIN
 90
        0
 91
        0
 92
        4
 93
        0
300

 40
0.0
140
1.0
 94
        5
 62
     0
340
11
144
0.25
309
CONTENTFORMAT_END
171
     1
301
MARGIN
  1
CELLMARGIN_BEGIN
 40
0.06
 40
0.06
 40
0.06
 40
0.06
 40
0.06
 40
0.06
309
CELLMARGIN_END
 94
        6
 95
        1
302
GRIDFORMAT
  1
GRIDFORMAT_BEGIN
 90
        0
 91
        1
 62
     0
 92
       -2
340
14
 93
        0
 40
0.045
309
GRIDFORMAT_END
 95
        2
302
GRIDFORMAT
  1
GRIDFORMAT_BEGIN
 90
        0
 91
        1
 62
     0
 92
       -2
340
14
 93
        0
 40
0.045
309
GRIDFORMAT_END
 95
        4
302
GRIDFORMAT
  1
GRIDFORMAT_BEGIN
 90
        0
 91
        1
 62
     0
 92
       -2
340
14
 93
        0
 40
0.045
309
GRIDFORMAT_END
 95
        8
302
GRIDFORMAT
  1
GRIDFORMAT_BEGIN
 90
        0
 91
        1
 62
     0
 92
       -2
340
14
 93
        0
 40
0.045
309
GRIDFORMAT_END
 95
       16
302
GRIDFORMAT
  1
GRIDFORMAT_BEGIN
 90
        0
 91
        1
 62
     0
 92
       -2
340
14
 93
        0
 40
0.045
309
GRIDFORMAT_END
 95
       32
302
GRIDFORMAT
  1
GRIDFORMAT_BEGIN
 90
        0
 91
        1
 62
     0
 92
       -2
340
14
 93
        0
 40
0.045
309
GRIDFORMAT_END
309
TABLEFORMAT_END
  1
CELLSTYLE_BEGIN
 90
        1
 91
        1
300
_TITLE
309
CELLSTYLE_END
300
CELLSTYLE
  1
TABLEFORMAT_BEGIN
 90
        5
170
     1
 91
        0
 92
        0
 62
   257
 93
        1
300
CONTENTFORMAT
  1
CONTENTFORMAT_BEGIN
 90
        0
 91
        0
 92
        4
 93
        0
300

 40
0.0
140
1.0
 94
        5
 62
     0
340
11
144
0.18
309
CONTENTFORMAT_END
171
     1
301
MARGIN
  1
CELLMARGIN_BEGIN
 40
0.06
 40
0.06
 40
0.06
 40
0.06
 40
0.06
 40
0.06
309
CELLMARGIN_END
 94
        6
 95
        1
302
GRIDFORMAT
  1
GRIDFORMAT_BEGIN
 90
        0
 91
        1
 62
     0
 92
       -2
340
14
 93
        0
 40
0.045
309
GRIDFORMAT_END
 95
        2
302
GRIDFORMAT
  1
GRIDFORMAT_BEGIN
 90
        0
 91
        1
 62
     0
 92
       -2
340
14
 93
        0
 40
0.045
309
GRIDFORMAT_END
 95
        4
302
GRIDFORMAT
  1
GRIDFORMAT_BEGIN
 90
        0
 91
        1
 62
     0
 92
       -2
340
14
 93
        0
 40
0.045
309
GRIDFORMAT_END
 95
        8
302
GRIDFORMAT
  1
GRIDFORMAT_BEGIN
 90
        0
 91
        1
 62
     0
 92
       -2
340
14
 93
        0
 40
0.045
309
GRIDFORMAT_END
 95
       16
302
GRIDFORMAT
  1
GRIDFORMAT_BEGIN
 90
        0
 91
        1
 62
     0
 92
       -2
340
14
 93
        0
 40
0.045
309
GRIDFORMAT_END
 95
       32
302
GRIDFORMAT
  1
GRIDFORMAT_BEGIN
 90
        0
 91
        1
 62
     0
 92
       -2
340
14
 93
        0
 40
0.045
309
GRIDFORMAT_END
309
TABLEFORMAT_END
  1
CELLSTYLE_BEGIN
 90
        2
 91
        1
300
_HEADER
309
CELLSTYLE_END
300
CELLSTYLE
  1
TABLEFORMAT_BEGIN
 90
        5
170
     1
 91
        0
 92
        0
 62
   257
 93
        1
300
CONTENTFORMAT
  1
CONTENTFORMAT_BEGIN
 90
        0
 91
        0
 92
        4
 93
        0
300

 40
0.0
140
1.0
 94
        2
 62
     0
340
11
144
0.18
309
CONTENTFORMAT_END
171
     1
301
MARGIN
  1
CELLMARGIN_BEGIN
 40
0.06
 40
0.06
 40
0.06
 40
0.06
 40
0.06
 40
0.06
309
CELLMARGIN_END
 94
        6
 95
        1
302
GRIDFORMAT
  1
GRIDFORMAT_BEGIN
 90
        0
 91
        1
 62
     0
 92
       -2
340
14
 93
        0
 40
0.045
309
GRIDFORMAT_END
 95
        2
302
GRIDFORMAT
  1
GRIDFORMAT_BEGIN
 90
        0
 91
        1
 62
     0
 92
       -2
340
14
 93
        0
 40
0.045
309
GRIDFORMAT_END
 95
        4
302
GRIDFORMAT
  1
GRIDFORMAT_BEGIN
 90
        0
 91
        1
 62
     0
 92
       -2
340
14
 93
        0
 40
0.045
309
GRIDFORMAT_END
 95
        8
302
GRIDFORMAT
  1
GRIDFORMAT_BEGIN
 90
        0
 91
        1
 62
     0
 92
       -2
340
14
 93
        0
 40
0.045
309
GRIDFORMAT_END
 95
       16
302
GRIDFORMAT
  1
GRIDFORMAT_BEGIN
 90
        0
 91
        1
 62
     0
 92
       -2
340
14
 93
        0
 40
0.045
309
GRIDFORMAT_END
 95
       32
302
GRIDFORMAT
  1
GRIDFORMAT_BEGIN
 90
        0
 91
        1
 62
     0
 92
       -2
340
14
 93
        0
 40
0.045
309
GRIDFORMAT_END
309
TABLEFORMAT_END
  1
CELLSTYLE_BEGIN
 90
        3
 91
        2
300
_DATA
309
CELLSTYLE_END
  0
ENDSEC
  0
EOF