0
SECTION
  2
HEADER
  9
$ACADVER
  1
AC1027
  9
$ACADMAINTVER
 70
     8
  9
$DWGCODEPAGE
  3
ANSI_1252
  9
$REQUIREDVERSIONS
160
                 0
  9
$COMMENTS
  1
File was created by Cadenas
  9
$CUSTOMPROPERTYTAG
  1
NN
  9
$CUSTOMPROPERTY
  1
Set Screw Light Duty Two-Bolt Pillow Block Inch Bore
  9
$CUSTOMPROPERTYTAG
  1
NT
  9
$CUSTOMPROPERTY
  1
SC Pillow Block Bearings -(Light Duty)
  9
$CUSTOMPROPERTYTAG
  1
NB
  9
$CUSTOMPROPERTY
  1
128110
  9
$CUSTOMPROPERTYTAG
  1
NBSYN
  9
$CUSTOMPROPERTY
  1
$PN.
  9
$CUSTOMPROPERTYTAG
  1
LINA
  9
$CUSTOMPROPERTY
  1
128110
  9
$CUSTOMPROPERTYTAG
  1
SERIES
  9
$CUSTOMPROPERTY
  1
207
  9
$CUSTOMPROPERTYTAG
  1
SS
  9
$CUSTOMPROPERTY
  1
1-7/16
  9
$CUSTOMPROPERTYTAG
  1
PN
  9
$CUSTOMPROPERTY
  1
128110
  9
$CUSTOMPROPERTYTAG
  1
DESCRIPTION
  9
$CUSTOMPROPERTY
  1
P2B-SL-107
  9
$CUSTOMPROPERTYTAG
  1
W
  9
$CUSTOMPROPERTY
  1
1.48
  9
$CUSTOMPROPERTYTAG
  1
A
  9
$CUSTOMPROPERTY
  1
1.40
  9
$CUSTOMPROPERTYTAG
  1
B
  9
$CUSTOMPROPERTY
  1
5.75
  9
$CUSTOMPROPERTYTAG
  1
C
  9
$CUSTOMPROPERTY
  1
1.25
  9
$CUSTOMPROPERTYTAG
  1
D
  9
$CUSTOMPROPERTY
  1
4.25
  9
$CUSTOMPROPERTYTAG
  1
F
  9
$CUSTOMPROPERTY
  1
1/2
  9
$CUSTOMPROPERTYTAG
  1
G
  9
$CUSTOMPROPERTY
  1
0.75
  9
$CUSTOMPROPERTYTAG
  1
H
  9
$CUSTOMPROPERTY
  1
0.24
  9
$CUSTOMPROPERTYTAG
  1
J
  9
$CUSTOMPROPERTY
  1
3.12
  9
$CUSTOMPROPERTYTAG
  1
L
  9
$CUSTOMPROPERTY
  1
1.84
  9
$CUSTOMPROPERTYTAG
  1
M
  9
$CUSTOMPROPERTY
  1
1.56
  9
$CUSTOMPROPERTYTAG
  1
R
  9
$CUSTOMPROPERTY
  1
0.37
  9
$CUSTOMPROPERTYTAG
  1
S
  9
$CUSTOMPROPERTY
  1
1.03
  9
$CUSTOMPROPERTYTAG
  1
COMPANY
  9
$CUSTOMPROPERTY
  1
baldor
  9
$INSBASE
 10
0.0
 20
0.0
 30
0.0
  9
$EXTMIN
 10
1.000000000000000E+20
 20
1.000000000000000E+20
 30
1.000000000000000E+20
  9
$EXTMAX
 10
-1.000000000000000E+20
 20
-1.000000000000000E+20
 30
-1.000000000000000E+20
  9
$LIMMIN
 10
0.0
 20
0.0
  9
$LIMMAX
 10
12.0
 20
9.0
  9
$ORTHOMODE
 70
     0
  9
$REGENMODE
 70
     1
  9
$FILLMODE
 70
     1
  9
$QTEXTMODE
 70
     0
  9
$MIRRTEXT
 70
     1
  9
$LTSCALE
 40
1.0
  9
$ATTMODE
 70
     1
  9
$TEXTSIZE
 40
0.2
  9
$TRACEWID
 40
0.05
  9
$TEXTSTYLE
  7
Standard
  9
$CLAYER
  8
0
  9
$CELTYPE
  6
ByLayer
  9
$CECOLOR
 62
   256
  9
$CELTSCALE
 40
1.0
  9
$DISPSILH
 70
     0
  9
$DIMSCALE
 40
1.0
  9
$DIMASZ
 40
0.18
  9
$DIMEXO
 40
0.0625
  9
$DIMDLI
 40
0.38
  9
$DIMRND
 40
0.0
  9
$DIMDLE
 40
0.0
  9
$DIMEXE
 40
0.18
  9
$DIMTP
 40
0.0
  9
$DIMTM
 40
0.0
  9
$DIMTXT
 40
0.18
  9
$DIMCEN
 40
0.09
  9
$DIMTSZ
 40
0.0
  9
$DIMTOL
 70
     0
  9
$DIMLIM
 70
     0
  9
$DIMTIH
 70
     1
  9
$DIMTOH
 70
     1
  9
$DIMSE1
 70
     0
  9
$DIMSE2
 70
     0
  9
$DIMTAD
 70
     0
  9
$DIMZIN
 70
     0
  9
$DIMBLK
  1

  9
$DIMASO
 70
     1
  9
$DIMSHO
 70
     1
  9
$DIMPOST
  1

  9
$DIMAPOST
  1

  9
$DIMALT
 70
     0
  9
$DIMALTD
 70
     2
  9
$DIMALTF
 40
25.4
  9
$DIMLFAC
 40
1.0
  9
$DIMTOFL
 70
     0
  9
$DIMTVP
 40
0.0
  9
$DIMTIX
 70
     0
  9
$DIMSOXD
 70
     0
  9
$DIMSAH
 70
     0
  9
$DIMBLK1
  1

  9
$DIMBLK2
  1

  9
$DIMSTYLE
  2
Standard
  9
$DIMCLRD
 70
     0
  9
$DIMCLRE
 70
     0
  9
$DIMCLRT
 70
     0
  9
$DIMTFAC
 40
1.0
  9
$DIMGAP
 40
0.09
  9
$DIMJUST
 70
     0
  9
$DIMSD1
 70
     0
  9
$DIMSD2
 70
     0
  9
$DIMTOLJ
 70
     1
  9
$DIMTZIN
 70
     0
  9
$DIMALTZ
 70
     0
  9
$DIMALTTZ
 70
     0
  9
$DIMUPT
 70
     0
  9
$DIMDEC
 70
     4
  9
$DIMTDEC
 70
     4
  9
$DIMALTU
 70
     2
  9
$DIMALTTD
 70
     2
  9
$DIMTXSTY
  7
Standard
  9
$DIMAUNIT
 70
     0
  9
$DIMADEC
 70
     0
  9
$DIMALTRND
 40
0.0
  9
$DIMAZIN
 70
     0
  9
$DIMDSEP
 70
    46
  9
$DIMATFIT
 70
     3
  9
$DIMFRAC
 70
     0
  9
$DIMLDRBLK
  1

  9
$DIMLUNIT
 70
     2
  9
$DIMLWD
 70
    -2
  9
$DIMLWE
 70
    -2
  9
$DIMTMOVE
 70
     0
  9
$DIMFXL
 40
1.0
  9
$DIMFXLON
 70
     0
  9
$DIMJOGANG
 40
0.7853981633974483
  9
$DIMTFILL
 70
     0
  9
$DIMTFILLCLR
 70
     0
  9
$DIMARCSYM
 70
     0
  9
$DIMLTYPE
  6

  9
$DIMLTEX1
  6

  9
$DIMLTEX2
  6

  9
$DIMTXTDIRECTION
 70
     0
  9
$LUNITS
 70
     2
  9
$LUPREC
 70
     4
  9
$SKETCHINC
 40
0.1
  9
$FILLETRAD
 40
0.5
  9
$AUNITS
 70
     0
  9
$AUPREC
 70
     0
  9
$MENU
  1
.
  9
$ELEVATION
 40
0.0
  9
$PELEVATION
 40
0.0
  9
$THICKNESS
 40
0.0
  9
$LIMCHECK
 70
     0
  9
$CHAMFERA
 40
0.0
  9
$CHAMFERB
 40
0.0
  9
$CHAMFERC
 40
0.0
  9
$CHAMFERD
 40
0.0
  9
$SKPOLY
 70
     0
  9
$TDCREATE
 40
2458169.00272382
  9
$TDUCREATE
 40
2458168.961057153
  9
$TDUPDATE
 40
2458169.002724004
  9
$TDUUPDATE
 40
2458168.961057338
  9
$TDINDWG
 40
0.0000000116
  9
$TDUSRTIMER
 40
0.0000000116
  9
$USRTIMER
 70
     1
  9
$ANGBASE
 50
0.0
  9
$ANGDIR
 70
     0
  9
$PDMODE
 70
     0
  9
$PDSIZE
 40
0.0
  9
$PLINEWID
 40
0.0
  9
$SPLFRAME
 70
     0
  9
$SPLINETYPE
 70
     6
  9
$SPLINESEGS
 70
     8
  9
$HANDSEED
  5
165
  9
$SURFTAB1
 70
     6
  9
$SURFTAB2
 70
     6
  9
$SURFTYPE
 70
     6
  9
$SURFU
 70
     6
  9
$SURFV
 70
     6
  9
$UCSBASE
  2

  9
$UCSNAME
  2

  9
$UCSORG
 10
0.0
 20
0.0
 30
0.0
  9
$UCSXDIR
 10
1.0
 20
0.0
 30
0.0
  9
$UCSYDIR
 10
0.0
 20
1.0
 30
0.0
  9
$UCSORTHOREF
  2

  9
$UCSORTHOVIEW
 70
     0
  9
$UCSORGTOP
 10
0.0
 20
0.0
 30
0.0
  9
$UCSORGBOTTOM
 10
0.0
 20
0.0
 30
0.0
  9
$UCSORGLEFT
 10
0.0
 20
0.0
 30
0.0
  9
$UCSORGRIGHT
 10
0.0
 20
0.0
 30
0.0
  9
$UCSORGFRONT
 10
0.0
 20
0.0
 30
0.0
  9
$UCSORGBACK
 10
0.0
 20
0.0
 30
0.0
  9
$PUCSBASE
  2

  9
$PUCSNAME
  2

  9
$PUCSORG
 10
0.0
 20
0.0
 30
0.0
  9
$PUCSXDIR
 10
1.0
 20
0.0
 30
0.0
  9
$PUCSYDIR
 10
0.0
 20
1.0
 30
0.0
  9
$PUCSORTHOREF
  2

  9
$PUCSORTHOVIEW
 70
     0
  9
$PUCSORGTOP
 10
0.0
 20
0.0
 30
0.0
  9
$PUCSORGBOTTOM
 10
0.0
 20
0.0
 30
0.0
  9
$PUCSORGLEFT
 10
0.0
 20
0.0
 30
0.0
  9
$PUCSORGRIGHT
 10
0.0
 20
0.0
 30
0.0
  9
$PUCSORGFRONT
 10
0.0
 20
0.0
 30
0.0
  9
$PUCSORGBACK
 10
0.0
 20
0.0
 30
0.0
  9
$USERI1
 70
     0
  9
$USERI2
 70
     0
  9
$USERI3
 70
     0
  9
$USERI4
 70
     0
  9
$USERI5
 70
     0
  9
$USERR1
 40
0.0
  9
$USERR2
 40
0.0
  9
$USERR3
 40
0.0
  9
$USERR4
 40
0.0
  9
$USERR5
 40
0.0
  9
$WORLDVIEW
 70
     1
  9
$SHADEDGE
 70
     3
  9
$SHADEDIF
 70
    70
  9
$TILEMODE
 70
     1
  9
$MAXACTVP
 70
    64
  9
$PINSBASE
 10
0.0
 20
0.0
 30
0.0
  9
$PLIMCHECK
 70
     0
  9
$PEXTMIN
 10
1.000000000000000E+20
 20
1.000000000000000E+20
 30
1.000000000000000E+20
  9
$PEXTMAX
 10
-1.000000000000000E+20
 20
-1.000000000000000E+20
 30
-1.000000000000000E+20
  9
$PLIMMIN
 10
0.0
 20
0.0
  9
$PLIMMAX
 10
12.0
 20
9.0
  9
$UNITMODE
 70
     0
  9
$VISRETAIN
 70
     1
  9
$PLINEGEN
 70
     0
  9
$PSLTSCALE
 70
     1
  9
$TREEDEPTH
 70
  3020
  9
$CMLSTYLE
  2
Standard
  9
$CMLJUST
 70
     0
  9
$CMLSCALE
 40
1.0
  9
$PROXYGRAPHICS
 70
     1
  9
$MEASUREMENT
 70
     0
  9
$CELWEIGHT
370
    -1
  9
$ENDCAPS
280
     0
  9
$JOINSTYLE
280
     0
  9
$LWDISPLAY
290
     0
  9
$INSUNITS
 70
     1
  9
$HYPERLINKBASE
  1

  9
$STYLESHEET
  1

  9
$XEDIT
290
     1
  9
$CEPSNTYPE
380
     0
  9
$PSTYLEMODE
290
     1
  9
$FINGERPRINTGUID
  2
{C59015C4-5DE0-46F0-ADC9-280D374CAF40}
  9
$VERSIONGUID
  2
{FAEB1C32-E019-11D5-929B-00C0DF256EC4}
  9
$EXTNAMES
290
     1
  9
$PSVPSCALE
 40
0.0
  9
$OLESTARTUP
290
     0
  9
$SORTENTS
280
   127
  9
$INDEXCTL
280
     0
  9
$HIDETEXT
280
     1
  9
$XCLIPFRAME
280
     2
  9
$HALOGAP
280
     0
  9
$OBSCOLOR
 70
   257
  9
$OBSLTYPE
280
     0
  9
$INTERSECTIONDISPLAY
280
     0
  9
$INTERSECTIONCOLOR
 70
   257
  9
$DIMASSOC
280
     2
  9
$PROJECTNAME
  1

  9
$CAMERADISPLAY
290
     0
  9
$LENSLENGTH
 40
50.0
  9
$CAMERAHEIGHT
 40
0.0
  9
$STEPSPERSEC
 40
2.0
  9
$STEPSIZE
 40
6.0
  9
$3DDWFPREC
 40
2.0
  9
$PSOLWIDTH
 40
0.25
  9
$PSOLHEIGHT
 40
4.0
  9
$LOFTANG1
 40
1.570796326794897
  9
$LOFTANG2
 40
1.570796326794897
  9
$LOFTMAG1
 40
0.0
  9
$LOFTMAG2
 40
0.0
  9
$LOFTPARAM
 70
     7
  9
$LOFTNORMALS
280
     1
  9
$LATITUDE
 40
37.795
  9
$LONGITUDE
 40
-122.394
  9
$NORTHDIRECTION
 40
0.0
  9
$TIMEZONE
 70
 -8000
  9
$LIGHTGLYPHDISPLAY
280
     1
  9
$TILEMODELIGHTSYNCH
280
     1
  9
$CMATERIAL
347
44
  9
$SOLIDHIST
280
     0
  9
$SHOWHIST
280
     1
  9
$DWFFRAME
280
     2
  9
$DGNFRAME
280
     2
  9
$REALWORLDSCALE
290
     1
  9
$INTERFERECOLOR
 62
   256
  9
$CSHADOW
280
     0
  9
$SHADOWPLANELOCATION
 40
0.0
  0
ENDSEC
  0
SECTION
  2
CLASSES
  0
CLASS
  1
ACDBDICTIONARYWDFLT
  2
AcDbDictionaryWithDefault
  3
ObjectDBX Classes
 90
        0
 91
        4
280
     0
281
     0
  0
CLASS
  1
VISUALSTYLE
  2
AcDbVisualStyle
  3
ObjectDBX Classes
 90
     4095
 91
        4
280
     0
281
     0
  0
CLASS
  1
MATERIAL
  2
AcDbMaterial
  3
ObjectDBX Classes
 90
     1153
 91
        4
280
     0
281
     0
  0
CLASS
  1
SCALE
  2
AcDbScale
  3
ObjectDBX Classes
 90
     1153
 91
        4
280
     0
281
     0
  0
CLASS
  1
TABLESTYLE
  2
AcDbTableStyle
  3
ObjectDBX Classes
 90
     4095
 91
        4
280
     0
281
     0
  0
CLASS
  1
MLEADERSTYLE
  2
AcDbMLeaderStyle
  3
ACDB_MLEADERSTYLE_CLASS
 90
     4095
 91
        4
280
     0
281
     0
  0
CLASS
  1
SUN
  2
AcDbSun
  3
SCENEOE
 90
     1153
 91
        4
280
     0
281
     0
  0
CLASS
  1
DICTIONARYVAR
  2
AcDbDictionaryVar
  3
ObjectDBX Classes
 90
        0
 91
        4
280
     0
281
     0
  0
CLASS
  1
CELLSTYLEMAP
  2
AcDbCellStyleMap
  3
ObjectDBX Classes
 90
     1152
 91
        4
280
     0
281
     0
  0
ENDSEC
  0
SECTION
  2
TABLES
  0
TABLE
  2
VPORT
  5
8
330
0
100
AcDbSymbolTable
 70
     1
  0
VPORT
  5
29
330
8
100
AcDbSymbolTableRecord
100
AcDbViewportTableRecord
  2
*Active
 70
     0
 10
0.0
 20
0.0
 11
1.0
 21
1.0
 12
-0.2376249999999995
 22
0.0
 13
0.0
 23
0.0
 14
0.5
 24
0.5
 15
0.5
 25
0.5
 16
0.0
 26
0.0
 36
1.0
 17
0.0
 27
0.0
 37
0.0
 40
3.182400000000001
 41
0.5529647435897431
 42
50.0
 43
0.0
 44
0.0
 50
0.0
 51
0.0
 71
     0
 72
   100
 73
     1
 74
     3
 75
     0
 76
     0
 77
     0
 78
     0
281
     0
 65
     1
110
0.0
120
0.0
130
0.0
111
1.0
121
0.0
131
0.0
112
0.0
122
1.0
132
0.0
 79
     0
146
0.0
348
2F
 60
     3
 61
     5
292
     1
282
     1
141
0.0
142
0.0
 63
   250
361
6D
  0
ENDTAB
  0
TABLE
  2
LTYPE
  5
5
330
0
100
AcDbSymbolTable
 70
     3
  0
LTYPE
  5
14
330
5
100
AcDbSymbolTableRecord
100
AcDbLinetypeTableRecord
  2
ByBlock
 70
     0
  3

 72
    65
 73
     0
 40
0.0
  0
LTYPE
  5
15
330
5
100
AcDbSymbolTableRecord
100
AcDbLinetypeTableRecord
  2
ByLayer
 70
     0
  3

 72
    65
 73
     0
 40
0.0
  0
LTYPE
  5
16
330
5
100
AcDbSymbolTableRecord
100
AcDbLinetypeTableRecord
  2
Continuous
 70
     0
  3
Solid line
 72
    65
 73
     0
 40
0.0
  0
LTYPE
  5
A7
330
5
100
AcDbSymbolTableRecord
100
AcDbLinetypeTableRecord
  2
Dashed
 70
     0
  3

 72
    65
 73
     2
 40
2.0
 49
1.0
 74
     0
 49
-1.0
 74
     0
  0
LTYPE
  5
108
330
5
100
AcDbSymbolTableRecord
100
AcDbLinetypeTableRecord
  2
Center
 70
     0
  3

 72
    65
 73
     4
 40
1.5
 49
0.45
 74
     0
 49
-0.5
 74
     0
 49
0.05
 74
     0
 49
-0.5
 74
     0
  0
ENDTAB
  0
TABLE
  2
LAYER
  5
2
330
0
100
AcDbSymbolTable
 70
     7
  0
LAYER
  5
10
330
2
100
AcDbSymbolTableRecord
100
AcDbLayerTableRecord
  2
0
 70
     0
 62
     7
  6
Continuous
370
    -3
390
F
347
46
348
0
  0
LAYER
  5
72
330
2
100
AcDbSymbolTableRecord
100
AcDbLayerTableRecord
  2
AM_6
 70
     0
 62
    -2
  6
Continuous
370
    35
390
F
347
46
348
0
  0
LAYER
  5
A8
330
2
100
AcDbSymbolTableRecord
100
AcDbLayerTableRecord
  2
AM_9
 70
     0
 62
     6
  6
Dashed
370
    25
390
F
347
46
348
0
  0
LAYER
  5
AC
330
2
100
AcDbSymbolTableRecord
100
AcDbLayerTableRecord
  2
AM_4
 70
     0
 62
     7
  6
Continuous
370
    50
390
F
347
46
348
0
  0
LAYER
  5
105
330
2
100
AcDbSymbolTableRecord
100
AcDbLayerTableRecord
  2
AM_5
 70
     0
 62
     3
  6
Continuous
370
    25
390
F
347
46
348
0
  0
LAYER
  5
109
330
2
100
AcDbSymbolTableRecord
100
AcDbLayerTableRecord
  2
AM_7
 70
     0
 62
     7
  6
Center
370
    25
390
F
347
46
348
0
  0
LAYER
  5
158
330
2
100
AcDbSymbolTableRecord
100
AcDbLayerTableRecord
  2
ConnectionPoints
 70
     0
 62
     7
  6
Continuous
370
    50
390
F
347
46
348
0
  0
ENDTAB
  0
TABLE
  2
STYLE
  5
3
330
0
100
AcDbSymbolTable
 70
     1
  0
STYLE
  5
11
330
3
100
AcDbSymbolTableRecord
100
AcDbTextStyleTableRecord
  2
Standard
 70
     0
 40
0.0
 41
1.0
 50
0.0
 71
     0
 42
0.2
  3
txt
  4

  0
ENDTAB
  0
TABLE
  2
VIEW
  5
6
330
0
100
AcDbSymbolTable
 70
     0
  0
ENDTAB
  0
TABLE
  2
UCS
  5
7
330
0
100
AcDbSymbolTable
 70
     0
  0
ENDTAB
  0
TABLE
  2
APPID
  5
9
330
0
100
AcDbSymbolTable
 70
     1
  0
APPID
  5
12
330
9
100
AcDbSymbolTableRecord
100
AcDbRegAppTableRecord
  2
ACAD
 70
     0
  0
ENDTAB
  0
TABLE
  2
DIMSTYLE
  5
A
330
0
100
AcDbSymbolTable
 70
     1
100
AcDbDimStyleTable
  0
DIMSTYLE
105
27
330
A
100
AcDbSymbolTableRecord
100
AcDbDimStyleTableRecord
  2
Standard
 70
     0
178
     0
340
11
  0
ENDTAB
  0
TABLE
  2
BLOCK_RECORD
  5
1
330
0
100
AcDbSymbolTable
 70
     5
  0
BLOCK_RECORD
  5
1F
330
1
100
AcDbSymbolTableRecord
100
AcDbBlockTableRecord
  2
*Model_Space
340
22
 70
     0
280
     1
281
     0
  0
BLOCK_RECORD
  5
1B
330
1
100
AcDbSymbolTableRecord
100
AcDbBlockTableRecord
  2
*Paper_Space
340
1E
 70
     0
280
     1
281
     0
  0
BLOCK_RECORD
  5
23
330
1
100
AcDbSymbolTableRecord
100
AcDbBlockTableRecord
  2
*Paper_Space0
340
26
 70
     0
280
     1
281
     0
  0
BLOCK_RECORD
  5
6E
330
1
100
AcDbSymbolTableRecord
100
AcDbBlockTableRecord
  2
1_128110_2
340
0
102
{BLKREFS
331
6F
102
}
 70
     0
280
     1
281
     0
  0
BLOCK_RECORD
  5
8A
330
1
100
AcDbSymbolTableRecord
100
AcDbBlockTableRecord
  2
2_128110HU_0_in_128110_2
340
0
102
{BLKREFS
331
8B
102
}
 70
     0
280
     1
281
     0
  0
BLOCK_RECORD
  5
BC
330
1
100
AcDbSymbolTableRecord
100
AcDbBlockTableRecord
  2
3_077986_0_in_128110_2
340
0
102
{BLKREFS
331
BD
102
}
 70
     0
280
     1
281
     0
  0
BLOCK_RECORD
  5
11B
330
1
100
AcDbSymbolTableRecord
100
AcDbBlockTableRecord
  2
4_128110HL_0_in_128110_2
340
0
102
{BLKREFS
331
11C
102
}
 70
     0
280
     1
281
     0
  0
ENDTAB
  0
ENDSEC
  0
SECTION
  2
BLOCKS
  0
BLOCK
  5
20
330
1F
100
AcDbEntity
  8
0
100
AcDbBlockBegin
  2
*Model_Space
 70
     0
 10
0.0
 20
0.0
 30
0.0
  3
*Model_Space
  1

  0
ENDBLK
  5
21
330
1F
100
AcDbEntity
  8
0
100
AcDbBlockEnd
  0
BLOCK
  5
1C
330
1B
100
AcDbEntity
 67
     1
  8
0
100
AcDbBlockBegin
  2
*Paper_Space
 70
     0
 10
0.0
 20
0.0
 30
0.0
  3
*Paper_Space
  1

  0
ENDBLK
  5
1D
330
1B
100
AcDbEntity
 67
     1
  8
0
100
AcDbBlockEnd
  0
BLOCK
  5
24
330
23
100
AcDbEntity
  8
0
100
AcDbBlockBegin
  2
*Paper_Space0
 70
     0
 10
0.0
 20
0.0
 30
0.0
  3
*Paper_Space0
  1

  0
ENDBLK
  5
25
330
23
100
AcDbEntity
  8
0
100
AcDbBlockEnd
  0
BLOCK
  5
70
330
6E
100
AcDbEntity
  8
0
100
AcDbBlockBegin
  2
1_128110_2
 70
     2
 10
0.0
 20
0.0
 30
0.0
  3
1_128110_2
  1

  0
ATTDEF
  5
73
330
6E
100
AcDbEntity
  8
AM_6
100
AcDbText
 10
5.625
 20
1.56
 30
0.0
 40
0.5
  1
Set Screw Light Duty Two-Bolt Pillow Block Inch Bore
100
AcDbAttributeDefinition
  3

  2
NN
 70
     8
280
     0
  0
ATTDEF
  5
74
330
6E
100
AcDbEntity
  8
AM_6
100
AcDbText
 10
5.625
 20
1.06
 30
0.0
 40
0.5
  1
SC Pillow Block Bearings -(Light Duty)
100
AcDbAttributeDefinition
  3

  2
NT
 70
     8
280
     0
  0
ATTDEF
  5
75
330
6E
100
AcDbEntity
  8
AM_6
100
AcDbText
 10
5.625
 20
0.56
 30
0.0
 40
0.5
  1
128110
100
AcDbAttributeDefinition
  3

  2
NB
 70
     8
280
     0
  0
ATTDEF
  5
76
330
6E
100
AcDbEntity
  8
AM_6
100
AcDbText
 10
5.625
 20
0.0600000000000001
 30
0.0
 40
0.5
  1
$PN.
100
AcDbAttributeDefinition
  3

  2
NBSYN
 70
     8
280
     0
  0
ATTDEF
  5
77
330
6E
100
AcDbEntity
  8
AM_6
100
AcDbText
 10
5.625
 20
-0.4399999999999999
 30
0.0
 40
0.5
  1
128110
100
AcDbAttributeDefinition
  3

  2
LINA
 70
     8
280
     0
  0
ATTDEF
  5
78
330
6E
100
AcDbEntity
  8
AM_6
100
AcDbText
 10
5.625
 20
-0.94
 30
0.0
 40
0.5
  1
207
100
AcDbAttributeDefinition
  3

  2
SERIES
 70
     8
280
     0
  0
ATTDEF
  5
79
330
6E
100
AcDbEntity
  8
AM_6
100
AcDbText
 10
5.625
 20
-1.44
 30
0.0
 40
0.5
  1
1-7/16
100
AcDbAttributeDefinition
  3

  2
SS
 70
     8
280
     0
  0
ATTDEF
  5
7A
330
6E
100
AcDbEntity
  8
AM_6
100
AcDbText
 10
5.625
 20
-1.94
 30
0.0
 40
0.5
  1
128110
100
AcDbAttributeDefinition
  3

  2
PN
 70
     8
280
     0
  0
ATTDEF
  5
7B
330
6E
100
AcDbEntity
  8
AM_6
100
AcDbText
 10
5.625
 20
-2.44
 30
0.0
 40
0.5
  1
P2B-SL-107
100
AcDbAttributeDefinition
  3

  2
DESCRIPTION
 70
     8
280
     0
  0
ATTDEF
  5
7C
330
6E
100
AcDbEntity
  8
AM_6
100
AcDbText
 10
5.625
 20
-2.94
 30
0.0
 40
0.5
  1
1.48
100
AcDbAttributeDefinition
  3

  2
W
 70
     8
280
     0
  0
ATTDEF
  5
7D
330
6E
100
AcDbEntity
  8
AM_6
100
AcDbText
 10
5.625
 20
-3.44
 30
0.0
 40
0.5
  1
1.40
100
AcDbAttributeDefinition
  3

  2
A
 70
     8
280
     0
  0
ATTDEF
  5
7E
330
6E
100
AcDbEntity
  8
AM_6
100
AcDbText
 10
5.625
 20
-3.94
 30
0.0
 40
0.5
  1
5.75
100
AcDbAttributeDefinition
  3

  2
B
 70
     8
280
     0
  0
ATTDEF
  5
7F
330
6E
100
AcDbEntity
  8
AM_6
100
AcDbText
 10
5.625
 20
-4.44
 30
0.0
 40
0.5
  1
1.25
100
AcDbAttributeDefinition
  3

  2
C
 70
     8
280
     0
  0
ATTDEF
  5
80
330
6E
100
AcDbEntity
  8
AM_6
100
AcDbText
 10
5.625
 20
-4.94
 30
0.0
 40
0.5
  1
4.25
100
AcDbAttributeDefinition
  3

  2
D
 70
     8
280
     0
  0
ATTDEF
  5
81
330
6E
100
AcDbEntity
  8
AM_6
100
AcDbText
 10
5.625
 20
-5.44
 30
0.0
 40
0.5
  1
1/2
100
AcDbAttributeDefinition
  3

  2
F
 70
     8
280
     0
  0
ATTDEF
  5
82
330
6E
100
AcDbEntity
  8
AM_6
100
AcDbText
 10
5.625
 20
-5.94
 30
0.0
 40
0.5
  1
0.75
100
AcDbAttributeDefinition
  3

  2
G
 70
     8
280
     0
  0
ATTDEF
  5
83
330
6E
100
AcDbEntity
  8
AM_6
100
AcDbText
 10
5.625
 20
-6.44
 30
0.0
 40
0.5
  1
0.24
100
AcDbAttributeDefinition
  3

  2
H
 70
     8
280
     0
  0
ATTDEF
  5
84
330
6E
100
AcDbEntity
  8
AM_6
100
AcDbText
 10
5.625
 20
-6.94
 30
0.0
 40
0.5
  1
3.12
100
AcDbAttributeDefinition
  3

  2
J
 70
     8
280
     0
  0
ATTDEF
  5
85
330
6E
100
AcDbEntity
  8
AM_6
100
AcDbText
 10
5.625
 20
-7.44
 30
0.0
 40
0.5
  1
1.84
100
AcDbAttributeDefinition
  3

  2
L
 70
     8
280
     0
  0
ATTDEF
  5
86
330
6E
100
AcDbEntity
  8
AM_6
100
AcDbText
 10
5.625
 20
-7.94
 30
0.0
 40
0.5
  1
1.56
100
AcDbAttributeDefinition
  3

  2
M
 70
     8
280
     0
  0
ATTDEF
  5
87
330
6E
100
AcDbEntity
  8
AM_6
100
AcDbText
 10
5.625
 20
-8.44
 30
0.0
 40
0.5
  1
0.37
100
AcDbAttributeDefinition
  3

  2
R
 70
     8
280
     0
  0
ATTDEF
  5
88
330
6E
100
AcDbEntity
  8
AM_6
100
AcDbText
 10
5.625
 20
-8.94
 30
0.0
 40
0.5
  1
1.03
100
AcDbAttributeDefinition
  3

  2
S
 70
     8
280
     0
  0
ATTDEF
  5
89
330
6E
100
AcDbEntity
  8
AM_6
100
AcDbText
 10
5.625
 20
-9.44
 30
0.0
 40
0.5
  1
baldor
100
AcDbAttributeDefinition
  3

  2
COMPANY
 70
     8
280
     0
  0
INSERT
  5
8B
330
6E
100
AcDbEntity
  8
0
100
AcDbBlockReference
  2
2_128110HU_0_in_128110_2
 10
0.0
 20
0.0
 30
0.0
  0
INSERT
  5
BD
330
6E
100
AcDbEntity
  8
0
100
AcDbBlockReference
  2
3_077986_0_in_128110_2
 10
0.0
 20
0.0
 30
0.0
  0
INSERT
  5
11C
330
6E
100
AcDbEntity
  8
0
100
AcDbBlockReference
  2
4_128110HL_0_in_128110_2
 10
0.0
 20
0.0
 30
0.0
  0
ENDBLK
  5
71
330
6E
100
AcDbEntity
  8
0
100
AcDbBlockEnd
  0
BLOCK
  5
8C
330
8A
100
AcDbEntity
  8
0
100
AcDbBlockBegin
  2
2_128110HU_0_in_128110_2
 70
     2
 10
0.0
 20
0.0
 30
0.0
  3
2_128110HU_0_in_128110_2
  1

  0
ATTDEF
  5
8E
330
8A
100
AcDbEntity
  8
AM_6
100
AcDbText
 10
5.625
 20
1.56
 30
0.0
 40
0.5
  1
P2B-SL -I-Housing-(UP)
100
AcDbAttributeDefinition
  3

  2
NN
 70
     8
280
     0
  0
ATTDEF
  5
8F
330
8A
100
AcDbEntity
  8
AM_6
100
AcDbText
 10
5.625
 20
1.06
 30
0.0
 40
0.5
  1
SC Pillow Block Bearings -(Light Duty)
100
AcDbAttributeDefinition
  3

  2
NT
 70
     8
280
     0
  0
ATTDEF
  5
90
330
8A
100
AcDbEntity
  8
AM_6
100
AcDbText
 10
5.625
 20
0.56
 30
0.0
 40
0.5
  1
128110HU
100
AcDbAttributeDefinition
  3

  2
NB
 70
     8
280
     0
  0
ATTDEF
  5
91
330
8A
100
AcDbEntity
  8
AM_6
100
AcDbText
 10
5.625
 20
0.0600000000000001
 30
0.0
 40
0.5
  1
$PN.HU
100
AcDbAttributeDefinition
  3

  2
NBSYN
 70
     8
280
     0
  0
ATTDEF
  5
92
330
8A
100
AcDbEntity
  8
AM_6
100
AcDbText
 10
5.625
 20
-0.4399999999999999
 30
0.0
 40
0.5
  1
128110
100
AcDbAttributeDefinition
  3

  2
LINA
 70
     8
280
     0
  0
ATTDEF
  5
93
330
8A
100
AcDbEntity
  8
AM_6
100
AcDbText
 10
5.625
 20
-0.94
 30
0.0
 40
0.5
  1
207
100
AcDbAttributeDefinition
  3

  2
SERIES
 70
     8
280
     0
  0
ATTDEF
  5
94
330
8A
100
AcDbEntity
  8
AM_6
100
AcDbText
 10
5.625
 20
-1.44
 30
0.0
 40
0.5
  1
1-7/16
100
AcDbAttributeDefinition
  3

  2
SS
 70
     8
280
     0
  0
ATTDEF
  5
95
330
8A
100
AcDbEntity
  8
AM_6
100
AcDbText
 10
5.625
 20
-1.94
 30
0.0
 40
0.5
  1
128110
100
AcDbAttributeDefinition
  3

  2
PN
 70
     8
280
     0
  0
ATTDEF
  5
96
330
8A
100
AcDbEntity
  8
AM_6
100
AcDbText
 10
5.625
 20
-2.44
 30
0.0
 40
0.5
  1
P2B-SL-107
100
AcDbAttributeDefinition
  3

  2
DESCRIPTION
 70
     8
280
     0
  0
ATTDEF
  5
97
330
8A
100
AcDbEntity
  8
AM_6
100
AcDbText
 10
5.625
 20
-2.94
 30
0.0
 40
0.5
  1
1.48
100
AcDbAttributeDefinition
  3

  2
W
 70
     8
280
     0
  0
ATTDEF
  5
98
330
8A
100
AcDbEntity
  8
AM_6
100
AcDbText
 10
5.625
 20
-3.44
 30
0.0
 40
0.5
  1
1.40
100
AcDbAttributeDefinition
  3

  2
A
 70
     8
280
     0
  0
ATTDEF
  5
99
330
8A
100
AcDbEntity
  8
AM_6
100
AcDbText
 10
5.625
 20
-3.94
 30
0.0
 40
0.5
  1
5.75
100
AcDbAttributeDefinition
  3

  2
B
 70
     8
280
     0
  0
ATTDEF
  5
9A
330
8A
100
AcDbEntity
  8
AM_6
100
AcDbText
 10
5.625
 20
-4.44
 30
0.0
 40
0.5
  1
1.25
100
AcDbAttributeDefinition
  3

  2
C
 70
     8
280
     0
  0
ATTDEF
  5
9B
330
8A
100
AcDbEntity
  8
AM_6
100
AcDbText
 10
5.625
 20
-4.94
 30
0.0
 40
0.5
  1
4.25
100
AcDbAttributeDefinition
  3

  2
D
 70
     8
280
     0
  0
ATTDEF
  5
9C
330
8A
100
AcDbEntity
  8
AM_6
100
AcDbText
 10
5.625
 20
-5.44
 30
0.0
 40
0.5
  1
1/2
100
AcDbAttributeDefinition
  3

  2
F
 70
     8
280
     0
  0
ATTDEF
  5
9D
330
8A
100
AcDbEntity
  8
AM_6
100
AcDbText
 10
5.625
 20
-5.94
 30
0.0
 40
0.5
  1
0.75
100
AcDbAttributeDefinition
  3

  2
G
 70
     8
280
     0
  0
ATTDEF
  5
9E
330
8A
100
AcDbEntity
  8
AM_6
100
AcDbText
 10
5.625
 20
-6.44
 30
0.0
 40
0.5
  1
0.24
100
AcDbAttributeDefinition
  3

  2
H
 70
     8
280
     0
  0
ATTDEF
  5
9F
330
8A
100
AcDbEntity
  8
AM_6
100
AcDbText
 10
5.625
 20
-6.94
 30
0.0
 40
0.5
  1
3.12
100
AcDbAttributeDefinition
  3

  2
J
 70
     8
280
     0
  0
ATTDEF
  5
A0
330
8A
100
AcDbEntity
  8
AM_6
100
AcDbText
 10
5.625
 20
-7.44
 30
0.0
 40
0.5
  1
1.84
100
AcDbAttributeDefinition
  3

  2
L
 70
     8
280
     0
  0
ATTDEF
  5
A1
330
8A
100
AcDbEntity
  8
AM_6
100
AcDbText
 10
5.625
 20
-7.94
 30
0.0
 40
0.5
  1
1.56
100
AcDbAttributeDefinition
  3

  2
M
 70
     8
280
     0
  0
ATTDEF
  5
A2
330
8A
100
AcDbEntity
  8
AM_6
100
AcDbText
 10
5.625
 20
-8.44
 30
0.0
 40
0.5
  1
0.37
100
AcDbAttributeDefinition
  3

  2
R
 70
     8
280
     0
  0
ATTDEF
  5
A3
330
8A
100
AcDbEntity
  8
AM_6
100
AcDbText
 10
5.625
 20
-8.94
 30
0.0
 40
0.5
  1
1.03
100
AcDbAttributeDefinition
  3

  2
S
 70
     8
280
     0
  0
ATTDEF
  5
A4
330
8A
100
AcDbEntity
  8
AM_6
100
AcDbText
 10
5.625
 20
-9.44
 30
0.0
 40
0.5
  1
3065
100
AcDbAttributeDefinition
  3

  2
CAPS
 70
     8
280
     0
  0
ATTDEF
  5
A5
330
8A
100
AcDbEntity
  8
AM_6
100
AcDbText
 10
5.625
 20
-9.94
 30
0.0
 40
0.5
  1
5759
100
AcDbAttributeDefinition
  3

  2
CAPD
 70
     8
280
     0
  0
ATTDEF
  5
A6
330
8A
100
AcDbEntity
  8
AM_6
100
AcDbText
 10
5.625
 20
-10.44
 30
0.0
 40
0.5
  1
baldor
100
AcDbAttributeDefinition
  3

  2
COMPANY
 70
     8
280
     0
  0
LINE
  5
A9
330
8A
100
AcDbEntity
  8
AM_9
100
AcDbLine
 10
0.4999999374999999
 20
1.4173
 30
0.0
 11
-0.4999999374999999
 21
1.4173
 31
0.0
  0
LINE
  5
AA
330
8A
100
AcDbEntity
  8
AM_9
100
AcDbLine
 10
-0.2499999999999999
 20
-1.32
 30
0.0
 11
-0.2499999999999999
 21
-1.44
 31
0.0
  0
LINE
  5
AB
330
8A
100
AcDbEntity
  8
AM_9
100
AcDbLine
 10
0.2500000000000002
 20
-1.32
 30
0.0
 11
0.2500000000000003
 21
-1.44
 31
0.0
  0
LINE
  5
AD
330
8A
100
AcDbEntity
  8
AM_4
100
AcDbLine
 10
0.4999999374999999
 20
-0.2621918916190342
 30
0.0
 11
0.4999999374999999
 21
1.56
 31
0.0
  0
LINE
  5
AE
330
8A
100
AcDbEntity
  8
AM_4
100
AcDbLine
 10
0.4999999374999999
 20
1.56
 30
0.0
 11
-0.4999999374999999
 21
1.56
 31
0.0
  0
LINE
  5
AF
330
8A
100
AcDbEntity
  8
AM_4
100
AcDbLine
 10
-0.4999999374999999
 20
1.56
 30
0.0
 11
-0.4999999374999999
 21
-0.2621918916190339
 31
0.0
  0
LINE
  5
B0
330
8A
100
AcDbEntity
  8
AM_4
100
AcDbLine
 10
0.6249999999999999
 20
-1.32
 30
0.0
 11
0.5125400414744763
 21
-0.4557456508585302
 31
0.0
  0
LINE
  5
B1
330
8A
100
AcDbEntity
  8
AM_4
100
AcDbLine
 10
-0.5125400414744766
 20
-0.4557456508585255
 30
0.0
 11
-0.6249999999999999
 21
-1.32
 31
0.0
  0
ARC
  5
B2
330
8A
100
AcDbEntity
  8
AM_4
100
AcDbCircle
 10
-1.999999937499926
 20
-0.2621918916190379
 30
0.0
 40
1.499999999999926
100
AcDbArc
 50
352.5861192678314
 51
0.0000008537736463
  0
ARC
  5
B3
330
8A
100
AcDbEntity
  8
AM_4
100
AcDbCircle
 10
1.999999937500087
 20
-0.2621918916190348
 30
0.0
 40
1.500000000000087
100
AcDbArc
 50
180.0
 51
187.4138807321682
  0
LINE
  5
B4
330
8A
100
AcDbEntity
  8
AM_4
100
AcDbLine
 10
-0.4999999374999999
 20
-0.0000000000000003
 30
0.0
 11
0.4999999374999999
 21
0.0
 31
0.0
  0
LINE
  5
B5
330
8A
100
AcDbEntity
  8
AM_4
100
AcDbLine
 10
-0.6093851581001951
 20
-1.199999999999999
 30
0.0
 11
0.6093851581001949
 21
-1.199999999999999
 31
0.0
  0
LINE
  5
B6
330
8A
100
AcDbEntity
  8
AM_4
100
AcDbLine
 10
-0.6249999999999999
 20
-1.44
 30
0.0
 11
-0.6249999999999999
 21
-1.32
 31
0.0
  0
LINE
  5
B7
330
8A
100
AcDbEntity
  8
AM_4
100
AcDbLine
 10
-0.6249999999999999
 20
-1.44
 30
0.0
 11
0.6250000000000001
 21
-1.44
 31
0.0
  0
LINE
  5
B8
330
8A
100
AcDbEntity
  8
AM_4
100
AcDbLine
 10
0.6250000000000001
 20
-1.44
 30
0.0
 11
0.6250000000000001
 21
-1.32
 31
0.0
  0
LINE
  5
B9
330
8A
100
AcDbEntity
  8
AM_4
100
AcDbLine
 10
-0.6249999999999999
 20
-1.32
 30
0.0
 11
0.6250000000000001
 21
-1.32
 31
0.0
  0
LINE
  5
BA
330
8A
100
AcDbEntity
  8
AM_4
100
AcDbLine
 10
0.4999999375000002
 20
-1.32
 30
0.0
 11
0.4999999375000002
 21
-1.44
 31
0.0
  0
LINE
  5
BB
330
8A
100
AcDbEntity
  8
AM_4
100
AcDbLine
 10
-0.4999999375000008
 20
-1.32
 30
0.0
 11
-0.4999999375000008
 21
-1.44
 31
0.0
  0
ENDBLK
  5
8D
330
8A
100
AcDbEntity
  8
0
100
AcDbBlockEnd
  0
BLOCK
  5
BE
330
BC
100
AcDbEntity
  8
0
100
AcDbBlockBegin
  2
3_077986_0_in_128110_2
 70
     2
 10
0.0
 20
0.0
 30
0.0
  3
3_077986_0_in_128110_2
  1

  0
ATTDEF
  5
C0
330
BC
100
AcDbEntity
  8
AM_6
100
AcDbText
 10
5.44525
 20
1.41664521086603
 30
0.0
 40
0.5
  1
Set Screw Light Duty Insert with Pin Inch Bore
100
AcDbAttributeDefinition
  3

  2
NN
 70
     8
280
     0
  0
ATTDEF
  5
C1
330
BC
100
AcDbEntity
  8
AM_6
100
AcDbText
 10
5.44525
 20
0.9166452108660303
 30
0.0
 40
0.5
  1
SCP Bearing Inserts
100
AcDbAttributeDefinition
  3

  2
NT
 70
     8
280
     0
  0
ATTDEF
  5
C2
330
BC
100
AcDbEntity
  8
AM_6
100
AcDbText
 10
5.44525
 20
0.4166452108660303
 30
0.0
 40
0.5
  1
077986
100
AcDbAttributeDefinition
  3

  2
NB
 70
     8
280
     0
  0
ATTDEF
  5
C3
330
BC
100
AcDbEntity
  8
AM_6
100
AcDbText
 10
5.44525
 20
-0.0833547891339697
 30
0.0
 40
0.5
  1
$PN.
100
AcDbAttributeDefinition
  3

  2
NBSYN
 70
     8
280
     0
  0
ATTDEF
  5
C4
330
BC
100
AcDbEntity
  8
AM_6
100
AcDbText
 10
5.44525
 20
-0.5833547891339697
 30
0.0
 40
0.5
  1
077986
100
AcDbAttributeDefinition
  3

  2
LINA
 70
     8
280
     0
  0
ATTDEF
  5
C5
330
BC
100
AcDbEntity
  8
AM_6
100
AcDbText
 10
5.44525
 20
-1.08335478913397
 30
0.0
 40
0.5
  1
207
100
AcDbAttributeDefinition
  3

  2
SERIES
 70
     8
280
     0
  0
ATTDEF
  5
C6
330
BC
100
AcDbEntity
  8
AM_6
100
AcDbText
 10
5.44525
 20
-1.58335478913397
 30
0.0
 40
0.5
  1
1-7/16
100
AcDbAttributeDefinition
  3

  2
SS
 70
     8
280
     0
  0
ATTDEF
  5
C7
330
BC
100
AcDbEntity
  8
AM_6
100
AcDbText
 10
5.44525
 20
-2.08335478913397
 30
0.0
 40
0.5
  1
077986
100
AcDbAttributeDefinition
  3

  2
PN
 70
     8
280
     0
  0
ATTDEF
  5
C8
330
BC
100
AcDbEntity
  8
AM_6
100
AcDbText
 10
5.44525
 20
-2.58335478913397
 30
0.0
 40
0.5
  1
INS-SCP-107
100
AcDbAttributeDefinition
  3

  2
DESCRIPTION
 70
     8
280
     0
  0
ATTDEF
  5
C9
330
BC
100
AcDbEntity
  8
AM_6
100
AcDbText
 10
5.44525
 20
-3.08335478913397
 30
0.0
 40
0.5
  1
1.40
100
AcDbAttributeDefinition
  3

  2
A
 70
     8
280
     0
  0
ATTDEF
  5
CA
330
BC
100
AcDbEntity
  8
AM_6
100
AcDbText
 10
5.44525
 20
-3.58335478913397
 30
0.0
 40
0.5
  1
0.75
100
AcDbAttributeDefinition
  3

  2
C
 70
     8
280
     0
  0
ATTDEF
  5
CB
330
BC
100
AcDbEntity
  8
AM_6
100
AcDbText
 10
5.44525
 20
-4.08335478913397
 30
0.0
 40
0.5
  1
2.8346
100
AcDbAttributeDefinition
  3

  2
D
 70
     8
280
     0
  0
ATTDEF
  5
CC
330
BC
100
AcDbEntity
  8
AM_6
100
AcDbText
 10
5.44525
 20
-4.58335478913397
 30
0.0
 40
0.5
  1
0.20
100
AcDbAttributeDefinition
  3

  2
J
 70
     8
280
     0
  0
ATTDEF
  5
CD
330
BC
100
AcDbEntity
  8
AM_6
100
AcDbText
 10
5.44525
 20
-5.08335478913397
 30
0.0
 40
0.5
  1
1.84
100
AcDbAttributeDefinition
  3

  2
L
 70
     8
280
     0
  0
ATTDEF
  5
CE
330
BC
100
AcDbEntity
  8
AM_6
100
AcDbText
 10
5.44525
 20
-5.58335478913397
 30
0.0
 40
0.5
  1
5/16 - 24
100
AcDbAttributeDefinition
  3

  2
N
 70
     8
280
     0
  0
ATTDEF
  5
CF
330
BC
100
AcDbEntity
  8
AM_6
100
AcDbText
 10
5.44525
 20
-6.08335478913397
 30
0.0
 40
0.5
  1
0.37
100
AcDbAttributeDefinition
  3

  2
W
 70
     8
280
     0
  0
ATTDEF
  5
D0
330
BC
100
AcDbEntity
  8
AM_6
100
AcDbText
 10
5.44525
 20
-6.58335478913397
 30
0.0
 40
0.5
  1
1.03
100
AcDbAttributeDefinition
  3

  2
Y
 70
     8
280
     0
  0
ATTDEF
  5
D1
330
BC
100
AcDbEntity
  8
AM_6
100
AcDbText
 10
5.44525
 20
-7.08335478913397
 30
0.0
 40
0.5
  1
baldor
100
AcDbAttributeDefinition
  3

  2
COMPANY
 70
     8
280
     0
  0
CIRCLE
  5
D2
330
BC
100
AcDbEntity
  8
AM_9
100
AcDbCircle
 10
0.1999999999999999
 20
-0.0000000000000001
 30
0.0
 40
0.0359848484848541
  0
LINE
  5
D3
330
BC
100
AcDbEntity
  8
AM_9
100
AcDbLine
 10
-0.7482388117500068
 20
0.7090607600201146
 30
0.0
 11
-0.6567611882499931
 21
0.7090607600201146
 31
0.0
  0
LINE
  5
D4
330
BC
100
AcDbEntity
  8
AM_9
100
AcDbLine
 10
-0.5762999999999999
 20
0.7187500000000001
 30
0.0
 11
-0.5762999999999999
 21
0.8991344012334845
 31
0.0
  0
LINE
  5
D5
330
BC
100
AcDbEntity
  8
AM_9
100
AcDbLine
 10
-0.8287
 20
0.8991344012334845
 30
0.0
 11
-0.8287
 21
0.7187500000000001
 31
0.0
  0
LINE
  5
D6
330
BC
100
AcDbEntity
  8
AM_9
100
AcDbLine
 10
-0.5762999999999999
 20
0.8991344012334845
 30
0.0
 11
-0.5554344012334811
 21
0.9200000000000033
 31
0.0
  0
LINE
  5
D7
330
BC
100
AcDbEntity
  8
AM_9
100
AcDbLine
 10
-0.8495655987665188
 20
0.9200000000000033
 30
0.0
 11
-0.8287
 21
0.8991344012334845
 31
0.0
  0
LINE
  5
D8
330
BC
100
AcDbEntity
  8
AM_9
100
AcDbLine
 10
-0.8287
 20
0.8991344012334845
 30
0.0
 11
-0.5762999999999999
 21
0.8991344012334845
 31
0.0
  0
LWPOLYLINE
  5
D9
330
BC
100
AcDbEntity
  8
AM_9
100
AcDbPolyline
 90
        7
 70
     0
 43
0.0
 10
-0.7482388117500068
 20
0.7090607600201146
 10
-0.7472980365439774
 20
0.7089876846752278
 10
-0.728788665878512
 20
0.7078615288487692
 10
-0.7093774234063223
 20
0.7073013941260886
 10
-0.6914673839492669
 20
0.7073697111592162
 10
-0.6738806511354661
 20
0.7079667031034141
 10
-0.6567611882499931
 20
0.7090607600201146
  0
LWPOLYLINE
  5
DA
330
BC
100
AcDbEntity
  8
AM_9
100
AcDbPolyline
 90
        9
 70
     0
 43
0.0
 10
-0.6567611882499931
 20
0.7090607600201146
 10
-0.637888908852093
 20
0.7105277725742487
 10
-0.6203555448991942
 20
0.7123361804680487
 10
-0.6056252446199681
 20
0.7141847385165416
 10
-0.593259361003719
 20
0.715966926406741
 10
-0.5842771644368325
 20
0.7173923343252254
 10
-0.5784607605360909
 20
0.7183737574736323
 10
-0.5763250972481223
 20
0.7187455937843694
 10
-0.5763000000005657
 20
0.7187499999999007
  0
LWPOLYLINE
  5
DB
330
BC
100
AcDbEntity
  8
AM_9
100
AcDbPolyline
 90
        7
 70
     0
 43
0.0
 10
-0.7482388117500074
 20
0.1930623478339779
 10
-0.733180775638138
 20
0.1873759202140746
 10
-0.7170271684683389
 20
0.1838862955294865
 10
-0.6991090099038255
 20
0.1829475727307845
 10
-0.6807325654923012
 20
0.1851320449129793
 10
-0.668505924497116
 20
0.1884198916981168
 10
-0.6567611882499925
 20
0.1930623478339779
  0
LWPOLYLINE
  5
DC
330
BC
100
AcDbEntity
  8
AM_9
100
AcDbPolyline
 90
        7
 70
     0
 43
0.0
 10
-0.6567611882499936
 20
0.4062617039025025
 10
-0.662823655602564
 20
0.4084748724402392
 10
-0.6815480843500463
 20
0.4131412855587503
 10
-0.7009914863230722
 20
0.4148997949124594
 10
-0.7186936925608437
 20
0.4138552032237178
 10
-0.7359328530230623
 20
0.4103842200507569
 10
-0.7482388117500063
 20
0.4062617039025025
  0
LINE
  5
DD
330
BC
100
AcDbEntity
  8
AM_9
100
AcDbLine
 10
0.3332
 20
0.7187500000000001
 30
0.0
 11
-0.5762999999999999
 21
0.7187500000000001
 31
0.0
  0
LINE
  5
DE
330
BC
100
AcDbEntity
  8
AM_9
100
AcDbLine
 10
-0.8287
 20
0.7187500000000001
 30
0.0
 11
-0.9931999999999997
 21
0.7187500000000001
 31
0.0
  0
LINE
  5
DF
330
BC
100
AcDbEntity
  8
AM_9
100
AcDbLine
 10
-0.9931999999999997
 20
-0.7187500000000001
 30
0.0
 11
0.3332
 21
-0.7187500000000001
 31
0.0
  0
LWPOLYLINE
  5
E0
330
BC
100
AcDbEntity
  8
AM_9
100
AcDbPolyline
 90
        9
 70
     0
 43
0.0
 10
-0.8286999999994342
 20
0.7187499999999007
 10
-0.8272763979080062
 20
0.7185014070792745
 10
-0.8225251512965497
 20
0.7176915489566249
 10
-0.814299835363005
 20
0.7163618678344035
 10
-0.8031985038489133
 20
0.7147134468984124
 10
-0.7889588281660349
 20
0.7128465834019576
 10
-0.7725205386659842
 20
0.7110400820875533
 10
-0.7535675090236426
 20
0.7094244237252336
 10
-0.7482388117500068
 20
0.7090607600201145
  0
LINE
  5
E1
330
BC
100
AcDbEntity
  8
AM_9
100
AcDbLine
 10
0.3332
 20
-0.7187500000000001
 30
0.0
 11
0.3332
 21
0.7187500000000001
 31
0.0
  0
LINE
  5
E2
330
BC
100
AcDbEntity
  8
AM_9
100
AcDbLine
 10
0.3332
 20
-0.7187500000000001
 30
0.0
 11
0.37
 21
-0.755549999999999
 31
0.0
  0
LINE
  5
E3
330
BC
100
AcDbEntity
  8
AM_9
100
AcDbLine
 10
0.37
 20
0.755549999999999
 30
0.0
 11
0.3332
 21
0.7187500000000001
 31
0.0
  0
LINE
  5
E4
330
BC
100
AcDbEntity
  8
AM_9
100
AcDbLine
 10
-0.9931999999999997
 20
0.71875
 30
0.0
 11
-1.03
 21
0.755549999999999
 31
0.0
  0
LINE
  5
E5
330
BC
100
AcDbEntity
  8
AM_9
100
AcDbLine
 10
-1.03
 20
-0.755549999999999
 30
0.0
 11
-0.9931999999999997
 21
-0.71875
 31
0.0
  0
ELLIPSE
  5
E6
330
BC
100
AcDbEntity
  8
AM_9
100
AcDbEllipse
 10
-0.7025
 20
0.2996620258682402
 30
0.0
 11
0.1261999999999999
 21
0.0
 31
0.0
210
0.0
220
0.0
230
1.0
 40
0.9063077870366518
 41
4.341513899853922
 42
5.083264060915457
  0
LWPOLYLINE
  5
E7
330
BC
100
AcDbEntity
  8
AM_9
100
AcDbPolyline
 90
        4
 70
     0
 43
0.0
 10
-0.8211103393124206
 20
0.3422763862348999
 10
-0.826539239463909
 20
0.324672342326672
 10
-0.8286749027518776
 20
0.3060359428940303
 10
-0.8286999993972292
 20
0.3037680544151949
  0
LWPOLYLINE
  5
E8
330
BC
100
AcDbEntity
  8
AM_9
100
AcDbPolyline
 90
        9
 70
     0
 43
0.0
 10
-0.6567611882499925
 20
0.193062347833978
 10
-0.6378889088520928
 20
0.2020328684541543
 10
-0.620355544899194
 20
0.2142168437059418
 10
-0.6056252446199679
 20
0.2285245132587959
 10
-0.5932593610037188
 20
0.2453114911297364
 10
-0.5842771644368323
 20
0.2631636737060344
 10
-0.5784607605360907
 20
0.2825233950006115
 10
-0.5763250972481222
 20
0.3014740840638448
 10
-0.5763000006027706
 20
0.303745696747604
  0
LINE
  5
E9
330
BC
100
AcDbEntity
  8
AM_9
100
AcDbLine
 10
-0.5762999999999999
 20
0.3037429470239889
 30
0.0
 11
-0.5762999999999999
 21
0.3799906177205599
 31
0.0
  0
LINE
  5
EA
330
BC
100
AcDbEntity
  8
AM_9
100
AcDbLine
 10
-0.8287
 20
0.3799906177205599
 30
0.0
 11
-0.8287
 21
0.303742947023989
 31
0.0
  0
LWPOLYLINE
  5
EB
330
BC
100
AcDbEntity
  8
AM_9
100
AcDbPolyline
 90
        9
 70
     0
 43
0.0
 10
-0.8286999993972292
 20
0.3037680544151949
 10
-0.8272763979080064
 20
0.2865206679501006
 10
-0.8225251512965499
 20
0.2679704879591867
 10
-0.8142998353630054
 20
0.2496899869307916
 10
-0.8031985038489137
 20
0.2331104658169002
 10
-0.7889588281660355
 20
0.2179441915998964
 10
-0.7725205386659849
 20
0.2053424027899133
 10
-0.7535675090236432
 20
0.1952223419198582
 10
-0.7482388117500074
 20
0.1930623478339776
  0
LWPOLYLINE
  5
EC
330
BC
100
AcDbEntity
  8
AM_9
100
AcDbPolyline
 90
        4
 70
     0
 43
0.0
 10
-0.5763000006027706
 20
0.303745696747604
 10
-0.5777236020919936
 20
0.3207829634860797
 10
-0.5824748487034502
 20
0.3386486218128922
 10
-0.5838225331633027
 20
0.3421132630539032
  0
LINE
  5
ED
330
BC
100
AcDbEntity
  8
AM_9
100
AcDbLine
 10
0.37
 20
-0.9200000000000035
 30
0.0
 11
0.37
 21
0.9200000000000035
 31
0.0
  0
LINE
  5
EE
330
BC
100
AcDbEntity
  8
AM_9
100
AcDbLine
 10
0.3750000000000001
 20
0.9200000000000035
 30
0.0
 11
0.37
 21
0.9200000000000035
 31
0.0
  0
LINE
  5
EF
330
BC
100
AcDbEntity
  8
AM_9
100
AcDbLine
 10
0.37
 20
-0.9200000000000035
 30
0.0
 11
0.3750000000000001
 21
-0.9200000000000035
 31
0.0
  0
LINE
  5
F0
330
BC
100
AcDbEntity
  8
AM_9
100
AcDbLine
 10
-0.3750000000000001
 20
0.9200000000000033
 30
0.0
 11
-0.4999999374999999
 21
0.9200000000000033
 31
0.0
  0
LINE
  5
F1
330
BC
100
AcDbEntity
  8
AM_9
100
AcDbLine
 10
-0.5729505270006512
 20
-0.9200000000000033
 30
0.0
 11
-0.3750000000000001
 21
-0.9200000000000033
 31
0.0
  0
LINE
  5
F2
330
BC
100
AcDbEntity
  8
AM_9
100
AcDbLine
 10
-0.5594176733322197
 20
0.9194581751648995
 30
0.0
 11
-0.5554344012336632
 21
0.9199999999999782
 31
0.0
  0
LINE
  5
F3
330
BC
100
AcDbEntity
  8
AM_9
100
AcDbLine
 10
-0.6097885776990689
 20
0.9138577643927663
 30
0.0
 11
-0.595954270308014
 21
0.9151628589167369
 31
0.0
  0
LINE
  5
F4
330
BC
100
AcDbEntity
  8
AM_9
100
AcDbLine
 10
-0.1600000000000001
 20
1.350633333333336
 30
0.0
 11
-0.24
 21
1.350633333333336
 31
0.0
  0
LINE
  5
F5
330
BC
100
AcDbEntity
  8
AM_9
100
AcDbLine
 10
-0.24
 20
-1.350633333333336
 30
0.0
 11
-0.1600000000000001
 21
-1.350633333333336
 31
0.0
  0
LINE
  5
F6
330
BC
100
AcDbEntity
  8
AM_9
100
AcDbLine
 10
-0.3749999999999999
 20
-1.335937981344939
 30
0.0
 11
-0.3749999999999999
 21
1.335937981344939
 31
0.0
  0
ARC
  5
F7
330
BC
100
AcDbEntity
  8
AM_9
100
AcDbCircle
 10
-0.3349999999999996
 20
1.335937981344942
 30
0.0
 40
0.0400000000000003
100
AcDbArc
 50
104.0772272067149
 51
180.0
  0
ARC
  5
F8
330
BC
100
AcDbEntity
  8
AM_9
100
AcDbCircle
 10
-0.3349999999999996
 20
-1.335937981344942
 30
0.0
 40
0.0400000000000003
100
AcDbArc
 50
180.0
 51
255.922772793285
  0
LINE
  5
F9
330
BC
100
AcDbEntity
  8
AM_9
100
AcDbLine
 10
0.3750000000000001
 20
-1.335937981344939
 30
0.0
 11
0.3750000000000001
 21
1.335937981344939
 31
0.0
  0
ARC
  5
FA
330
BC
100
AcDbEntity
  8
AM_9
100
AcDbCircle
 10
0.3350000000000004
 20
1.335937981344943
 30
0.0
 40
0.0399999999999996
100
AcDbArc
 50
0.0
 51
75.92277279328543
  0
ARC
  5
FB
330
BC
100
AcDbEntity
  8
AM_9
100
AcDbCircle
 10
0.3350000000000004
 20
-1.335937981344943
 30
0.0
 40
0.0399999999999998
100
AcDbArc
 50
284.0772272067147
 51
0.0
  0
ARC
  5
FC
330
BC
100
AcDbEntity
  8
AM_9
100
AcDbCircle
 10
0.0000000000001053
 20
-0.0000000000005165
 30
0.0
 40
1.417300000000526
100
AcDbArc
 50
99.74921852491468
 51
104.0772272067123
  0
ARC
  5
FD
330
BC
100
AcDbEntity
  8
AM_9
100
AcDbCircle
 10
-0.0000000000348221
 20
-0.0000000001651461
 30
0.0
 40
1.417299999831463
100
AcDbArc
 50
255.9227727930295
 51
260.2507814753437
  0
LINE
  5
FE
330
BC
100
AcDbEntity
  8
AM_9
100
AcDbLine
 10
-0.24
 20
-1.396831876068249
 30
0.0
 11
-0.24
 21
1.396831876068125
 31
0.0
  0
LINE
  5
FF
330
BC
100
AcDbEntity
  8
AM_9
100
AcDbLine
 10
-0.3447291802802593
 20
-1.374736731983124
 30
0.0
 11
-0.3447291802802593
 21
1.374736731983
 31
0.0
  0
LWPOLYLINE
  5
100
330
BC
100
AcDbEntity
  8
AM_9
100
AcDbPolyline
 90
       38
 70
     0
 43
0.0
 10
0.273832114837761
 20
-0.0734813803832577
 10
0.2850473091660516
 20
-0.0601289094521438
 10
0.2939075419616276
 20
-0.0450784650045739
 10
0.3001171933598405
 20
-0.0287229011393947
 10
0.3035246472958825
 20
-0.0115473740177825
 10
0.3039908970657906
 20
0.0058635617891339
 10
0.3015711127292015
 20
0.0231085158198289
 10
0.2963141486321338
 20
0.0396501356190337
 10
0.2884123825723596
 20
0.0550812586305192
 10
0.2780142677783317
 20
0.0690098841245336
 10
0.2654806890930553
 20
0.0810121830365165
 10
0.2510067935439673
 20
0.090812462254234
 10
0.2351289439469303
 20
0.0980645284576276
 10
0.218107703963117
 20
0.1025703475092519
 10
0.2005818538230771
 20
0.1041650415954028
 10
0.18292867135775
 20
0.1027476466533761
 10
0.1657561850901582
 20
0.0983771090491275
 10
0.149562209379655
 20
0.0911289274605548
 10
0.1348017861447754
 20
0.08123969075847
 10
0.1220032640360569
 20
0.0690284678046143
 10
0.1114229516141058
 20
0.0548160646497575
 10
0.1034773828505219
 20
0.0391383784220009
 10
0.0982559663916102
 20
0.0223348622010145
 10
0.0959656478423988
 20
0.0050324036990509
 10
0.0965755785076832
 20
-0.0124130368332273
 10
0.1000876567388739
 20
-0.0294287719028182
 10
0.1063533015321364
 20
-0.0456178727091969
 10
0.1152452669846485
 20
-0.060540988190643
 10
0.1264594868819825
 20
-0.0737732158359805
 10
0.1398083772183997
 20
-0.0850033134481565
 10
0.1548098830838132
 20
-0.0938538639457366
 10
0.1712238974674378
 20
-0.1001025178934463
 10
0.1884349473551807
 20
-0.1035226738534415
 10
0.2061076460822945
 20
-0.1039770562215587
 10
0.2236083309327087
 20
-0.1014561045724463
 10
0.2404784400855791
 20
-0.0959685804155146
 10
0.2561999680346703
 20
-0.0877055188534079
 10
0.273832114837756
 20
-0.0734813803832498
  0
ARC
  5
101
330
BC
100
AcDbEntity
  8
AM_9
100
AcDbCircle
 10
-0.0000000000000003
 20
-0.000000000000034
 30
0.0
 40
1.417300000000033
100
AcDbArc
 50
75.92277279328704
 51
96.48197920051784
  0
ARC
  5
102
330
BC
100
AcDbEntity
  8
AM_9
100
AcDbCircle
 10
0.0000000000000151
 20
-0.0000000000002114
 30
0.0
 40
1.417299999999795
100
AcDbArc
 50
263.5180207994805
 51
284.0772272067147
  0
LINE
  5
103
330
BC
100
AcDbEntity
  8
AM_9
100
AcDbLine
 10
0.3447291802802597
 20
-1.374736731983004
 30
0.0
 11
0.3447291802802597
 21
1.374736731983001
 31
0.0
  0
LINE
  5
104
330
BC
100
AcDbEntity
  8
AM_9
100
AcDbLine
 10
-0.1600000000000001
 20
-1.408239784269713
 30
0.0
 11
-0.1600000000000001
 21
1.40823978426971
 31
0.0
  0
LINE
  5
106
330
BC
100
AcDbEntity
  8
AM_5
100
AcDbLine
 10
-0.5462499999999999
 20
0.7187500000000001
 30
0.0
 11
-0.5462499999999999
 21
0.9200000000000033
 31
0.0
  0
LINE
  5
107
330
BC
100
AcDbEntity
  8
AM_5
100
AcDbLine
 10
-0.8587499999999999
 20
0.7187500000000001
 30
0.0
 11
-0.8587499999999999
 21
0.9200000000000033
 31
0.0
  0
LINE
  5
10A
330
BC
100
AcDbEntity
  8
AM_7
100
AcDbLine
 10
0.1999999999999999
 20
-0.0377840909090969
 30
0.0
 11
0.1999999999999999
 21
0.0377840909090967
 31
0.0
  0
LINE
  5
10B
330
BC
100
AcDbEntity
  8
AM_7
100
AcDbLine
 10
0.4452499999999999
 20
0.0
 30
0.0
 11
-1.10025
 21
0.0
 31
0.0
  0
LINE
  5
10C
330
BC
100
AcDbEntity
  8
AM_7
100
AcDbLine
 10
-0.7024999999999999
 20
0.9416930832941536
 30
0.0
 11
-0.7024999999999999
 21
0.6665020779594457
 31
0.0
  0
LWPOLYLINE
  5
10D
330
BC
100
AcDbEntity
  8
AM_4
100
AcDbPolyline
 90
        7
 70
     0
 43
0.0
 10
-0.7482388117500063
 20
0.4062617039025026
 10
-0.7671110911479062
 20
0.3985311558734861
 10
-0.7846444551008052
 20
0.3878757130228906
 10
-0.7993747553800311
 20
0.3751305122483986
 10
-0.8117406389962804
 20
0.3598499046739609
 10
-0.820722835563167
 20
0.3432025289312253
 10
-0.8211103393124206
 20
0.3422763862348999
  0
ELLIPSE
  5
10E
330
BC
100
AcDbEntity
  8
AM_4
100
AcDbEllipse
 10
-0.7024999999999999
 20
0.2996620258682404
 30
0.0
 11
0.1261999999999998
 21
0.0
 31
0.0
210
0.0
220
0.0
230
1.0
 40
0.9063077870366493
 41
1.19992124626414
 42
1.941671407325655
  0
LWPOLYLINE
  5
10F
330
BC
100
AcDbEntity
  8
AM_4
100
AcDbPolyline
 90
        7
 70
     0
 43
0.0
 10
-0.5838225331633027
 20
0.3421132630539032
 10
-0.5907001646369949
 20
0.3558052277922016
 10
-0.6018014961510868
 20
0.370991443324922
 10
-0.6160411718339652
 20
0.3845797763303679
 10
-0.6324794613340159
 20
0.3956546442496994
 10
-0.6514324909763578
 20
0.4044090916624534
 10
-0.6567611882499936
 20
0.4062617039025029
  0
LINE
  5
110
330
BC
100
AcDbEntity
  8
AM_4
100
AcDbLine
 10
-1.03
 20
-0.8832000000000186
 30
0.0
 11
-1.03
 21
0.8832000000000186
 31
0.0
  0
LINE
  5
111
330
BC
100
AcDbEntity
  8
AM_4
100
AcDbLine
 10
-1.03
 20
-0.8832000000000186
 30
0.0
 11
-0.9931999999999997
 21
-0.9200000000000033
 31
0.0
  0
LINE
  5
112
330
BC
100
AcDbEntity
  8
AM_4
100
AcDbLine
 10
-0.9931999999999997
 20
0.9200000000000033
 30
0.0
 11
-1.03
 21
0.8832000000000186
 31
0.0
  0
LWPOLYLINE
  5
113
330
BC
100
AcDbEntity
  8
AM_4
100
AcDbPolyline
 90
       15
 70
     0
 43
0.0
 10
-0.6011814369458733
 20
0.9146488251145454
 10
-0.6176655204114916
 20
0.9131944045002973
 10
-0.6361488499229728
 20
0.9118664206444597
 10
-0.6591615339170577
 20
0.91066393293074
 10
-0.6839345106069982
 20
0.9099320433193467
 10
-0.7094728362193876
 20
0.9097906312692718
 10
-0.7355337467492091
 20
0.9102884650377346
 10
-0.7602128788706081
 20
0.9113562279751245
 10
-0.7839216198904139
 20
0.9129250269810686
 10
-0.8041715191296684
 20
0.9146827359321371
 10
-0.8219584859627692
 20
0.9165410330040054
 10
-0.8348401277376916
 20
0.9180686091478671
 10
-0.8441609623205361
 20
0.9192683051297227
 10
-0.848670857433108
 20
0.9198770455097914
 10
-0.8495655987662687
 20
0.9199999999999687
  0
LINE
  5
114
330
BC
100
AcDbEntity
  8
AM_4
100
AcDbLine
 10
-0.9931999999999997
 20
-0.9200000000000033
 30
0.0
 11
-0.9931999999999997
 21
0.9200000000000033
 31
0.0
  0
LWPOLYLINE
  5
115
330
BC
100
AcDbEntity
  8
AM_4
100
AcDbPolyline
 90
       39
 70
     0
 43
0.0
 10
-0.5881810455065009
 20
0.3091885037541541
 10
-0.6032430278297999
 20
0.295051048691114
 10
-0.6203213111360593
 20
0.2830645507915481
 10
-0.6418939365894261
 20
0.2722834068569499
 10
-0.664990016206058
 20
0.2648730527552928
 10
-0.6902714361112267
 20
0.2609462250451968
 10
-0.7158835137583971
 20
0.2610243602428607
 10
-0.7416825517886729
 20
0.2652962483080881
 10
-0.7663634887857765
 20
0.2736399016458387
 10
-0.7890296129872972
 20
0.2858052004659364
 10
-0.809126402177821
 20
0.301449514964589
 10
-0.825288382379949
 20
0.3193815819164508
 10
-0.8377725072696274
 20
0.3395741914747157
 10
-0.8455092710212493
 20
0.3597751441048882
 10
-0.8492514282147526
 20
0.3807051674267996
 10
-0.8489152728049368
 20
0.4002563442136361
 10
-0.8449627026580405
 20
0.4192695073061614
 10
-0.8376538170216736
 20
0.4369242676729599
 10
-0.8272728457869243
 20
0.4531529019011836
 10
-0.8135153924850129
 20
0.468187796075544
 10
-0.7972295828298124
 20
0.4810673349725819
 10
-0.7774571334781375
 20
0.4922448427626713
 10
-0.7558605937165187
 20
0.5005888649357708
 10
-0.7315181361577583
 20
0.5062097848663822
 10
-0.7064091073817951
 20
0.5084562217858016
 10
-0.680379765203141
 20
0.5071687717835869
 10
-0.654971790725203
 20
0.5022727760826743
 10
-0.6308583431084913
 20
0.4937546615554508
 10
-0.6088470168534609
 20
0.4817850178289659
 10
-0.5901959865549951
 20
0.4669664099943618
 10
-0.574921853000828
 20
0.4493423204667694
 10
-0.5643121616686412
 20
0.4306161545622689
 10
-0.5576913929773007
 20
0.4102787858297282
 10
-0.5554660999252122
 20
0.3905559799310272
 10
-0.5570250169813914
 20
0.3705627994067989
 10
-0.5620987381039527
 20
0.3516251298922318
 10
-0.57042433990247
 20
0.3335216036456281
 10
-0.5785587806185528
 20
0.3209113014001788
 10
-0.5881810445668181
 20
0.3091885024179672
  0
LINE
  5
116
330
BC
100
AcDbEntity
  8
AM_4
100
AcDbLine
 10
-0.4999999374999999
 20
0.9200000000000033
 30
0.0
 11
-0.5554344012334811
 21
0.9200000000000033
 31
0.0
  0
LINE
  5
117
330
BC
100
AcDbEntity
  8
AM_4
100
AcDbLine
 10
-0.8495655987665188
 20
0.9200000000000033
 30
0.0
 11
-0.9931999999999997
 21
0.9200000000000033
 31
0.0
  0
LINE
  5
118
330
BC
100
AcDbEntity
  8
AM_4
100
AcDbLine
 10
-0.9931999999999997
 20
-0.9200000000000033
 30
0.0
 11
-0.5729505270006512
 21
-0.9200000000000033
 31
0.0
  0
LWPOLYLINE
  5
119
330
BC
100
AcDbEntity
  8
AM_4
100
AcDbPolyline
 90
        7
 70
     0
 43
0.0
 10
-0.5554344012336632
 20
0.9199999999999782
 10
-0.5562521020195393
 20
0.9198876039379064
 10
-0.560579453697294
 20
0.919302844674918
 10
-0.5680669685768118
 20
0.918331114429548
 10
-0.5788621650433289
 20
0.9170199877773115
 10
-0.5891861706044191
 20
0.9158660245799308
 10
-0.6011814369458733
 20
0.9146488251145454
  0
ELLIPSE
  5
11A
330
BC
100
AcDbEntity
  8
AM_4
100
AcDbEllipse
 10
-0.7025
 20
0.3799906177205599
 30
0.0
 11
0.1262
 21
0.0
 31
0.0
210
0.0
220
0.0
230
1.0
 40
0.9063077870366502
 41
0.0
 42
6.283185307179586
  0
ENDBLK
  5
BF
330
BC
100
AcDbEntity
  8
0
100
AcDbBlockEnd
  0
BLOCK
  5
11D
330
11B
100
AcDbEntity
  8
0
100
AcDbBlockBegin
  2
4_128110HL_0_in_128110_2
 70
     2
 10
0.0
 20
0.0
 30
0.0
  3
4_128110HL_0_in_128110_2
  1

  0
ATTDEF
  5
11F
330
11B
100
AcDbEntity
  8
AM_6
100
AcDbText
 10
5.625
 20
-0.7924032759288473
 30
0.0
 40
0.5
  1
P2B-SL -I-Housing-(Low)
100
AcDbAttributeDefinition
  3

  2
NN
 70
     8
280
     0
  0
ATTDEF
  5
120
330
11B
100
AcDbEntity
  8
AM_6
100
AcDbText
 10
5.625
 20
-1.292403275928847
 30
0.0
 40
0.5
  1
SC Pillow Block Bearings -(Light Duty)
100
AcDbAttributeDefinition
  3

  2
NT
 70
     8
280
     0
  0
ATTDEF
  5
121
330
11B
100
AcDbEntity
  8
AM_6
100
AcDbText
 10
5.625
 20
-1.792403275928847
 30
0.0
 40
0.5
  1
128110HL
100
AcDbAttributeDefinition
  3

  2
NB
 70
     8
280
     0
  0
ATTDEF
  5
122
330
11B
100
AcDbEntity
  8
AM_6
100
AcDbText
 10
5.625
 20
-2.292403275928847
 30
0.0
 40
0.5
  1
$PN.HL
100
AcDbAttributeDefinition
  3

  2
NBSYN
 70
     8
280
     0
  0
ATTDEF
  5
123
330
11B
100
AcDbEntity
  8
AM_6
100
AcDbText
 10
5.625
 20
-2.792403275928847
 30
0.0
 40
0.5
  1
128110
100
AcDbAttributeDefinition
  3

  2
LINA
 70
     8
280
     0
  0
ATTDEF
  5
124
330
11B
100
AcDbEntity
  8
AM_6
100
AcDbText
 10
5.625
 20
-3.292403275928847
 30
0.0
 40
0.5
  1
207
100
AcDbAttributeDefinition
  3

  2
SERIES
 70
     8
280
     0
  0
ATTDEF
  5
125
330
11B
100
AcDbEntity
  8
AM_6
100
AcDbText
 10
5.625
 20
-3.792403275928847
 30
0.0
 40
0.5
  1
1-7/16
100
AcDbAttributeDefinition
  3

  2
SS
 70
     8
280
     0
  0
ATTDEF
  5
126
330
11B
100
AcDbEntity
  8
AM_6
100
AcDbText
 10
5.625
 20
-4.292403275928847
 30
0.0
 40
0.5
  1
128110
100
AcDbAttributeDefinition
  3

  2
PN
 70
     8
280
     0
  0
ATTDEF
  5
127
330
11B
100
AcDbEntity
  8
AM_6
100
AcDbText
 10
5.625
 20
-4.792403275928847
 30
0.0
 40
0.5
  1
P2B-SL-107
100
AcDbAttributeDefinition
  3

  2
DESCRIPTION
 70
     8
280
     0
  0
ATTDEF
  5
128
330
11B
100
AcDbEntity
  8
AM_6
100
AcDbText
 10
5.625
 20
-5.292403275928847
 30
0.0
 40
0.5
  1
1.48
100
AcDbAttributeDefinition
  3

  2
W
 70
     8
280
     0
  0
ATTDEF
  5
129
330
11B
100
AcDbEntity
  8
AM_6
100
AcDbText
 10
5.625
 20
-5.792403275928847
 30
0.0
 40
0.5
  1
1.40
100
AcDbAttributeDefinition
  3

  2
A
 70
     8
280
     0
  0
ATTDEF
  5
12A
330
11B
100
AcDbEntity
  8
AM_6
100
AcDbText
 10
5.625
 20
-6.292403275928847
 30
0.0
 40
0.5
  1
5.75
100
AcDbAttributeDefinition
  3

  2
B
 70
     8
280
     0
  0
ATTDEF
  5
12B
330
11B
100
AcDbEntity
  8
AM_6
100
AcDbText
 10
5.625
 20
-6.792403275928847
 30
0.0
 40
0.5
  1
1.25
100
AcDbAttributeDefinition
  3

  2
C
 70
     8
280
     0
  0
ATTDEF
  5
12C
330
11B
100
AcDbEntity
  8
AM_6
100
AcDbText
 10
5.625
 20
-7.292403275928847
 30
0.0
 40
0.5
  1
4.25
100
AcDbAttributeDefinition
  3

  2
D
 70
     8
280
     0
  0
ATTDEF
  5
12D
330
11B
100
AcDbEntity
  8
AM_6
100
AcDbText
 10
5.625
 20
-7.792403275928847
 30
0.0
 40
0.5
  1
1/2
100
AcDbAttributeDefinition
  3

  2
F
 70
     8
280
     0
  0
ATTDEF
  5
12E
330
11B
100
AcDbEntity
  8
AM_6
100
AcDbText
 10
5.625
 20
-8.292403275928848
 30
0.0
 40
0.5
  1
0.75
100
AcDbAttributeDefinition
  3

  2
G
 70
     8
280
     0
  0
ATTDEF
  5
12F
330
11B
100
AcDbEntity
  8
AM_6
100
AcDbText
 10
5.625
 20
-8.792403275928848
 30
0.0
 40
0.5
  1
0.24
100
AcDbAttributeDefinition
  3

  2
H
 70
     8
280
     0
  0
ATTDEF
  5
130
330
11B
100
AcDbEntity
  8
AM_6
100
AcDbText
 10
5.625
 20
-9.292403275928848
 30
0.0
 40
0.5
  1
3.12
100
AcDbAttributeDefinition
  3

  2
J
 70
     8
280
     0
  0
ATTDEF
  5
131
330
11B
100
AcDbEntity
  8
AM_6
100
AcDbText
 10
5.625
 20
-9.792403275928848
 30
0.0
 40
0.5
  1
1.84
100
AcDbAttributeDefinition
  3

  2
L
 70
     8
280
     0
  0
ATTDEF
  5
132
330
11B
100
AcDbEntity
  8
AM_6
100
AcDbText
 10
5.625
 20
-10.29240327592885
 30
0.0
 40
0.5
  1
1.56
100
AcDbAttributeDefinition
  3

  2
M
 70
     8
280
     0
  0
ATTDEF
  5
133
330
11B
100
AcDbEntity
  8
AM_6
100
AcDbText
 10
5.625
 20
-10.79240327592885
 30
0.0
 40
0.5
  1
0.37
100
AcDbAttributeDefinition
  3

  2
R
 70
     8
280
     0
  0
ATTDEF
  5
134
330
11B
100
AcDbEntity
  8
AM_6
100
AcDbText
 10
5.625
 20
-11.29240327592885
 30
0.0
 40
0.5
  1
1.03
100
AcDbAttributeDefinition
  3

  2
S
 70
     8
280
     0
  0
ATTDEF
  5
135
330
11B
100
AcDbEntity
  8
AM_6
100
AcDbText
 10
5.625
 20
-11.79240327592885
 30
0.0
 40
0.5
  1
3065
100
AcDbAttributeDefinition
  3

  2
CAPS
 70
     8
280
     0
  0
ATTDEF
  5
136
330
11B
100
AcDbEntity
  8
AM_6
100
AcDbText
 10
5.625
 20
-12.29240327592885
 30
0.0
 40
0.5
  1
5759
100
AcDbAttributeDefinition
  3

  2
CAPD
 70
     8
280
     0
  0
ATTDEF
  5
137
330
11B
100
AcDbEntity
  8
AM_6
100
AcDbText
 10
5.625
 20
-12.79240327592885
 30
0.0
 40
0.5
  1
baldor
100
AcDbAttributeDefinition
  3

  2
COMPANY
 70
     8
280
     0
  0
LINE
  5
138
330
11B
100
AcDbEntity
  8
AM_9
100
AcDbLine
 10
-0.5
 20
-1.4173
 30
0.0
 11
0.5
 21
-1.4173
 31
0.0
  0
LINE
  5
139
330
11B
100
AcDbEntity
  8
AM_9
100
AcDbLine
 10
-0.5000000000000001
 20
-1.023506086938422
 30
0.0
 11
-0.5008400418590933
 21
-1.006970471667033
 31
0.0
  0
LINE
  5
13A
330
11B
100
AcDbEntity
  8
AM_9
100
AcDbLine
 10
-0.5000000000000001
 20
-0.8138392113233374
 30
0.0
 11
-0.5000000000000001
 21
-1.32
 31
0.0
  0
LINE
  5
13B
330
11B
100
AcDbEntity
  8
AM_9
100
AcDbLine
 10
0.5008400418590931
 20
-1.006970471667034
 30
0.0
 11
0.4999999999999999
 21
-1.023506086938422
 31
0.0
  0
LINE
  5
13C
330
11B
100
AcDbEntity
  8
AM_9
100
AcDbLine
 10
0.5000000000000001
 20
-0.8138392113233374
 30
0.0
 11
0.5000000000000001
 21
-1.32
 31
0.0
  0
LWPOLYLINE
  5
13D
330
11B
100
AcDbEntity
  8
AM_9
100
AcDbPolyline
 90
        8
 70
     0
 43
0.0
 10
-0.5862322971327061
 20
-1.022070203464814
 10
-0.5696717005004768
 20
-1.010983202481087
 10
-0.5533555504062222
 20
-1.000793900734683
 10
-0.541983740953907
 20
-0.9944368617443268
 10
-0.5311360227780716
 20
-0.9893627985275866
 10
-0.5235030162737494
 20
-0.9867800457976955
 10
-0.5165656664603915
 20
-0.9857059662853004
 10
-0.5160893054846476
 20
-0.9857001090063703
  0
LINE
  5
13E
330
11B
100
AcDbEntity
  8
AM_9
100
AcDbLine
 10
-0.5008400418590933
 20
-1.006970471667034
 30
0.0
 11
0.5008400418590931
 21
-1.006970471667034
 31
0.0
  0
LWPOLYLINE
  5
13F
330
11B
100
AcDbEntity
  8
AM_9
100
AcDbPolyline
 90
        7
 70
     0
 43
0.0
 10
0.5008400418590933
 20
-1.006970471667034
 10
0.5018052923020628
 20
-1.000330578779849
 10
0.503410841035474
 20
-0.9946913424539696
 10
0.5056832326115401
 20
-0.990497018470354
 10
0.5088178152722015
 20
-0.9875668335705874
 10
0.5126261786578604
 20
-0.9860445176724643
 10
0.5160992603757647
 20
-0.9857001176241127
  0
LINE
  5
140
330
11B
100
AcDbEntity
  8
AM_9
100
AcDbLine
 10
-0.5893071054252034
 20
-1.045700105192689
 30
0.0
 11
0.5893071054252037
 21
-1.045700105192689
 31
0.0
  0
LINE
  5
141
330
11B
100
AcDbEntity
  8
AM_9
100
AcDbLine
 10
0.5161591564885086
 20
-0.9857001051926885
 30
0.0
 11
-0.5161204359820923
 21
-0.9857001051926885
 31
0.0
  0
LWPOLYLINE
  5
142
330
11B
100
AcDbEntity
  8
AM_9
100
AcDbPolyline
 90
        6
 70
     0
 43
0.0
 10
-0.5160893054846476
 20
-0.9857001090063703
 10
-0.5118317591999046
 20
-0.9862414984668086
 10
-0.5078266104649141
 20
-0.988270085026784
 10
-0.5048189797699192
 20
-0.9917884362171068
 10
-0.5026153469767997
 20
-0.9970260475692413
 10
-0.5008400418590933
 20
-1.006970471667034
  0
LWPOLYLINE
  5
143
330
11B
100
AcDbEntity
  8
AM_9
100
AcDbPolyline
 90
        8
 70
     0
 43
0.0
 10
0.5160992603757647
 20
-0.9857001176241127
 10
0.5172507921093009
 20
-0.9857330723413372
 10
0.5243353379134815
 20
-0.9870049355745322
 10
0.5325443017057667
 20
-0.9899452740670133
 10
0.5446249293092957
 20
-0.9958381586850131
 10
0.5579333313094366
 20
-1.003551230674384
 10
0.571778818110136
 20
-1.012361167281008
 10
0.5862322971326974
 20
-1.022070203464808
  0
LWPOLYLINE
  5
144
330
11B
100
AcDbEntity
  8
AM_9
100
AcDbPolyline
 90
        4
 70
     0
 43
0.0
 10
-0.5565422293086263
 20
-0.7939020322367957
 10
-0.5485312609249143
 20
-0.7932455994159057
 10
-0.5336645237121768
 20
-0.7924382199305178
 10
-0.5307341945057085
 20
-0.7924033976462016
  0
LWPOLYLINE
  5
145
330
11B
100
AcDbEntity
  8
AM_9
100
AcDbPolyline
 90
        7
 70
     0
 43
0.0
 10
0.5000000000000001
 20
-0.8138392113233374
 10
0.5009725321457089
 20
-0.8060919288328189
 10
0.5041873610670642
 20
-0.7999555211232764
 10
0.5096451762397175
 20
-0.795814755471944
 10
0.5176730556290784
 20
-0.7933431237860681
 10
0.5273459756717239
 20
-0.7924470477172136
 10
0.5307098839546338
 20
-0.7924033665482866
  0
LINE
  5
146
330
11B
100
AcDbEntity
  8
AM_9
100
AcDbLine
 10
-0.5000000000000001
 20
-0.8557922831488054
 30
0.0
 11
0.5000000000000001
 21
-0.8557922831488054
 31
0.0
  0
LINE
  5
147
330
11B
100
AcDbEntity
  8
AM_9
100
AcDbLine
 10
0.5309011577838569
 20
-0.7924032759288473
 30
0.0
 11
-0.5309495119845445
 21
-0.7924032759288473
 31
0.0
  0
LWPOLYLINE
  5
148
330
11B
100
AcDbEntity
  8
AM_9
100
AcDbPolyline
 90
        6
 70
     0
 43
0.0
 10
-0.5307341945057085
 20
-0.7924033976462016
 10
-0.5207779225098335
 20
-0.7928930424411198
 10
-0.5115576738333337
 20
-0.7949831542305449
 10
-0.504841682278841
 20
-0.7992358795716239
 10
-0.5011933291401243
 20
-0.8053794096430263
 10
-0.5000000000000001
 20
-0.8138392113233375
  0
LWPOLYLINE
  5
149
330
11B
100
AcDbEntity
  8
AM_9
100
AcDbPolyline
 90
        3
 70
     0
 43
0.0
 10
0.5307098839546338
 20
-0.7924033665482866
 10
0.5391301539858745
 20
-0.7926376478181991
 10
0.5565422293086271
 20
-0.7939020322367958
  0
LINE
  5
14A
330
11B
100
AcDbEntity
  8
AM_9
100
AcDbLine
 10
-0.5771669845060308
 20
-0.9524032759288468
 30
0.0
 11
-0.6093851659076123
 21
-1.200000000000001
 31
0.0
  0
LINE
  5
14B
330
11B
100
AcDbEntity
  8
AM_9
100
AcDbLine
 10
0.6093851659076125
 20
-1.200000000000001
 30
0.0
 11
0.577166984506031
 21
-0.9524032759288468
 31
0.0
  0
LINE
  5
14C
330
11B
100
AcDbEntity
  8
AM_9
100
AcDbLine
 10
-0.5771669845060308
 20
-0.9524032759288468
 30
0.0
 11
0.577166984506031
 21
-0.9524032759288468
 31
0.0
  0
LINE
  5
14D
330
11B
100
AcDbEntity
  8
AM_9
100
AcDbLine
 10
-0.6145901106050748
 20
-1.24
 30
0.0
 11
0.6145901106050748
 21
-1.24
 31
0.0
  0
LINE
  5
14E
330
11B
100
AcDbEntity
  8
AM_9
100
AcDbLine
 10
-0.2499999999999999
 20
-1.44
 30
0.0
 11
-0.2499999999999999
 21
-1.56
 31
0.0
  0
LINE
  5
14F
330
11B
100
AcDbEntity
  8
AM_9
100
AcDbLine
 10
0.2500000000000002
 20
-1.44
 30
0.0
 11
0.2500000000000003
 21
-1.56
 31
0.0
  0
LINE
  5
150
330
11B
100
AcDbEntity
  8
AM_4
100
AcDbLine
 10
-0.6249999999999999
 20
-1.32
 30
0.0
 11
-0.6093851659076122
 21
-1.200000000000001
 31
0.0
  0
LINE
  5
151
330
11B
100
AcDbEntity
  8
AM_4
100
AcDbLine
 10
0.6093851659076126
 20
-1.200000000000001
 30
0.0
 11
0.6250000000000003
 21
-1.32
 31
0.0
  0
LINE
  5
152
330
11B
100
AcDbEntity
  8
AM_4
100
AcDbLine
 10
-0.6249999999999999
 20
-1.56
 30
0.0
 11
-0.6249999999999999
 21
-1.44
 31
0.0
  0
LINE
  5
153
330
11B
100
AcDbEntity
  8
AM_4
100
AcDbLine
 10
-0.6249999999999999
 20
-1.56
 30
0.0
 11
0.6250000000000001
 21
-1.56
 31
0.0
  0
LINE
  5
154
330
11B
100
AcDbEntity
  8
AM_4
100
AcDbLine
 10
0.6250000000000001
 20
-1.56
 30
0.0
 11
0.6250000000000001
 21
-1.44
 31
0.0
  0
LINE
  5
155
330
11B
100
AcDbEntity
  8
AM_4
100
AcDbLine
 10
-0.6249999999999999
 20
-1.44
 30
0.0
 11
0.6250000000000001
 21
-1.44
 31
0.0
  0
LINE
  5
156
330
11B
100
AcDbEntity
  8
AM_4
100
AcDbLine
 10
0.5000000000000002
 20
-1.44
 30
0.0
 11
0.5000000000000002
 21
-1.56
 31
0.0
  0
LINE
  5
157
330
11B
100
AcDbEntity
  8
AM_4
100
AcDbLine
 10
-0.4999999999999992
 20
-1.44
 30
0.0
 11
-0.4999999999999992
 21
-1.56
 31
0.0
  0
ENDBLK
  5
11E
330
11B
100
AcDbEntity
  8
0
100
AcDbBlockEnd
  0
ENDSEC
  0
SECTION
  2
ENTITIES
  0
INSERT
  5
6F
330
1F
100
AcDbEntity
  8
0
100
AcDbBlockReference
  2
1_128110_2
 10
0.0
 20
0.0
 30
0.0
  0
POINT
  5
159
330
1F
100
AcDbEntity
  8
ConnectionPoints
100
AcDbPoint
 10
-1.03
 20
0.0
 30
0.0000000000000001
  0
POINT
  5
15A
330
1F
100
AcDbEntity
  8
ConnectionPoints
100
AcDbPoint
 10
0.0
 20
0.0
 30
0.0
  0
POINT
  5
15B
330
1F
100
AcDbEntity
  8
ConnectionPoints
100
AcDbPoint
 10
-1.03
 20
0.0
 30
0.0000000000000001
  0
ENDSEC
  0
SECTION
  2
OBJECTS
  0
DICTIONARY
  5
C
330
0
100
AcDbDictionary
281
     1
  3
ACAD_DETAILVIEWSTYLE
350
163
  3
ACAD_GROUP
350
D
  3
ACAD_LAYOUT
350
1A
  3
ACAD_MATERIAL
350
43
  3
ACAD_MLEADERSTYLE
350
6B
  3
ACAD_MLINESTYLE
350
17
  3
ACAD_PLOTSETTINGS
350
19
  3
ACAD_PLOTSTYLENAME
350
E
  3
ACAD_SCALELIST
350
47
  3
ACAD_SECTIONVIEWSTYLE
350
164
  3
ACAD_TABLESTYLE
350
69
  3
ACAD_VISUALSTYLE
350
2A
  3
ACDB_RECOMPOSE_DATA
350
160
  3
AcDbVariableDictionary
350
15C
  0
SUN
  5
6D
330
29
100
AcDbSun
 90
        1
290
     0
 63
     7
421
 16777215
 40
1.0
291
     1
 91
  2455826
 92
 54000000
292
     0
 70
     2
 71
   256
280
     1
  0
DICTIONARY
  5
163
102
{ACAD_REACTORS
330
C
102
}
330
C
100
AcDbDictionary
281
     1
  0
DICTIONARY
  5
D
102
{ACAD_REACTORS
330
C
102
}
330
C
100
AcDbDictionary
281
     1
  0
DICTIONARY
  5
1A
102
{ACAD_REACTORS
330
C
102
}
330
C
100
AcDbDictionary
281
     1
  3
Layout1
350
1E
  3
Layout2
350
26
  3
Model
350
22
  0
DICTIONARY
  5
43
102
{ACAD_REACTORS
330
C
102
}
330
C
100
AcDbDictionary
281
     1
  3
ByBlock
350
45
  3
ByLayer
350
44
  3
Global
350
46
  0
DICTIONARY
  5
6B
102
{ACAD_REACTORS
330
C
102
}
330
C
100
AcDbDictionary
281
     1
  3
Standard
350
6C
  0
DICTIONARY
  5
17
102
{ACAD_REACTORS
330
C
102
}
330
C
100
AcDbDictionary
281
     1
  3
Standard
350
18
  0
DICTIONARY
  5
19
102
{ACAD_REACTORS
330
C
102
}
330
C
100
AcDbDictionary
281
     1
  0
ACDBDICTIONARYWDFLT
  5
E
102
{ACAD_REACTORS
330
C
102
}
330
C
100
AcDbDictionary
281
     1
  3
Normal
350
F
100
AcDbDictionaryWithDefault
340
F
  0
DICTIONARY
  5
47
102
{ACAD_REACTORS
330
C
102
}
330
C
100
AcDbDictionary
281
     1
  3
A0
350
48
  3
A1
350
49
  3
A2
350
4A
  3
A3
350
4B
  3
A4
350
4C
  3
A5
350
4D
  3
A6
350
4E
  3
A7
350
4F
  3
A8
350
50
  3
A9
350
51
  3
B0
350
52
  3
B1
350
53
  3
B2
350
54
  3
B3
350
55
  3
B4
350
56
  3
B5
350
57
  3
B6
350
58
  3
B7
350
59
  3
B8
350
5A
  3
B9
350
5B
  3
C0
350
5C
  3
C1
350
5D
  3
C2
350
5E
  3
C3
350
5F
  3
C4
350
60
  3
C5
350
61
  3
C6
350
62
  3
C7
350
63
  3
C8
350
64
  3
C9
350
65
  3
D0
350
66
  3
D1
350
67
  3
D2
350
68
  0
DICTIONARY
  5
164
102
{ACAD_REACTORS
330
C
102
}
330
C
100
AcDbDictionary
281
     1
  0
DICTIONARY
  5
69
102
{ACAD_REACTORS
330
C
102
}
330
C
100
AcDbDictionary
281
     1
  3
Standard
350
6A
  0
DICTIONARY
  5
2A
102
{ACAD_REACTORS
330
C
102
}
330
C
100
AcDbDictionary
281
     1
  3
2dWireframe
350
2F
  3
Basic
350
32
  3
Brighten
350
36
  3
ColorChange
350
3A
  3
Conceptual
350
34
  3
Dim
350
35
  3
EdgeColorOff
350
3D
  3
Facepattern
350
39
  3
Flat
350
2B
  3
FlatWithEdges
350
2C
  3
Gouraud
350
2D
  3
GouraudWithEdges
350
2E
  3
Hidden
350
31
  3
JitterOff
350
3B
  3
Linepattern
350
38
  3
OverhangOff
350
3C
  3
Realistic
350
33
  3
Shaded
350
42
  3
Shaded with edges
350
41
  3
Shades of Gray
350
3E
  3
Sketchy
350
3F
  3
Thicken
350
37
  3
Wireframe
350
30
  3
X-Ray
350
40
  0
XRECORD
  5
160
102
{ACAD_REACTORS
330
C
102
}
330
C
100
AcDbXrecord
280
     1
 90
        1
330
6A
  0
DICTIONARY
  5
15C
102
{ACAD_REACTORS
330
C
102
}
330
C
100
AcDbDictionary
281
     1
  3
CANNOSCALE
350
15D
  3
CMLEADERSTYLE
350
162
  3
CTABLESTYLE
350
161
  0
LAYOUT
  5
1E
102
{ACAD_REACTORS
330
1A
102
}
330
1A
100
AcDbPlotSettings
  1

  2
none_device
  4

  6

 40
0.0
 41
0.0
 42
0.0
 43
0.0
 44
0.0
 45
0.0
 46
0.0
 47
0.0
 48
0.0
 49
0.0
140
0.0
141
0.0
142
1.0
143
1.0
 70
   688
 72
     0
 73
     0
 74
     5
  7

 75
    16
 76
     0
 77
     2
 78
   300
147
1.0
148
0.0
149
0.0
100
AcDbLayout
  1
Layout1
 70
     1
 71
     1
 10
0.0
 20
0.0
 11
12.0
 21
9.0
 12
0.0
 22
0.0
 32
0.0
 14
1.000000000000000E+20
 24
1.000000000000000E+20
 34
1.000000000000000E+20
 15
-1.000000000000000E+20
 25
-1.000000000000000E+20
 35
-1.000000000000000E+20
146
0.0
 13
0.0
 23
0.0
 33
0.0
 16
1.0
 26
0.0
 36
0.0
 17
0.0
 27
1.0
 37
0.0
 76
     0
330
1B
  0
LAYOUT
  5
26
102
{ACAD_REACTORS
330
1A
102
}
330
1A
100
AcDbPlotSettings
  1

  2
none_device
  4

  6

 40
0.0
 41
0.0
 42
0.0
 43
0.0
 44
0.0
 45
0.0
 46
0.0
 47
0.0
 48
0.0
 49
0.0
140
0.0
141
0.0
142
1.0
143
1.0
 70
   688
 72
     0
 73
     0
 74
     5
  7

 75
    16
 76
     0
 77
     2
 78
   300
147
1.0
148
0.0
149
0.0
100
AcDbLayout
  1
Layout2
 70
     1
 71
     2
 10
0.0
 20
0.0
 11
0.0
 21
0.0
 12
0.0
 22
0.0
 32
0.0
 14
0.0
 24
0.0
 34
0.0
 15
0.0
 25
0.0
 35
0.0
146
0.0
 13
0.0
 23
0.0
 33
0.0
 16
1.0
 26
0.0
 36
0.0
 17
0.0
 27
1.0
 37
0.0
 76
     0
330
23
  0
LAYOUT
  5
22
102
{ACAD_REACTORS
330
1A
102
}
330
1A
100
AcDbPlotSettings
  1

  2
none_device
  4
Letter_(8.50_x_11.00_Inches)
  6

 40
6.35
 41
6.35
 42
6.35000508
 43
6.35000508
 44
215.9
 45
279.4
 46
0.0
 47
0.0
 48
0.0
 49
0.0
140
0.0
141
0.0
142
1.0
143
1.0
 70
  1712
 72
     0
 73
     0
 74
     0
  7

 75
     0
 76
     0
 77
     2
 78
   300
147
1.0
148
0.0
149
0.0
100
AcDbLayout
  1
Model
 70
     1
 71
     0
 10
0.0
 20
0.0
 11
12.0
 21
9.0
 12
0.0
 22
0.0
 32
0.0
 14
1.000000000000000E+20
 24
1.000000000000000E+20
 34
1.000000000000000E+20
 15
-1.000000000000000E+20
 25
-1.000000000000000E+20
 35
-1.000000000000000E+20
146
0.0
 13
0.0
 23
0.0
 33
0.0
 16
1.0
 26
0.0
 36
0.0
 17
0.0
 27
1.0
 37
0.0
 76
     0
330
1F
331
29
  0
MATERIAL
  5
45
102
{ACAD_REACTORS
330
43
102
}
330
43
100
AcDbMaterial
  1
ByBlock
 72
     1
 94
      127
  0
MATERIAL
  5
44
102
{ACAD_REACTORS
330
43
102
}
330
43
100
AcDbMaterial
  1
ByLayer
 72
     1
 94
      127
  0
MATERIAL
  5
46
102
{ACAD_REACTORS
330
43
102
}
330
43
100
AcDbMaterial
  1
Global
 72
     1
 94
      127
  0
MLEADERSTYLE
  5
6C
102
{ACAD_REACTORS
330
6B
102
}
330
6B
100
AcDbMLeaderStyle
179
     2
170
     2
171
     1
172
     0
 90
        2
 40
0.0
 41
0.0
173
     1
 91
-1056964608
340
14
 92
       -2
290
     1
 42
0.09
291
     1
 43
0.36
  3
Standard
341
0
 44
0.18
300

342
11
174
     1
178
     6
175
     1
176
     0
 93
-1056964608
 45
0.18
292
     0
297
     0
 46
0.18
343
0
 94
-1056964608
 47
1.0
 49
1.0
140
1.0
293
     1
141
0.0
294
     1
177
     0
142
1.0
295
     0
296
     0
143
0.125
271
     0
272
     9
273
     9
298
     0
  0
MLINESTYLE
  5
18
102
{ACAD_REACTORS
330
17
102
}
330
17
100
AcDbMlineStyle
  2
Standard
 70
     0
  3

 62
   256
 51
90.0
 52
90.0
 71
     2
 49
0.5
 62
   256
  6
BYLAYER
 49
-0.5
 62
   256
  6
BYLAYER
  0
ACDBPLACEHOLDER
  5
F
102
{ACAD_REACTORS
330
E
102
}
330
E
  0
SCALE
  5
48
102
{ACAD_REACTORS
330
47
102
}
330
47
100
AcDbScale
 70
     0
300
1:1
140
1.0
141
1.0
290
     1
  0
SCALE
  5
49
102
{ACAD_REACTORS
330
47
102
}
330
47
100
AcDbScale
 70
     0
300
1:2
140
1.0
141
2.0
290
     0
  0
SCALE
  5
4A
102
{ACAD_REACTORS
330
47
102
}
330
47
100
AcDbScale
 70
     0
300
1:4
140
1.0
141
4.0
290
     0
  0
SCALE
  5
4B
102
{ACAD_REACTORS
330
47
102
}
330
47
100
AcDbScale
 70
     0
300
1:5
140
1.0
141
5.0
290
     0
  0
SCALE
  5
4C
102
{ACAD_REACTORS
330
47
102
}
330
47
100
AcDbScale
 70
     0
300
1:8
140
1.0
141
8.0
290
     0
  0
SCALE
  5
4D
102
{ACAD_REACTORS
330
47
102
}
330
47
100
AcDbScale
 70
     0
300
1:10
140
1.0
141
10.0
290
     0
  0
SCALE
  5
4E
102
{ACAD_REACTORS
330
47
102
}
330
47
100
AcDbScale
 70
     0
300
1:16
140
1.0
141
16.0
290
     0
  0
SCALE
  5
4F
102
{ACAD_REACTORS
330
47
102
}
330
47
100
AcDbScale
 70
     0
300
1:20
140
1.0
141
20.0
290
     0
  0
SCALE
  5
50
102
{ACAD_REACTORS
330
47
102
}
330
47
100
AcDbScale
 70
     0
300
1:30
140
1.0
141
30.0
290
     0
  0
SCALE
  5
51
102
{ACAD_REACTORS
330
47
102
}
330
47
100
AcDbScale
 70
     0
300
1:40
140
1.0
141
40.0
290
     0
  0
SCALE
  5
52
102
{ACAD_REACTORS
330
47
102
}
330
47
100
AcDbScale
 70
     0
300
1:50
140
1.0
141
50.0
290
     0
  0
SCALE
  5
53
102
{ACAD_REACTORS
330
47
102
}
330
47
100
AcDbScale
 70
     0
300
1:100
140
1.0
141
100.0
290
     0
  0
SCALE
  5
54
102
{ACAD_REACTORS
330
47
102
}
330
47
100
AcDbScale
 70
     0
300
2:1
140
2.0
141
1.0
290
     0
  0
SCALE
  5
55
102
{ACAD_REACTORS
330
47
102
}
330
47
100
AcDbScale
 70
     0
300
4:1
140
4.0
141
1.0
290
     0
  0
SCALE
  5
56
102
{ACAD_REACTORS
330
47
102
}
330
47
100
AcDbScale
 70
     0
300
8:1
140
8.0
141
1.0
290
     0
  0
SCALE
  5
57
102
{ACAD_REACTORS
330
47
102
}
330
47
100
AcDbScale
 70
     0
300
10:1
140
10.0
141
1.0
290
     0
  0
SCALE
  5
58
102
{ACAD_REACTORS
330
47
102
}
330
47
100
AcDbScale
 70
     0
300
100:1
140
100.0
141
1.0
290
     0
  0
SCALE
  5
59
102
{ACAD_REACTORS
330
47
102
}
330
47
100
AcDbScale
 70
     0
300
1/128" = 1'-0"
140
0.0078125
141
12.0
290
     0
  0
SCALE
  5
5A
102
{ACAD_REACTORS
330
47
102
}
330
47
100
AcDbScale
 70
     0
300
1/64" = 1'-0"
140
0.015625
141
12.0
290
     0
  0
SCALE
  5
5B
102
{ACAD_REACTORS
330
47
102
}
330
47
100
AcDbScale
 70
     0
300
1/32" = 1'-0"
140
0.03125
141
12.0
290
     0
  0
SCALE
  5
5C
102
{ACAD_REACTORS
330
47
102
}
330
47
100
AcDbScale
 70
     0
300
1/16" = 1'-0"
140
0.0625
141
12.0
290
     0
  0
SCALE
  5
5D
102
{ACAD_REACTORS
330
47
102
}
330
47
100
AcDbScale
 70
     0
300
3/32" = 1'-0"
140
0.09375
141
12.0
290
     0
  0
SCALE
  5
5E
102
{ACAD_REACTORS
330
47
102
}
330
47
100
AcDbScale
 70
     0
300
1/8" = 1'-0"
140
0.125
141
12.0
290
     0
  0
SCALE
  5
5F
102
{ACAD_REACTORS
330
47
102
}
330
47
100
AcDbScale
 70
     0
300
3/16" = 1'-0"
140
0.1875
141
12.0
290
     0
  0
SCALE
  5
60
102
{ACAD_REACTORS
330
47
102
}
330
47
100
AcDbScale
 70
     0
300
1/4" = 1'-0"
140
0.25
141
12.0
290
     0
  0
SCALE
  5
61
102
{ACAD_REACTORS
330
47
102
}
330
47
100
AcDbScale
 70
     0
300
3/8" = 1'-0"
140
0.375
141
12.0
290
     0
  0
SCALE
  5
62
102
{ACAD_REACTORS
330
47
102
}
330
47
100
AcDbScale
 70
     0
300
1/2" = 1'-0"
140
0.5
141
12.0
290
     0
  0
SCALE
  5
63
102
{ACAD_REACTORS
330
47
102
}
330
47
100
AcDbScale
 70
     0
300
3/4" = 1'-0"
140
0.75
141
12.0
290
     0
  0
SCALE
  5
64
102
{ACAD_REACTORS
330
47
102
}
330
47
100
AcDbScale
 70
     0
300
1" = 1'-0"
140
1.0
141
12.0
290
     0
  0
SCALE
  5
65
102
{ACAD_REACTORS
330
47
102
}
330
47
100
AcDbScale
 70
     0
300
1-1/2" = 1'-0"
140
1.5
141
12.0
290
     0
  0
SCALE
  5
66
102
{ACAD_REACTORS
330
47
102
}
330
47
100
AcDbScale
 70
     0
300
3" = 1'-0"
140
3.0
141
12.0
290
     0
  0
SCALE
  5
67
102
{ACAD_REACTORS
330
47
102
}
330
47
100
AcDbScale
 70
     0
300
6" = 1'-0"
140
6.0
141
12.0
290
     0
  0
SCALE
  5
68
102
{ACAD_REACTORS
330
47
102
}
330
47
100
AcDbScale
 70
     0
300
1'-0" = 1'-0"
140
12.0
141
12.0
290
     0
  0
TABLESTYLE
  5
6A
102
{ACAD_REACTORS
330
69
102
}
102
{ACAD_XDICTIONARY
360
15E
102
}
330
69
100
AcDbTableStyle
  3
Standard
 70
     0
 71
     0
 40
0.06
 41
0.06
280
     0
281
     0
  7
Standard
140
0.18
170
     2
 62
     0
 63
   257
283
     0
 90
        4
 91
        0
  1

274
    -2
284
     1
 64
     0
275
    -2
285
     1
 65
     0
276
    -2
286
     1
 66
     0
277
    -2
287
     1
 67
     0
278
    -2
288
     1
 68
     0
279
    -2
289
     1
 69
     0
  7
Standard
140
0.25
170
     5
 62
     0
 63
   257
283
     0
 90
        4
 91
        0
  1

274
    -2
284
     1
 64
     0
275
    -2
285
     1
 65
     0
276
    -2
286
     1
 66
     0
277
    -2
287
     1
 67
     0
278
    -2
288
     1
 68
     0
279
    -2
289
     1
 69
     0
  7
Standard
140
0.18
170
     5
 62
     0
 63
   257
283
     0
 90
        4
 91
        0
  1

274
    -2
284
     1
 64
     0
275
    -2
285
     1
 65
     0
276
    -2
286
     1
 66
     0
277
    -2
287
     1
 67
     0
278
    -2
288
     1
 68
     0
279
    -2
289
     1
 69
     0
  0
VISUALSTYLE
  5
2F
102
{ACAD_REACTORS
330
2A
102
}
330
2A
100
AcDbVisualStyle
  2
2dWireframe
 70
     4
177
     3
291
     0
 70
    58
 90
        0
176
     1
 90
        2
176
     1
 90
        0
176
     1
 90
        0
176
     1
 40
0.6
176
     1
 40
30.0
176
     1
 62
     7
420
 16777215
176
     1
 90
        1
176
     1
 90
        4
176
     1
 62
     7
176
     1
 62
   257
176
     1
 90
        1
176
     1
 90
        1
176
     1
 40
1.0
176
     1
 90
        0
176
     1
 62
   257
176
     1
 40
1.0
176
     1
 90
        1
176
     1
 90
        6
176
     1
 90
        2
176
     1
 62
     7
176
     1
 90
        5
176
     1
 90
        0
176
     1
 90
        0
176
     1
290
     0
176
     1
 90
        1
176
     1
 40
0.0
176
     1
 90
        0
176
     1
290
     1
176
     1
290
     1
176
     1
290
     0
176
     1
290
     0
176
     1
290
     0
176
     1
290
     0
176
     1
290
     0
176
     1
290
     0
176
     1
290
     0
176
     1
 90
       50
176
     1
 40
0.0
176
     1
 40
1.0
176
     1
 90
        0
176
     1
 62
    18
420
        0
176
     1
 90
       50
176
     1
 90
        3
176
     1
 62
     5
420
      255
176
     1
290
     0
176
     1
 90
       50
176
     1
 90
       50
176
     1
 90
       50
176
     1
290
     0
176
     1
 90
       50
176
     1
 62
   256
176
     0
 40
1.0
176
     0
 90
        2
176
     1
  1
strokes_ogs.tif
176
     1
290
     0
176
     1
 40
1.0
176
     1
 40
1.0
176
     1
  0
VISUALSTYLE
  5
32
102
{ACAD_REACTORS
330
2A
102
}
330
2A
100
AcDbVisualStyle
  2
Basic
 70
     7
177
     3
291
     1
 70
    58
 90
        1
176
     1
 90
        0
176
     1
 90
        1
176
     1
 90
        0
176
     1
 40
0.6
176
     1
 40
30.0
176
     1
 62
     7
420
 16777215
176
     1
 90
        0
176
     1
 90
        4
176
     1
 62
     7
176
     1
 62
   257
176
     1
 90
        1
176
     1
 90
        1
176
     1
 40
1.0
176
     1
 90
        8
176
     1
 62
     7
176
     1
 40
1.0
176
     1
 90
        1
176
     1
 90
        6
176
     1
 90
        2
176
     1
 62
     7
176
     1
 90
        5
176
     1
 90
        0
176
     1
 90
        0
176
     1
290
     0
176
     1
 90
        1
176
     1
 40
0.0
176
     1
 90
        0
176
     1
290
     0
176
     1
290
     1
176
     1
290
     1
176
     1
290
     0
176
     1
290
     0
176
     1
290
     0
176
     1
290
     0
176
     1
290
     0
176
     1
290
     0
176
     1
 90
       50
176
     1
 40
0.0
176
     1
 40
1.0
176
     1
 90
        0
176
     1
 62
    18
420
        0
176
     1
 90
       50
176
     1
 90
        3
176
     1
 62
     5
420
      255
176
     1
290
     0
176
     1
 90
       50
176
     1
 90
       50
176
     1
 90
       50
176
     1
290
     0
176
     1
 90
       50
176
     1
 62
   256
176
     0
 40
1.0
176
     0
 90
        2
176
     1
  1
strokes_ogs.tif
176
     1
290
     0
176
     1
 40
1.0
176
     1
 40
1.0
176
     1
  0
VISUALSTYLE
  5
36
102
{ACAD_REACTORS
330
2A
102
}
330
2A
100
AcDbVisualStyle
  2
Brighten
 70
    12
177
     3
291
     1
 70
    58
 90
        2
176
     1
 90
        2
176
     1
 90
        0
176
     1
 90
        0
176
     1
 40
0.6
176
     1
 40
30.0
176
     1
 62
     7
420
 16777215
176
     1
 90
        1
176
     1
 90
        4
176
     1
 62
     7
176
     1
 62
   257
176
     1
 90
        1
176
     1
 90
        1
176
     1
 40
1.0
176
     1
 90
        8
176
     1
 62
     7
176
     1
 40
1.0
176
     1
 90
        1
176
     1
 90
        6
176
     1
 90
        2
176
     1
 62
     7
176
     1
 90
        5
176
     1
 90
        0
176
     1
 90
        0
176
     1
290
     0
176
     1
 90
        1
176
     1
 40
50.0
176
     1
 90
        0
176
     1
290
     0
176
     1
290
     1
176
     1
290
     1
176
     1
290
     0
176
     1
290
     0
176
     1
290
     0
176
     1
290
     0
176
     1
290
     0
176
     1
290
     0
176
     1
 90
       50
176
     1
 40
0.0
176
     1
 40
1.0
176
     1
 90
        0
176
     1
 62
    18
420
        0
176
     1
 90
       50
176
     1
 90
        3
176
     1
 62
     5
420
      255
176
     1
290
     0
176
     1
 90
       50
176
     1
 90
       50
176
     1
 90
       50
176
     1
290
     0
176
     1
 90
       50
176
     1
 62
   256
176
     0
 40
1.0
176
     0
 90
        2
176
     1
  1
strokes_ogs.tif
176
     1
290
     0
176
     1
 40
1.0
176
     1
 40
1.0
176
     1
  0
VISUALSTYLE
  5
3A
102
{ACAD_REACTORS
330
2A
102
}
330
2A
100
AcDbVisualStyle
  2
ColorChange
 70
    16
177
     3
291
     1
 70
    58
 90
        2
176
     1
 90
        2
176
     1
 90
        3
176
     1
 90
        0
176
     1
 40
0.6
176
     1
 40
30.0
176
     1
 62
     8
420
  8421504
176
     1
 90
        1
176
     1
 90
        4
176
     1
 62
     7
176
     1
 62
   257
176
     1
 90
        1
176
     1
 90
        1
176
     1
 40
1.0
176
     1
 90
        8
176
     1
 62
     8
420
  8421504
176
     1
 40
1.0
176
     1
 90
        1
176
     1
 90
        6
176
     1
 90
        2
176
     1
 62
     7
176
     1
 90
        5
176
     1
 90
        0
176
     1
 90
        0
176
     1
290
     0
176
     1
 90
        1
176
     1
 40
0.0
176
     1
 90
        0
176
     1
290
     0
176
     1
290
     1
176
     1
290
     1
176
     1
290
     0
176
     1
290
     0
176
     1
290
     0
176
     1
290
     0
176
     1
290
     0
176
     1
290
     0
176
     1
 90
       50
176
     1
 40
0.0
176
     1
 40
1.0
176
     1
 90
        0
176
     1
 62
    18
420
        0
176
     1
 90
       50
176
     1
 90
        3
176
     1
 62
     5
420
      255
176
     1
290
     0
176
     1
 90
       50
176
     1
 90
       50
176
     1
 90
       50
176
     1
290
     0
176
     1
 90
       50
176
     1
 62
   256
176
     0
 40
1.0
176
     0
 90
        2
176
     1
  1
strokes_ogs.tif
176
     1
290
     0
176
     1
 40
1.0
176
     1
 40
1.0
176
     1
  0
VISUALSTYLE
  5
34
102
{ACAD_REACTORS
330
2A
102
}
330
2A
100
AcDbVisualStyle
  2
Conceptual
 70
     9
177
     3
291
     0
 70
    58
 90
        3
176
     1
 90
        2
176
     1
 90
        0
176
     1
 90
        0
176
     1
 40
0.6
176
     1
 40
30.0
176
     1
 62
     7
420
 16777215
176
     1
 90
        2
176
     1
 90
        2
176
     1
 62
     7
176
     1
 62
   257
176
     1
 90
        1
176
     1
 90
        1
176
     1
 40
179.0
176
     1
 90
        8
176
     1
 62
     7
176
     1
 40
1.0
176
     1
 90
        1
176
     1
 90
        6
176
     1
 90
        2
176
     1
 62
     7
176
     1
 90
        3
176
     1
 90
        0
176
     1
 90
        0
176
     1
290
     0
176
     1
 90
        1
176
     1
 40
0.0
176
     1
 90
        0
176
     1
290
     0
176
     1
290
     1
176
     1
290
     1
176
     1
290
     0
176
     1
290
     0
176
     1
290
     0
176
     1
290
     0
176
     1
290
     0
176
     1
290
     0
176
     1
 90
       50
176
     1
 40
0.0
176
     1
 40
1.0
176
     1
 90
        0
176
     1
 62
    18
420
        0
176
     1
 90
       50
176
     1
 90
        3
176
     1
 62
     5
420
      255
176
     1
290
     0
176
     1
 90
       50
176
     1
 90
       50
176
     1
 90
       50
176
     1
290
     0
176
     1
 90
       50
176
     1
 62
   256
176
     0
 40
1.0
176
     0
 90
        2
176
     1
  1
strokes_ogs.tif
176
     1
290
     0
176
     1
 40
1.0
176
     1
 40
1.0
176
     1
  0
VISUALSTYLE
  5
35
102
{ACAD_REACTORS
330
2A
102
}
330
2A
100
AcDbVisualStyle
  2
Dim
 70
    11
177
     3
291
     1
 70
    58
 90
        2
176
     1
 90
        2
176
     1
 90
        0
176
     1
 90
        0
176
     1
 40
0.6
176
     1
 40
30.0
176
     1
 62
     7
420
 16777215
176
     1
 90
        1
176
     1
 90
        4
176
     1
 62
     7
176
     1
 62
   257
176
     1
 90
        1
176
     1
 90
        1
176
     1
 40
1.0
176
     1
 90
        8
176
     1
 62
     7
176
     1
 40
1.0
176
     1
 90
        1
176
     1
 90
        6
176
     1
 90
        2
176
     1
 62
     7
176
     1
 90
        5
176
     1
 90
        0
176
     1
 90
        0
176
     1
290
     0
176
     1
 90
        1
176
     1
 40
-50.0
176
     1
 90
        0
176
     1
290
     0
176
     1
290
     1
176
     1
290
     1
176
     1
290
     0
176
     1
290
     0
176
     1
290
     0
176
     1
290
     0
176
     1
290
     0
176
     1
290
     0
176
     1
 90
       50
176
     1
 40
0.0
176
     1
 40
1.0
176
     1
 90
        0
176
     1
 62
    18
420
        0
176
     1
 90
       50
176
     1
 90
        3
176
     1
 62
     5
420
      255
176
     1
290
     0
176
     1
 90
       50
176
     1
 90
       50
176
     1
 90
       50
176
     1
290
     0
176
     1
 90
       50
176
     1
 62
   256
176
     0
 40
1.0
176
     0
 90
        2
176
     1
  1
strokes_ogs.tif
176
     1
290
     0
176
     1
 40
1.0
176
     1
 40
1.0
176
     1
  0
VISUALSTYLE
  5
3D
102
{ACAD_REACTORS
330
2A
102
}
330
2A
100
AcDbVisualStyle
  2
EdgeColorOff
 70
    22
177
     3
291
     1
 70
    58
 90
        2
176
     0
 90
        2
176
     0
 90
        0
176
     0
 90
        0
176
     0
 40
0.6
176
     0
 40
30.0
176
     0
 62
     7
420
 16777215
176
     0
 90
        1
176
     0
 90
        4
176
     0
 62
     7
176
     0
 62
   257
176
     0
 90
        1
176
     0
 90
        1
176
     0
 40
1.0
176
     0
 90
        8
176
     2
 62
     7
176
     0
 40
1.0
176
     0
 90
        1
176
     0
 90
        6
176
     0
 90
        2
176
     0
 62
     7
176
     0
 90
        5
176
     0
 90
        0
176
     0
 90
        0
176
     0
290
     0
176
     0
 90
        1
176
     0
 40
0.0
176
     0
 90
        0
176
     0
290
     0
176
     0
290
     1
176
     0
290
     1
176
     0
290
     0
176
     0
290
     0
176
     0
290
     0
176
     0
290
     0
176
     0
290
     0
176
     0
290
     0
176
     0
 90
       50
176
     0
 40
0.0
176
     0
 40
1.0
176
     0
 90
        0
176
     0
 62
    18
420
        0
176
     0
 90
       50
176
     0
 90
        3
176
     0
 62
     5
420
      255
176
     0
290
     0
176
     0
 90
       50
176
     0
 90
       50
176
     0
 90
       50
176
     0
290
     0
176
     0
 90
       50
176
     0
 62
   256
176
     0
 40
1.0
176
     0
 90
        2
176
     0
  1
strokes_ogs.tif
176
     0
290
     0
176
     0
 40
1.0
176
     0
 40
1.0
176
     0
  0
VISUALSTYLE
  5
39
102
{ACAD_REACTORS
330
2A
102
}
330
2A
100
AcDbVisualStyle
  2
Facepattern
 70
    15
177
     3
291
     1
 70
    58
 90
        2
176
     1
 90
        2
176
     1
 90
        0
176
     1
 90
        0
176
     1
 40
0.6
176
     1
 40
30.0
176
     1
 62
     7
420
 16777215
176
     1
 90
        1
176
     1
 90
        4
176
     1
 62
     7
176
     1
 62
   257
176
     1
 90
        1
176
     1
 90
        1
176
     1
 40
1.0
176
     1
 90
        8
176
     1
 62
     7
176
     1
 40
1.0
176
     1
 90
        1
176
     1
 90
        6
176
     1
 90
        2
176
     1
 62
     7
176
     1
 90
        5
176
     1
 90
        0
176
     1
 90
        0
176
     1
290
     0
176
     1
 90
        1
176
     1
 40
0.0
176
     1
 90
        0
176
     1
290
     0
176
     1
290
     1
176
     1
290
     1
176
     1
290
     0
176
     1
290
     0
176
     1
290
     0
176
     1
290
     0
176
     1
290
     0
176
     1
290
     0
176
     1
 90
       50
176
     1
 40
0.0
176
     1
 40
1.0
176
     1
 90
        0
176
     1
 62
    18
420
        0
176
     1
 90
       50
176
     1
 90
        3
176
     1
 62
     5
420
      255
176
     1
290
     0
176
     1
 90
       50
176
     1
 90
       50
176
     1
 90
       50
176
     1
290
     0
176
     1
 90
       50
176
     1
 62
   256
176
     0
 40
1.0
176
     0
 90
        2
176
     1
  1
strokes_ogs.tif
176
     1
290
     0
176
     1
 40
1.0
176
     1
 40
1.0
176
     1
  0
VISUALSTYLE
  5
2B
102
{ACAD_REACTORS
330
2A
102
}
330
2A
100
AcDbVisualStyle
  2
Flat
 70
     0
177
     3
291
     1
 70
    58
 90
        2
176
     1
 90
        1
176
     1
 90
        1
176
     1
 90
        2
176
     1
 40
0.6
176
     1
 40
30.0
176
     1
 62
     7
420
 16777215
176
     1
 90
        0
176
     1
 90
        0
176
     1
 62
     7
176
     1
 62
   257
176
     1
 90
        1
176
     1
 90
        1
176
     1
 40
1.0
176
     1
 90
        8
176
     1
 62
     7
176
     1
 40
1.0
176
     1
 90
        1
176
     1
 90
        6
176
     1
 90
        2
176
     1
 62
     7
176
     1
 90
        5
176
     1
 90
        0
176
     1
 90
        0
176
     1
290
     0
176
     1
 90
       13
176
     1
 40
0.0
176
     1
 90
        0
176
     1
290
     0
176
     1
290
     1
176
     1
290
     1
176
     1
290
     0
176
     1
290
     0
176
     1
290
     0
176
     1
290
     0
176
     1
290
     0
176
     1
290
     0
176
     1
 90
       50
176
     1
 40
0.0
176
     1
 40
1.0
176
     1
 90
        0
176
     1
 62
    18
420
        0
176
     1
 90
       50
176
     1
 90
        3
176
     1
 62
     5
420
      255
176
     1
290
     0
176
     1
 90
       50
176
     1
 90
       50
176
     1
 90
       50
176
     1
290
     0
176
     1
 90
       50
176
     1
 62
   256
176
     0
 40
1.0
176
     0
 90
        2
176
     1
  1
strokes_ogs.tif
176
     1
290
     0
176
     1
 40
1.0
176
     1
 40
1.0
176
     1
  0
VISUALSTYLE
  5
2C
102
{ACAD_REACTORS
330
2A
102
}
330
2A
100
AcDbVisualStyle
  2
FlatWithEdges
 70
     1
177
     3
291
     1
 70
    58
 90
        2
176
     1
 90
        1
176
     1
 90
        1
176
     1
 90
        2
176
     1
 40
0.6
176
     1
 40
30.0
176
     1
 62
     7
420
 16777215
176
     1
 90
        1
176
     1
 90
        0
176
     1
 62
     7
176
     1
 62
   257
176
     1
 90
        1
176
     1
 90
        1
176
     1
 40
1.0
176
     1
 90
        0
176
     1
 62
   257
176
     1
 40
1.0
176
     1
 90
        1
176
     1
 90
        6
176
     1
 90
        2
176
     1
 62
     7
176
     1
 90
        5
176
     1
 90
        0
176
     1
 90
        0
176
     1
290
     0
176
     1
 90
       13
176
     1
 40
0.0
176
     1
 90
        0
176
     1
290
     0
176
     1
290
     1
176
     1
290
     1
176
     1
290
     0
176
     1
290
     0
176
     1
290
     0
176
     1
290
     0
176
     1
290
     0
176
     1
290
     0
176
     1
 90
       50
176
     1
 40
0.0
176
     1
 40
1.0
176
     1
 90
        0
176
     1
 62
    18
420
        0
176
     1
 90
       50
176
     1
 90
        3
176
     1
 62
     5
420
      255
176
     1
290
     0
176
     1
 90
       50
176
     1
 90
       50
176
     1
 90
       50
176
     1
290
     0
176
     1
 90
       50
176
     1
 62
   256
176
     0
 40
1.0
176
     0
 90
        2
176
     1
  1
strokes_ogs.tif
176
     1
290
     0
176
     1
 40
1.0
176
     1
 40
1.0
176
     1
  0
VISUALSTYLE
  5
2D
102
{ACAD_REACTORS
330
2A
102
}
330
2A
100
AcDbVisualStyle
  2
Gouraud
 70
     2
177
     3
291
     1
 70
    58
 90
        2
176
     1
 90
        2
176
     1
 90
        1
176
     1
 90
        2
176
     1
 40
0.6
176
     1
 40
30.0
176
     1
 62
     7
420
 16777215
176
     1
 90
        0
176
     1
 90
        0
176
     1
 62
     7
176
     1
 62
   257
176
     1
 90
        1
176
     1
 90
        1
176
     1
 40
1.0
176
     1
 90
        0
176
     1
 62
     7
176
     1
 40
1.0
176
     1
 90
        1
176
     1
 90
        6
176
     1
 90
        2
176
     1
 62
     7
176
     1
 90
        5
176
     1
 90
        0
176
     1
 90
        0
176
     1
290
     0
176
     1
 90
       13
176
     1
 40
0.0
176
     1
 90
        0
176
     1
290
     0
176
     1
290
     1
176
     1
290
     1
176
     1
290
     0
176
     1
290
     0
176
     1
290
     0
176
     1
290
     0
176
     1
290
     0
176
     1
290
     0
176
     1
 90
       50
176
     1
 40
0.0
176
     1
 40
1.0
176
     1
 90
        0
176
     1
 62
    18
420
        0
176
     1
 90
       50
176
     1
 90
        3
176
     1
 62
     5
420
      255
176
     1
290
     0
176
     1
 90
       50
176
     1
 90
       50
176
     1
 90
       50
176
     1
290
     0
176
     1
 90
       50
176
     1
 62
   256
176
     0
 40
1.0
176
     0
 90
        2
176
     1
  1
strokes_ogs.tif
176
     1
290
     0
176
     1
 40
1.0
176
     1
 40
1.0
176
     1
  0
VISUALSTYLE
  5
2E
102
{ACAD_REACTORS
330
2A
102
}
330
2A
100
AcDbVisualStyle
  2
GouraudWithEdges
 70
     3
177
     3
291
     1
 70
    58
 90
        2
176
     1
 90
        2
176
     1
 90
        1
176
     1
 90
        2
176
     1
 40
0.6
176
     1
 40
30.0
176
     1
 62
     7
420
 16777215
176
     1
 90
        1
176
     1
 90
        0
176
     1
 62
     7
176
     1
 62
   257
176
     1
 90
        1
176
     1
 90
        1
176
     1
 40
1.0
176
     1
 90
        0
176
     1
 62
   257
176
     1
 40
1.0
176
     1
 90
        1
176
     1
 90
        6
176
     1
 90
        2
176
     1
 62
     7
176
     1
 90
        5
176
     1
 90
        0
176
     1
 90
        0
176
     1
290
     0
176
     1
 90
       13
176
     1
 40
0.0
176
     1
 90
        0
176
     1
290
     0
176
     1
290
     1
176
     1
290
     1
176
     1
290
     0
176
     1
290
     0
176
     1
290
     0
176
     1
290
     0
176
     1
290
     0
176
     1
290
     0
176
     1
 90
       50
176
     1
 40
0.0
176
     1
 40
1.0
176
     1
 90
        0
176
     1
 62
    18
420
        0
176
     1
 90
       50
176
     1
 90
        3
176
     1
 62
     5
420
      255
176
     1
290
     0
176
     1
 90
       50
176
     1
 90
       50
176
     1
 90
       50
176
     1
290
     0
176
     1
 90
       50
176
     1
 62
   256
176
     0
 40
1.0
176
     0
 90
        2
176
     1
  1
strokes_ogs.tif
176
     1
290
     0
176
     1
 40
1.0
176
     1
 40
1.0
176
     1
  0
VISUALSTYLE
  5
31
102
{ACAD_REACTORS
330
2A
102
}
330
2A
100
AcDbVisualStyle
  2
Hidden
 70
     6
177
     3
291
     0
 70
    58
 90
        1
176
     1
 90
        2
176
     1
 90
        2
176
     1
 90
        0
176
     1
 40
0.6
176
     1
 40
30.0
176
     1
 62
     7
420
 16777215
176
     1
 90
        2
176
     1
 90
        2
176
     1
 62
     7
176
     1
 62
   257
176
     1
 90
        2
176
     1
 90
        1
176
     1
 40
40.0
176
     1
 90
        0
176
     1
 62
   257
176
     1
 40
1.0
176
     1
 90
        1
176
     1
 90
        6
176
     1
 90
        2
176
     1
 62
     7
176
     1
 90
        3
176
     1
 90
        0
176
     1
 90
        0
176
     1
290
     0
176
     1
 90
        1
176
     1
 40
0.0
176
     1
 90
        0
176
     1
290
     0
176
     1
290
     1
176
     1
290
     1
176
     1
290
     0
176
     1
290
     0
176
     1
290
     0
176
     1
290
     0
176
     1
290
     0
176
     1
290
     0
176
     1
 90
       50
176
     1
 40
0.0
176
     1
 40
1.0
176
     1
 90
        0
176
     1
 62
    18
420
        0
176
     1
 90
       50
176
     1
 90
        3
176
     1
 62
     5
420
      255
176
     1
290
     0
176
     1
 90
       50
176
     1
 90
       50
176
     1
 90
       50
176
     1
290
     0
176
     1
 90
       50
176
     1
 62
   256
176
     0
 40
1.0
176
     0
 90
        2
176
     1
  1
strokes_ogs.tif
176
     1
290
     0
176
     1
 40
1.0
176
     1
 40
1.0
176
     1
  0
VISUALSTYLE
  5
3B
102
{ACAD_REACTORS
330
2A
102
}
330
2A
100
AcDbVisualStyle
  2
JitterOff
 70
    20
177
     3
291
     1
 70
    58
 90
        2
176
     0
 90
        2
176
     0
 90
        0
176
     0
 90
        0
176
     0
 40
0.6
176
     0
 40
30.0
176
     0
 62
     7
420
 16777215
176
     0
 90
        1
176
     0
 90
        4
176
     0
 62
     7
176
     0
 62
   257
176
     0
 90
        1
176
     0
 90
        1
176
     0
 40
1.0
176
     0
 90
       10
176
     2
 62
     7
176
     0
 40
1.0
176
     0
 90
        1
176
     0
 90
        6
176
     0
 90
        2
176
     0
 62
     7
176
     0
 90
        5
176
     0
 90
        0
176
     0
 90
        0
176
     0
290
     0
176
     0
 90
        1
176
     0
 40
0.0
176
     0
 90
        0
176
     0
290
     0
176
     0
290
     1
176
     0
290
     1
176
     0
290
     0
176
     0
290
     0
176
     0
290
     0
176
     0
290
     0
176
     0
290
     0
176
     0
290
     0
176
     0
 90
       50
176
     0
 40
0.0
176
     0
 40
1.0
176
     0
 90
        0
176
     0
 62
    18
420
        0
176
     0
 90
       50
176
     0
 90
        3
176
     0
 62
     5
420
      255
176
     0
290
     0
176
     0
 90
       50
176
     0
 90
       50
176
     0
 90
       50
176
     0
290
     0
176
     0
 90
       50
176
     0
 62
   256
176
     0
 40
1.0
176
     0
 90
        2
176
     0
  1
strokes_ogs.tif
176
     0
290
     0
176
     0
 40
1.0
176
     0
 40
1.0
176
     0
  0
VISUALSTYLE
  5
38
102
{ACAD_REACTORS
330
2A
102
}
330
2A
100
AcDbVisualStyle
  2
Linepattern
 70
    14
177
     3
291
     1
 70
    58
 90
        2
176
     1
 90
        2
176
     1
 90
        0
176
     1
 90
        0
176
     1
 40
0.6
176
     1
 40
30.0
176
     1
 62
     7
420
 16777215
176
     1
 90
        1
176
     1
 90
        4
176
     1
 62
     7
176
     1
 62
   257
176
     1
 90
        7
176
     1
 90
        7
176
     1
 40
1.0
176
     1
 90
        8
176
     1
 62
     7
176
     1
 40
1.0
176
     1
 90
        1
176
     1
 90
        6
176
     1
 90
        2
176
     1
 62
     7
176
     1
 90
        5
176
     1
 90
        0
176
     1
 90
        0
176
     1
290
     0
176
     1
 90
        1
176
     1
 40
0.0
176
     1
 90
        0
176
     1
290
     0
176
     1
290
     1
176
     1
290
     1
176
     1
290
     0
176
     1
290
     0
176
     1
290
     0
176
     1
290
     0
176
     1
290
     0
176
     1
290
     0
176
     1
 90
       50
176
     1
 40
0.0
176
     1
 40
1.0
176
     1
 90
        0
176
     1
 62
    18
420
        0
176
     1
 90
       50
176
     1
 90
        3
176
     1
 62
     5
420
      255
176
     1
290
     0
176
     1
 90
       50
176
     1
 90
       50
176
     1
 90
       50
176
     1
290
     0
176
     1
 90
       50
176
     1
 62
   256
176
     0
 40
1.0
176
     0
 90
        2
176
     1
  1
strokes_ogs.tif
176
     1
290
     0
176
     1
 40
1.0
176
     1
 40
1.0
176
     1
  0
VISUALSTYLE
  5
3C
102
{ACAD_REACTORS
330
2A
102
}
330
2A
100
AcDbVisualStyle
  2
OverhangOff
 70
    21
177
     3
291
     1
 70
    58
 90
        2
176
     0
 90
        2
176
     0
 90
        0
176
     0
 90
        0
176
     0
 40
0.6
176
     0
 40
30.0
176
     0
 62
     7
420
 16777215
176
     0
 90
        1
176
     0
 90
        4
176
     0
 62
     7
176
     0
 62
   257
176
     0
 90
        1
176
     0
 90
        1
176
     0
 40
1.0
176
     0
 90
        9
176
     2
 62
     7
176
     0
 40
1.0
176
     0
 90
        1
176
     0
 90
        6
176
     0
 90
        2
176
     0
 62
     7
176
     0
 90
        5
176
     0
 90
        0
176
     0
 90
        0
176
     0
290
     0
176
     0
 90
        1
176
     0
 40
0.0
176
     0
 90
        0
176
     0
290
     0
176
     0
290
     1
176
     0
290
     1
176
     0
290
     0
176
     0
290
     0
176
     0
290
     0
176
     0
290
     0
176
     0
290
     0
176
     0
290
     0
176
     0
 90
       50
176
     0
 40
0.0
176
     0
 40
1.0
176
     0
 90
        0
176
     0
 62
    18
420
        0
176
     0
 90
       50
176
     0
 90
        3
176
     0
 62
     5
420
      255
176
     0
290
     0
176
     0
 90
       50
176
     0
 90
       50
176
     0
 90
       50
176
     0
290
     0
176
     0
 90
       50
176
     0
 62
   256
176
     0
 40
1.0
176
     0
 90
        2
176
     0
  1
strokes_ogs.tif
176
     0
290
     0
176
     0
 40
1.0
176
     0
 40
1.0
176
     0
  0
VISUALSTYLE
  5
33
102
{ACAD_REACTORS
330
2A
102
}
330
2A
100
AcDbVisualStyle
  2
Realistic
 70
     8
177
     3
291
     0
 70
    58
 90
        2
176
     1
 90
        3
176
     1
 90
        0
176
     1
 90
        2
176
     1
 40
0.6
176
     1
 40
30.0
176
     1
 62
     7
420
 16777215
176
     1
 90
        0
176
     1
 90
        0
176
     1
 62
     7
176
     1
 62
   257
176
     1
 90
        1
176
     1
 90
        1
176
     1
 40
1.0
176
     1
 90
        8
176
     1
 62
   257
176
     1
 40
1.0
176
     1
 90
        1
176
     1
 90
        6
176
     1
 90
        2
176
     1
 62
     7
176
     1
 90
        3
176
     1
 90
        0
176
     1
 90
        0
176
     1
290
     0
176
     1
 90
       13
176
     1
 40
0.0
176
     1
 90
        0
176
     1
290
     0
176
     1
290
     1
176
     1
290
     1
176
     1
290
     0
176
     1
290
     0
176
     1
290
     0
176
     1
290
     0
176
     1
290
     0
176
     1
290
     0
176
     1
 90
       50
176
     1
 40
0.0
176
     1
 40
1.0
176
     1
 90
        0
176
     1
 62
    18
420
        0
176
     1
 90
       50
176
     1
 90
        3
176
     1
 62
     5
420
      255
176
     1
290
     0
176
     1
 90
       50
176
     1
 90
       50
176
     1
 90
       50
176
     1
290
     0
176
     1
 90
       50
176
     1
 62
   256
176
     0
 40
1.0
176
     0
 90
        2
176
     1
  1
strokes_ogs.tif
176
     1
290
     0
176
     1
 40
1.0
176
     1
 40
1.0
176
     1
  0
VISUALSTYLE
  5
42
102
{ACAD_REACTORS
330
2A
102
}
330
2A
100
AcDbVisualStyle
  2
Shaded
 70
    27
177
     3
291
     0
 70
    58
 90
        2
176
     1
 90
        2
176
     1
 90
        1
176
     1
 90
        2
176
     1
 40
0.6
176
     1
 40
30.0
176
     1
 62
     7
420
 16777215
176
     1
 90
        0
176
     1
 90
        4
176
     1
 62
     7
176
     1
 62
   257
176
     1
 90
        1
176
     1
 90
        1
176
     1
 40
1.0
176
     1
 90
        8
176
     1
 62
   257
176
     1
 40
1.0
176
     1
 90
        1
176
     1
 90
        6
176
     1
 90
        2
176
     1
 62
     8
420
  7895160
176
     1
 90
        3
176
     1
 90
        0
176
     1
 90
        0
176
     1
290
     0
176
     1
 90
        5
176
     1
 40
0.0
176
     1
 90
        0
176
     1
290
     0
176
     1
290
     1
176
     1
290
     1
176
     1
290
     0
176
     1
290
     0
176
     1
290
     0
176
     1
290
     0
176
     1
290
     0
176
     1
290
     0
176
     1
 90
       50
176
     1
 40
0.0
176
     1
 40
1.0
176
     1
 90
        0
176
     1
 62
    18
420
        0
176
     1
 90
       50
176
     1
 90
        3
176
     1
 62
     5
420
      255
176
     1
290
     0
176
     1
 90
       50
176
     1
 90
       50
176
     1
 90
       50
176
     1
290
     0
176
     1
 90
       50
176
     1
 62
   256
176
     0
 40
1.0
176
     0
 90
        2
176
     1
  1
strokes_ogs.tif
176
     1
290
     0
176
     1
 40
1.0
176
     1
 40
1.0
176
     1
  0
VISUALSTYLE
  5
41
102
{ACAD_REACTORS
330
2A
102
}
330
2A
100
AcDbVisualStyle
  2
Shaded with edges
 70
    26
177
     3
291
     0
 70
    58
 90
        2
176
     1
 90
        2
176
     1
 90
        1
176
     1
 90
        2
176
     1
 40
0.6
176
     1
 40
30.0
176
     1
 62
     7
420
 16777215
176
     1
 90
        1
176
     1
 90
       10
176
     1
 62
     7
176
     1
 62
   257
176
     1
 90
        2
176
     1
 90
        1
176
     1
 40
1.0
176
     1
 90
        8
176
     1
 62
   257
176
     1
 40
1.0
176
     1
 90
        1
176
     1
 90
        6
176
     1
 90
        2
176
     1
 62
     7
176
     1
 90
        3
176
     1
 90
        0
176
     1
 90
        0
176
     1
290
     0
176
     1
 90
        5
176
     1
 40
0.0
176
     1
 90
        0
176
     1
290
     0
176
     1
290
     1
176
     1
290
     1
176
     1
290
     0
176
     1
290
     0
176
     1
290
     0
176
     1
290
     0
176
     1
290
     0
176
     1
290
     0
176
     1
 90
       50
176
     1
 40
0.0
176
     1
 40
1.0
176
     1
 90
        0
176
     1
 62
    18
420
        0
176
     1
 90
       50
176
     1
 90
        3
176
     1
 62
     5
420
      255
176
     1
290
     0
176
     1
 90
       50
176
     1
 90
       50
176
     1
 90
       50
176
     1
290
     0
176
     1
 90
       50
176
     1
 62
   256
176
     0
 40
1.0
176
     0
 90
        2
176
     1
  1
strokes_ogs.tif
176
     1
290
     0
176
     1
 40
1.0
176
     1
 40
1.0
176
     1
  0
VISUALSTYLE
  5
3E
102
{ACAD_REACTORS
330
2A
102
}
330
2A
100
AcDbVisualStyle
  2
Shades of Gray
 70
    23
177
     3
291
     0
 70
    58
 90
        2
176
     1
 90
        2
176
     1
 90
        3
176
     1
 90
        0
176
     1
 40
0.6
176
     1
 40
30.0
176
     1
 62
     7
420
 16777215
176
     1
 90
        2
176
     1
 90
        2
176
     1
 62
     7
176
     1
 62
     7
176
     1
 90
        1
176
     1
 90
        1
176
     1
 40
40.0
176
     1
 90
        8
176
     1
 62
     7
176
     1
 40
1.0
176
     1
 90
        1
176
     1
 90
        6
176
     1
 90
        2
176
     1
 62
     7
176
     1
 90
        3
176
     1
 90
        0
176
     1
 90
        0
176
     1
290
     0
176
     1
 90
        1
176
     1
 40
0.0
176
     1
 90
        0
176
     1
290
     0
176
     1
290
     1
176
     1
290
     1
176
     1
290
     0
176
     1
290
     0
176
     1
290
     0
176
     1
290
     0
176
     1
290
     0
176
     1
290
     0
176
     1
 90
       50
176
     1
 40
0.0
176
     1
 40
1.0
176
     1
 90
        0
176
     1
 62
    18
420
        0
176
     1
 90
       50
176
     1
 90
        3
176
     1
 62
     5
420
      255
176
     1
290
     0
176
     1
 90
       50
176
     1
 90
       50
176
     1
 90
       50
176
     1
290
     0
176
     1
 90
       50
176
     1
 62
   256
176
     0
 40
1.0
176
     0
 90
        2
176
     1
  1
strokes_ogs.tif
176
     1
290
     0
176
     1
 40
1.0
176
     1
 40
1.0
176
     1
  0
VISUALSTYLE
  5
3F
102
{ACAD_REACTORS
330
2A
102
}
330
2A
100
AcDbVisualStyle
  2
Sketchy
 70
    24
177
     3
291
     0
 70
    58
 90
        1
176
     1
 90
        2
176
     1
 90
        2
176
     1
 90
        0
176
     1
 40
0.6
176
     1
 40
30.0
176
     1
 62
     7
420
 16777215
176
     1
 90
        2
176
     1
 90
        2
176
     1
 62
     7
176
     1
 62
     7
176
     1
 90
        1
176
     1
 90
        1
176
     1
 40
40.0
176
     1
 90
       11
176
     1
 62
     7
176
     1
 40
1.0
176
     1
 90
        1
176
     1
 90
        6
176
     1
 90
        2
176
     1
 62
     7
176
     1
 90
        6
176
     1
 90
        0
176
     1
 90
        0
176
     1
290
     0
176
     1
 90
        1
176
     1
 40
0.0
176
     1
 90
        0
176
     1
290
     0
176
     1
290
     1
176
     1
290
     1
176
     1
290
     0
176
     1
290
     0
176
     1
290
     0
176
     1
290
     0
176
     1
290
     0
176
     1
290
     0
176
     1
 90
       50
176
     1
 40
0.0
176
     1
 40
1.0
176
     1
 90
        0
176
     1
 62
    18
420
        0
176
     1
 90
       50
176
     1
 90
        3
176
     1
 62
     5
420
      255
176
     1
290
     0
176
     1
 90
       50
176
     1
 90
       50
176
     1
 90
       50
176
     1
290
     0
176
     1
 90
       50
176
     1
 62
   256
176
     0
 40
1.0
176
     0
 90
        2
176
     1
  1
strokes_ogs.tif
176
     1
290
     0
176
     1
 40
1.0
176
     1
 40
1.0
176
     1
  0
VISUALSTYLE
  5
37
102
{ACAD_REACTORS
330
2A
102
}
330
2A
100
AcDbVisualStyle
  2
Thicken
 70
    13
177
     3
291
     1
 70
    58
 90
        2
176
     1
 90
        2
176
     1
 90
        0
176
     1
 90
        0
176
     1
 40
0.6
176
     1
 40
30.0
176
     1
 62
     7
420
 16777215
176
     1
 90
        1
176
     1
 90
        4
176
     1
 62
     7
176
     1
 62
   257
176
     1
 90
        1
176
     1
 90
        1
176
     1
 40
1.0
176
     1
 90
       12
176
     1
 62
     7
176
     1
 40
1.0
176
     1
 90
        1
176
     1
 90
        6
176
     1
 90
        2
176
     1
 62
     7
176
     1
 90
        5
176
     1
 90
        0
176
     1
 90
        0
176
     1
290
     0
176
     1
 90
        1
176
     1
 40
0.0
176
     1
 90
        0
176
     1
290
     0
176
     1
290
     1
176
     1
290
     1
176
     1
290
     0
176
     1
290
     0
176
     1
290
     0
176
     1
290
     0
176
     1
290
     0
176
     1
290
     0
176
     1
 90
       50
176
     1
 40
0.0
176
     1
 40
1.0
176
     1
 90
        0
176
     1
 62
    18
420
        0
176
     1
 90
       50
176
     1
 90
        3
176
     1
 62
     5
420
      255
176
     1
290
     0
176
     1
 90
       50
176
     1
 90
       50
176
     1
 90
       50
176
     1
290
     0
176
     1
 90
       50
176
     1
 62
   256
176
     0
 40
1.0
176
     0
 90
        2
176
     1
  1
strokes_ogs.tif
176
     1
290
     0
176
     1
 40
1.0
176
     1
 40
1.0
176
     1
  0
VISUALSTYLE
  5
30
102
{ACAD_REACTORS
330
2A
102
}
330
2A
100
AcDbVisualStyle
  2
Wireframe
 70
     5
177
     3
291
     0
 70
    58
 90
        0
176
     1
 90
        2
176
     1
 90
        0
176
     1
 90
        0
176
     1
 40
0.6
176
     1
 40
30.0
176
     1
 62
     7
420
 16777215
176
     1
 90
        1
176
     1
 90
        4
176
     1
 62
     7
176
     1
 62
   257
176
     1
 90
        1
176
     1
 90
        1
176
     1
 40
1.0
176
     1
 90
        0
176
     1
 62
   257
176
     1
 40
1.0
176
     1
 90
        1
176
     1
 90
        6
176
     1
 90
        2
176
     1
 62
     7
176
     1
 90
        3
176
     1
 90
        0
176
     1
 90
        0
176
     1
290
     0
176
     1
 90
        1
176
     1
 40
0.0
176
     1
 90
        0
176
     1
290
     0
176
     1
290
     1
176
     1
290
     1
176
     1
290
     0
176
     1
290
     0
176
     1
290
     0
176
     1
290
     0
176
     1
290
     0
176
     1
290
     0
176
     1
 90
       50
176
     1
 40
0.0
176
     1
 40
1.0
176
     1
 90
        0
176
     1
 62
    18
420
        0
176
     1
 90
       50
176
     1
 90
        3
176
     1
 62
     5
420
      255
176
     1
290
     0
176
     1
 90
       50
176
     1
 90
       50
176
     1
 90
       50
176
     1
290
     0
176
     1
 90
       50
176
     1
 62
   256
176
     0
 40
1.0
176
     0
 90
        2
176
     1
  1
strokes_ogs.tif
176
     1
290
     0
176
     1
 40
1.0
176
     1
 40
1.0
176
     1
  0
VISUALSTYLE
  5
40
102
{ACAD_REACTORS
330
2A
102
}
330
2A
100
AcDbVisualStyle
  2
X-Ray
 70
    25
177
     3
291
     0
 70
    58
 90
        2
176
     1
 90
        2
176
     1
 90
        1
176
     1
 90
        1
176
     1
 40
0.5
176
     1
 40
30.0
176
     1
 62
     7
420
 16777215
176
     1
 90
        1
176
     1
 90
        0
176
     1
 62
     7
176
     1
 62
   257
176
     1
 90
        1
176
     1
 90
        1
176
     1
 40
1.0
176
     1
 90
        8
176
     1
 62
     7
176
     1
 40
1.0
176
     1
 90
        1
176
     1
 90
        6
176
     1
 90
        2
176
     1
 62
     7
176
     1
 90
        3
176
     1
 90
        0
176
     1
 90
        0
176
     1
290
     0
176
     1
 90
       13
176
     1
 40
0.0
176
     1
 90
        0
176
     1
290
     0
176
     1
290
     1
176
     1
290
     1
176
     1
290
     0
176
     1
290
     0
176
     1
290
     0
176
     1
290
     0
176
     1
290
     0
176
     1
290
     0
176
     1
 90
       50
176
     1
 40
0.0
176
     1
 40
1.0
176
     1
 90
        0
176
     1
 62
    18
420
        0
176
     1
 90
       50
176
     1
 90
        3
176
     1
 62
     5
420
      255
176
     1
290
     0
176
     1
 90
       50
176
     1
 90
       50
176
     1
 90
       50
176
     1
290
     0
176
     1
 90
       50
176
     1
 62
   256
176
     0
 40
1.0
176
     0
 90
        2
176
     1
  1
strokes_ogs.tif
176
     1
290
     0
176
     1
 40
1.0
176
     1
 40
1.0
176
     1
  0
DICTIONARYVAR
  5
15D
102
{ACAD_REACTORS
330
15C
102
}
330
15C
100
DictionaryVariables
280
     0
  1
1:1
  0
DICTIONARYVAR
  5
162
102
{ACAD_REACTORS
330
15C
102
}
330
15C
100
DictionaryVariables
280
     0
  1
Standard
  0
DICTIONARYVAR
  5
161
102
{ACAD_REACTORS
330
15C
102
}
330
15C
100
DictionaryVariables
280
     0
  1
Standard
  0
DICTIONARY
  5
15E
330
6A
100
AcDbDictionary
280
     1
281
     1
  3
ACAD_ROUNDTRIP_2008_TABLESTYLE_CELLSTYLEMAP
360
15F
  0
CELLSTYLEMAP
  5
15F
102
{ACAD_REACTORS
330
15E
102
}
330
15E
100
AcDbCellStyleMap
 90
        3
300
CELLSTYLE
  1
TABLEFORMAT_BEGIN
 90
        5
170
     1
 91
        0
 92
    32768
 62
   257
 93
        1
300
CONTENTFORMAT
  1
CONTENTFORMAT_BEGIN
 90
        0
 91
        0
 92
        4
 93
        0
300

 40
0.0
140
1.0
 94
        5
 62
     0
340
11
144
0.25
309
CONTENTFORMAT_END
171
     1
301
MARGIN
  1
CELLMARGIN_BEGIN
 40
0.06
 40
0.06
 40
0.06
 40
0.06
 40
0.06
 40
0.06
309
CELLMARGIN_END
 94
        6
 95
        1
302
GRIDFORMAT
  1
GRIDFORMAT_BEGIN
 90
        0
 91
        1
 62
     0
 92
       -2
340
14
 93
        0
 40
0.045
309
GRIDFORMAT_END
 95
        2
302
GRIDFORMAT
  1
GRIDFORMAT_BEGIN
 90
        0
 91
        1
 62
     0
 92
       -2
340
14
 93
        0
 40
0.045
309
GRIDFORMAT_END
 95
        4
302
GRIDFORMAT
  1
GRIDFORMAT_BEGIN
 90
        0
 91
        1
 62
     0
 92
       -2
340
14
 93
        0
 40
0.045
309
GRIDFORMAT_END
 95
        8
302
GRIDFORMAT
  1
GRIDFORMAT_BEGIN
 90
        0
 91
        1
 62
     0
 92
       -2
340
14
 93
        0
 40
0.045
309
GRIDFORMAT_END
 95
       16
302
GRIDFORMAT
  1
GRIDFORMAT_BEGIN
 90
        0
 91
        1
 62
     0
 92
       -2
340
14
 93
        0
 40
0.045
309
GRIDFORMAT_END
 95
       32
302
GRIDFORMAT
  1
GRIDFORMAT_BEGIN
 90
        0
 91
        1
 62
     0
 92
       -2
340
14
 93
        0
 40
0.045
309
GRIDFORMAT_END
309
TABLEFORMAT_END
  1
CELLSTYLE_BEGIN
 90
        1
 91
        1
300
_TITLE
309
CELLSTYLE_END
300
CELLSTYLE
  1
TABLEFORMAT_BEGIN
 90
        5
170
     1
 91
        0
 92
        0
 62
   257
 93
        1
300
CONTENTFORMAT
  1
CONTENTFORMAT_BEGIN
 90
        0
 91
        0
 92
        4
 93
        0
300

 40
0.0
140
1.0
 94
        5
 62
     0
340
11
144
0.18
309
CONTENTFORMAT_END
171
     1
301
MARGIN
  1
CELLMARGIN_BEGIN
 40
0.06
 40
0.06
 40
0.06
 40
0.06
 40
0.06
 40
0.06
309
CELLMARGIN_END
 94
        6
 95
        1
302
GRIDFORMAT
  1
GRIDFORMAT_BEGIN
 90
        0
 91
        1
 62
     0
 92
       -2
340
14
 93
        0
 40
0.045
309
GRIDFORMAT_END
 95
        2
302
GRIDFORMAT
  1
GRIDFORMAT_BEGIN
 90
        0
 91
        1
 62
     0
 92
       -2
340
14
 93
        0
 40
0.045
309
GRIDFORMAT_END
 95
        4
302
GRIDFORMAT
  1
GRIDFORMAT_BEGIN
 90
        0
 91
        1
 62
     0
 92
       -2
340
14
 93
        0
 40
0.045
309
GRIDFORMAT_END
 95
        8
302
GRIDFORMAT
  1
GRIDFORMAT_BEGIN
 90
        0
 91
        1
 62
     0
 92
       -2
340
14
 93
        0
 40
0.045
309
GRIDFORMAT_END
 95
       16
302
GRIDFORMAT
  1
GRIDFORMAT_BEGIN
 90
        0
 91
        1
 62
     0
 92
       -2
340
14
 93
        0
 40
0.045
309
GRIDFORMAT_END
 95
       32
302
GRIDFORMAT
  1
GRIDFORMAT_BEGIN
 90
        0
 91
        1
 62
     0
 92
       -2
340
14
 93
        0
 40
0.045
309
GRIDFORMAT_END
309
TABLEFORMAT_END
  1
CELLSTYLE_BEGIN
 90
        2
 91
        1
300
_HEADER
309
CELLSTYLE_END
300
CELLSTYLE
  1
TABLEFORMAT_BEGIN
 90
        5
170
     1
 91
        0
 92
        0
 62
   257
 93
        1
300
CONTENTFORMAT
  1
CONTENTFORMAT_BEGIN
 90
        0
 91
        0
 92
        4
 93
        0
300

 40
0.0
140
1.0
 94
        2
 62
     0
340
11
144
0.18
309
CONTENTFORMAT_END
171
     1
301
MARGIN
  1
CELLMARGIN_BEGIN
 40
0.06
 40
0.06
 40
0.06
 40
0.06
 40
0.06
 40
0.06
309
CELLMARGIN_END
 94
        6
 95
        1
302
GRIDFORMAT
  1
GRIDFORMAT_BEGIN
 90
        0
 91
        1
 62
     0
 92
       -2
340
14
 93
        0
 40
0.045
309
GRIDFORMAT_END
 95
        2
302
GRIDFORMAT
  1
GRIDFORMAT_BEGIN
 90
        0
 91
        1
 62
     0
 92
       -2
340
14
 93
        0
 40
0.045
309
GRIDFORMAT_END
 95
        4
302
GRIDFORMAT
  1
GRIDFORMAT_BEGIN
 90
        0
 91
        1
 62
     0
 92
       -2
340
14
 93
        0
 40
0.045
309
GRIDFORMAT_END
 95
        8
302
GRIDFORMAT
  1
GRIDFORMAT_BEGIN
 90
        0
 91
        1
 62
     0
 92
       -2
340
14
 93
        0
 40
0.045
309
GRIDFORMAT_END
 95
       16
302
GRIDFORMAT
  1
GRIDFORMAT_BEGIN
 90
        0
 91
        1
 62
     0
 92
       -2
340
14
 93
        0
 40
0.045
309
GRIDFORMAT_END
 95
       32
302
GRIDFORMAT
  1
GRIDFORMAT_BEGIN
 90
        0
 91
        1
 62
     0
 92
       -2
340
14
 93
        0
 40
0.045
309
GRIDFORMAT_END
309
TABLEFORMAT_END
  1
CELLSTYLE_BEGIN
 90
        3
 91
        2
300
_DATA
309
CELLSTYLE_END
  0
ENDSEC
  0
EOF