0
SECTION
  2
HEADER
  9
$ACADVER
  1
AC1027
  9
$ACADMAINTVER
 70
     8
  9
$DWGCODEPAGE
  3
ANSI_1252
  9
$REQUIREDVERSIONS
160
                 0
  9
$COMMENTS
  1
File was created by Cadenas
  9
$CUSTOMPROPERTYTAG
  1
NN
  9
$CUSTOMPROPERTY
  1
D-Lok Two-Bolt Flange Metric Bore - Stainless Housing, Corrosion Resistant Insert
  9
$CUSTOMPROPERTYTAG
  1
NT
  9
$CUSTOMPROPERTY
  1
DLEZ Normal Duty Stainless Steel 2 Bolt Flange Bearings
  9
$CUSTOMPROPERTYTAG
  1
NB
  9
$CUSTOMPROPERTY
  1
127749
  9
$CUSTOMPROPERTYTAG
  1
NBSYN
  9
$CUSTOMPROPERTY
  1
$PN.
  9
$CUSTOMPROPERTYTAG
  1
LINA
  9
$CUSTOMPROPERTY
  1
127749
  9
$CUSTOMPROPERTYTAG
  1
SERIES
  9
$CUSTOMPROPERTY
  1
208
  9
$CUSTOMPROPERTYTAG
  1
SS
  9
$CUSTOMPROPERTY
  1
40
  9
$CUSTOMPROPERTYTAG
  1
PN
  9
$CUSTOMPROPERTY
  1
127749
  9
$CUSTOMPROPERTYTAG
  1
DESCRIPTION
  9
$CUSTOMPROPERTY
  1
F2B-DLEZ-40M-SHCR
  9
$CUSTOMPROPERTYTAG
  1
W
  9
$CUSTOMPROPERTY
  1
1.77
  9
$CUSTOMPROPERTYTAG
  1
A
  9
$CUSTOMPROPERTY
  1
51.1
  9
$CUSTOMPROPERTYTAG
  1
B
  9
$CUSTOMPROPERTY
  1
170.4
  9
$CUSTOMPROPERTYTAG
  1
C
  9
$CUSTOMPROPERTY
  1
52.1
  9
$CUSTOMPROPERTYTAG
  1
D
  9
$CUSTOMPROPERTY
  1
143.5
  9
$CUSTOMPROPERTYTAG
  1
F
  9
$CUSTOMPROPERTY
  1
M12
  9
$CUSTOMPROPERTYTAG
  1
H
  9
$CUSTOMPROPERTY
  1
10.7
  9
$CUSTOMPROPERTYTAG
  1
J
  9
$CUSTOMPROPERTY
  1
17.8
  9
$CUSTOMPROPERTYTAG
  1
L
  9
$CUSTOMPROPERTY
  1
69.6
  9
$CUSTOMPROPERTYTAG
  1
M
  9
$CUSTOMPROPERTY
  1
97.5
  9
$CUSTOMPROPERTYTAG
  1
COMPANY
  9
$CUSTOMPROPERTY
  1
baldor
  9
$INSBASE
 10
0.0
 20
0.0
 30
0.0
  9
$EXTMIN
 10
1.000000000000000E+20
 20
1.000000000000000E+20
 30
1.000000000000000E+20
  9
$EXTMAX
 10
-1.000000000000000E+20
 20
-1.000000000000000E+20
 30
-1.000000000000000E+20
  9
$LIMMIN
 10
0.0
 20
0.0
  9
$LIMMAX
 10
420.0
 20
297.0
  9
$ORTHOMODE
 70
     0
  9
$REGENMODE
 70
     1
  9
$FILLMODE
 70
     1
  9
$QTEXTMODE
 70
     0
  9
$MIRRTEXT
 70
     1
  9
$LTSCALE
 40
1.0
  9
$ATTMODE
 70
     1
  9
$TEXTSIZE
 40
2.5
  9
$TRACEWID
 40
1.0
  9
$TEXTSTYLE
  7
Standard
  9
$CLAYER
  8
0
  9
$CELTYPE
  6
ByLayer
  9
$CECOLOR
 62
   256
  9
$CELTSCALE
 40
1.0
  9
$DISPSILH
 70
     0
  9
$DIMSCALE
 40
1.0
  9
$DIMASZ
 40
2.5
  9
$DIMEXO
 40
0.625
  9
$DIMDLI
 40
3.75
  9
$DIMRND
 40
0.0
  9
$DIMDLE
 40
0.0
  9
$DIMEXE
 40
1.25
  9
$DIMTP
 40
0.0
  9
$DIMTM
 40
0.0
  9
$DIMTXT
 40
2.5
  9
$DIMCEN
 40
2.5
  9
$DIMTSZ
 40
0.0
  9
$DIMTOL
 70
     0
  9
$DIMLIM
 70
     0
  9
$DIMTIH
 70
     0
  9
$DIMTOH
 70
     0
  9
$DIMSE1
 70
     0
  9
$DIMSE2
 70
     0
  9
$DIMTAD
 70
     1
  9
$DIMZIN
 70
     8
  9
$DIMBLK
  1

  9
$DIMASO
 70
     1
  9
$DIMSHO
 70
     1
  9
$DIMPOST
  1

  9
$DIMAPOST
  1

  9
$DIMALT
 70
     0
  9
$DIMALTD
 70
     3
  9
$DIMALTF
 40
0.03937007874016
  9
$DIMLFAC
 40
1.0
  9
$DIMTOFL
 70
     1
  9
$DIMTVP
 40
0.0
  9
$DIMTIX
 70
     0
  9
$DIMSOXD
 70
     0
  9
$DIMSAH
 70
     0
  9
$DIMBLK1
  1

  9
$DIMBLK2
  1

  9
$DIMSTYLE
  2
ISO-25
  9
$DIMCLRD
 70
     0
  9
$DIMCLRE
 70
     0
  9
$DIMCLRT
 70
     0
  9
$DIMTFAC
 40
1.0
  9
$DIMGAP
 40
0.625
  9
$DIMJUST
 70
     0
  9
$DIMSD1
 70
     0
  9
$DIMSD2
 70
     0
  9
$DIMTOLJ
 70
     0
  9
$DIMTZIN
 70
     8
  9
$DIMALTZ
 70
     0
  9
$DIMALTTZ
 70
     0
  9
$DIMUPT
 70
     0
  9
$DIMDEC
 70
     2
  9
$DIMTDEC
 70
     2
  9
$DIMALTU
 70
     2
  9
$DIMALTTD
 70
     3
  9
$DIMTXSTY
  7
Standard
  9
$DIMAUNIT
 70
     0
  9
$DIMADEC
 70
     0
  9
$DIMALTRND
 40
0.0
  9
$DIMAZIN
 70
     0
  9
$DIMDSEP
 70
    44
  9
$DIMATFIT
 70
     3
  9
$DIMFRAC
 70
     0
  9
$DIMLDRBLK
  1

  9
$DIMLUNIT
 70
     2
  9
$DIMLWD
 70
    -2
  9
$DIMLWE
 70
    -2
  9
$DIMTMOVE
 70
     0
  9
$DIMFXL
 40
1.0
  9
$DIMFXLON
 70
     0
  9
$DIMJOGANG
 40
0.7853981633974483
  9
$DIMTFILL
 70
     0
  9
$DIMTFILLCLR
 70
     0
  9
$DIMARCSYM
 70
     0
  9
$DIMLTYPE
  6

  9
$DIMLTEX1
  6

  9
$DIMLTEX2
  6

  9
$DIMTXTDIRECTION
 70
     0
  9
$LUNITS
 70
     2
  9
$LUPREC
 70
     4
  9
$SKETCHINC
 40
1.0
  9
$FILLETRAD
 40
10.0
  9
$AUNITS
 70
     0
  9
$AUPREC
 70
     0
  9
$MENU
  1
.
  9
$ELEVATION
 40
0.0
  9
$PELEVATION
 40
0.0
  9
$THICKNESS
 40
0.0
  9
$LIMCHECK
 70
     0
  9
$CHAMFERA
 40
0.0
  9
$CHAMFERB
 40
0.0
  9
$CHAMFERC
 40
0.0
  9
$CHAMFERD
 40
0.0
  9
$SKPOLY
 70
     0
  9
$TDCREATE
 40
2458168.973936227
  9
$TDUCREATE
 40
2458168.93226956
  9
$TDUPDATE
 40
2458168.973936412
  9
$TDUUPDATE
 40
2458168.932269746
  9
$TDINDWG
 40
0.0000000116
  9
$TDUSRTIMER
 40
0.0000000116
  9
$USRTIMER
 70
     1
  9
$ANGBASE
 50
0.0
  9
$ANGDIR
 70
     0
  9
$PDMODE
 70
     0
  9
$PDSIZE
 40
0.0
  9
$PLINEWID
 40
0.0
  9
$SPLFRAME
 70
     0
  9
$SPLINETYPE
 70
     6
  9
$SPLINESEGS
 70
     8
  9
$HANDSEED
  5
16D
  9
$SURFTAB1
 70
     6
  9
$SURFTAB2
 70
     6
  9
$SURFTYPE
 70
     6
  9
$SURFU
 70
     6
  9
$SURFV
 70
     6
  9
$UCSBASE
  2

  9
$UCSNAME
  2

  9
$UCSORG
 10
0.0
 20
0.0
 30
0.0
  9
$UCSXDIR
 10
1.0
 20
0.0
 30
0.0
  9
$UCSYDIR
 10
0.0
 20
1.0
 30
0.0
  9
$UCSORTHOREF
  2

  9
$UCSORTHOVIEW
 70
     0
  9
$UCSORGTOP
 10
0.0
 20
0.0
 30
0.0
  9
$UCSORGBOTTOM
 10
0.0
 20
0.0
 30
0.0
  9
$UCSORGLEFT
 10
0.0
 20
0.0
 30
0.0
  9
$UCSORGRIGHT
 10
0.0
 20
0.0
 30
0.0
  9
$UCSORGFRONT
 10
0.0
 20
0.0
 30
0.0
  9
$UCSORGBACK
 10
0.0
 20
0.0
 30
0.0
  9
$PUCSBASE
  2

  9
$PUCSNAME
  2

  9
$PUCSORG
 10
0.0
 20
0.0
 30
0.0
  9
$PUCSXDIR
 10
1.0
 20
0.0
 30
0.0
  9
$PUCSYDIR
 10
0.0
 20
1.0
 30
0.0
  9
$PUCSORTHOREF
  2

  9
$PUCSORTHOVIEW
 70
     0
  9
$PUCSORGTOP
 10
0.0
 20
0.0
 30
0.0
  9
$PUCSORGBOTTOM
 10
0.0
 20
0.0
 30
0.0
  9
$PUCSORGLEFT
 10
0.0
 20
0.0
 30
0.0
  9
$PUCSORGRIGHT
 10
0.0
 20
0.0
 30
0.0
  9
$PUCSORGFRONT
 10
0.0
 20
0.0
 30
0.0
  9
$PUCSORGBACK
 10
0.0
 20
0.0
 30
0.0
  9
$USERI1
 70
     0
  9
$USERI2
 70
     0
  9
$USERI3
 70
     0
  9
$USERI4
 70
     0
  9
$USERI5
 70
     0
  9
$USERR1
 40
0.0
  9
$USERR2
 40
0.0
  9
$USERR3
 40
0.0
  9
$USERR4
 40
0.0
  9
$USERR5
 40
0.0
  9
$WORLDVIEW
 70
     1
  9
$SHADEDGE
 70
     3
  9
$SHADEDIF
 70
    70
  9
$TILEMODE
 70
     1
  9
$MAXACTVP
 70
    64
  9
$PINSBASE
 10
0.0
 20
0.0
 30
0.0
  9
$PLIMCHECK
 70
     0
  9
$PEXTMIN
 10
1.000000000000000E+20
 20
1.000000000000000E+20
 30
1.000000000000000E+20
  9
$PEXTMAX
 10
-1.000000000000000E+20
 20
-1.000000000000000E+20
 30
-1.000000000000000E+20
  9
$PLIMMIN
 10
0.0
 20
0.0
  9
$PLIMMAX
 10
420.0
 20
297.0
  9
$UNITMODE
 70
     0
  9
$VISRETAIN
 70
     1
  9
$PLINEGEN
 70
     0
  9
$PSLTSCALE
 70
     1
  9
$TREEDEPTH
 70
  3020
  9
$CMLSTYLE
  2
Standard
  9
$CMLJUST
 70
     0
  9
$CMLSCALE
 40
20.0
  9
$PROXYGRAPHICS
 70
     1
  9
$MEASUREMENT
 70
     1
  9
$CELWEIGHT
370
    -1
  9
$ENDCAPS
280
     0
  9
$JOINSTYLE
280
     0
  9
$LWDISPLAY
290
     0
  9
$INSUNITS
 70
     4
  9
$HYPERLINKBASE
  1

  9
$STYLESHEET
  1

  9
$XEDIT
290
     1
  9
$CEPSNTYPE
380
     0
  9
$PSTYLEMODE
290
     1
  9
$FINGERPRINTGUID
  2
{B98B823C-1845-42D5-BBC1-3BBDE753D3E4}
  9
$VERSIONGUID
  2
{FAEB1C32-E019-11D5-929B-00C0DF256EC4}
  9
$EXTNAMES
290
     1
  9
$PSVPSCALE
 40
0.0
  9
$OLESTARTUP
290
     0
  9
$SORTENTS
280
   127
  9
$INDEXCTL
280
     0
  9
$HIDETEXT
280
     1
  9
$XCLIPFRAME
280
     2
  9
$HALOGAP
280
     0
  9
$OBSCOLOR
 70
   257
  9
$OBSLTYPE
280
     0
  9
$INTERSECTIONDISPLAY
280
     0
  9
$INTERSECTIONCOLOR
 70
   257
  9
$DIMASSOC
280
     2
  9
$PROJECTNAME
  1

  9
$CAMERADISPLAY
290
     0
  9
$LENSLENGTH
 40
50.0
  9
$CAMERAHEIGHT
 40
0.0
  9
$STEPSPERSEC
 40
2.0
  9
$STEPSIZE
 40
6.0
  9
$3DDWFPREC
 40
2.0
  9
$PSOLWIDTH
 40
5.0
  9
$PSOLHEIGHT
 40
80.0
  9
$LOFTANG1
 40
1.570796326794897
  9
$LOFTANG2
 40
1.570796326794897
  9
$LOFTMAG1
 40
0.0
  9
$LOFTMAG2
 40
0.0
  9
$LOFTPARAM
 70
     7
  9
$LOFTNORMALS
280
     1
  9
$LATITUDE
 40
37.795
  9
$LONGITUDE
 40
-122.394
  9
$NORTHDIRECTION
 40
0.0
  9
$TIMEZONE
 70
 -8000
  9
$LIGHTGLYPHDISPLAY
280
     1
  9
$TILEMODELIGHTSYNCH
280
     1
  9
$CMATERIAL
347
44
  9
$SOLIDHIST
280
     0
  9
$SHOWHIST
280
     1
  9
$DWFFRAME
280
     2
  9
$DGNFRAME
280
     2
  9
$REALWORLDSCALE
290
     1
  9
$INTERFERECOLOR
 62
   256
  9
$CSHADOW
280
     0
  9
$SHADOWPLANELOCATION
 40
0.0
  0
ENDSEC
  0
SECTION
  2
CLASSES
  0
CLASS
  1
ACDBDICTIONARYWDFLT
  2
AcDbDictionaryWithDefault
  3
ObjectDBX Classes
 90
        0
 91
        4
280
     0
281
     0
  0
CLASS
  1
VISUALSTYLE
  2
AcDbVisualStyle
  3
ObjectDBX Classes
 90
     4095
 91
        4
280
     0
281
     0
  0
CLASS
  1
MATERIAL
  2
AcDbMaterial
  3
ObjectDBX Classes
 90
     1153
 91
        4
280
     0
281
     0
  0
CLASS
  1
SCALE
  2
AcDbScale
  3
ObjectDBX Classes
 90
     1153
 91
        4
280
     0
281
     0
  0
CLASS
  1
TABLESTYLE
  2
AcDbTableStyle
  3
ObjectDBX Classes
 90
     4095
 91
        4
280
     0
281
     0
  0
CLASS
  1
MLEADERSTYLE
  2
AcDbMLeaderStyle
  3
ACDB_MLEADERSTYLE_CLASS
 90
     4095
 91
        4
280
     0
281
     0
  0
CLASS
  1
SUN
  2
AcDbSun
  3
SCENEOE
 90
     1153
 91
        4
280
     0
281
     0
  0
CLASS
  1
DICTIONARYVAR
  2
AcDbDictionaryVar
  3
ObjectDBX Classes
 90
        0
 91
        4
280
     0
281
     0
  0
CLASS
  1
CELLSTYLEMAP
  2
AcDbCellStyleMap
  3
ObjectDBX Classes
 90
     1152
 91
        4
280
     0
281
     0
  0
ENDSEC
  0
SECTION
  2
TABLES
  0
TABLE
  2
VPORT
  5
8
330
0
100
AcDbSymbolTable
 70
     1
  0
VPORT
  5
29
330
8
100
AcDbSymbolTableRecord
100
AcDbViewportTableRecord
  2
*Active
 70
     0
 10
0.0
 20
0.0
 11
1.0
 21
1.0
 12
0.0
 22
-26.04999999999998
 13
0.0
 23
0.0
 14
10.0
 24
10.0
 15
10.0
 25
10.0
 16
0.0
 26
0.0
 36
1.0
 17
0.0
 27
0.0
 37
0.0
 40
58.45619999999995
 41
1.701273774210436
 42
50.0
 43
0.0
 44
0.0
 50
0.0
 51
0.0
 71
     0
 72
   100
 73
     1
 74
     3
 75
     0
 76
     0
 77
     0
 78
     0
281
     0
 65
     1
110
0.0
120
0.0
130
0.0
111
1.0
121
0.0
131
0.0
112
0.0
122
1.0
132
0.0
 79
     0
146
0.0
348
2F
 60
     3
 61
     5
292
     1
282
     1
141
0.0
142
0.0
 63
   250
361
6D
  0
ENDTAB
  0
TABLE
  2
LTYPE
  5
5
330
0
100
AcDbSymbolTable
 70
     3
  0
LTYPE
  5
14
330
5
100
AcDbSymbolTableRecord
100
AcDbLinetypeTableRecord
  2
ByBlock
 70
     0
  3

 72
    65
 73
     0
 40
0.0
  0
LTYPE
  5
15
330
5
100
AcDbSymbolTableRecord
100
AcDbLinetypeTableRecord
  2
ByLayer
 70
     0
  3

 72
    65
 73
     0
 40
0.0
  0
LTYPE
  5
16
330
5
100
AcDbSymbolTableRecord
100
AcDbLinetypeTableRecord
  2
Continuous
 70
     0
  3
Solid line
 72
    65
 73
     0
 40
0.0
  0
LTYPE
  5
99
330
5
100
AcDbSymbolTableRecord
100
AcDbLinetypeTableRecord
  2
Dashed
 70
     0
  3

 72
    65
 73
     2
 40
2.0
 49
1.0
 74
     0
 49
-1.0
 74
     0
  0
LTYPE
  5
149
330
5
100
AcDbSymbolTableRecord
100
AcDbLinetypeTableRecord
  2
Center
 70
     0
  3

 72
    65
 73
     4
 40
1.5
 49
0.45
 74
     0
 49
-0.5
 74
     0
 49
0.05
 74
     0
 49
-0.5
 74
     0
  0
ENDTAB
  0
TABLE
  2
LAYER
  5
2
330
0
100
AcDbSymbolTable
 70
     7
  0
LAYER
  5
10
330
2
100
AcDbSymbolTableRecord
100
AcDbLayerTableRecord
  2
0
 70
     0
 62
     7
  6
Continuous
370
    -3
390
F
347
46
348
0
  0
LAYER
  5
72
330
2
100
AcDbSymbolTableRecord
100
AcDbLayerTableRecord
  2
AM_6
 70
     0
 62
    -2
  6
Continuous
370
    35
390
F
347
46
348
0
  0
LAYER
  5
9A
330
2
100
AcDbSymbolTableRecord
100
AcDbLayerTableRecord
  2
AM_9
 70
     0
 62
     6
  6
Dashed
370
    25
390
F
347
46
348
0
  0
LAYER
  5
C0
330
2
100
AcDbSymbolTableRecord
100
AcDbLayerTableRecord
  2
AM_4
 70
     0
 62
     7
  6
Continuous
370
    50
390
F
347
46
348
0
  0
LAYER
  5
128
330
2
100
AcDbSymbolTableRecord
100
AcDbLayerTableRecord
  2
AM_5
 70
     0
 62
     3
  6
Continuous
370
    25
390
F
347
46
348
0
  0
LAYER
  5
14A
330
2
100
AcDbSymbolTableRecord
100
AcDbLayerTableRecord
  2
AM_7
 70
     0
 62
     7
  6
Center
370
    25
390
F
347
46
348
0
  0
LAYER
  5
15D
330
2
100
AcDbSymbolTableRecord
100
AcDbLayerTableRecord
  2
ConnectionPoints
 70
     0
 62
     7
  6
Continuous
370
    50
390
F
347
46
348
0
  0
ENDTAB
  0
TABLE
  2
STYLE
  5
3
330
0
100
AcDbSymbolTable
 70
     1
  0
STYLE
  5
11
330
3
100
AcDbSymbolTableRecord
100
AcDbTextStyleTableRecord
  2
Standard
 70
     0
 40
0.0
 41
1.0
 50
0.0
 71
     0
 42
2.5
  3
txt
  4

  0
ENDTAB
  0
TABLE
  2
VIEW
  5
6
330
0
100
AcDbSymbolTable
 70
     0
  0
ENDTAB
  0
TABLE
  2
UCS
  5
7
330
0
100
AcDbSymbolTable
 70
     0
  0
ENDTAB
  0
TABLE
  2
APPID
  5
9
330
0
100
AcDbSymbolTable
 70
     1
  0
APPID
  5
12
330
9
100
AcDbSymbolTableRecord
100
AcDbRegAppTableRecord
  2
ACAD
 70
     0
  0
ENDTAB
  0
TABLE
  2
DIMSTYLE
  5
A
330
0
100
AcDbSymbolTable
 70
     1
100
AcDbDimStyleTable
  0
DIMSTYLE
105
27
330
A
100
AcDbSymbolTableRecord
100
AcDbDimStyleTableRecord
  2
ISO-25
 70
     0
 41
2.5
 42
0.625
 43
3.75
 44
1.25
 73
     0
 74
     0
 77
     1
 78
     8
140
2.5
141
2.5
143
0.03937007874016
147
0.625
171
     3
172
     1
178
     0
271
     2
272
     2
274
     3
278
    44
283
     0
284
     8
340
11
  0
ENDTAB
  0
TABLE
  2
BLOCK_RECORD
  5
1
330
0
100
AcDbSymbolTable
 70
     5
  0
BLOCK_RECORD
  5
1F
330
1
100
AcDbSymbolTableRecord
100
AcDbBlockTableRecord
  2
*Model_Space
340
22
 70
     0
280
     1
281
     0
  0
BLOCK_RECORD
  5
1B
330
1
100
AcDbSymbolTableRecord
100
AcDbBlockTableRecord
  2
*Paper_Space
340
1E
 70
     0
280
     1
281
     0
  0
BLOCK_RECORD
  5
23
330
1
100
AcDbSymbolTableRecord
100
AcDbBlockTableRecord
  2
*Paper_Space0
340
26
 70
     0
280
     1
281
     0
  0
BLOCK_RECORD
  5
6E
330
1
100
AcDbSymbolTableRecord
100
AcDbBlockTableRecord
  2
1_127749_4
340
0
102
{BLKREFS
331
6F
102
}
 70
     0
280
     1
281
     0
  0
BLOCK_RECORD
  5
87
330
1
100
AcDbSymbolTableRecord
100
AcDbBlockTableRecord
  2
2_405020c_M_0_in_127749_4
340
0
102
{BLKREFS
331
88
102
}
 70
     0
280
     1
281
     0
  0
BLOCK_RECORD
  5
E6
330
1
100
AcDbSymbolTableRecord
100
AcDbBlockTableRecord
  2
3_126633_0_in_127749_4
340
0
102
{BLKREFS
331
E7
102
}
 70
     0
280
     1
281
     0
  0
BLOCK_RECORD
  5
12A
330
1
100
AcDbSymbolTableRecord
100
AcDbBlockTableRecord
  2
4_F2B_DLEZ_40M_SHCR_0_in_127749_4
340
0
102
{BLKREFS
331
12B
102
}
 70
     0
280
     1
281
     0
  0
ENDTAB
  0
ENDSEC
  0
SECTION
  2
BLOCKS
  0
BLOCK
  5
20
330
1F
100
AcDbEntity
  8
0
100
AcDbBlockBegin
  2
*Model_Space
 70
     0
 10
0.0
 20
0.0
 30
0.0
  3
*Model_Space
  1

  0
ENDBLK
  5
21
330
1F
100
AcDbEntity
  8
0
100
AcDbBlockEnd
  0
BLOCK
  5
1C
330
1B
100
AcDbEntity
 67
     1
  8
0
100
AcDbBlockBegin
  2
*Paper_Space
 70
     0
 10
0.0
 20
0.0
 30
0.0
  3
*Paper_Space
  1

  0
ENDBLK
  5
1D
330
1B
100
AcDbEntity
 67
     1
  8
0
100
AcDbBlockEnd
  0
BLOCK
  5
24
330
23
100
AcDbEntity
  8
0
100
AcDbBlockBegin
  2
*Paper_Space0
 70
     0
 10
0.0
 20
0.0
 30
0.0
  3
*Paper_Space0
  1

  0
ENDBLK
  5
25
330
23
100
AcDbEntity
  8
0
100
AcDbBlockEnd
  0
BLOCK
  5
70
330
6E
100
AcDbEntity
  8
0
100
AcDbBlockBegin
  2
1_127749_4
 70
     2
 10
0.0
 20
0.0
 30
0.0
  3
1_127749_4
  1

  0
ATTDEF
  5
73
330
6E
100
AcDbEntity
  8
AM_6
100
AcDbText
 10
53.75
 20
2.605
 30
0.0
 40
0.5
  1
D-Lok Two-Bolt Flange Metric Bore - Stainless Housing, Corrosion Resistant Insert
100
AcDbAttributeDefinition
  3

  2
NN
 70
     8
280
     0
  0
ATTDEF
  5
74
330
6E
100
AcDbEntity
  8
AM_6
100
AcDbText
 10
53.75
 20
2.105
 30
0.0
 40
0.5
  1
DLEZ Normal Duty Stainless Steel 2 Bolt Flange Bearings
100
AcDbAttributeDefinition
  3

  2
NT
 70
     8
280
     0
  0
ATTDEF
  5
75
330
6E
100
AcDbEntity
  8
AM_6
100
AcDbText
 10
53.75
 20
1.605
 30
0.0
 40
0.5
  1
127749
100
AcDbAttributeDefinition
  3

  2
NB
 70
     8
280
     0
  0
ATTDEF
  5
76
330
6E
100
AcDbEntity
  8
AM_6
100
AcDbText
 10
53.75
 20
1.105
 30
0.0
 40
0.5
  1
$PN.
100
AcDbAttributeDefinition
  3

  2
NBSYN
 70
     8
280
     0
  0
ATTDEF
  5
77
330
6E
100
AcDbEntity
  8
AM_6
100
AcDbText
 10
53.75
 20
0.6050000000000004
 30
0.0
 40
0.5
  1
127749
100
AcDbAttributeDefinition
  3

  2
LINA
 70
     8
280
     0
  0
ATTDEF
  5
78
330
6E
100
AcDbEntity
  8
AM_6
100
AcDbText
 10
53.75
 20
0.1050000000000004
 30
0.0
 40
0.5
  1
208
100
AcDbAttributeDefinition
  3

  2
SERIES
 70
     8
280
     0
  0
ATTDEF
  5
79
330
6E
100
AcDbEntity
  8
AM_6
100
AcDbText
 10
53.75
 20
-0.3949999999999996
 30
0.0
 40
0.5
  1
40
100
AcDbAttributeDefinition
  3

  2
SS
 70
     8
280
     0
  0
ATTDEF
  5
7A
330
6E
100
AcDbEntity
  8
AM_6
100
AcDbText
 10
53.75
 20
-0.8949999999999996
 30
0.0
 40
0.5
  1
127749
100
AcDbAttributeDefinition
  3

  2
PN
 70
     8
280
     0
  0
ATTDEF
  5
7B
330
6E
100
AcDbEntity
  8
AM_6
100
AcDbText
 10
53.75
 20
-1.395
 30
0.0
 40
0.5
  1
F2B-DLEZ-40M-SHCR
100
AcDbAttributeDefinition
  3

  2
DESCRIPTION
 70
     8
280
     0
  0
ATTDEF
  5
7C
330
6E
100
AcDbEntity
  8
AM_6
100
AcDbText
 10
53.75
 20
-1.895
 30
0.0
 40
0.5
  1
1.77
100
AcDbAttributeDefinition
  3

  2
W
 70
     8
280
     0
  0
ATTDEF
  5
7D
330
6E
100
AcDbEntity
  8
AM_6
100
AcDbText
 10
53.75
 20
-2.395
 30
0.0
 40
0.5
  1
51.1
100
AcDbAttributeDefinition
  3

  2
A
 70
     8
280
     0
  0
ATTDEF
  5
7E
330
6E
100
AcDbEntity
  8
AM_6
100
AcDbText
 10
53.75
 20
-2.895
 30
0.0
 40
0.5
  1
170.4
100
AcDbAttributeDefinition
  3

  2
B
 70
     8
280
     0
  0
ATTDEF
  5
7F
330
6E
100
AcDbEntity
  8
AM_6
100
AcDbText
 10
53.75
 20
-3.395
 30
0.0
 40
0.5
  1
52.1
100
AcDbAttributeDefinition
  3

  2
C
 70
     8
280
     0
  0
ATTDEF
  5
80
330
6E
100
AcDbEntity
  8
AM_6
100
AcDbText
 10
53.75
 20
-3.895
 30
0.0
 40
0.5
  1
143.5
100
AcDbAttributeDefinition
  3

  2
D
 70
     8
280
     0
  0
ATTDEF
  5
81
330
6E
100
AcDbEntity
  8
AM_6
100
AcDbText
 10
53.75
 20
-4.395
 30
0.0
 40
0.5
  1
M12
100
AcDbAttributeDefinition
  3

  2
F
 70
     8
280
     0
  0
ATTDEF
  5
82
330
6E
100
AcDbEntity
  8
AM_6
100
AcDbText
 10
53.75
 20
-4.895
 30
0.0
 40
0.5
  1
10.7
100
AcDbAttributeDefinition
  3

  2
H
 70
     8
280
     0
  0
ATTDEF
  5
83
330
6E
100
AcDbEntity
  8
AM_6
100
AcDbText
 10
53.75
 20
-5.395
 30
0.0
 40
0.5
  1
17.8
100
AcDbAttributeDefinition
  3

  2
J
 70
     8
280
     0
  0
ATTDEF
  5
84
330
6E
100
AcDbEntity
  8
AM_6
100
AcDbText
 10
53.75
 20
-5.895
 30
0.0
 40
0.5
  1
69.6
100
AcDbAttributeDefinition
  3

  2
L
 70
     8
280
     0
  0
ATTDEF
  5
85
330
6E
100
AcDbEntity
  8
AM_6
100
AcDbText
 10
53.75
 20
-6.395
 30
0.0
 40
0.5
  1
97.5
100
AcDbAttributeDefinition
  3

  2
M
 70
     8
280
     0
  0
ATTDEF
  5
86
330
6E
100
AcDbEntity
  8
AM_6
100
AcDbText
 10
53.75
 20
-6.895
 30
0.0
 40
0.5
  1
baldor
100
AcDbAttributeDefinition
  3

  2
COMPANY
 70
     8
280
     0
  0
INSERT
  5
88
330
6E
100
AcDbEntity
  8
0
100
AcDbBlockReference
  2
2_405020c_M_0_in_127749_4
 10
0.0
 20
0.0
 30
0.0
  0
INSERT
  5
E7
330
6E
100
AcDbEntity
  8
0
100
AcDbBlockReference
  2
3_126633_0_in_127749_4
 10
0.0
 20
0.0
 30
0.0
  0
INSERT
  5
12B
330
6E
100
AcDbEntity
  8
0
100
AcDbBlockReference
  2
4_F2B_DLEZ_40M_SHCR_0_in_127749_4
 10
0.0
 20
0.0
 30
0.0
  0
ENDBLK
  5
71
330
6E
100
AcDbEntity
  8
0
100
AcDbBlockEnd
  0
BLOCK
  5
89
330
87
100
AcDbEntity
  8
0
100
AcDbBlockBegin
  2
2_405020c_M_0_in_127749_4
 70
     2
 10
0.0
 20
0.0
 30
0.0
  3
2_405020c_M_0_in_127749_4
  1

  0
ATTDEF
  5
8B
330
87
100
AcDbEntity
  8
AM_6
100
AcDbText
 10
46.61411335270432
 20
-12.00854811567261
 30
0.0
 40
0.5
  1
405020C -Metric
100
AcDbAttributeDefinition
  3

  2
NN
 70
     8
280
     0
  0
ATTDEF
  5
8C
330
87
100
AcDbEntity
  8
AM_6
100
AcDbText
 10
46.61411335270432
 20
-12.50854811567261
 30
0.0
 40
0.5
  1
Grease fitting
100
AcDbAttributeDefinition
  3

  2
NT
 70
     8
280
     0
  0
ATTDEF
  5
8D
330
87
100
AcDbEntity
  8
AM_6
100
AcDbText
 10
46.61411335270432
 20
-13.00854811567261
 30
0.0
 40
0.5
  1
405020c-M
100
AcDbAttributeDefinition
  3

  2
NB
 70
     8
280
     0
  0
ATTDEF
  5
8E
330
87
100
AcDbEntity
  8
AM_6
100
AcDbText
 10
46.61411335270432
 20
-13.50854811567261
 30
0.0
 40
0.5
  1
$MN.-M
100
AcDbAttributeDefinition
  3

  2
NBSYN
 70
     8
280
     0
  0
ATTDEF
  5
8F
330
87
100
AcDbEntity
  8
AM_6
100
AcDbText
 10
46.61411335270432
 20
-14.00854811567261
 30
0.0
 40
0.5
  1
405020c
100
AcDbAttributeDefinition
  3

  2
LINA
 70
     8
280
     0
  0
ATTDEF
  5
90
330
87
100
AcDbEntity
  8
AM_6
100
AcDbText
 10
46.61411335270432
 20
-14.50854811567261
 30
0.0
 40
0.5
  1
405020c
100
AcDbAttributeDefinition
  3

  2
MN
 70
     8
280
     0
  0
ATTDEF
  5
91
330
87
100
AcDbEntity
  8
AM_6
100
AcDbText
 10
46.61411335270432
 20
-15.00854811567261
 30
0.0
 40
0.5
  1
5.842
100
AcDbAttributeDefinition
  3

  2
NDR
 70
     8
280
     0
  0
ATTDEF
  5
92
330
87
100
AcDbEntity
  8
AM_6
100
AcDbText
 10
46.61411335270432
 20
-15.50854811567261
 30
0.0
 40
0.5
  1
5.359
100
AcDbAttributeDefinition
  3

  2
KDR
 70
     8
280
     0
  0
ATTDEF
  5
93
330
87
100
AcDbEntity
  8
AM_6
100
AcDbText
 10
46.61411335270432
 20
-16.00854811567261
 30
0.0
 40
0.5
  1
4.000
100
AcDbAttributeDefinition
  3

  2
BZE
 70
     8
280
     0
  0
ATTDEF
  5
94
330
87
100
AcDbEntity
  8
AM_6
100
AcDbText
 10
46.61411335270432
 20
-16.50854811567261
 30
0.0
 40
0.5
  1
7
100
AcDbAttributeDefinition
  3

  2
WAF
 70
     8
280
     0
  0
ATTDEF
  5
95
330
87
100
AcDbEntity
  8
AM_6
100
AcDbText
 10
46.61411335270432
 20
-17.00854811567261
 30
0.0
 40
0.5
  1
7.0000
100
AcDbAttributeDefinition
  3

  2
WAF1
 70
     8
280
     0
  0
ATTDEF
  5
96
330
87
100
AcDbEntity
  8
AM_6
100
AcDbText
 10
46.61411335270432
 20
-17.50854811567261
 30
0.0
 40
0.5
  1
13.843
100
AcDbAttributeDefinition
  3

  2
BL
 70
     8
280
     0
  0
ATTDEF
  5
97
330
87
100
AcDbEntity
  8
AM_6
100
AcDbText
 10
46.61411335270432
 20
-18.00854811567261
 30
0.0
 40
0.5
  1
5.080
100
AcDbAttributeDefinition
  3

  2
TL
 70
     8
280
     0
  0
ATTDEF
  5
98
330
87
100
AcDbEntity
  8
AM_6
100
AcDbText
 10
46.61411335270432
 20
-18.50854811567261
 30
0.0
 40
0.5
  1
baldor
100
AcDbAttributeDefinition
  3

  2
COMPANY
 70
     8
280
     0
  0
ELLIPSE
  5
9B
330
87
100
AcDbEntity
  8
AM_9
100
AcDbEllipse
 10
30.18992402275963
 20
-16.04999999999999
 30
0.0
 11
-4.692312313253168E-16
 21
-2.554375850256111
 31
0.0
210
0.0
220
0.0
230
1.0
 40
0.7071067811865472
 41
0.0
 42
6.283185307179586
  0
LINE
  5
9C
330
87
100
AcDbEntity
  8
AM_9
100
AcDbLine
 10
37.22911433299079
 20
-14.02927405783631
 30
0.0
 11
36.35948838509319
 21
-14.02927405783631
 31
0.0
  0
LINE
  5
9D
330
87
100
AcDbEntity
  8
AM_9
100
AcDbLine
 10
37.22911433299079
 20
-18.07072594216369
 30
0.0
 11
36.35948838509319
 21
-18.07072594216369
 31
0.0
  0
LINE
  5
9E
330
87
100
AcDbEntity
  8
AM_9
100
AcDbLine
 10
36.28706057544598
 20
-17.1175331400559
 30
0.0
 11
36.35948838509319
 21
-18.07072594216369
 31
0.0
  0
LWPOLYLINE
  5
9F
330
87
100
AcDbEntity
  8
AM_9
100
AcDbPolyline
 90
        3
 70
     0
 43
0.0
 10
36.25690020534021
 20
-16.04999999999999
 10
36.28397821786917
 20
-17.06036297108184
 10
36.28706057544598
 20
-17.1175331400559
  0
LWPOLYLINE
  5
A0
330
87
100
AcDbEntity
  8
AM_9
100
AcDbPolyline
 90
        3
 70
     0
 43
0.0
 10
36.28761786856991
 20
-14.97242795398736
 10
36.2729880931721
 20
-15.2743818331591
 10
36.25690020534021
 20
-16.04999999999999
  0
LWPOLYLINE
  5
A1
330
87
100
AcDbEntity
  8
AM_9
100
AcDbPolyline
 90
        3
 70
     0
 43
0.0
 10
36.35948838509319
 20
-14.02927405783631
 10
36.31876530512085
 20
-14.50331110520253
 10
36.28761786856991
 20
-14.97242795398736
  0
LWPOLYLINE
  5
A2
330
87
100
AcDbEntity
  8
AM_9
100
AcDbPolyline
 90
        3
 70
     0
 43
0.0
 10
35.01946333826375
 20
-13.01891108675446
 10
35.66525978433094
 20
-13.52409257229538
 10
36.35948838509319
 20
-14.02927405783631
  0
LWPOLYLINE
  5
A3
330
87
100
AcDbEntity
  8
AM_9
100
AcDbPolyline
 90
        3
 70
     0
 43
0.0
 10
36.35948838509319
 20
-18.07072594216369
 10
35.66828092792667
 20
-18.57363599571404
 10
35.01946333826375
 20
-19.08108891324553
  0
LWPOLYLINE
  5
A4
330
87
100
AcDbEntity
  8
AM_9
100
AcDbPolyline
 90
        3
 70
     0
 43
0.0
 10
36.50801906487334
 20
-18.73263118519901
 10
36.68590606667659
 20
-18.57590742770461
 10
37.22911433299079
 20
-18.07072594216369
  0
LWPOLYLINE
  5
A5
330
87
100
AcDbEntity
  8
AM_9
100
AcDbPolyline
 90
        3
 70
     0
 43
0.0
 10
37.22911433299079
 20
-18.07072594216369
 10
37.30438528130024
 20
-17.06490583506298
 10
37.33170251274377
 20
-16.04999999999999
  0
LWPOLYLINE
  5
A6
330
87
100
AcDbEntity
  8
AM_9
100
AcDbPolyline
 90
        3
 70
     0
 43
0.0
 10
37.22911433299079
 20
-14.02927405783631
 10
36.68844877244318
 20
-13.52636400428595
 10
36.50805940840281
 20
-13.36740387355579
  0
LWPOLYLINE
  5
A7
330
87
100
AcDbEntity
  8
AM_9
100
AcDbPolyline
 90
        4
 70
     0
 43
0.0
 10
37.33164167102844
 20
-16.00258770491421
 10
37.31570770069636
 20
-15.27665555260126
 10
37.26983741296313
 20
-14.50331110520253
 10
37.22911433299079
 20
-14.02927405783631
  0
LINE
  5
A8
330
87
100
AcDbEntity
  8
AM_9
100
AcDbLine
 10
37.33170251274377
 20
-16.04999999999999
 30
0.0
 11
37.33164167102844
 21
-16.00258770491421
 31
0.0
  0
LWPOLYLINE
  5
A9
330
87
100
AcDbEntity
  8
AM_9
100
AcDbPolyline
 90
        3
 70
     0
 43
0.0
 10
35.01946333826375
 20
-19.08108891324553
 10
34.42782291725447
 20
-19.58627039878645
 10
33.88461465094027
 20
-20.09145188432737
  0
LWPOLYLINE
  5
AA
330
87
100
AcDbEntity
  8
AM_9
100
AcDbPolyline
 90
        3
 70
     0
 43
0.0
 10
33.88461465094027
 20
-12.00854811567261
 10
34.42528021148789
 20
-12.51145816922297
 10
35.01946333826375
 20
-13.01891108675446
  0
LINE
  5
AB
330
87
100
AcDbEntity
  8
AM_9
100
AcDbLine
 10
30.30432659443073
 20
-18.85241877260576
 30
0.0
 11
33.7167318034566
 21
-19.00330844011194
 31
0.0
  0
LINE
  5
AC
330
87
100
AcDbEntity
  8
AM_9
100
AcDbLine
 10
33.7167318034566
 20
-13.09669155988805
 30
0.0
 11
30.30432659443073
 21
-13.24758122739423
 31
0.0
  0
ELLIPSE
  5
AD
330
87
100
AcDbEntity
  8
AM_9
100
AcDbEllipse
 10
34.85682877859087
 20
-16.04999999999999
 30
0.0
 11
2.143131898507866E-16
 21
3.499999999999996
 31
0.0
210
0.0
220
0.0
230
1.0
 40
0.7071067811865418
 41
3.850326533439292
 42
5.574451427330089
  0
ELLIPSE
  5
AE
330
87
100
AcDbEntity
  8
AM_9
100
AcDbEllipse
 10
35.57328569704352
 20
-16.05000000000002
 30
0.0
 11
1.522711690942052E-16
 21
2.48677690906835
 31
0.0
210
0.0
220
0.0
230
1.0
 40
0.7071067811865265
 41
5.441341257732381
 42
5.984242208656156
  0
ELLIPSE
  5
AF
330
87
100
AcDbEntity
  8
AM_9
100
AcDbEllipse
 10
35.5732856970434
 20
-16.04999999999993
 30
0.0
 11
1.522711690942078E-16
 21
2.486776909068393
 31
0.0
210
0.0
220
0.0
230
1.0
 40
0.7071067811865487
 41
3.440535752113275
 42
4.001546360964181
  0
ELLIPSE
  5
B0
330
87
100
AcDbEntity
  8
AM_9
100
AcDbEllipse
 10
35.57328569706064
 20
-16.05000000000538
 30
0.0
 11
1.522711690934577E-16
 21
2.486776909056143
 31
0.0
210
0.0
220
0.0
230
1.0
 40
0.7071067811831315
 41
4.224689813080156
 42
5.231430876480822
  0
LWPOLYLINE
  5
B1
330
87
100
AcDbEntity
  8
AM_9
100
AcDbPolyline
 90
       11
 70
     0
 43
0.0
 10
36.07328569704343
 20
-13.85611630974512
 10
36.12153083771955
 20
-13.8580648459201
 10
36.24987492232469
 20
-13.88207016236472
 10
36.37222993889957
 20
-13.92991636007263
 10
36.49481856715957
 20
-14.0020460650516
 10
36.63190105619979
 20
-14.11252737195739
 10
36.76407954558583
 20
-14.25226865466071
 10
36.88911799348832
 20
-14.42070992645822
 10
37.0041413780848
 20
-14.61659321616341
 10
37.10597436835716
 20
-14.83756870719628
 10
37.1672412337003
 20
-15.00382324023023
  0
LWPOLYLINE
  5
B2
330
87
100
AcDbEntity
  8
AM_9
100
AcDbPolyline
 90
        3
 70
     0
 43
0.0
 10
35.75885013603678
 20
-18.16231064710283
 10
35.65589253853889
 20
-18.10079028304026
 10
35.62712033408543
 20
-18.08048593540744
  0
LWPOLYLINE
  5
B3
330
87
100
AcDbEntity
  8
AM_9
100
AcDbPolyline
 90
       14
 70
     0
 43
0.0
 10
37.17209449181028
 20
-17.08149688337138
 10
37.11341257995159
 20
-17.24387839419147
 10
37.0132959782072
 20
-17.46567366008863
 10
36.90051659549721
 20
-17.66184512730552
 10
36.77886606088832
 20
-17.82981292189753
 10
36.65253064170396
 20
-17.96793786143123
 10
36.52547908190733
 20
-18.0760560885054
 10
36.40077596467133
 20
-18.15546081139088
 10
36.27952533643774
 20
-18.20854916264781
 10
36.15904305517722
 20
-18.23773402758296
 10
36.02983534883332
 20
-18.24230305332594
 10
35.90084856611512
 20
-18.21912965713836
 10
35.77845011055635
 20
-18.17208057687716
 10
35.75885013603678
 20
-18.16231064710283
  0
LWPOLYLINE
  5
B4
330
87
100
AcDbEntity
  8
AM_9
100
AcDbPolyline
 90
        4
 70
     0
 43
0.0
 10
35.78797972283132
 20
-13.92339198845497
 10
35.85083611700615
 20
-13.89718007730953
 10
35.97105604228641
 20
-13.8648494538669
 10
36.07328569704343
 20
-13.85611630974512
  0
LWPOLYLINE
  5
B5
330
87
100
AcDbEntity
  8
AM_9
100
AcDbPolyline
 90
        3
 70
     0
 43
0.0
 10
35.62913953314976
 20
-14.01804390164454
 10
35.7291672132458
 20
-13.95366149526251
 10
35.78797972283132
 20
-13.92339198845497
  0
ELLIPSE
  5
B6
330
87
100
AcDbEntity
  8
AM_9
100
AcDbEllipse
 10
36.37212193577354
 20
-16.04999999999993
 30
0.0
 11
1.400736253841361E-16
 21
2.28757590321815
 31
0.0
210
0.0
220
0.0
230
1.0
 40
0.7071067811865462
 41
2.656480407116035
 42
6.76829755365337
  0
ELLIPSE
  5
B7
330
87
100
AcDbEntity
  8
AM_9
100
AcDbEllipse
 10
37.9253085973054
 20
-16.04999999999692
 30
0.0
 11
2.027916041958698E-16
 21
3.311838226941209
 31
0.0
210
0.0
220
0.0
230
1.0
 40
0.7071067811866008
 41
-3.63079284832225
 42
-3.593840187139214
  0
ELLIPSE
  5
B8
330
87
100
AcDbEntity
  8
AM_9
100
AcDbEllipse
 10
37.92530859730436
 20
-16.05
 30
0.0
 11
2.027916041956618E-16
 21
3.311838226937811
 31
0.0
210
0.0
220
0.0
230
1.0
 40
0.7071067811865477
 41
2.695733734898227
 42
6.727020033823401
  0
ELLIPSE
  5
B9
330
87
100
AcDbEntity
  8
AM_9
100
AcDbEllipse
 10
37.92530859732737
 20
-16.05000000000044
 30
0.0
 11
2.027916041956935E-16
 21
3.311838226938329
 31
0.0
210
0.0
220
0.0
230
1.0
 40
0.7071067811896702
 41
0.452978286261148
 42
0.4882615151425146
  0
ELLIPSE
  5
BA
330
87
100
AcDbEntity
  8
AM_9
100
AcDbEllipse
 10
39.76299411942074
 20
-16.05000000000096
 30
0.0
 11
1.572521564384990E-16
 21
2.56812260560325
 31
0.0
210
0.0
220
0.0
230
1.0
 40
0.7071067811863642
 41
3.603405132053767
 42
3.729232424868497
  0
ELLIPSE
  5
BB
330
87
100
AcDbEntity
  8
AM_9
100
AcDbEllipse
 10
39.76299411943234
 20
-16.04999999996554
 30
0.0
 11
1.572521564361809E-16
 21
2.568122605565392
 31
0.0
210
0.0
220
0.0
230
1.0
 40
0.7071067811865481
 41
-0.5003715450354891
 42
-0.4694635695193279
  0
ELLIPSE
  5
BC
330
87
100
AcDbEntity
  8
AM_9
100
AcDbEllipse
 10
38.50043346660992
 20
-16.04999999999999
 30
0.0
 11
2.036609237928308E-16
 21
3.326035293353602
 31
0.0
210
0.0
220
0.0
230
1.0
 40
0.7071067811865517
 41
3.579974428543794
 42
5.844803532225585
  0
ELLIPSE
  5
BD
330
87
100
AcDbEntity
  8
AM_9
100
AcDbEllipse
 10
33.78202647118729
 20
-16.04999999999998
 30
0.0
 11
2.143131898507854E-16
 21
3.499999999999977
 31
0.0
210
0.0
220
0.0
230
1.0
 40
0.7071067811865457
 41
0.0
 42
6.283185307179586
  0
ELLIPSE
  5
BE
330
87
100
AcDbEntity
  8
AM_9
100
AcDbEllipse
 10
33.78202647118729
 20
-16.05
 30
0.0
 11
1.809263597659734E-16
 21
2.954751686640448
 31
0.0
210
0.0
220
0.0
230
1.0
 40
0.7071067811865471
 41
0.0
 42
6.283185307179586
  0
ELLIPSE
  5
BF
330
87
100
AcDbEntity
  8
AM_9
100
AcDbEllipse
 10
30.36628524396231
 20
-16.05
 30
0.0
 11
1.716825172003264E-16
 21
2.803788281157612
 31
0.0
210
0.0
220
0.0
230
1.0
 40
0.7071067811865471
 41
0.0
 42
6.283185307179586
  0
LINE
  5
C1
330
87
100
AcDbEntity
  8
AM_4
100
AcDbLine
 10
36.09426564566731
 20
-19.08108891324553
 30
0.0
 11
36.50801906487334
 21
-18.73263118519901
 31
0.0
  0
LINE
  5
C2
330
87
100
AcDbEntity
  8
AM_4
100
AcDbLine
 10
36.50805940840281
 20
-13.36740387355579
 30
0.0
 11
36.09426564566731
 21
-13.01891108675446
 31
0.0
  0
LWPOLYLINE
  5
C3
330
87
100
AcDbEntity
  8
AM_4
100
AcDbPolyline
 90
        3
 70
     0
 43
0.0
 10
34.75424059883787
 20
-20.09145188432737
 10
35.44544805600439
 20
-19.58854183077703
 10
36.09426564566731
 20
-19.08108891324553
  0
LWPOLYLINE
  5
C4
330
87
100
AcDbEntity
  8
AM_4
100
AcDbPolyline
 90
        3
 70
     0
 43
0.0
 10
36.09426564566731
 20
-13.01891108675446
 10
35.44846919960013
 20
-12.51372960121354
 10
34.75424059883787
 20
-12.00854811567261
  0
LWPOLYLINE
  5
C5
330
87
100
AcDbEntity
  8
AM_4
100
AcDbPolyline
 90
        3
 70
     0
 43
0.0
 10
32.54458960411084
 20
-19.08108891324553
 10
31.95294918310156
 20
-18.57590742770461
 10
31.40974091678736
 20
-18.07072594216369
  0
LWPOLYLINE
  5
C6
330
87
100
AcDbEntity
  8
AM_4
100
AcDbPolyline
 90
        3
 70
     0
 43
0.0
 10
33.88461465094027
 20
-20.09145188432737
 10
33.19340719377377
 20
-19.58854183077703
 10
32.54458960411084
 20
-19.08108891324553
  0
LINE
  5
C7
330
87
100
AcDbEntity
  8
AM_4
100
AcDbLine
 10
34.75424059883787
 20
-20.09145188432737
 30
0.0
 11
33.88461465094027
 21
-20.09145188432737
 31
0.0
  0
LWPOLYLINE
  5
C8
330
87
100
AcDbEntity
  8
AM_4
100
AcDbPolyline
 90
        3
 70
     0
 43
0.0
 10
33.61939191151439
 20
-19.08108891324553
 10
34.21103233252367
 20
-19.58627039878645
 10
34.75424059883787
 20
-20.09145188432737
  0
LWPOLYLINE
  5
C9
330
87
100
AcDbEntity
  8
AM_4
100
AcDbPolyline
 90
        3
 70
     0
 43
0.0
 10
32.27936686468495
 20
-18.07072594216369
 10
32.97057432185147
 20
-18.57363599571404
 10
33.61939191151439
 20
-19.08108891324553
  0
LINE
  5
CA
330
87
100
AcDbEntity
  8
AM_4
100
AcDbLine
 10
34.75424059883787
 20
-12.00854811567261
 30
0.0
 11
33.88461465094027
 21
-12.00854811567261
 31
0.0
  0
LWPOLYLINE
  5
CB
330
87
100
AcDbEntity
  8
AM_4
100
AcDbPolyline
 90
        3
 70
     0
 43
0.0
 10
32.54458960411084
 20
-13.01891108675446
 10
33.19038605017803
 20
-12.51372960121354
 10
33.88461465094027
 20
-12.00854811567261
  0
LWPOLYLINE
  5
CC
330
87
100
AcDbEntity
  8
AM_4
100
AcDbPolyline
 90
        3
 70
     0
 43
0.0
 10
31.40974091678736
 20
-14.02927405783631
 10
31.95040647733497
 20
-13.52636400428595
 10
32.54458960411084
 20
-13.01891108675446
  0
LWPOLYLINE
  5
CD
330
87
100
AcDbEntity
  8
AM_4
100
AcDbPolyline
 90
        3
 70
     0
 43
0.0
 10
33.61939191151439
 20
-13.01891108675446
 10
32.97359546544721
 20
-13.52409257229538
 10
32.27936686468495
 20
-14.02927405783631
  0
LWPOLYLINE
  5
CE
330
87
100
AcDbEntity
  8
AM_4
100
AcDbPolyline
 90
        3
 70
     0
 43
0.0
 10
34.75424059883787
 20
-12.00854811567261
 10
34.21357503829027
 20
-12.51145816922297
 10
33.61939191151439
 20
-13.01891108675446
  0
LINE
  5
CF
330
87
100
AcDbEntity
  8
AM_4
100
AcDbLine
 10
32.27936686468495
 20
-14.02927405783631
 30
0.0
 11
31.40974091678736
 21
-14.02927405783631
 31
0.0
  0
LWPOLYLINE
  5
D0
330
87
100
AcDbEntity
  8
AM_4
100
AcDbPolyline
 90
        4
 70
     0
 43
0.0
 10
31.30715273703438
 20
-16.04999999999999
 10
31.32314754908178
 20
-15.27665555260126
 10
31.36901783681501
 20
-14.50331110520253
 10
31.40974091678736
 20
-14.02927405783631
  0
LWPOLYLINE
  5
D1
330
87
100
AcDbEntity
  8
AM_4
100
AcDbPolyline
 90
        3
 70
     0
 43
0.0
 10
31.40974091678736
 20
-18.07072594216369
 10
31.3344699684779
 20
-17.06490583506298
 10
31.30715273703438
 20
-16.04999999999999
  0
LINE
  5
D2
330
87
100
AcDbEntity
  8
AM_4
100
AcDbLine
 10
32.27936686468495
 20
-18.07072594216369
 30
0.0
 11
31.40974091678736
 21
-18.07072594216369
 31
0.0
  0
LWPOLYLINE
  5
D3
330
87
100
AcDbEntity
  8
AM_4
100
AcDbPolyline
 90
        3
 70
     0
 43
0.0
 10
32.38195504443793
 20
-16.04999999999999
 10
32.35487703190898
 20
-17.06036297108184
 10
32.27936686468495
 20
-18.07072594216369
  0
LWPOLYLINE
  5
D4
330
87
100
AcDbEntity
  8
AM_4
100
AcDbPolyline
 90
        4
 70
     0
 43
0.0
 10
32.27936686468495
 20
-14.02927405783631
 10
32.3200899446573
 20
-14.50331110520253
 10
32.36586715660604
 20
-15.2743818331591
 10
32.38195504443793
 20
-16.04999999999999
  0
ELLIPSE
  5
D5
330
87
100
AcDbEntity
  8
AM_4
100
AcDbEllipse
 10
34.8568287785909
 20
-16.05000000000002
 30
0.0
 11
2.143131898507892E-16
 21
3.500000000000039
 31
0.0
210
0.0
220
0.0
230
1.0
 40
0.7071067811865535
 41
5.574451427330108
 42
10.13351184061887
  0
ELLIPSE
  5
D6
330
87
100
AcDbEntity
  8
AM_4
100
AcDbEllipse
 10
35.57328569704358
 20
-16.05000000000006
 30
0.0
 11
1.522711690942077E-16
 21
2.486776909068391
 31
0.0
210
0.0
220
0.0
230
1.0
 40
0.7071067811865435
 41
5.984242208656203
 42
9.723721059292782
  0
LINE
  5
D7
330
87
100
AcDbEntity
  8
AM_4
100
AcDbLine
 10
35.61784111803658
 20
-18.07364137360668
 30
0.0
 11
36.83329847317563
 21
-18.97972698711113
 31
0.0
  0
LINE
  5
D8
330
87
100
AcDbEntity
  8
AM_4
100
AcDbLine
 10
36.83329847317563
 20
-13.12027301288886
 30
0.0
 11
35.61784111803658
 21
-14.02635862639331
 31
0.0
  0
ELLIPSE
  5
D9
330
87
100
AcDbEntity
  8
AM_4
100
AcDbEllipse
 10
36.37212193577354
 20
-16.04999999999999
 30
0.0
 11
1.400736253841401E-16
 21
2.287575903218215
 31
0.0
210
0.0
220
0.0
230
1.0
 40
0.7071067811865477
 41
0.485112246473772
 42
2.656480407116021
  0
LWPOLYLINE
  5
DA
330
87
100
AcDbEntity
  8
AM_4
100
AcDbPolyline
 90
        7
 70
     0
 43
0.0
 10
38.22414483603448
 20
-12.64446956009883
 10
38.01990829482553
 20
-12.65395262195229
 10
37.7362171442326
 20
-12.69899887486238
 10
37.46016984512044
 20
-12.77996650434963
 10
37.19399087420798
 20
-12.89566668231412
 10
36.93970012836389
 20
-13.04503884262421
 10
36.82513003504872
 20
-13.12638713321184
  0
LWPOLYLINE
  5
DB
330
87
100
AcDbEntity
  8
AM_4
100
AcDbPolyline
 90
       12
 70
     0
 43
0.0
 10
36.8228794271329
 20
-18.97191953277719
 10
36.88860875437059
 20
-19.0198408041681
 10
37.15632571000626
 20
-19.1847329177325
 10
37.43560227986646
 20
-19.3109598295465
 10
37.72214909574289
 20
-19.3977805545262
 10
38.01199487807583
 20
-19.44529700544959
 10
38.30158588493851
 20
-19.45416886407732
 10
38.58779843471817
 20
-19.42536272307441
 10
38.86751729532114
 20
-19.36007589442556
 10
39.13830162152152
 20
-19.25954999417212
 10
39.39807856187339
 20
-19.12489740284605
 10
39.5033757269831
 20
-19.05844359580188
  0
LWPOLYLINE
  5
DC
330
87
100
AcDbEntity
  8
AM_4
100
AcDbPolyline
 90
        7
 70
     0
 43
0.0
 10
39.49974586923621
 20
-13.0391428770591
 10
39.41167906873876
 20
-12.98327939991703
 10
39.13695816044619
 20
-12.83985486193411
 10
38.85310467769973
 20
-12.73563016831624
 10
38.56424959540298
 20
-12.67084011548506
 10
38.29246644871431
 20
-12.6455292870061
 10
38.22414483603448
 20
-12.64446956009883
  0
ELLIPSE
  5
DD
330
87
100
AcDbEntity
  8
AM_4
100
AcDbEllipse
 10
37.92530859730437
 20
-16.04999999999999
 30
0.0
 11
2.027916041956623E-16
 21
3.311838226937819
 31
0.0
210
0.0
220
0.0
230
1.0
 40
0.7071067811865479
 41
0.4882615151357363
 42
2.652392458857255
  0
ELLIPSE
  5
DE
330
87
100
AcDbEntity
  8
AM_4
100
AcDbEllipse
 10
39.97840319472501
 20
-16.04999999999999
 30
0.0
 11
-3.872094701371911E-16
 21
-2.107870178878141
 31
0.0
210
0.0
220
0.0
230
1.0
 40
0.7071067811865468
 41
0.0
 42
6.283185307179586
  0
LWPOLYLINE
  5
DF
330
87
100
AcDbEntity
  8
AM_4
100
AcDbPolyline
 90
       19
 70
     0
 43
0.0
 10
40.57712080792476
 20
-18.34568135845572
 10
40.70690734754269
 20
-18.24572684513878
 10
40.89876355449172
 20
-18.06233716712406
 10
41.07287793879714
 20
-17.84897168455825
 10
41.22642591846659
 20
-17.60852018996473
 10
41.35685186643381
 20
-17.34467047910691
 10
41.46209510541117
 20
-17.0616389337254
 10
41.54063998230662
 20
-16.76393872827459
 10
41.591504119456
 20
-16.45605910052175
 10
41.61411335270432
 20
-16.1423624460367
 10
41.608193152863
 20
-15.82716596562459
 10
41.57372819266344
 20
-15.51476015348718
 10
41.51095238061987
 20
-15.20943556654979
 10
41.4203223253119
 20
-14.91537837115973
 10
41.30252878210294
 20
-14.63676015537707
 10
41.15855736852292
 20
-14.37778501322839
 10
40.98995836622483
 20
-14.1428937884189
 10
40.79895401238608
 20
-13.93643888019579
 10
40.59071203115234
 20
-13.76397992865799
  0
ELLIPSE
  5
E0
330
87
100
AcDbEntity
  8
AM_4
100
AcDbEllipse
 10
39.76299411947186
 20
-16.05000000000167
 30
0.0
 11
1.572521564384511E-16
 21
2.568122605602467
 31
0.0
210
0.0
220
0.0
230
1.0
 40
0.7071067811777788
 41
3.579974428522714
 42
3.603405132033532
  0
ELLIPSE
  5
E1
330
87
100
AcDbEntity
  8
AM_4
100
AcDbEllipse
 10
38.50043346660991
 20
-16.04999999999997
 30
0.0
 11
2.036609237928293E-16
 21
3.326035293353577
 31
0.0
210
0.0
220
0.0
230
1.0
 40
0.7071067811865485
 41
5.844803532225577
 42
9.863159735723384
  0
ELLIPSE
  5
E2
330
87
100
AcDbEntity
  8
AM_4
100
AcDbEllipse
 10
39.76299411941947
 20
-16.04999999999991
 30
0.0
 11
1.572521564385620E-16
 21
2.568122605604279
 31
0.0
210
0.0
220
0.0
230
1.0
 40
0.7071067811865541
 41
5.844803532225579
 42
9.86315973572336
  0
LINE
  5
E3
330
87
100
AcDbEntity
  8
AM_4
100
AcDbLine
 10
40.53381360526035
 20
-13.72471972486925
 30
0.0
 11
39.49873970367064
 21
-13.03847545473641
 31
0.0
  0
LINE
  5
E4
330
87
100
AcDbEntity
  8
AM_4
100
AcDbLine
 10
39.49873970367064
 20
-19.06152454526358
 30
0.0
 11
40.53381360526035
 21
-18.37528027513074
 31
0.0
  0
ELLIPSE
  5
E5
330
87
100
AcDbEntity
  8
AM_4
100
AcDbEllipse
 10
39.76299411943937
 20
-16.04999999998486
 30
0.0
 11
1.572521564375364E-16
 21
2.568122605587529
 31
0.0
210
0.0
220
0.0
230
1.0
 40
0.7071067811839972
 41
-0.4694635695139251
 42
-0.438381774947965
  0
ENDBLK
  5
8A
330
87
100
AcDbEntity
  8
0
100
AcDbBlockEnd
  0
BLOCK
  5
E8
330
E6
100
AcDbEntity
  8
0
100
AcDbBlockBegin
  2
3_126633_0_in_127749_4
 70
     2
 10
0.0
 20
0.0
 30
0.0
  3
3_126633_0_in_127749_4
  1

  0
ATTDEF
  5
EA
330
E6
100
AcDbEntity
  8
AM_6
100
AcDbText
 10
44.9776005760571
 20
-1.000000000000001
 30
0.0
 40
0.5
  1
D-Lok Insert Metric Bore
100
AcDbAttributeDefinition
  3

  2
NN
 70
     8
280
     0
  0
ATTDEF
  5
EB
330
E6
100
AcDbEntity
  8
AM_6
100
AcDbText
 10
44.9776005760571
 20
-1.500000000000001
 30
0.0
 40
0.5
  1
D-LOK
100
AcDbAttributeDefinition
  3

  2
NT
 70
     8
280
     0
  0
ATTDEF
  5
EC
330
E6
100
AcDbEntity
  8
AM_6
100
AcDbText
 10
44.9776005760571
 20
-2.000000000000001
 30
0.0
 40
0.5
  1
126633
100
AcDbAttributeDefinition
  3

  2
NB
 70
     8
280
     0
  0
ATTDEF
  5
ED
330
E6
100
AcDbEntity
  8
AM_6
100
AcDbText
 10
44.9776005760571
 20
-2.500000000000001
 30
0.0
 40
0.5
  1
$PN.
100
AcDbAttributeDefinition
  3

  2
NBSYN
 70
     8
280
     0
  0
ATTDEF
  5
EE
330
E6
100
AcDbEntity
  8
AM_6
100
AcDbText
 10
44.9776005760571
 20
-3.000000000000001
 30
0.0
 40
0.5
  1
126633
100
AcDbAttributeDefinition
  3

  2
LINA
 70
     8
280
     0
  0
ATTDEF
  5
EF
330
E6
100
AcDbEntity
  8
AM_6
100
AcDbText
 10
44.9776005760571
 20
-3.500000000000001
 30
0.0
 40
0.5
  1
208
100
AcDbAttributeDefinition
  3

  2
SERIES
 70
     8
280
     0
  0
ATTDEF
  5
F0
330
E6
100
AcDbEntity
  8
AM_6
100
AcDbText
 10
44.9776005760571
 20
-4.000000000000001
 30
0.0
 40
0.5
  1
40
100
AcDbAttributeDefinition
  3

  2
SS
 70
     8
280
     0
  0
ATTDEF
  5
F1
330
E6
100
AcDbEntity
  8
AM_6
100
AcDbText
 10
44.9776005760571
 20
-4.500000000000001
 30
0.0
 40
0.5
  1
126633
100
AcDbAttributeDefinition
  3

  2
PN
 70
     8
280
     0
  0
ATTDEF
  5
F2
330
E6
100
AcDbEntity
  8
AM_6
100
AcDbText
 10
44.9776005760571
 20
-5.000000000000001
 30
0.0
 40
0.5
  1
INS-DL-40M
100
AcDbAttributeDefinition
  3

  2
DESCRIPTION
 70
     8
280
     0
  0
ATTDEF
  5
F3
330
E6
100
AcDbEntity
  8
AM_6
100
AcDbText
 10
44.9776005760571
 20
-5.500000000000001
 30
0.0
 40
0.5
  1
1.000
100
AcDbAttributeDefinition
  3

  2
WEIGHT
 70
     8
280
     0
  0
ATTDEF
  5
F4
330
E6
100
AcDbEntity
  8
AM_6
100
AcDbText
 10
44.9776005760571
 20
-6.000000000000001
 30
0.0
 40
0.5
  1
51.1
100
AcDbAttributeDefinition
  3

  2
A
 70
     8
280
     0
  0
ATTDEF
  5
F5
330
E6
100
AcDbEntity
  8
AM_6
100
AcDbText
 10
44.9776005760571
 20
-6.500000000000001
 30
0.0
 40
0.5
  1
22.1
100
AcDbAttributeDefinition
  3

  2
C
 70
     8
280
     0
  0
ATTDEF
  5
F6
330
E6
100
AcDbEntity
  8
AM_6
100
AcDbText
 10
44.9776005760571
 20
-7.000000000000001
 30
0.0
 40
0.5
  1
80
100
AcDbAttributeDefinition
  3

  2
D
 70
     8
280
     0
  0
ATTDEF
  5
F7
330
E6
100
AcDbEntity
  8
AM_6
100
AcDbText
 10
44.9776005760571
 20
-7.500000000000001
 30
0.0
 40
0.5
  1
5.7
100
AcDbAttributeDefinition
  3

  2
J
 70
     8
280
     0
  0
ATTDEF
  5
F8
330
E6
100
AcDbEntity
  8
AM_6
100
AcDbText
 10
44.9776005760571
 20
-8.0
 30
0.0
 40
0.5
  1
69.6
100
AcDbAttributeDefinition
  3

  2
L
 70
     8
280
     0
  0
ATTDEF
  5
F9
330
E6
100
AcDbEntity
  8
AM_6
100
AcDbText
 10
44.9776005760571
 20
-8.5
 30
0.0
 40
0.5
  1
M6x20
100
AcDbAttributeDefinition
  3

  2
N
 70
     8
280
     0
  0
ATTDEF
  5
FA
330
E6
100
AcDbEntity
  8
AM_6
100
AcDbText
 10
44.9776005760571
 20
-9.0
 30
0.0
 40
0.5
  1
19.1
100
AcDbAttributeDefinition
  3

  2
W
 70
     8
280
     0
  0
ATTDEF
  5
FB
330
E6
100
AcDbEntity
  8
AM_6
100
AcDbText
 10
44.9776005760571
 20
-9.5
 30
0.0
 40
0.5
  1
32.0
100
AcDbAttributeDefinition
  3

  2
Y
 70
     8
280
     0
  0
ATTDEF
  5
FC
330
E6
100
AcDbEntity
  8
AM_6
100
AcDbText
 10
44.9776005760571
 20
-10.0
 30
0.0
 40
0.5
  1
52.1
100
AcDbAttributeDefinition
  3

  2
Z
 70
     8
280
     0
  0
ATTDEF
  5
FD
330
E6
100
AcDbEntity
  8
AM_6
100
AcDbText
 10
44.9776005760571
 20
-10.5
 30
0.0
 40
0.5
  1
baldor
100
AcDbAttributeDefinition
  3

  2
COMPANY
 70
     8
280
     0
  0
LINE
  5
FE
330
E6
100
AcDbEntity
  8
AM_9
100
AcDbLine
 10
20.00000000000001
 20
-50.70800000000001
 30
0.0
 11
20.00000000000001
 21
-2.392000000000005
 31
0.0
  0
LINE
  5
FF
330
E6
100
AcDbEntity
  8
AM_9
100
AcDbLine
 10
-20.00000000000001
 20
-2.392000000000005
 30
0.0
 11
-20.00000000000001
 21
-50.70800000000001
 31
0.0
  0
LINE
  5
100
330
E6
100
AcDbEntity
  8
AM_9
100
AcDbLine
 10
20.00000000000001
 20
-2.392000000000005
 30
0.0
 11
21.39200000000001
 21
-1.000000000000001
 31
0.0
  0
LINE
  5
101
330
E6
100
AcDbEntity
  8
AM_9
100
AcDbLine
 10
-21.39200000000001
 20
-1.000000000000001
 30
0.0
 11
-20.00000000000001
 21
-2.392000000000005
 31
0.0
  0
LINE
  5
102
330
E6
100
AcDbEntity
  8
AM_9
100
AcDbLine
 10
-20.00000000000001
 20
-50.70800000000001
 30
0.0
 11
-21.39200000000001
 21
-52.10000000000001
 31
0.0
  0
LINE
  5
103
330
E6
100
AcDbEntity
  8
AM_9
100
AcDbLine
 10
21.39200000000001
 20
-52.10000000000001
 30
0.0
 11
20.00000000000001
 21
-50.70800000000001
 31
0.0
  0
LINE
  5
104
330
E6
100
AcDbEntity
  8
AM_9
100
AcDbLine
 10
26.05
 20
-34.3
 30
0.0
 11
26.05
 21
-31.15000000000001
 31
0.0
  0
LINE
  5
105
330
E6
100
AcDbEntity
  8
AM_9
100
AcDbLine
 10
-26.05
 20
-31.15000000000001
 30
0.0
 11
-26.05
 21
-34.3
 31
0.0
  0
LINE
  5
106
330
E6
100
AcDbEntity
  8
AM_9
100
AcDbLine
 10
26.05
 20
-9.050000000000002
 30
0.0
 11
26.05
 21
-2.392000000000002
 31
0.0
  0
LINE
  5
107
330
E6
100
AcDbEntity
  8
AM_9
100
AcDbLine
 10
-26.05
 20
-2.392000000000002
 30
0.0
 11
-26.05
 21
-9.050000000000002
 31
0.0
  0
LINE
  5
108
330
E6
100
AcDbEntity
  8
AM_9
100
AcDbLine
 10
-26.05000000000001
 20
-2.392000000000002
 30
0.0
 11
26.05000000000001
 21
-2.392000000000002
 31
0.0
  0
LINE
  5
109
330
E6
100
AcDbEntity
  8
AM_9
100
AcDbLine
 10
-24.65799999999999
 20
-1.000000000000001
 30
0.0
 11
24.65799999999999
 21
-1.000000000000001
 31
0.0
  0
LINE
  5
10A
330
E6
100
AcDbEntity
  8
AM_9
100
AcDbLine
 10
-24.65799999999999
 20
-1.000000000000001
 30
0.0
 11
-26.05000000000001
 21
-2.392000000000002
 31
0.0
  0
LINE
  5
10B
330
E6
100
AcDbEntity
  8
AM_9
100
AcDbLine
 10
26.05000000000001
 20
-2.392000000000002
 30
0.0
 11
24.65799999999999
 21
-1.000000000000001
 31
0.0
  0
LINE
  5
10C
330
E6
100
AcDbEntity
  8
AM_9
100
AcDbLine
 10
37.78999999999996
 20
-26.70333333333334
 30
0.0
 11
37.78999999999996
 21
-23.75666666666667
 31
0.0
  0
LINE
  5
10D
330
E6
100
AcDbEntity
  8
AM_9
100
AcDbLine
 10
-37.78999999999996
 20
-23.75666666666667
 30
0.0
 11
-37.78999999999996
 21
-26.70333333333334
 31
0.0
  0
LINE
  5
10E
330
E6
100
AcDbEntity
  8
AM_9
100
AcDbLine
 10
-37.19396883195165
 20
-31.15
 30
0.0
 11
37.19396883190838
 21
-31.15
 31
0.0
  0
ARC
  5
10F
330
E6
100
AcDbEntity
  8
AM_9
100
AcDbCircle
 10
37.19396883195164
 20
-30.266
 30
0.0
 40
0.8839999999999968
100
AcDbArc
 50
270.0
 51
338.587532953115
  0
ARC
  5
110
330
E6
100
AcDbEntity
  8
AM_9
100
AcDbCircle
 10
-37.19396883195164
 20
-30.266
 30
0.0
 40
0.8839999999999951
100
AcDbArc
 50
201.412467046885
 51
270.0
  0
LINE
  5
111
330
E6
100
AcDbEntity
  8
AM_9
100
AcDbLine
 10
-37.19396883195164
 20
-9.050000000000002
 30
0.0
 11
37.19396883190837
 21
-9.050000000000002
 31
0.0
  0
ARC
  5
112
330
E6
100
AcDbEntity
  8
AM_9
100
AcDbCircle
 10
37.19396883195164
 20
-9.934
 30
0.0
 40
0.8839999999999991
100
AcDbArc
 50
21.41246363223962
 51
90.0
  0
ARC
  5
113
330
E6
100
AcDbEntity
  8
AM_9
100
AcDbCircle
 10
-37.19396883195164
 20
-9.934
 30
0.0
 40
0.8839999999999968
100
AcDbArc
 50
90.0
 51
158.5875363677604
  0
LINE
  5
114
330
E6
100
AcDbEntity
  8
AM_9
100
AcDbLine
 10
-38.01695196947391
 20
-30.58873015873017
 30
0.0
 11
38.01695196947391
 21
-30.58873015873017
 31
0.0
  0
LINE
  5
115
330
E6
100
AcDbEntity
  8
AM_9
100
AcDbLine
 10
-39.23084563973145
 20
-26.70333333333334
 30
0.0
 11
39.23084563973145
 21
-26.70333333333334
 31
0.0
  0
ARC
  5
116
330
E6
100
AcDbEntity
  8
AM_9
100
AcDbCircle
 10
11.27000000000706
 20
-20.10000000000216
 30
0.0
 40
28.72999999999264
100
AcDbArc
 50
338.5875329531148
 51
346.7122861877145
  0
ARC
  5
117
330
E6
100
AcDbEntity
  8
AM_9
100
AcDbCircle
 10
-11.27000000000725
 20
-20.10000000000222
 30
0.0
 40
28.72999999999244
100
AcDbArc
 50
193.2877138122854
 51
201.4124670468852
  0
LINE
  5
118
330
E6
100
AcDbEntity
  8
AM_9
100
AcDbLine
 10
-39.76634518475815
 20
-23.75666666666667
 30
0.0
 11
39.76634518475815
 21
-23.75666666666667
 31
0.0
  0
LINE
  5
119
330
E6
100
AcDbEntity
  8
AM_9
100
AcDbLine
 10
-38.0169519887076
 20
-9.611269890316994
 30
0.0
 11
38.0169519887076
 21
-9.611269890316995
 31
0.0
  0
ARC
  5
11A
330
E6
100
AcDbEntity
  8
AM_9
100
AcDbCircle
 10
11.27000000000001
 20
-20.1
 30
0.0
 40
28.72999999999999
100
AcDbArc
 50
352.6877343603365
 51
21.41246694181812
  0
ARC
  5
11B
330
E6
100
AcDbEntity
  8
AM_9
100
AcDbCircle
 10
-11.2699999999994
 20
-20.10000000000008
 30
0.0
 40
28.73000000000059
100
AcDbArc
 50
158.5875330581822
 51
187.3122656396633
  0
LINE
  5
11C
330
E6
100
AcDbEntity
  8
AM_4
100
AcDbLine
 10
26.05
 20
-36.10000000000001
 30
0.0
 11
26.05
 21
-34.3
 31
0.0
  0
LINE
  5
11D
330
E6
100
AcDbEntity
  8
AM_4
100
AcDbLine
 10
-26.05
 20
-34.3
 30
0.0
 11
-26.05
 21
-36.10000000000001
 31
0.0
  0
LINE
  5
11E
330
E6
100
AcDbEntity
  8
AM_4
100
AcDbLine
 10
34.80000000000001
 20
-50.70800000000001
 30
0.0
 11
34.80000000000001
 21
-37.492
 31
0.0
  0
LINE
  5
11F
330
E6
100
AcDbEntity
  8
AM_4
100
AcDbLine
 10
-34.80000000000001
 20
-37.492
 30
0.0
 11
-34.80000000000001
 21
-50.70800000000001
 31
0.0
  0
LINE
  5
120
330
E6
100
AcDbEntity
  8
AM_4
100
AcDbLine
 10
-33.40800000000001
 20
-52.10000000000001
 30
0.0
 11
33.40800000000001
 21
-52.10000000000001
 31
0.0
  0
LINE
  5
121
330
E6
100
AcDbEntity
  8
AM_4
100
AcDbLine
 10
-34.80000000000001
 20
-50.70800000000001
 30
0.0
 11
34.80000000000001
 21
-50.70800000000001
 31
0.0
  0
LINE
  5
122
330
E6
100
AcDbEntity
  8
AM_4
100
AcDbLine
 10
33.40800000000001
 20
-52.10000000000001
 30
0.0
 11
34.80000000000001
 21
-50.70800000000001
 31
0.0
  0
LINE
  5
123
330
E6
100
AcDbEntity
  8
AM_4
100
AcDbLine
 10
-34.80000000000001
 20
-50.70800000000001
 30
0.0
 11
-33.40800000000001
 21
-52.10000000000001
 31
0.0
  0
LINE
  5
124
330
E6
100
AcDbEntity
  8
AM_4
100
AcDbLine
 10
-34.80000000000001
 20
-37.492
 30
0.0
 11
34.80000000000001
 21
-37.492
 31
0.0
  0
LINE
  5
125
330
E6
100
AcDbEntity
  8
AM_4
100
AcDbLine
 10
-33.40800000000001
 20
-36.10000000000001
 30
0.0
 11
33.40800000000001
 21
-36.10000000000001
 31
0.0
  0
LINE
  5
126
330
E6
100
AcDbEntity
  8
AM_4
100
AcDbLine
 10
-33.40800000000001
 20
-36.10000000000001
 30
0.0
 11
-34.80000000000001
 21
-37.492
 31
0.0
  0
LINE
  5
127
330
E6
100
AcDbEntity
  8
AM_4
100
AcDbLine
 10
34.80000000000001
 20
-37.492
 30
0.0
 11
33.40800000000001
 21
-36.10000000000001
 31
0.0
  0
ARC
  5
129
330
E6
100
AcDbEntity
  8
AM_5
100
AcDbCircle
 10
0.0000000000000007
 20
-39.60000000000001
 30
0.0
 40
6.250000000000006
100
AcDbArc
 50
75.00000000000003
 51
15.00000000000007
  0
ENDBLK
  5
E9
330
E6
100
AcDbEntity
  8
0
100
AcDbBlockEnd
  0
BLOCK
  5
12C
330
12A
100
AcDbEntity
  8
0
100
AcDbBlockBegin
  2
4_F2B_DLEZ_40M_SHCR_0_in_127749_4
 70
     2
 10
0.0
 20
0.0
 30
0.0
  3
4_F2B_DLEZ_40M_SHCR_0_in_127749_4
  1

  0
ATTDEF
  5
12E
330
12A
100
AcDbEntity
  8
AM_6
100
AcDbText
 10
53.75
 20
2.605
 30
0.0
 40
0.5
  1
E-Z KLEEN® SHCR Flange Bearing 2B - Body - Metric
100
AcDbAttributeDefinition
  3

  2
NN
 70
     8
280
     0
  0
ATTDEF
  5
12F
330
12A
100
AcDbEntity
  8
AM_6
100
AcDbText
 10
53.75
 20
2.105
 30
0.0
 40
0.5
  1
D-LOK
100
AcDbAttributeDefinition
  3

  2
NT
 70
     8
280
     0
  0
ATTDEF
  5
130
330
12A
100
AcDbEntity
  8
AM_6
100
AcDbText
 10
53.75
 20
1.605
 30
0.0
 40
0.5
  1
F2B-DLEZ-40M-SHCR
100
AcDbAttributeDefinition
  3

  2
NB
 70
     8
280
     0
  0
ATTDEF
  5
131
330
12A
100
AcDbEntity
  8
AM_6
100
AcDbText
 10
53.75
 20
1.105
 30
0.0
 40
0.5
  1
$PN.
100
AcDbAttributeDefinition
  3

  2
NBSYN
 70
     8
280
     0
  0
ATTDEF
  5
132
330
12A
100
AcDbEntity
  8
AM_6
100
AcDbText
 10
53.75
 20
0.6050000000000004
 30
0.0
 40
0.5
  1
F2B-DLEZ-40M-SHCR
100
AcDbAttributeDefinition
  3

  2
LINA
 70
     8
280
     0
  0
ATTDEF
  5
133
330
12A
100
AcDbEntity
  8
AM_6
100
AcDbText
 10
53.75
 20
0.1050000000000004
 30
0.0
 40
0.5
  1
40
100
AcDbAttributeDefinition
  3

  2
SS
 70
     8
280
     0
  0
ATTDEF
  5
134
330
12A
100
AcDbEntity
  8
AM_6
100
AcDbText
 10
53.75
 20
-0.3949999999999996
 30
0.0
 40
0.5
  1
F2B-DLEZ-40M-SHCR
100
AcDbAttributeDefinition
  3

  2
PN
 70
     8
280
     0
  0
ATTDEF
  5
135
330
12A
100
AcDbEntity
  8
AM_6
100
AcDbText
 10
53.75
 20
-0.8949999999999996
 30
0.0
 40
0.5
  1
F2B-DLEZ-40M-SHCR
100
AcDbAttributeDefinition
  3

  2
DESCRIPTION
 70
     8
280
     0
  0
ATTDEF
  5
136
330
12A
100
AcDbEntity
  8
AM_6
100
AcDbText
 10
53.75
 20
-1.395
 30
0.0
 40
0.5
  1
208
100
AcDbAttributeDefinition
  3

  2
RS
 70
     8
280
     0
  0
ATTDEF
  5
137
330
12A
100
AcDbEntity
  8
AM_6
100
AcDbText
 10
53.75
 20
-1.895
 30
0.0
 40
0.5
  1
51.100
100
AcDbAttributeDefinition
  3

  2
A
 70
     8
280
     0
  0
ATTDEF
  5
138
330
12A
100
AcDbEntity
  8
AM_6
100
AcDbText
 10
53.75
 20
-2.395
 30
0.0
 40
0.5
  1
170.400
100
AcDbAttributeDefinition
  3

  2
B
 70
     8
280
     0
  0
ATTDEF
  5
139
330
12A
100
AcDbEntity
  8
AM_6
100
AcDbText
 10
53.75
 20
-2.895
 30
0.0
 40
0.5
  1
52.100
100
AcDbAttributeDefinition
  3

  2
C
 70
     8
280
     0
  0
ATTDEF
  5
13A
330
12A
100
AcDbEntity
  8
AM_6
100
AcDbText
 10
53.75
 20
-3.395
 30
0.0
 40
0.5
  1
143.500
100
AcDbAttributeDefinition
  3

  2
D
 70
     8
280
     0
  0
ATTDEF
  5
13B
330
12A
100
AcDbEntity
  8
AM_6
100
AcDbText
 10
53.75
 20
-3.895
 30
0.0
 40
0.5
  1
M12
100
AcDbAttributeDefinition
  3

  2
F
 70
     8
280
     0
  0
ATTDEF
  5
13C
330
12A
100
AcDbEntity
  8
AM_6
100
AcDbText
 10
53.75
 20
-4.395
 30
0.0
 40
0.5
  1
12.000
100
AcDbAttributeDefinition
  3

  2
F1
 70
     8
280
     0
  0
ATTDEF
  5
13D
330
12A
100
AcDbEntity
  8
AM_6
100
AcDbText
 10
53.75
 20
-4.895
 30
0.0
 40
0.5
  1
10.700
100
AcDbAttributeDefinition
  3

  2
H
 70
     8
280
     0
  0
ATTDEF
  5
13E
330
12A
100
AcDbEntity
  8
AM_6
100
AcDbText
 10
53.75
 20
-5.395
 30
0.0
 40
0.5
  1
17.800
100
AcDbAttributeDefinition
  3

  2
J
 70
     8
280
     0
  0
ATTDEF
  5
13F
330
12A
100
AcDbEntity
  8
AM_6
100
AcDbText
 10
53.75
 20
-5.895
 30
0.0
 40
0.5
  1
69.600
100
AcDbAttributeDefinition
  3

  2
L
 70
     8
280
     0
  0
ATTDEF
  5
140
330
12A
100
AcDbEntity
  8
AM_6
100
AcDbText
 10
53.75
 20
-6.395
 30
0.0
 40
0.5
  1
97.500
100
AcDbAttributeDefinition
  3

  2
M
 70
     8
280
     0
  0
ATTDEF
  5
141
330
12A
100
AcDbEntity
  8
AM_6
100
AcDbText
 10
53.75
 20
-6.895
 30
0.0
 40
0.5
  1
80
100
AcDbAttributeDefinition
  3

  2
BOD
 70
     8
280
     0
  0
ATTDEF
  5
142
330
12A
100
AcDbEntity
  8
AM_6
100
AcDbText
 10
53.75
 20
-7.395
 30
0.0
 40
0.5
  1
baldor
100
AcDbAttributeDefinition
  3

  2
COMPANY
 70
     8
280
     0
  0
LINE
  5
143
330
12A
100
AcDbEntity
  8
AM_9
100
AcDbLine
 10
40.0
 20
-34.3
 30
0.0
 11
40.0
 21
0.0
 31
0.0
  0
LINE
  5
144
330
12A
100
AcDbEntity
  8
AM_9
100
AcDbLine
 10
-40.0
 20
0.0
 30
0.0
 11
-40.0
 21
-34.3
 31
0.0
  0
LINE
  5
145
330
12A
100
AcDbEntity
  8
AM_9
100
AcDbLine
 10
40.6417595199291
 20
-18.29341409645797
 30
0.0
 11
40.6417595199291
 21
-13.80642645743664
 31
0.0
  0
LINE
  5
146
330
12A
100
AcDbEntity
  8
AM_9
100
AcDbLine
 10
26.92229342244554
 20
-32.3
 30
0.0
 11
40.6417595199291
 21
-32.3
 31
0.0
  0
LINE
  5
147
330
12A
100
AcDbEntity
  8
AM_9
100
AcDbLine
 10
6.0
 20
-10.69999999999999
 30
0.0
 11
6.0
 21
0.0000000000000044
 31
0.0
  0
LINE
  5
148
330
12A
100
AcDbEntity
  8
AM_9
100
AcDbLine
 10
-6.0
 20
0.0000000000000044
 30
0.0
 11
-6.0
 21
-10.69999999999999
 31
0.0
  0
LINE
  5
14B
330
12A
100
AcDbEntity
  8
AM_7
100
AcDbLine
 10
0.0
 20
2.605
 30
0.0
 11
0.0
 21
-54.705
 31
0.0
  0
LWPOLYLINE
  5
14C
330
12A
100
AcDbEntity
  8
AM_4
100
AcDbPolyline
 90
       23
 70
     0
 43
0.0
 10
26.92229342244554
 20
-32.3
 10
26.94033178601101
 20
-32.44231807055658
 10
27.00571462877596
 20
-32.60465363968444
 10
27.17598226534187
 20
-32.82495818263525
 10
27.47808046898195
 20
-33.06068275442011
 10
27.80897448598727
 20
-33.23868646790046
 10
28.4935422690168
 20
-33.49078663915559
 10
29.196485766685
 20
-33.66355355173269
 10
29.9131049514111
 20
-33.78716100890676
 10
30.63332995812586
 20
-33.87543623488818
 10
32.27488574915372
 20
-33.98810468782448
 10
33.92073390247567
 20
-34.0171340290533
 10
35.0335430706972
 20
-33.99738478237838
 10
36.14629045334037
 20
-33.94199850789218
 10
37.64940695999523
 20
-33.78738390953702
 10
38.66706643810824
 20
-33.59760250755602
 10
39.35784266657497
 20
-33.39840231230689
 10
39.82724417800625
 20
-33.20425813700826
 10
40.24878624281502
 20
-32.9469990959623
 10
40.47940593622831
 20
-32.72266056843935
 10
40.58224872911385
 20
-32.55774784540238
 10
40.63140962923261
 20
-32.40786081898835
 10
40.6417595199291
 20
-32.30000000000001
  0
LINE
  5
14D
330
12A
100
AcDbEntity
  8
AM_4
100
AcDbLine
 10
46.75000000000001
 20
-34.3
 30
0.0
 11
-46.74999999998132
 21
-34.3
 31
0.0
  0
ARC
  5
14E
330
12A
100
AcDbEntity
  8
AM_4
100
AcDbCircle
 10
-46.75000000000001
 20
-32.30000000000001
 30
0.0
 40
1.999999999999986
100
AcDbArc
 50
180.0
 51
270.0
  0
ARC
  5
14F
330
12A
100
AcDbEntity
  8
AM_4
100
AcDbCircle
 10
46.75000000000001
 20
-32.30000000000001
 30
0.0
 40
1.999999999999986
100
AcDbArc
 50
270.0
 51
0.0
  0
LINE
  5
150
330
12A
100
AcDbEntity
  8
AM_4
100
AcDbLine
 10
48.75
 20
0.0
 30
0.0
 11
-48.75
 21
0.0
 31
0.0
  0
LINE
  5
151
330
12A
100
AcDbEntity
  8
AM_4
100
AcDbLine
 10
40.6417595199291
 20
-13.80642645743664
 30
0.0
 11
40.6417595199291
 21
0.0000000000000016
 31
0.0
  0
LINE
  5
152
330
12A
100
AcDbEntity
  8
AM_4
100
AcDbLine
 10
40.6417595199291
 20
-32.30000000000001
 30
0.0
 11
40.6417595199291
 21
-18.29341409645797
 31
0.0
  0
LINE
  5
153
330
12A
100
AcDbEntity
  8
AM_4
100
AcDbLine
 10
26.92229342244554
 20
-32.3
 30
0.0
 11
-48.75
 21
-32.3
 31
0.0
  0
LINE
  5
154
330
12A
100
AcDbEntity
  8
AM_4
100
AcDbLine
 10
26.92229342244554
 20
-32.3
 30
0.0
 11
26.92229342244549
 21
0.0000000000000025
 31
0.0
  0
LINE
  5
155
330
12A
100
AcDbEntity
  8
AM_4
100
AcDbLine
 10
-48.75
 20
0.0
 30
0.0
 11
-48.75
 21
-32.3
 31
0.0
  0
LINE
  5
156
330
12A
100
AcDbEntity
  8
AM_4
100
AcDbLine
 10
48.75
 20
-32.3
 30
0.0
 11
48.75
 21
0.0
 31
0.0
  0
LINE
  5
157
330
12A
100
AcDbEntity
  8
AM_4
100
AcDbLine
 10
48.75
 20
-32.3
 30
0.0
 11
40.6417595199291
 21
-32.30000000000001
 31
0.0
  0
LINE
  5
158
330
12A
100
AcDbEntity
  8
AM_4
100
AcDbLine
 10
18.12147220103239
 20
-10.7
 30
0.0
 11
18.12147220103239
 21
0.0000000000000028
 31
0.0
  0
LINE
  5
159
330
12A
100
AcDbEntity
  8
AM_4
100
AcDbLine
 10
18.12147220103239
 20
-10.7
 30
0.0
 11
-18.12147220103237
 21
-10.7
 31
0.0
  0
LINE
  5
15A
330
12A
100
AcDbEntity
  8
AM_4
100
AcDbLine
 10
-18.12147220103237
 20
-10.7
 30
0.0
 11
-18.12147220103237
 21
0.0000000000000028
 31
0.0
  0
LINE
  5
15B
330
12A
100
AcDbEntity
  8
AM_4
100
AcDbLine
 10
13.45000000000001
 20
-10.7
 30
0.0
 11
13.45000000000001
 21
0.0000000000000044
 31
0.0
  0
LINE
  5
15C
330
12A
100
AcDbEntity
  8
AM_4
100
AcDbLine
 10
-13.45
 20
-10.7
 30
0.0
 11
-13.45
 21
0.0000000000000044
 31
0.0
  0
ENDBLK
  5
12D
330
12A
100
AcDbEntity
  8
0
100
AcDbBlockEnd
  0
ENDSEC
  0
SECTION
  2
ENTITIES
  0
INSERT
  5
6F
330
1F
100
AcDbEntity
  8
0
100
AcDbBlockReference
  2
1_127749_4
 10
0.0
 20
0.0
 30
0.0
  0
POINT
  5
15E
330
1F
100
AcDbEntity
  8
ConnectionPoints
100
AcDbPoint
 10
0.0
 20
-52.1
 30
0.0000000000000032
  0
POINT
  5
15F
330
1F
100
AcDbEntity
  8
ConnectionPoints
100
AcDbPoint
 10
0.0
 20
-1.0
 30
0.0000000000000001
  0
POINT
  5
160
330
1F
100
AcDbEntity
  8
ConnectionPoints
100
AcDbPoint
 10
0.0
 20
-26.55
 30
0.0000000000000016
  0
POINT
  5
161
330
1F
100
AcDbEntity
  8
ConnectionPoints
100
AcDbPoint
 10
0.0
 20
-20.1
 30
0.0000000000000012
  0
POINT
  5
162
330
1F
100
AcDbEntity
  8
ConnectionPoints
100
AcDbPoint
 10
0.0
 20
-52.1
 30
0.0000000000000032
  0
POINT
  5
163
330
1F
100
AcDbEntity
  8
ConnectionPoints
100
AcDbPoint
 10
33.78202647118729
 20
-16.04999999999999
 30
33.78202647118731
  0
ENDSEC
  0
SECTION
  2
OBJECTS
  0
DICTIONARY
  5
C
330
0
100
AcDbDictionary
281
     1
  3
ACAD_DETAILVIEWSTYLE
350
16B
  3
ACAD_GROUP
350
D
  3
ACAD_LAYOUT
350
1A
  3
ACAD_MATERIAL
350
43
  3
ACAD_MLEADERSTYLE
350
6B
  3
ACAD_MLINESTYLE
350
17
  3
ACAD_PLOTSETTINGS
350
19
  3
ACAD_PLOTSTYLENAME
350
E
  3
ACAD_SCALELIST
350
47
  3
ACAD_SECTIONVIEWSTYLE
350
16C
  3
ACAD_TABLESTYLE
350
69
  3
ACAD_VISUALSTYLE
350
2A
  3
ACDB_RECOMPOSE_DATA
350
168
  3
AcDbVariableDictionary
350
164
  0
SUN
  5
6D
330
29
100
AcDbSun
 90
        1
290
     0
 63
     7
421
 16777215
 40
1.0
291
     1
 91
  2455826
 92
 54000000
292
     0
 70
     2
 71
   256
280
     1
  0
DICTIONARY
  5
16B
102
{ACAD_REACTORS
330
C
102
}
330
C
100
AcDbDictionary
281
     1
  0
DICTIONARY
  5
D
102
{ACAD_REACTORS
330
C
102
}
330
C
100
AcDbDictionary
281
     1
  0
DICTIONARY
  5
1A
102
{ACAD_REACTORS
330
C
102
}
330
C
100
AcDbDictionary
281
     1
  3
Layout1
350
1E
  3
Layout2
350
26
  3
Model
350
22
  0
DICTIONARY
  5
43
102
{ACAD_REACTORS
330
C
102
}
330
C
100
AcDbDictionary
281
     1
  3
ByBlock
350
45
  3
ByLayer
350
44
  3
Global
350
46
  0
DICTIONARY
  5
6B
102
{ACAD_REACTORS
330
C
102
}
330
C
100
AcDbDictionary
281
     1
  3
Standard
350
6C
  0
DICTIONARY
  5
17
102
{ACAD_REACTORS
330
C
102
}
330
C
100
AcDbDictionary
281
     1
  3
Standard
350
18
  0
DICTIONARY
  5
19
102
{ACAD_REACTORS
330
C
102
}
330
C
100
AcDbDictionary
281
     1
  0
ACDBDICTIONARYWDFLT
  5
E
102
{ACAD_REACTORS
330
C
102
}
330
C
100
AcDbDictionary
281
     1
  3
Normal
350
F
100
AcDbDictionaryWithDefault
340
F
  0
DICTIONARY
  5
47
102
{ACAD_REACTORS
330
C
102
}
330
C
100
AcDbDictionary
281
     1
  3
A0
350
48
  3
A1
350
49
  3
A2
350
4A
  3
A3
350
4B
  3
A4
350
4C
  3
A5
350
4D
  3
A6
350
4E
  3
A7
350
4F
  3
A8
350
50
  3
A9
350
51
  3
B0
350
52
  3
B1
350
53
  3
B2
350
54
  3
B3
350
55
  3
B4
350
56
  3
B5
350
57
  3
B6
350
58
  3
B7
350
59
  3
B8
350
5A
  3
B9
350
5B
  3
C0
350
5C
  3
C1
350
5D
  3
C2
350
5E
  3
C3
350
5F
  3
C4
350
60
  3
C5
350
61
  3
C6
350
62
  3
C7
350
63
  3
C8
350
64
  3
C9
350
65
  3
D0
350
66
  3
D1
350
67
  3
D2
350
68
  0
DICTIONARY
  5
16C
102
{ACAD_REACTORS
330
C
102
}
330
C
100
AcDbDictionary
281
     1
  0
DICTIONARY
  5
69
102
{ACAD_REACTORS
330
C
102
}
330
C
100
AcDbDictionary
281
     1
  3
Standard
350
6A
  0
DICTIONARY
  5
2A
102
{ACAD_REACTORS
330
C
102
}
330
C
100
AcDbDictionary
281
     1
  3
2dWireframe
350
2F
  3
Basic
350
32
  3
Brighten
350
36
  3
ColorChange
350
3A
  3
Conceptual
350
34
  3
Dim
350
35
  3
EdgeColorOff
350
3D
  3
Facepattern
350
39
  3
Flat
350
2B
  3
FlatWithEdges
350
2C
  3
Gouraud
350
2D
  3
GouraudWithEdges
350
2E
  3
Hidden
350
31
  3
JitterOff
350
3B
  3
Linepattern
350
38
  3
OverhangOff
350
3C
  3
Realistic
350
33
  3
Shaded
350
42
  3
Shaded with edges
350
41
  3
Shades of Gray
350
3E
  3
Sketchy
350
3F
  3
Thicken
350
37
  3
Wireframe
350
30
  3
X-Ray
350
40
  0
XRECORD
  5
168
102
{ACAD_REACTORS
330
C
102
}
330
C
100
AcDbXrecord
280
     1
 90
        1
330
6A
  0
DICTIONARY
  5
164
102
{ACAD_REACTORS
330
C
102
}
330
C
100
AcDbDictionary
281
     1
  3
CANNOSCALE
350
165
  3
CMLEADERSTYLE
350
16A
  3
CTABLESTYLE
350
169
  0
LAYOUT
  5
1E
102
{ACAD_REACTORS
330
1A
102
}
330
1A
100
AcDbPlotSettings
  1

  2
none_device
  4

  6

 40
0.0
 41
0.0
 42
0.0
 43
0.0
 44
0.0
 45
0.0
 46
0.0
 47
0.0
 48
0.0
 49
0.0
140
0.0
141
0.0
142
1.0
143
1.0
 70
   688
 72
     1
 73
     0
 74
     5
  7

 75
    16
 76
     0
 77
     2
 78
   300
147
1.0
148
0.0
149
0.0
100
AcDbLayout
  1
Layout1
 70
     1
 71
     1
 10
0.0
 20
0.0
 11
420.0
 21
297.0
 12
0.0
 22
0.0
 32
0.0
 14
1.000000000000000E+20
 24
1.000000000000000E+20
 34
1.000000000000000E+20
 15
-1.000000000000000E+20
 25
-1.000000000000000E+20
 35
-1.000000000000000E+20
146
0.0
 13
0.0
 23
0.0
 33
0.0
 16
1.0
 26
0.0
 36
0.0
 17
0.0
 27
1.0
 37
0.0
 76
     0
330
1B
  0
LAYOUT
  5
26
102
{ACAD_REACTORS
330
1A
102
}
330
1A
100
AcDbPlotSettings
  1

  2
none_device
  4

  6

 40
0.0
 41
0.0
 42
0.0
 43
0.0
 44
0.0
 45
0.0
 46
0.0
 47
0.0
 48
0.0
 49
0.0
140
0.0
141
0.0
142
1.0
143
1.0
 70
   688
 72
     1
 73
     0
 74
     5
  7

 75
    16
 76
     0
 77
     2
 78
   300
147
1.0
148
0.0
149
0.0
100
AcDbLayout
  1
Layout2
 70
     1
 71
     2
 10
0.0
 20
0.0
 11
0.0
 21
0.0
 12
0.0
 22
0.0
 32
0.0
 14
0.0
 24
0.0
 34
0.0
 15
0.0
 25
0.0
 35
0.0
146
0.0
 13
0.0
 23
0.0
 33
0.0
 16
1.0
 26
0.0
 36
0.0
 17
0.0
 27
1.0
 37
0.0
 76
     0
330
23
  0
LAYOUT
  5
22
102
{ACAD_REACTORS
330
1A
102
}
330
1A
100
AcDbPlotSettings
  1

  2
none_device
  4
Letter_(8.50_x_11.00_Inches)
  6

 40
6.35
 41
6.35
 42
6.35000508
 43
6.35000508
 44
215.9
 45
279.4
 46
0.0
 47
0.0
 48
0.0
 49
0.0
140
0.0
141
0.0
142
1.0
143
1.0
 70
  1712
 72
     1
 73
     0
 74
     0
  7

 75
     0
 76
     0
 77
     2
 78
   300
147
1.0
148
0.0
149
0.0
100
AcDbLayout
  1
Model
 70
     1
 71
     0
 10
0.0
 20
0.0
 11
420.0
 21
297.0
 12
0.0
 22
0.0
 32
0.0
 14
1.000000000000000E+20
 24
1.000000000000000E+20
 34
1.000000000000000E+20
 15
-1.000000000000000E+20
 25
-1.000000000000000E+20
 35
-1.000000000000000E+20
146
0.0
 13
0.0
 23
0.0
 33
0.0
 16
1.0
 26
0.0
 36
0.0
 17
0.0
 27
1.0
 37
0.0
 76
     0
330
1F
331
29
  0
MATERIAL
  5
45
102
{ACAD_REACTORS
330
43
102
}
330
43
100
AcDbMaterial
  1
ByBlock
 72
     1
 94
      127
  0
MATERIAL
  5
44
102
{ACAD_REACTORS
330
43
102
}
330
43
100
AcDbMaterial
  1
ByLayer
 72
     1
 94
      127
  0
MATERIAL
  5
46
102
{ACAD_REACTORS
330
43
102
}
330
43
100
AcDbMaterial
  1
Global
 72
     1
 94
      127
  0
MLEADERSTYLE
  5
6C
102
{ACAD_REACTORS
330
6B
102
}
330
6B
100
AcDbMLeaderStyle
179
     2
170
     2
171
     1
172
     0
 90
        2
 40
0.0
 41
0.0
173
     1
 91
-1056964608
340
14
 92
       -2
290
     1
 42
2.0
291
     1
 43
8.0
  3
Standard
341
0
 44
4.0
300

342
11
174
     1
178
     6
175
     1
176
     0
 93
-1056964608
 45
4.0
292
     0
297
     0
 46
4.0
343
0
 94
-1056964608
 47
1.0
 49
1.0
140
1.0
293
     1
141
0.0
294
     1
177
     0
142
1.0
295
     0
296
     0
143
3.75
271
     0
272
     9
273
     9
298
     0
  0
MLINESTYLE
  5
18
102
{ACAD_REACTORS
330
17
102
}
330
17
100
AcDbMlineStyle
  2
Standard
 70
     0
  3

 62
   256
 51
90.0
 52
90.0
 71
     2
 49
0.5
 62
   256
  6
BYLAYER
 49
-0.5
 62
   256
  6
BYLAYER
  0
ACDBPLACEHOLDER
  5
F
102
{ACAD_REACTORS
330
E
102
}
330
E
  0
SCALE
  5
48
102
{ACAD_REACTORS
330
47
102
}
330
47
100
AcDbScale
 70
     0
300
1:1
140
1.0
141
1.0
290
     1
  0
SCALE
  5
49
102
{ACAD_REACTORS
330
47
102
}
330
47
100
AcDbScale
 70
     0
300
1:2
140
1.0
141
2.0
290
     0
  0
SCALE
  5
4A
102
{ACAD_REACTORS
330
47
102
}
330
47
100
AcDbScale
 70
     0
300
1:4
140
1.0
141
4.0
290
     0
  0
SCALE
  5
4B
102
{ACAD_REACTORS
330
47
102
}
330
47
100
AcDbScale
 70
     0
300
1:5
140
1.0
141
5.0
290
     0
  0
SCALE
  5
4C
102
{ACAD_REACTORS
330
47
102
}
330
47
100
AcDbScale
 70
     0
300
1:8
140
1.0
141
8.0
290
     0
  0
SCALE
  5
4D
102
{ACAD_REACTORS
330
47
102
}
330
47
100
AcDbScale
 70
     0
300
1:10
140
1.0
141
10.0
290
     0
  0
SCALE
  5
4E
102
{ACAD_REACTORS
330
47
102
}
330
47
100
AcDbScale
 70
     0
300
1:16
140
1.0
141
16.0
290
     0
  0
SCALE
  5
4F
102
{ACAD_REACTORS
330
47
102
}
330
47
100
AcDbScale
 70
     0
300
1:20
140
1.0
141
20.0
290
     0
  0
SCALE
  5
50
102
{ACAD_REACTORS
330
47
102
}
330
47
100
AcDbScale
 70
     0
300
1:30
140
1.0
141
30.0
290
     0
  0
SCALE
  5
51
102
{ACAD_REACTORS
330
47
102
}
330
47
100
AcDbScale
 70
     0
300
1:40
140
1.0
141
40.0
290
     0
  0
SCALE
  5
52
102
{ACAD_REACTORS
330
47
102
}
330
47
100
AcDbScale
 70
     0
300
1:50
140
1.0
141
50.0
290
     0
  0
SCALE
  5
53
102
{ACAD_REACTORS
330
47
102
}
330
47
100
AcDbScale
 70
     0
300
1:100
140
1.0
141
100.0
290
     0
  0
SCALE
  5
54
102
{ACAD_REACTORS
330
47
102
}
330
47
100
AcDbScale
 70
     0
300
2:1
140
2.0
141
1.0
290
     0
  0
SCALE
  5
55
102
{ACAD_REACTORS
330
47
102
}
330
47
100
AcDbScale
 70
     0
300
4:1
140
4.0
141
1.0
290
     0
  0
SCALE
  5
56
102
{ACAD_REACTORS
330
47
102
}
330
47
100
AcDbScale
 70
     0
300
8:1
140
8.0
141
1.0
290
     0
  0
SCALE
  5
57
102
{ACAD_REACTORS
330
47
102
}
330
47
100
AcDbScale
 70
     0
300
10:1
140
10.0
141
1.0
290
     0
  0
SCALE
  5
58
102
{ACAD_REACTORS
330
47
102
}
330
47
100
AcDbScale
 70
     0
300
100:1
140
100.0
141
1.0
290
     0
  0
SCALE
  5
59
102
{ACAD_REACTORS
330
47
102
}
330
47
100
AcDbScale
 70
     0
300
1/128" = 1'-0"
140
0.0078125
141
12.0
290
     0
  0
SCALE
  5
5A
102
{ACAD_REACTORS
330
47
102
}
330
47
100
AcDbScale
 70
     0
300
1/64" = 1'-0"
140
0.015625
141
12.0
290
     0
  0
SCALE
  5
5B
102
{ACAD_REACTORS
330
47
102
}
330
47
100
AcDbScale
 70
     0
300
1/32" = 1'-0"
140
0.03125
141
12.0
290
     0
  0
SCALE
  5
5C
102
{ACAD_REACTORS
330
47
102
}
330
47
100
AcDbScale
 70
     0
300
1/16" = 1'-0"
140
0.0625
141
12.0
290
     0
  0
SCALE
  5
5D
102
{ACAD_REACTORS
330
47
102
}
330
47
100
AcDbScale
 70
     0
300
3/32" = 1'-0"
140
0.09375
141
12.0
290
     0
  0
SCALE
  5
5E
102
{ACAD_REACTORS
330
47
102
}
330
47
100
AcDbScale
 70
     0
300
1/8" = 1'-0"
140
0.125
141
12.0
290
     0
  0
SCALE
  5
5F
102
{ACAD_REACTORS
330
47
102
}
330
47
100
AcDbScale
 70
     0
300
3/16" = 1'-0"
140
0.1875
141
12.0
290
     0
  0
SCALE
  5
60
102
{ACAD_REACTORS
330
47
102
}
330
47
100
AcDbScale
 70
     0
300
1/4" = 1'-0"
140
0.25
141
12.0
290
     0
  0
SCALE
  5
61
102
{ACAD_REACTORS
330
47
102
}
330
47
100
AcDbScale
 70
     0
300
3/8" = 1'-0"
140
0.375
141
12.0
290
     0
  0
SCALE
  5
62
102
{ACAD_REACTORS
330
47
102
}
330
47
100
AcDbScale
 70
     0
300
1/2" = 1'-0"
140
0.5
141
12.0
290
     0
  0
SCALE
  5
63
102
{ACAD_REACTORS
330
47
102
}
330
47
100
AcDbScale
 70
     0
300
3/4" = 1'-0"
140
0.75
141
12.0
290
     0
  0
SCALE
  5
64
102
{ACAD_REACTORS
330
47
102
}
330
47
100
AcDbScale
 70
     0
300
1" = 1'-0"
140
1.0
141
12.0
290
     0
  0
SCALE
  5
65
102
{ACAD_REACTORS
330
47
102
}
330
47
100
AcDbScale
 70
     0
300
1-1/2" = 1'-0"
140
1.5
141
12.0
290
     0
  0
SCALE
  5
66
102
{ACAD_REACTORS
330
47
102
}
330
47
100
AcDbScale
 70
     0
300
3" = 1'-0"
140
3.0
141
12.0
290
     0
  0
SCALE
  5
67
102
{ACAD_REACTORS
330
47
102
}
330
47
100
AcDbScale
 70
     0
300
6" = 1'-0"
140
6.0
141
12.0
290
     0
  0
SCALE
  5
68
102
{ACAD_REACTORS
330
47
102
}
330
47
100
AcDbScale
 70
     0
300
1'-0" = 1'-0"
140
12.0
141
12.0
290
     0
  0
TABLESTYLE
  5
6A
102
{ACAD_REACTORS
330
69
102
}
102
{ACAD_XDICTIONARY
360
166
102
}
330
69
100
AcDbTableStyle
  3
Standard
 70
     0
 71
     0
 40
0.06
 41
0.06
280
     0
281
     0
  7
Standard
140
4.5
170
     2
 62
     0
 63
   257
283
     0
 90
        4
 91
        0
  1

274
    -2
284
     1
 64
     0
275
    -2
285
     1
 65
     0
276
    -2
286
     1
 66
     0
277
    -2
287
     1
 67
     0
278
    -2
288
     1
 68
     0
279
    -2
289
     1
 69
     0
  7
Standard
140
6.0
170
     5
 62
     0
 63
   257
283
     0
 90
        4
 91
        0
  1

274
    -2
284
     1
 64
     0
275
    -2
285
     1
 65
     0
276
    -2
286
     1
 66
     0
277
    -2
287
     1
 67
     0
278
    -2
288
     1
 68
     0
279
    -2
289
     1
 69
     0
  7
Standard
140
4.5
170
     5
 62
     0
 63
   257
283
     0
 90
        4
 91
        0
  1

274
    -2
284
     1
 64
     0
275
    -2
285
     1
 65
     0
276
    -2
286
     1
 66
     0
277
    -2
287
     1
 67
     0
278
    -2
288
     1
 68
     0
279
    -2
289
     1
 69
     0
  0
VISUALSTYLE
  5
2F
102
{ACAD_REACTORS
330
2A
102
}
330
2A
100
AcDbVisualStyle
  2
2dWireframe
 70
     4
177
     3
291
     0
 70
    58
 90
        0
176
     1
 90
        2
176
     1
 90
        0
176
     1
 90
        0
176
     1
 40
0.6
176
     1
 40
30.0
176
     1
 62
     7
420
 16777215
176
     1
 90
        1
176
     1
 90
        4
176
     1
 62
     7
176
     1
 62
   257
176
     1
 90
        1
176
     1
 90
        1
176
     1
 40
1.0
176
     1
 90
        0
176
     1
 62
   257
176
     1
 40
1.0
176
     1
 90
        1
176
     1
 90
        6
176
     1
 90
        2
176
     1
 62
     7
176
     1
 90
        5
176
     1
 90
        0
176
     1
 90
        0
176
     1
290
     0
176
     1
 90
        1
176
     1
 40
0.0
176
     1
 90
        0
176
     1
290
     1
176
     1
290
     1
176
     1
290
     0
176
     1
290
     0
176
     1
290
     0
176
     1
290
     0
176
     1
290
     0
176
     1
290
     0
176
     1
290
     0
176
     1
 90
       50
176
     1
 40
0.0
176
     1
 40
1.0
176
     1
 90
        0
176
     1
 62
    18
420
        0
176
     1
 90
       50
176
     1
 90
        3
176
     1
 62
     5
420
      255
176
     1
290
     0
176
     1
 90
       50
176
     1
 90
       50
176
     1
 90
       50
176
     1
290
     0
176
     1
 90
       50
176
     1
 62
   256
176
     0
 40
1.0
176
     0
 90
        2
176
     1
  1
strokes_ogs.tif
176
     1
290
     0
176
     1
 40
1.0
176
     1
 40
1.0
176
     1
  0
VISUALSTYLE
  5
32
102
{ACAD_REACTORS
330
2A
102
}
330
2A
100
AcDbVisualStyle
  2
Basic
 70
     7
177
     3
291
     1
 70
    58
 90
        1
176
     1
 90
        0
176
     1
 90
        1
176
     1
 90
        0
176
     1
 40
0.6
176
     1
 40
30.0
176
     1
 62
     7
420
 16777215
176
     1
 90
        0
176
     1
 90
        4
176
     1
 62
     7
176
     1
 62
   257
176
     1
 90
        1
176
     1
 90
        1
176
     1
 40
1.0
176
     1
 90
        8
176
     1
 62
     7
176
     1
 40
1.0
176
     1
 90
        1
176
     1
 90
        6
176
     1
 90
        2
176
     1
 62
     7
176
     1
 90
        5
176
     1
 90
        0
176
     1
 90
        0
176
     1
290
     0
176
     1
 90
        1
176
     1
 40
0.0
176
     1
 90
        0
176
     1
290
     0
176
     1
290
     1
176
     1
290
     1
176
     1
290
     0
176
     1
290
     0
176
     1
290
     0
176
     1
290
     0
176
     1
290
     0
176
     1
290
     0
176
     1
 90
       50
176
     1
 40
0.0
176
     1
 40
1.0
176
     1
 90
        0
176
     1
 62
    18
420
        0
176
     1
 90
       50
176
     1
 90
        3
176
     1
 62
     5
420
      255
176
     1
290
     0
176
     1
 90
       50
176
     1
 90
       50
176
     1
 90
       50
176
     1
290
     0
176
     1
 90
       50
176
     1
 62
   256
176
     0
 40
1.0
176
     0
 90
        2
176
     1
  1
strokes_ogs.tif
176
     1
290
     0
176
     1
 40
1.0
176
     1
 40
1.0
176
     1
  0
VISUALSTYLE
  5
36
102
{ACAD_REACTORS
330
2A
102
}
330
2A
100
AcDbVisualStyle
  2
Brighten
 70
    12
177
     3
291
     1
 70
    58
 90
        2
176
     1
 90
        2
176
     1
 90
        0
176
     1
 90
        0
176
     1
 40
0.6
176
     1
 40
30.0
176
     1
 62
     7
420
 16777215
176
     1
 90
        1
176
     1
 90
        4
176
     1
 62
     7
176
     1
 62
   257
176
     1
 90
        1
176
     1
 90
        1
176
     1
 40
1.0
176
     1
 90
        8
176
     1
 62
     7
176
     1
 40
1.0
176
     1
 90
        1
176
     1
 90
        6
176
     1
 90
        2
176
     1
 62
     7
176
     1
 90
        5
176
     1
 90
        0
176
     1
 90
        0
176
     1
290
     0
176
     1
 90
        1
176
     1
 40
50.0
176
     1
 90
        0
176
     1
290
     0
176
     1
290
     1
176
     1
290
     1
176
     1
290
     0
176
     1
290
     0
176
     1
290
     0
176
     1
290
     0
176
     1
290
     0
176
     1
290
     0
176
     1
 90
       50
176
     1
 40
0.0
176
     1
 40
1.0
176
     1
 90
        0
176
     1
 62
    18
420
        0
176
     1
 90
       50
176
     1
 90
        3
176
     1
 62
     5
420
      255
176
     1
290
     0
176
     1
 90
       50
176
     1
 90
       50
176
     1
 90
       50
176
     1
290
     0
176
     1
 90
       50
176
     1
 62
   256
176
     0
 40
1.0
176
     0
 90
        2
176
     1
  1
strokes_ogs.tif
176
     1
290
     0
176
     1
 40
1.0
176
     1
 40
1.0
176
     1
  0
VISUALSTYLE
  5
3A
102
{ACAD_REACTORS
330
2A
102
}
330
2A
100
AcDbVisualStyle
  2
ColorChange
 70
    16
177
     3
291
     1
 70
    58
 90
        2
176
     1
 90
        2
176
     1
 90
        3
176
     1
 90
        0
176
     1
 40
0.6
176
     1
 40
30.0
176
     1
 62
     8
420
  8421504
176
     1
 90
        1
176
     1
 90
        4
176
     1
 62
     7
176
     1
 62
   257
176
     1
 90
        1
176
     1
 90
        1
176
     1
 40
1.0
176
     1
 90
        8
176
     1
 62
     8
420
  8421504
176
     1
 40
1.0
176
     1
 90
        1
176
     1
 90
        6
176
     1
 90
        2
176
     1
 62
     7
176
     1
 90
        5
176
     1
 90
        0
176
     1
 90
        0
176
     1
290
     0
176
     1
 90
        1
176
     1
 40
0.0
176
     1
 90
        0
176
     1
290
     0
176
     1
290
     1
176
     1
290
     1
176
     1
290
     0
176
     1
290
     0
176
     1
290
     0
176
     1
290
     0
176
     1
290
     0
176
     1
290
     0
176
     1
 90
       50
176
     1
 40
0.0
176
     1
 40
1.0
176
     1
 90
        0
176
     1
 62
    18
420
        0
176
     1
 90
       50
176
     1
 90
        3
176
     1
 62
     5
420
      255
176
     1
290
     0
176
     1
 90
       50
176
     1
 90
       50
176
     1
 90
       50
176
     1
290
     0
176
     1
 90
       50
176
     1
 62
   256
176
     0
 40
1.0
176
     0
 90
        2
176
     1
  1
strokes_ogs.tif
176
     1
290
     0
176
     1
 40
1.0
176
     1
 40
1.0
176
     1
  0
VISUALSTYLE
  5
34
102
{ACAD_REACTORS
330
2A
102
}
330
2A
100
AcDbVisualStyle
  2
Conceptual
 70
     9
177
     3
291
     0
 70
    58
 90
        3
176
     1
 90
        2
176
     1
 90
        0
176
     1
 90
        0
176
     1
 40
0.6
176
     1
 40
30.0
176
     1
 62
     7
420
 16777215
176
     1
 90
        2
176
     1
 90
        2
176
     1
 62
     7
176
     1
 62
   257
176
     1
 90
        1
176
     1
 90
        1
176
     1
 40
179.0
176
     1
 90
        8
176
     1
 62
     7
176
     1
 40
1.0
176
     1
 90
        1
176
     1
 90
        6
176
     1
 90
        2
176
     1
 62
     7
176
     1
 90
        3
176
     1
 90
        0
176
     1
 90
        0
176
     1
290
     0
176
     1
 90
        1
176
     1
 40
0.0
176
     1
 90
        0
176
     1
290
     0
176
     1
290
     1
176
     1
290
     1
176
     1
290
     0
176
     1
290
     0
176
     1
290
     0
176
     1
290
     0
176
     1
290
     0
176
     1
290
     0
176
     1
 90
       50
176
     1
 40
0.0
176
     1
 40
1.0
176
     1
 90
        0
176
     1
 62
    18
420
        0
176
     1
 90
       50
176
     1
 90
        3
176
     1
 62
     5
420
      255
176
     1
290
     0
176
     1
 90
       50
176
     1
 90
       50
176
     1
 90
       50
176
     1
290
     0
176
     1
 90
       50
176
     1
 62
   256
176
     0
 40
1.0
176
     0
 90
        2
176
     1
  1
strokes_ogs.tif
176
     1
290
     0
176
     1
 40
1.0
176
     1
 40
1.0
176
     1
  0
VISUALSTYLE
  5
35
102
{ACAD_REACTORS
330
2A
102
}
330
2A
100
AcDbVisualStyle
  2
Dim
 70
    11
177
     3
291
     1
 70
    58
 90
        2
176
     1
 90
        2
176
     1
 90
        0
176
     1
 90
        0
176
     1
 40
0.6
176
     1
 40
30.0
176
     1
 62
     7
420
 16777215
176
     1
 90
        1
176
     1
 90
        4
176
     1
 62
     7
176
     1
 62
   257
176
     1
 90
        1
176
     1
 90
        1
176
     1
 40
1.0
176
     1
 90
        8
176
     1
 62
     7
176
     1
 40
1.0
176
     1
 90
        1
176
     1
 90
        6
176
     1
 90
        2
176
     1
 62
     7
176
     1
 90
        5
176
     1
 90
        0
176
     1
 90
        0
176
     1
290
     0
176
     1
 90
        1
176
     1
 40
-50.0
176
     1
 90
        0
176
     1
290
     0
176
     1
290
     1
176
     1
290
     1
176
     1
290
     0
176
     1
290
     0
176
     1
290
     0
176
     1
290
     0
176
     1
290
     0
176
     1
290
     0
176
     1
 90
       50
176
     1
 40
0.0
176
     1
 40
1.0
176
     1
 90
        0
176
     1
 62
    18
420
        0
176
     1
 90
       50
176
     1
 90
        3
176
     1
 62
     5
420
      255
176
     1
290
     0
176
     1
 90
       50
176
     1
 90
       50
176
     1
 90
       50
176
     1
290
     0
176
     1
 90
       50
176
     1
 62
   256
176
     0
 40
1.0
176
     0
 90
        2
176
     1
  1
strokes_ogs.tif
176
     1
290
     0
176
     1
 40
1.0
176
     1
 40
1.0
176
     1
  0
VISUALSTYLE
  5
3D
102
{ACAD_REACTORS
330
2A
102
}
330
2A
100
AcDbVisualStyle
  2
EdgeColorOff
 70
    22
177
     3
291
     1
 70
    58
 90
        2
176
     0
 90
        2
176
     0
 90
        0
176
     0
 90
        0
176
     0
 40
0.6
176
     0
 40
30.0
176
     0
 62
     7
420
 16777215
176
     0
 90
        1
176
     0
 90
        4
176
     0
 62
     7
176
     0
 62
   257
176
     0
 90
        1
176
     0
 90
        1
176
     0
 40
1.0
176
     0
 90
        8
176
     2
 62
     7
176
     0
 40
1.0
176
     0
 90
        1
176
     0
 90
        6
176
     0
 90
        2
176
     0
 62
     7
176
     0
 90
        5
176
     0
 90
        0
176
     0
 90
        0
176
     0
290
     0
176
     0
 90
        1
176
     0
 40
0.0
176
     0
 90
        0
176
     0
290
     0
176
     0
290
     1
176
     0
290
     1
176
     0
290
     0
176
     0
290
     0
176
     0
290
     0
176
     0
290
     0
176
     0
290
     0
176
     0
290
     0
176
     0
 90
       50
176
     0
 40
0.0
176
     0
 40
1.0
176
     0
 90
        0
176
     0
 62
    18
420
        0
176
     0
 90
       50
176
     0
 90
        3
176
     0
 62
     5
420
      255
176
     0
290
     0
176
     0
 90
       50
176
     0
 90
       50
176
     0
 90
       50
176
     0
290
     0
176
     0
 90
       50
176
     0
 62
   256
176
     0
 40
1.0
176
     0
 90
        2
176
     0
  1
strokes_ogs.tif
176
     0
290
     0
176
     0
 40
1.0
176
     0
 40
1.0
176
     0
  0
VISUALSTYLE
  5
39
102
{ACAD_REACTORS
330
2A
102
}
330
2A
100
AcDbVisualStyle
  2
Facepattern
 70
    15
177
     3
291
     1
 70
    58
 90
        2
176
     1
 90
        2
176
     1
 90
        0
176
     1
 90
        0
176
     1
 40
0.6
176
     1
 40
30.0
176
     1
 62
     7
420
 16777215
176
     1
 90
        1
176
     1
 90
        4
176
     1
 62
     7
176
     1
 62
   257
176
     1
 90
        1
176
     1
 90
        1
176
     1
 40
1.0
176
     1
 90
        8
176
     1
 62
     7
176
     1
 40
1.0
176
     1
 90
        1
176
     1
 90
        6
176
     1
 90
        2
176
     1
 62
     7
176
     1
 90
        5
176
     1
 90
        0
176
     1
 90
        0
176
     1
290
     0
176
     1
 90
        1
176
     1
 40
0.0
176
     1
 90
        0
176
     1
290
     0
176
     1
290
     1
176
     1
290
     1
176
     1
290
     0
176
     1
290
     0
176
     1
290
     0
176
     1
290
     0
176
     1
290
     0
176
     1
290
     0
176
     1
 90
       50
176
     1
 40
0.0
176
     1
 40
1.0
176
     1
 90
        0
176
     1
 62
    18
420
        0
176
     1
 90
       50
176
     1
 90
        3
176
     1
 62
     5
420
      255
176
     1
290
     0
176
     1
 90
       50
176
     1
 90
       50
176
     1
 90
       50
176
     1
290
     0
176
     1
 90
       50
176
     1
 62
   256
176
     0
 40
1.0
176
     0
 90
        2
176
     1
  1
strokes_ogs.tif
176
     1
290
     0
176
     1
 40
1.0
176
     1
 40
1.0
176
     1
  0
VISUALSTYLE
  5
2B
102
{ACAD_REACTORS
330
2A
102
}
330
2A
100
AcDbVisualStyle
  2
Flat
 70
     0
177
     3
291
     1
 70
    58
 90
        2
176
     1
 90
        1
176
     1
 90
        1
176
     1
 90
        2
176
     1
 40
0.6
176
     1
 40
30.0
176
     1
 62
     7
420
 16777215
176
     1
 90
        0
176
     1
 90
        0
176
     1
 62
     7
176
     1
 62
   257
176
     1
 90
        1
176
     1
 90
        1
176
     1
 40
1.0
176
     1
 90
        8
176
     1
 62
     7
176
     1
 40
1.0
176
     1
 90
        1
176
     1
 90
        6
176
     1
 90
        2
176
     1
 62
     7
176
     1
 90
        5
176
     1
 90
        0
176
     1
 90
        0
176
     1
290
     0
176
     1
 90
       13
176
     1
 40
0.0
176
     1
 90
        0
176
     1
290
     0
176
     1
290
     1
176
     1
290
     1
176
     1
290
     0
176
     1
290
     0
176
     1
290
     0
176
     1
290
     0
176
     1
290
     0
176
     1
290
     0
176
     1
 90
       50
176
     1
 40
0.0
176
     1
 40
1.0
176
     1
 90
        0
176
     1
 62
    18
420
        0
176
     1
 90
       50
176
     1
 90
        3
176
     1
 62
     5
420
      255
176
     1
290
     0
176
     1
 90
       50
176
     1
 90
       50
176
     1
 90
       50
176
     1
290
     0
176
     1
 90
       50
176
     1
 62
   256
176
     0
 40
1.0
176
     0
 90
        2
176
     1
  1
strokes_ogs.tif
176
     1
290
     0
176
     1
 40
1.0
176
     1
 40
1.0
176
     1
  0
VISUALSTYLE
  5
2C
102
{ACAD_REACTORS
330
2A
102
}
330
2A
100
AcDbVisualStyle
  2
FlatWithEdges
 70
     1
177
     3
291
     1
 70
    58
 90
        2
176
     1
 90
        1
176
     1
 90
        1
176
     1
 90
        2
176
     1
 40
0.6
176
     1
 40
30.0
176
     1
 62
     7
420
 16777215
176
     1
 90
        1
176
     1
 90
        0
176
     1
 62
     7
176
     1
 62
   257
176
     1
 90
        1
176
     1
 90
        1
176
     1
 40
1.0
176
     1
 90
        0
176
     1
 62
   257
176
     1
 40
1.0
176
     1
 90
        1
176
     1
 90
        6
176
     1
 90
        2
176
     1
 62
     7
176
     1
 90
        5
176
     1
 90
        0
176
     1
 90
        0
176
     1
290
     0
176
     1
 90
       13
176
     1
 40
0.0
176
     1
 90
        0
176
     1
290
     0
176
     1
290
     1
176
     1
290
     1
176
     1
290
     0
176
     1
290
     0
176
     1
290
     0
176
     1
290
     0
176
     1
290
     0
176
     1
290
     0
176
     1
 90
       50
176
     1
 40
0.0
176
     1
 40
1.0
176
     1
 90
        0
176
     1
 62
    18
420
        0
176
     1
 90
       50
176
     1
 90
        3
176
     1
 62
     5
420
      255
176
     1
290
     0
176
     1
 90
       50
176
     1
 90
       50
176
     1
 90
       50
176
     1
290
     0
176
     1
 90
       50
176
     1
 62
   256
176
     0
 40
1.0
176
     0
 90
        2
176
     1
  1
strokes_ogs.tif
176
     1
290
     0
176
     1
 40
1.0
176
     1
 40
1.0
176
     1
  0
VISUALSTYLE
  5
2D
102
{ACAD_REACTORS
330
2A
102
}
330
2A
100
AcDbVisualStyle
  2
Gouraud
 70
     2
177
     3
291
     1
 70
    58
 90
        2
176
     1
 90
        2
176
     1
 90
        1
176
     1
 90
        2
176
     1
 40
0.6
176
     1
 40
30.0
176
     1
 62
     7
420
 16777215
176
     1
 90
        0
176
     1
 90
        0
176
     1
 62
     7
176
     1
 62
   257
176
     1
 90
        1
176
     1
 90
        1
176
     1
 40
1.0
176
     1
 90
        0
176
     1
 62
     7
176
     1
 40
1.0
176
     1
 90
        1
176
     1
 90
        6
176
     1
 90
        2
176
     1
 62
     7
176
     1
 90
        5
176
     1
 90
        0
176
     1
 90
        0
176
     1
290
     0
176
     1
 90
       13
176
     1
 40
0.0
176
     1
 90
        0
176
     1
290
     0
176
     1
290
     1
176
     1
290
     1
176
     1
290
     0
176
     1
290
     0
176
     1
290
     0
176
     1
290
     0
176
     1
290
     0
176
     1
290
     0
176
     1
 90
       50
176
     1
 40
0.0
176
     1
 40
1.0
176
     1
 90
        0
176
     1
 62
    18
420
        0
176
     1
 90
       50
176
     1
 90
        3
176
     1
 62
     5
420
      255
176
     1
290
     0
176
     1
 90
       50
176
     1
 90
       50
176
     1
 90
       50
176
     1
290
     0
176
     1
 90
       50
176
     1
 62
   256
176
     0
 40
1.0
176
     0
 90
        2
176
     1
  1
strokes_ogs.tif
176
     1
290
     0
176
     1
 40
1.0
176
     1
 40
1.0
176
     1
  0
VISUALSTYLE
  5
2E
102
{ACAD_REACTORS
330
2A
102
}
330
2A
100
AcDbVisualStyle
  2
GouraudWithEdges
 70
     3
177
     3
291
     1
 70
    58
 90
        2
176
     1
 90
        2
176
     1
 90
        1
176
     1
 90
        2
176
     1
 40
0.6
176
     1
 40
30.0
176
     1
 62
     7
420
 16777215
176
     1
 90
        1
176
     1
 90
        0
176
     1
 62
     7
176
     1
 62
   257
176
     1
 90
        1
176
     1
 90
        1
176
     1
 40
1.0
176
     1
 90
        0
176
     1
 62
   257
176
     1
 40
1.0
176
     1
 90
        1
176
     1
 90
        6
176
     1
 90
        2
176
     1
 62
     7
176
     1
 90
        5
176
     1
 90
        0
176
     1
 90
        0
176
     1
290
     0
176
     1
 90
       13
176
     1
 40
0.0
176
     1
 90
        0
176
     1
290
     0
176
     1
290
     1
176
     1
290
     1
176
     1
290
     0
176
     1
290
     0
176
     1
290
     0
176
     1
290
     0
176
     1
290
     0
176
     1
290
     0
176
     1
 90
       50
176
     1
 40
0.0
176
     1
 40
1.0
176
     1
 90
        0
176
     1
 62
    18
420
        0
176
     1
 90
       50
176
     1
 90
        3
176
     1
 62
     5
420
      255
176
     1
290
     0
176
     1
 90
       50
176
     1
 90
       50
176
     1
 90
       50
176
     1
290
     0
176
     1
 90
       50
176
     1
 62
   256
176
     0
 40
1.0
176
     0
 90
        2
176
     1
  1
strokes_ogs.tif
176
     1
290
     0
176
     1
 40
1.0
176
     1
 40
1.0
176
     1
  0
VISUALSTYLE
  5
31
102
{ACAD_REACTORS
330
2A
102
}
330
2A
100
AcDbVisualStyle
  2
Hidden
 70
     6
177
     3
291
     0
 70
    58
 90
        1
176
     1
 90
        2
176
     1
 90
        2
176
     1
 90
        0
176
     1
 40
0.6
176
     1
 40
30.0
176
     1
 62
     7
420
 16777215
176
     1
 90
        2
176
     1
 90
        2
176
     1
 62
     7
176
     1
 62
   257
176
     1
 90
        2
176
     1
 90
        1
176
     1
 40
40.0
176
     1
 90
        0
176
     1
 62
   257
176
     1
 40
1.0
176
     1
 90
        1
176
     1
 90
        6
176
     1
 90
        2
176
     1
 62
     7
176
     1
 90
        3
176
     1
 90
        0
176
     1
 90
        0
176
     1
290
     0
176
     1
 90
        1
176
     1
 40
0.0
176
     1
 90
        0
176
     1
290
     0
176
     1
290
     1
176
     1
290
     1
176
     1
290
     0
176
     1
290
     0
176
     1
290
     0
176
     1
290
     0
176
     1
290
     0
176
     1
290
     0
176
     1
 90
       50
176
     1
 40
0.0
176
     1
 40
1.0
176
     1
 90
        0
176
     1
 62
    18
420
        0
176
     1
 90
       50
176
     1
 90
        3
176
     1
 62
     5
420
      255
176
     1
290
     0
176
     1
 90
       50
176
     1
 90
       50
176
     1
 90
       50
176
     1
290
     0
176
     1
 90
       50
176
     1
 62
   256
176
     0
 40
1.0
176
     0
 90
        2
176
     1
  1
strokes_ogs.tif
176
     1
290
     0
176
     1
 40
1.0
176
     1
 40
1.0
176
     1
  0
VISUALSTYLE
  5
3B
102
{ACAD_REACTORS
330
2A
102
}
330
2A
100
AcDbVisualStyle
  2
JitterOff
 70
    20
177
     3
291
     1
 70
    58
 90
        2
176
     0
 90
        2
176
     0
 90
        0
176
     0
 90
        0
176
     0
 40
0.6
176
     0
 40
30.0
176
     0
 62
     7
420
 16777215
176
     0
 90
        1
176
     0
 90
        4
176
     0
 62
     7
176
     0
 62
   257
176
     0
 90
        1
176
     0
 90
        1
176
     0
 40
1.0
176
     0
 90
       10
176
     2
 62
     7
176
     0
 40
1.0
176
     0
 90
        1
176
     0
 90
        6
176
     0
 90
        2
176
     0
 62
     7
176
     0
 90
        5
176
     0
 90
        0
176
     0
 90
        0
176
     0
290
     0
176
     0
 90
        1
176
     0
 40
0.0
176
     0
 90
        0
176
     0
290
     0
176
     0
290
     1
176
     0
290
     1
176
     0
290
     0
176
     0
290
     0
176
     0
290
     0
176
     0
290
     0
176
     0
290
     0
176
     0
290
     0
176
     0
 90
       50
176
     0
 40
0.0
176
     0
 40
1.0
176
     0
 90
        0
176
     0
 62
    18
420
        0
176
     0
 90
       50
176
     0
 90
        3
176
     0
 62
     5
420
      255
176
     0
290
     0
176
     0
 90
       50
176
     0
 90
       50
176
     0
 90
       50
176
     0
290
     0
176
     0
 90
       50
176
     0
 62
   256
176
     0
 40
1.0
176
     0
 90
        2
176
     0
  1
strokes_ogs.tif
176
     0
290
     0
176
     0
 40
1.0
176
     0
 40
1.0
176
     0
  0
VISUALSTYLE
  5
38
102
{ACAD_REACTORS
330
2A
102
}
330
2A
100
AcDbVisualStyle
  2
Linepattern
 70
    14
177
     3
291
     1
 70
    58
 90
        2
176
     1
 90
        2
176
     1
 90
        0
176
     1
 90
        0
176
     1
 40
0.6
176
     1
 40
30.0
176
     1
 62
     7
420
 16777215
176
     1
 90
        1
176
     1
 90
        4
176
     1
 62
     7
176
     1
 62
   257
176
     1
 90
        7
176
     1
 90
        7
176
     1
 40
1.0
176
     1
 90
        8
176
     1
 62
     7
176
     1
 40
1.0
176
     1
 90
        1
176
     1
 90
        6
176
     1
 90
        2
176
     1
 62
     7
176
     1
 90
        5
176
     1
 90
        0
176
     1
 90
        0
176
     1
290
     0
176
     1
 90
        1
176
     1
 40
0.0
176
     1
 90
        0
176
     1
290
     0
176
     1
290
     1
176
     1
290
     1
176
     1
290
     0
176
     1
290
     0
176
     1
290
     0
176
     1
290
     0
176
     1
290
     0
176
     1
290
     0
176
     1
 90
       50
176
     1
 40
0.0
176
     1
 40
1.0
176
     1
 90
        0
176
     1
 62
    18
420
        0
176
     1
 90
       50
176
     1
 90
        3
176
     1
 62
     5
420
      255
176
     1
290
     0
176
     1
 90
       50
176
     1
 90
       50
176
     1
 90
       50
176
     1
290
     0
176
     1
 90
       50
176
     1
 62
   256
176
     0
 40
1.0
176
     0
 90
        2
176
     1
  1
strokes_ogs.tif
176
     1
290
     0
176
     1
 40
1.0
176
     1
 40
1.0
176
     1
  0
VISUALSTYLE
  5
3C
102
{ACAD_REACTORS
330
2A
102
}
330
2A
100
AcDbVisualStyle
  2
OverhangOff
 70
    21
177
     3
291
     1
 70
    58
 90
        2
176
     0
 90
        2
176
     0
 90
        0
176
     0
 90
        0
176
     0
 40
0.6
176
     0
 40
30.0
176
     0
 62
     7
420
 16777215
176
     0
 90
        1
176
     0
 90
        4
176
     0
 62
     7
176
     0
 62
   257
176
     0
 90
        1
176
     0
 90
        1
176
     0
 40
1.0
176
     0
 90
        9
176
     2
 62
     7
176
     0
 40
1.0
176
     0
 90
        1
176
     0
 90
        6
176
     0
 90
        2
176
     0
 62
     7
176
     0
 90
        5
176
     0
 90
        0
176
     0
 90
        0
176
     0
290
     0
176
     0
 90
        1
176
     0
 40
0.0
176
     0
 90
        0
176
     0
290
     0
176
     0
290
     1
176
     0
290
     1
176
     0
290
     0
176
     0
290
     0
176
     0
290
     0
176
     0
290
     0
176
     0
290
     0
176
     0
290
     0
176
     0
 90
       50
176
     0
 40
0.0
176
     0
 40
1.0
176
     0
 90
        0
176
     0
 62
    18
420
        0
176
     0
 90
       50
176
     0
 90
        3
176
     0
 62
     5
420
      255
176
     0
290
     0
176
     0
 90
       50
176
     0
 90
       50
176
     0
 90
       50
176
     0
290
     0
176
     0
 90
       50
176
     0
 62
   256
176
     0
 40
1.0
176
     0
 90
        2
176
     0
  1
strokes_ogs.tif
176
     0
290
     0
176
     0
 40
1.0
176
     0
 40
1.0
176
     0
  0
VISUALSTYLE
  5
33
102
{ACAD_REACTORS
330
2A
102
}
330
2A
100
AcDbVisualStyle
  2
Realistic
 70
     8
177
     3
291
     0
 70
    58
 90
        2
176
     1
 90
        3
176
     1
 90
        0
176
     1
 90
        2
176
     1
 40
0.6
176
     1
 40
30.0
176
     1
 62
     7
420
 16777215
176
     1
 90
        0
176
     1
 90
        0
176
     1
 62
     7
176
     1
 62
   257
176
     1
 90
        1
176
     1
 90
        1
176
     1
 40
1.0
176
     1
 90
        8
176
     1
 62
   257
176
     1
 40
1.0
176
     1
 90
        1
176
     1
 90
        6
176
     1
 90
        2
176
     1
 62
     7
176
     1
 90
        3
176
     1
 90
        0
176
     1
 90
        0
176
     1
290
     0
176
     1
 90
       13
176
     1
 40
0.0
176
     1
 90
        0
176
     1
290
     0
176
     1
290
     1
176
     1
290
     1
176
     1
290
     0
176
     1
290
     0
176
     1
290
     0
176
     1
290
     0
176
     1
290
     0
176
     1
290
     0
176
     1
 90
       50
176
     1
 40
0.0
176
     1
 40
1.0
176
     1
 90
        0
176
     1
 62
    18
420
        0
176
     1
 90
       50
176
     1
 90
        3
176
     1
 62
     5
420
      255
176
     1
290
     0
176
     1
 90
       50
176
     1
 90
       50
176
     1
 90
       50
176
     1
290
     0
176
     1
 90
       50
176
     1
 62
   256
176
     0
 40
1.0
176
     0
 90
        2
176
     1
  1
strokes_ogs.tif
176
     1
290
     0
176
     1
 40
1.0
176
     1
 40
1.0
176
     1
  0
VISUALSTYLE
  5
42
102
{ACAD_REACTORS
330
2A
102
}
330
2A
100
AcDbVisualStyle
  2
Shaded
 70
    27
177
     3
291
     0
 70
    58
 90
        2
176
     1
 90
        2
176
     1
 90
        1
176
     1
 90
        2
176
     1
 40
0.6
176
     1
 40
30.0
176
     1
 62
     7
420
 16777215
176
     1
 90
        0
176
     1
 90
        4
176
     1
 62
     7
176
     1
 62
   257
176
     1
 90
        1
176
     1
 90
        1
176
     1
 40
1.0
176
     1
 90
        8
176
     1
 62
   257
176
     1
 40
1.0
176
     1
 90
        1
176
     1
 90
        6
176
     1
 90
        2
176
     1
 62
     8
420
  7895160
176
     1
 90
        3
176
     1
 90
        0
176
     1
 90
        0
176
     1
290
     0
176
     1
 90
        5
176
     1
 40
0.0
176
     1
 90
        0
176
     1
290
     0
176
     1
290
     1
176
     1
290
     1
176
     1
290
     0
176
     1
290
     0
176
     1
290
     0
176
     1
290
     0
176
     1
290
     0
176
     1
290
     0
176
     1
 90
       50
176
     1
 40
0.0
176
     1
 40
1.0
176
     1
 90
        0
176
     1
 62
    18
420
        0
176
     1
 90
       50
176
     1
 90
        3
176
     1
 62
     5
420
      255
176
     1
290
     0
176
     1
 90
       50
176
     1
 90
       50
176
     1
 90
       50
176
     1
290
     0
176
     1
 90
       50
176
     1
 62
   256
176
     0
 40
1.0
176
     0
 90
        2
176
     1
  1
strokes_ogs.tif
176
     1
290
     0
176
     1
 40
1.0
176
     1
 40
1.0
176
     1
  0
VISUALSTYLE
  5
41
102
{ACAD_REACTORS
330
2A
102
}
330
2A
100
AcDbVisualStyle
  2
Shaded with edges
 70
    26
177
     3
291
     0
 70
    58
 90
        2
176
     1
 90
        2
176
     1
 90
        1
176
     1
 90
        2
176
     1
 40
0.6
176
     1
 40
30.0
176
     1
 62
     7
420
 16777215
176
     1
 90
        1
176
     1
 90
       10
176
     1
 62
     7
176
     1
 62
   257
176
     1
 90
        2
176
     1
 90
        1
176
     1
 40
1.0
176
     1
 90
        8
176
     1
 62
   257
176
     1
 40
1.0
176
     1
 90
        1
176
     1
 90
        6
176
     1
 90
        2
176
     1
 62
     7
176
     1
 90
        3
176
     1
 90
        0
176
     1
 90
        0
176
     1
290
     0
176
     1
 90
        5
176
     1
 40
0.0
176
     1
 90
        0
176
     1
290
     0
176
     1
290
     1
176
     1
290
     1
176
     1
290
     0
176
     1
290
     0
176
     1
290
     0
176
     1
290
     0
176
     1
290
     0
176
     1
290
     0
176
     1
 90
       50
176
     1
 40
0.0
176
     1
 40
1.0
176
     1
 90
        0
176
     1
 62
    18
420
        0
176
     1
 90
       50
176
     1
 90
        3
176
     1
 62
     5
420
      255
176
     1
290
     0
176
     1
 90
       50
176
     1
 90
       50
176
     1
 90
       50
176
     1
290
     0
176
     1
 90
       50
176
     1
 62
   256
176
     0
 40
1.0
176
     0
 90
        2
176
     1
  1
strokes_ogs.tif
176
     1
290
     0
176
     1
 40
1.0
176
     1
 40
1.0
176
     1
  0
VISUALSTYLE
  5
3E
102
{ACAD_REACTORS
330
2A
102
}
330
2A
100
AcDbVisualStyle
  2
Shades of Gray
 70
    23
177
     3
291
     0
 70
    58
 90
        2
176
     1
 90
        2
176
     1
 90
        3
176
     1
 90
        0
176
     1
 40
0.6
176
     1
 40
30.0
176
     1
 62
     7
420
 16777215
176
     1
 90
        2
176
     1
 90
        2
176
     1
 62
     7
176
     1
 62
     7
176
     1
 90
        1
176
     1
 90
        1
176
     1
 40
40.0
176
     1
 90
        8
176
     1
 62
     7
176
     1
 40
1.0
176
     1
 90
        1
176
     1
 90
        6
176
     1
 90
        2
176
     1
 62
     7
176
     1
 90
        3
176
     1
 90
        0
176
     1
 90
        0
176
     1
290
     0
176
     1
 90
        1
176
     1
 40
0.0
176
     1
 90
        0
176
     1
290
     0
176
     1
290
     1
176
     1
290
     1
176
     1
290
     0
176
     1
290
     0
176
     1
290
     0
176
     1
290
     0
176
     1
290
     0
176
     1
290
     0
176
     1
 90
       50
176
     1
 40
0.0
176
     1
 40
1.0
176
     1
 90
        0
176
     1
 62
    18
420
        0
176
     1
 90
       50
176
     1
 90
        3
176
     1
 62
     5
420
      255
176
     1
290
     0
176
     1
 90
       50
176
     1
 90
       50
176
     1
 90
       50
176
     1
290
     0
176
     1
 90
       50
176
     1
 62
   256
176
     0
 40
1.0
176
     0
 90
        2
176
     1
  1
strokes_ogs.tif
176
     1
290
     0
176
     1
 40
1.0
176
     1
 40
1.0
176
     1
  0
VISUALSTYLE
  5
3F
102
{ACAD_REACTORS
330
2A
102
}
330
2A
100
AcDbVisualStyle
  2
Sketchy
 70
    24
177
     3
291
     0
 70
    58
 90
        1
176
     1
 90
        2
176
     1
 90
        2
176
     1
 90
        0
176
     1
 40
0.6
176
     1
 40
30.0
176
     1
 62
     7
420
 16777215
176
     1
 90
        2
176
     1
 90
        2
176
     1
 62
     7
176
     1
 62
     7
176
     1
 90
        1
176
     1
 90
        1
176
     1
 40
40.0
176
     1
 90
       11
176
     1
 62
     7
176
     1
 40
1.0
176
     1
 90
        1
176
     1
 90
        6
176
     1
 90
        2
176
     1
 62
     7
176
     1
 90
        6
176
     1
 90
        0
176
     1
 90
        0
176
     1
290
     0
176
     1
 90
        1
176
     1
 40
0.0
176
     1
 90
        0
176
     1
290
     0
176
     1
290
     1
176
     1
290
     1
176
     1
290
     0
176
     1
290
     0
176
     1
290
     0
176
     1
290
     0
176
     1
290
     0
176
     1
290
     0
176
     1
 90
       50
176
     1
 40
0.0
176
     1
 40
1.0
176
     1
 90
        0
176
     1
 62
    18
420
        0
176
     1
 90
       50
176
     1
 90
        3
176
     1
 62
     5
420
      255
176
     1
290
     0
176
     1
 90
       50
176
     1
 90
       50
176
     1
 90
       50
176
     1
290
     0
176
     1
 90
       50
176
     1
 62
   256
176
     0
 40
1.0
176
     0
 90
        2
176
     1
  1
strokes_ogs.tif
176
     1
290
     0
176
     1
 40
1.0
176
     1
 40
1.0
176
     1
  0
VISUALSTYLE
  5
37
102
{ACAD_REACTORS
330
2A
102
}
330
2A
100
AcDbVisualStyle
  2
Thicken
 70
    13
177
     3
291
     1
 70
    58
 90
        2
176
     1
 90
        2
176
     1
 90
        0
176
     1
 90
        0
176
     1
 40
0.6
176
     1
 40
30.0
176
     1
 62
     7
420
 16777215
176
     1
 90
        1
176
     1
 90
        4
176
     1
 62
     7
176
     1
 62
   257
176
     1
 90
        1
176
     1
 90
        1
176
     1
 40
1.0
176
     1
 90
       12
176
     1
 62
     7
176
     1
 40
1.0
176
     1
 90
        1
176
     1
 90
        6
176
     1
 90
        2
176
     1
 62
     7
176
     1
 90
        5
176
     1
 90
        0
176
     1
 90
        0
176
     1
290
     0
176
     1
 90
        1
176
     1
 40
0.0
176
     1
 90
        0
176
     1
290
     0
176
     1
290
     1
176
     1
290
     1
176
     1
290
     0
176
     1
290
     0
176
     1
290
     0
176
     1
290
     0
176
     1
290
     0
176
     1
290
     0
176
     1
 90
       50
176
     1
 40
0.0
176
     1
 40
1.0
176
     1
 90
        0
176
     1
 62
    18
420
        0
176
     1
 90
       50
176
     1
 90
        3
176
     1
 62
     5
420
      255
176
     1
290
     0
176
     1
 90
       50
176
     1
 90
       50
176
     1
 90
       50
176
     1
290
     0
176
     1
 90
       50
176
     1
 62
   256
176
     0
 40
1.0
176
     0
 90
        2
176
     1
  1
strokes_ogs.tif
176
     1
290
     0
176
     1
 40
1.0
176
     1
 40
1.0
176
     1
  0
VISUALSTYLE
  5
30
102
{ACAD_REACTORS
330
2A
102
}
330
2A
100
AcDbVisualStyle
  2
Wireframe
 70
     5
177
     3
291
     0
 70
    58
 90
        0
176
     1
 90
        2
176
     1
 90
        0
176
     1
 90
        0
176
     1
 40
0.6
176
     1
 40
30.0
176
     1
 62
     7
420
 16777215
176
     1
 90
        1
176
     1
 90
        4
176
     1
 62
     7
176
     1
 62
   257
176
     1
 90
        1
176
     1
 90
        1
176
     1
 40
1.0
176
     1
 90
        0
176
     1
 62
   257
176
     1
 40
1.0
176
     1
 90
        1
176
     1
 90
        6
176
     1
 90
        2
176
     1
 62
     7
176
     1
 90
        3
176
     1
 90
        0
176
     1
 90
        0
176
     1
290
     0
176
     1
 90
        1
176
     1
 40
0.0
176
     1
 90
        0
176
     1
290
     0
176
     1
290
     1
176
     1
290
     1
176
     1
290
     0
176
     1
290
     0
176
     1
290
     0
176
     1
290
     0
176
     1
290
     0
176
     1
290
     0
176
     1
 90
       50
176
     1
 40
0.0
176
     1
 40
1.0
176
     1
 90
        0
176
     1
 62
    18
420
        0
176
     1
 90
       50
176
     1
 90
        3
176
     1
 62
     5
420
      255
176
     1
290
     0
176
     1
 90
       50
176
     1
 90
       50
176
     1
 90
       50
176
     1
290
     0
176
     1
 90
       50
176
     1
 62
   256
176
     0
 40
1.0
176
     0
 90
        2
176
     1
  1
strokes_ogs.tif
176
     1
290
     0
176
     1
 40
1.0
176
     1
 40
1.0
176
     1
  0
VISUALSTYLE
  5
40
102
{ACAD_REACTORS
330
2A
102
}
330
2A
100
AcDbVisualStyle
  2
X-Ray
 70
    25
177
     3
291
     0
 70
    58
 90
        2
176
     1
 90
        2
176
     1
 90
        1
176
     1
 90
        1
176
     1
 40
0.5
176
     1
 40
30.0
176
     1
 62
     7
420
 16777215
176
     1
 90
        1
176
     1
 90
        0
176
     1
 62
     7
176
     1
 62
   257
176
     1
 90
        1
176
     1
 90
        1
176
     1
 40
1.0
176
     1
 90
        8
176
     1
 62
     7
176
     1
 40
1.0
176
     1
 90
        1
176
     1
 90
        6
176
     1
 90
        2
176
     1
 62
     7
176
     1
 90
        3
176
     1
 90
        0
176
     1
 90
        0
176
     1
290
     0
176
     1
 90
       13
176
     1
 40
0.0
176
     1
 90
        0
176
     1
290
     0
176
     1
290
     1
176
     1
290
     1
176
     1
290
     0
176
     1
290
     0
176
     1
290
     0
176
     1
290
     0
176
     1
290
     0
176
     1
290
     0
176
     1
 90
       50
176
     1
 40
0.0
176
     1
 40
1.0
176
     1
 90
        0
176
     1
 62
    18
420
        0
176
     1
 90
       50
176
     1
 90
        3
176
     1
 62
     5
420
      255
176
     1
290
     0
176
     1
 90
       50
176
     1
 90
       50
176
     1
 90
       50
176
     1
290
     0
176
     1
 90
       50
176
     1
 62
   256
176
     0
 40
1.0
176
     0
 90
        2
176
     1
  1
strokes_ogs.tif
176
     1
290
     0
176
     1
 40
1.0
176
     1
 40
1.0
176
     1
  0
DICTIONARYVAR
  5
165
102
{ACAD_REACTORS
330
164
102
}
330
164
100
DictionaryVariables
280
     0
  1
1:1
  0
DICTIONARYVAR
  5
16A
102
{ACAD_REACTORS
330
164
102
}
330
164
100
DictionaryVariables
280
     0
  1
Standard
  0
DICTIONARYVAR
  5
169
102
{ACAD_REACTORS
330
164
102
}
330
164
100
DictionaryVariables
280
     0
  1
Standard
  0
DICTIONARY
  5
166
330
6A
100
AcDbDictionary
280
     1
281
     1
  3
ACAD_ROUNDTRIP_2008_TABLESTYLE_CELLSTYLEMAP
360
167
  0
CELLSTYLEMAP
  5
167
102
{ACAD_REACTORS
330
166
102
}
330
166
100
AcDbCellStyleMap
 90
        3
300
CELLSTYLE
  1
TABLEFORMAT_BEGIN
 90
        5
170
     1
 91
        0
 92
    32768
 62
   257
 93
        1
300
CONTENTFORMAT
  1
CONTENTFORMAT_BEGIN
 90
        0
 91
        0
 92
        4
 93
        0
300

 40
0.0
140
1.0
 94
        5
 62
     0
340
11
144
6.0
309
CONTENTFORMAT_END
171
     1
301
MARGIN
  1
CELLMARGIN_BEGIN
 40
1.5
 40
1.5
 40
1.5
 40
1.5
 40
1.5
 40
1.5
309
CELLMARGIN_END
 94
        6
 95
        1
302
GRIDFORMAT
  1
GRIDFORMAT_BEGIN
 90
        0
 91
        1
 62
     0
 92
       -2
340
14
 93
        0
 40
0.045
309
GRIDFORMAT_END
 95
        2
302
GRIDFORMAT
  1
GRIDFORMAT_BEGIN
 90
        0
 91
        1
 62
     0
 92
       -2
340
14
 93
        0
 40
0.045
309
GRIDFORMAT_END
 95
        4
302
GRIDFORMAT
  1
GRIDFORMAT_BEGIN
 90
        0
 91
        1
 62
     0
 92
       -2
340
14
 93
        0
 40
0.045
309
GRIDFORMAT_END
 95
        8
302
GRIDFORMAT
  1
GRIDFORMAT_BEGIN
 90
        0
 91
        1
 62
     0
 92
       -2
340
14
 93
        0
 40
0.045
309
GRIDFORMAT_END
 95
       16
302
GRIDFORMAT
  1
GRIDFORMAT_BEGIN
 90
        0
 91
        1
 62
     0
 92
       -2
340
14
 93
        0
 40
0.045
309
GRIDFORMAT_END
 95
       32
302
GRIDFORMAT
  1
GRIDFORMAT_BEGIN
 90
        0
 91
        1
 62
     0
 92
       -2
340
14
 93
        0
 40
0.045
309
GRIDFORMAT_END
309
TABLEFORMAT_END
  1
CELLSTYLE_BEGIN
 90
        1
 91
        1
300
_TITLE
309
CELLSTYLE_END
300
CELLSTYLE
  1
TABLEFORMAT_BEGIN
 90
        5
170
     1
 91
        0
 92
        0
 62
   257
 93
        1
300
CONTENTFORMAT
  1
CONTENTFORMAT_BEGIN
 90
        0
 91
        0
 92
        4
 93
        0
300

 40
0.0
140
1.0
 94
        5
 62
     0
340
11
144
4.5
309
CONTENTFORMAT_END
171
     1
301
MARGIN
  1
CELLMARGIN_BEGIN
 40
1.5
 40
1.5
 40
1.5
 40
1.5
 40
1.5
 40
1.5
309
CELLMARGIN_END
 94
        6
 95
        1
302
GRIDFORMAT
  1
GRIDFORMAT_BEGIN
 90
        0
 91
        1
 62
     0
 92
       -2
340
14
 93
        0
 40
0.045
309
GRIDFORMAT_END
 95
        2
302
GRIDFORMAT
  1
GRIDFORMAT_BEGIN
 90
        0
 91
        1
 62
     0
 92
       -2
340
14
 93
        0
 40
0.045
309
GRIDFORMAT_END
 95
        4
302
GRIDFORMAT
  1
GRIDFORMAT_BEGIN
 90
        0
 91
        1
 62
     0
 92
       -2
340
14
 93
        0
 40
0.045
309
GRIDFORMAT_END
 95
        8
302
GRIDFORMAT
  1
GRIDFORMAT_BEGIN
 90
        0
 91
        1
 62
     0
 92
       -2
340
14
 93
        0
 40
0.045
309
GRIDFORMAT_END
 95
       16
302
GRIDFORMAT
  1
GRIDFORMAT_BEGIN
 90
        0
 91
        1
 62
     0
 92
       -2
340
14
 93
        0
 40
0.045
309
GRIDFORMAT_END
 95
       32
302
GRIDFORMAT
  1
GRIDFORMAT_BEGIN
 90
        0
 91
        1
 62
     0
 92
       -2
340
14
 93
        0
 40
0.045
309
GRIDFORMAT_END
309
TABLEFORMAT_END
  1
CELLSTYLE_BEGIN
 90
        2
 91
        1
300
_HEADER
309
CELLSTYLE_END
300
CELLSTYLE
  1
TABLEFORMAT_BEGIN
 90
        5
170
     1
 91
        0
 92
        0
 62
   257
 93
        1
300
CONTENTFORMAT
  1
CONTENTFORMAT_BEGIN
 90
        0
 91
        0
 92
        4
 93
        0
300

 40
0.0
140
1.0
 94
        2
 62
     0
340
11
144
4.5
309
CONTENTFORMAT_END
171
     1
301
MARGIN
  1
CELLMARGIN_BEGIN
 40
1.5
 40
1.5
 40
1.5
 40
1.5
 40
1.5
 40
1.5
309
CELLMARGIN_END
 94
        6
 95
        1
302
GRIDFORMAT
  1
GRIDFORMAT_BEGIN
 90
        0
 91
        1
 62
     0
 92
       -2
340
14
 93
        0
 40
0.045
309
GRIDFORMAT_END
 95
        2
302
GRIDFORMAT
  1
GRIDFORMAT_BEGIN
 90
        0
 91
        1
 62
     0
 92
       -2
340
14
 93
        0
 40
0.045
309
GRIDFORMAT_END
 95
        4
302
GRIDFORMAT
  1
GRIDFORMAT_BEGIN
 90
        0
 91
        1
 62
     0
 92
       -2
340
14
 93
        0
 40
0.045
309
GRIDFORMAT_END
 95
        8
302
GRIDFORMAT
  1
GRIDFORMAT_BEGIN
 90
        0
 91
        1
 62
     0
 92
       -2
340
14
 93
        0
 40
0.045
309
GRIDFORMAT_END
 95
       16
302
GRIDFORMAT
  1
GRIDFORMAT_BEGIN
 90
        0
 91
        1
 62
     0
 92
       -2
340
14
 93
        0
 40
0.045
309
GRIDFORMAT_END
 95
       32
302
GRIDFORMAT
  1
GRIDFORMAT_BEGIN
 90
        0
 91
        1
 62
     0
 92
       -2
340
14
 93
        0
 40
0.045
309
GRIDFORMAT_END
309
TABLEFORMAT_END
  1
CELLSTYLE_BEGIN
 90
        3
 91
        2
300
_DATA
309
CELLSTYLE_END
  0
ENDSEC
  0
EOF