0
SECTION
  2
HEADER
  9
$ACADVER
  1
AC1027
  9
$ACADMAINTVER
 70
     8
  9
$DWGCODEPAGE
  3
ANSI_1252
  9
$REQUIREDVERSIONS
160
                 0
  9
$COMMENTS
  1
File was created by Cadenas
  9
$CUSTOMPROPERTYTAG
  1
NN
  9
$CUSTOMPROPERTY
  1
D-Lok Two-Bolt Flange Metric Bore - Stainless Housing, Corrosion Resistant Insert
  9
$CUSTOMPROPERTYTAG
  1
NT
  9
$CUSTOMPROPERTY
  1
DLEZ Normal Duty Stainless Steel 2 Bolt Flange Bearings
  9
$CUSTOMPROPERTYTAG
  1
NB
  9
$CUSTOMPROPERTY
  1
127746
  9
$CUSTOMPROPERTYTAG
  1
NBSYN
  9
$CUSTOMPROPERTY
  1
$PN.
  9
$CUSTOMPROPERTYTAG
  1
LINA
  9
$CUSTOMPROPERTY
  1
127746
  9
$CUSTOMPROPERTYTAG
  1
SERIES
  9
$CUSTOMPROPERTY
  1
205
  9
$CUSTOMPROPERTYTAG
  1
SS
  9
$CUSTOMPROPERTY
  1
25
  9
$CUSTOMPROPERTYTAG
  1
PN
  9
$CUSTOMPROPERTY
  1
127746
  9
$CUSTOMPROPERTYTAG
  1
DESCRIPTION
  9
$CUSTOMPROPERTY
  1
F2B-DLEZ-25M-SHCR
  9
$CUSTOMPROPERTYTAG
  1
W
  9
$CUSTOMPROPERTY
  1
0.65
  9
$CUSTOMPROPERTYTAG
  1
A
  9
$CUSTOMPROPERTY
  1
36.6
  9
$CUSTOMPROPERTYTAG
  1
B
  9
$CUSTOMPROPERTY
  1
124.2
  9
$CUSTOMPROPERTYTAG
  1
C
  9
$CUSTOMPROPERTY
  1
37.1
  9
$CUSTOMPROPERTYTAG
  1
D
  9
$CUSTOMPROPERTY
  1
98.8
  9
$CUSTOMPROPERTYTAG
  1
F
  9
$CUSTOMPROPERTY
  1
M10
  9
$CUSTOMPROPERTYTAG
  1
H
  9
$CUSTOMPROPERTY
  1
8.9
  9
$CUSTOMPROPERTYTAG
  1
J
  9
$CUSTOMPROPERTY
  1
12.2
  9
$CUSTOMPROPERTYTAG
  1
L
  9
$CUSTOMPROPERTY
  1
50.5
  9
$CUSTOMPROPERTYTAG
  1
M
  9
$CUSTOMPROPERTY
  1
66.8
  9
$CUSTOMPROPERTYTAG
  1
COMPANY
  9
$CUSTOMPROPERTY
  1
baldor
  9
$INSBASE
 10
0.0
 20
0.0
 30
0.0
  9
$EXTMIN
 10
1.000000000000000E+20
 20
1.000000000000000E+20
 30
1.000000000000000E+20
  9
$EXTMAX
 10
-1.000000000000000E+20
 20
-1.000000000000000E+20
 30
-1.000000000000000E+20
  9
$LIMMIN
 10
0.0
 20
0.0
  9
$LIMMAX
 10
420.0
 20
297.0
  9
$ORTHOMODE
 70
     0
  9
$REGENMODE
 70
     1
  9
$FILLMODE
 70
     1
  9
$QTEXTMODE
 70
     0
  9
$MIRRTEXT
 70
     1
  9
$LTSCALE
 40
1.0
  9
$ATTMODE
 70
     1
  9
$TEXTSIZE
 40
2.5
  9
$TRACEWID
 40
1.0
  9
$TEXTSTYLE
  7
Standard
  9
$CLAYER
  8
0
  9
$CELTYPE
  6
ByLayer
  9
$CECOLOR
 62
   256
  9
$CELTSCALE
 40
1.0
  9
$DISPSILH
 70
     0
  9
$DIMSCALE
 40
1.0
  9
$DIMASZ
 40
2.5
  9
$DIMEXO
 40
0.625
  9
$DIMDLI
 40
3.75
  9
$DIMRND
 40
0.0
  9
$DIMDLE
 40
0.0
  9
$DIMEXE
 40
1.25
  9
$DIMTP
 40
0.0
  9
$DIMTM
 40
0.0
  9
$DIMTXT
 40
2.5
  9
$DIMCEN
 40
2.5
  9
$DIMTSZ
 40
0.0
  9
$DIMTOL
 70
     0
  9
$DIMLIM
 70
     0
  9
$DIMTIH
 70
     0
  9
$DIMTOH
 70
     0
  9
$DIMSE1
 70
     0
  9
$DIMSE2
 70
     0
  9
$DIMTAD
 70
     1
  9
$DIMZIN
 70
     8
  9
$DIMBLK
  1

  9
$DIMASO
 70
     1
  9
$DIMSHO
 70
     1
  9
$DIMPOST
  1

  9
$DIMAPOST
  1

  9
$DIMALT
 70
     0
  9
$DIMALTD
 70
     3
  9
$DIMALTF
 40
0.03937007874016
  9
$DIMLFAC
 40
1.0
  9
$DIMTOFL
 70
     1
  9
$DIMTVP
 40
0.0
  9
$DIMTIX
 70
     0
  9
$DIMSOXD
 70
     0
  9
$DIMSAH
 70
     0
  9
$DIMBLK1
  1

  9
$DIMBLK2
  1

  9
$DIMSTYLE
  2
ISO-25
  9
$DIMCLRD
 70
     0
  9
$DIMCLRE
 70
     0
  9
$DIMCLRT
 70
     0
  9
$DIMTFAC
 40
1.0
  9
$DIMGAP
 40
0.625
  9
$DIMJUST
 70
     0
  9
$DIMSD1
 70
     0
  9
$DIMSD2
 70
     0
  9
$DIMTOLJ
 70
     0
  9
$DIMTZIN
 70
     8
  9
$DIMALTZ
 70
     0
  9
$DIMALTTZ
 70
     0
  9
$DIMUPT
 70
     0
  9
$DIMDEC
 70
     2
  9
$DIMTDEC
 70
     2
  9
$DIMALTU
 70
     2
  9
$DIMALTTD
 70
     3
  9
$DIMTXSTY
  7
Standard
  9
$DIMAUNIT
 70
     0
  9
$DIMADEC
 70
     0
  9
$DIMALTRND
 40
0.0
  9
$DIMAZIN
 70
     0
  9
$DIMDSEP
 70
    44
  9
$DIMATFIT
 70
     3
  9
$DIMFRAC
 70
     0
  9
$DIMLDRBLK
  1

  9
$DIMLUNIT
 70
     2
  9
$DIMLWD
 70
    -2
  9
$DIMLWE
 70
    -2
  9
$DIMTMOVE
 70
     0
  9
$DIMFXL
 40
1.0
  9
$DIMFXLON
 70
     0
  9
$DIMJOGANG
 40
0.7853981633974483
  9
$DIMTFILL
 70
     0
  9
$DIMTFILLCLR
 70
     0
  9
$DIMARCSYM
 70
     0
  9
$DIMLTYPE
  6

  9
$DIMLTEX1
  6

  9
$DIMLTEX2
  6

  9
$DIMTXTDIRECTION
 70
     0
  9
$LUNITS
 70
     2
  9
$LUPREC
 70
     4
  9
$SKETCHINC
 40
1.0
  9
$FILLETRAD
 40
10.0
  9
$AUNITS
 70
     0
  9
$AUPREC
 70
     0
  9
$MENU
  1
.
  9
$ELEVATION
 40
0.0
  9
$PELEVATION
 40
0.0
  9
$THICKNESS
 40
0.0
  9
$LIMCHECK
 70
     0
  9
$CHAMFERA
 40
0.0
  9
$CHAMFERB
 40
0.0
  9
$CHAMFERC
 40
0.0
  9
$CHAMFERD
 40
0.0
  9
$SKPOLY
 70
     0
  9
$TDCREATE
 40
2458168.995974363
  9
$TDUCREATE
 40
2458168.954307697
  9
$TDUPDATE
 40
2458168.995974549
  9
$TDUUPDATE
 40
2458168.954307882
  9
$TDINDWG
 40
0.0000000116
  9
$TDUSRTIMER
 40
0.0000000116
  9
$USRTIMER
 70
     1
  9
$ANGBASE
 50
0.0
  9
$ANGDIR
 70
     0
  9
$PDMODE
 70
     0
  9
$PDSIZE
 40
0.0
  9
$PLINEWID
 40
0.0
  9
$SPLFRAME
 70
     0
  9
$SPLINETYPE
 70
     6
  9
$SPLINESEGS
 70
     8
  9
$HANDSEED
  5
172
  9
$SURFTAB1
 70
     6
  9
$SURFTAB2
 70
     6
  9
$SURFTYPE
 70
     6
  9
$SURFU
 70
     6
  9
$SURFV
 70
     6
  9
$UCSBASE
  2

  9
$UCSNAME
  2

  9
$UCSORG
 10
0.0
 20
0.0
 30
0.0
  9
$UCSXDIR
 10
1.0
 20
0.0
 30
0.0
  9
$UCSYDIR
 10
0.0
 20
1.0
 30
0.0
  9
$UCSORTHOREF
  2

  9
$UCSORTHOVIEW
 70
     0
  9
$UCSORGTOP
 10
0.0
 20
0.0
 30
0.0
  9
$UCSORGBOTTOM
 10
0.0
 20
0.0
 30
0.0
  9
$UCSORGLEFT
 10
0.0
 20
0.0
 30
0.0
  9
$UCSORGRIGHT
 10
0.0
 20
0.0
 30
0.0
  9
$UCSORGFRONT
 10
0.0
 20
0.0
 30
0.0
  9
$UCSORGBACK
 10
0.0
 20
0.0
 30
0.0
  9
$PUCSBASE
  2

  9
$PUCSNAME
  2

  9
$PUCSORG
 10
0.0
 20
0.0
 30
0.0
  9
$PUCSXDIR
 10
1.0
 20
0.0
 30
0.0
  9
$PUCSYDIR
 10
0.0
 20
1.0
 30
0.0
  9
$PUCSORTHOREF
  2

  9
$PUCSORTHOVIEW
 70
     0
  9
$PUCSORGTOP
 10
0.0
 20
0.0
 30
0.0
  9
$PUCSORGBOTTOM
 10
0.0
 20
0.0
 30
0.0
  9
$PUCSORGLEFT
 10
0.0
 20
0.0
 30
0.0
  9
$PUCSORGRIGHT
 10
0.0
 20
0.0
 30
0.0
  9
$PUCSORGFRONT
 10
0.0
 20
0.0
 30
0.0
  9
$PUCSORGBACK
 10
0.0
 20
0.0
 30
0.0
  9
$USERI1
 70
     0
  9
$USERI2
 70
     0
  9
$USERI3
 70
     0
  9
$USERI4
 70
     0
  9
$USERI5
 70
     0
  9
$USERR1
 40
0.0
  9
$USERR2
 40
0.0
  9
$USERR3
 40
0.0
  9
$USERR4
 40
0.0
  9
$USERR5
 40
0.0
  9
$WORLDVIEW
 70
     1
  9
$SHADEDGE
 70
     3
  9
$SHADEDIF
 70
    70
  9
$TILEMODE
 70
     1
  9
$MAXACTVP
 70
    64
  9
$PINSBASE
 10
0.0
 20
0.0
 30
0.0
  9
$PLIMCHECK
 70
     0
  9
$PEXTMIN
 10
1.000000000000000E+20
 20
1.000000000000000E+20
 30
1.000000000000000E+20
  9
$PEXTMAX
 10
-1.000000000000000E+20
 20
-1.000000000000000E+20
 30
-1.000000000000000E+20
  9
$PLIMMIN
 10
0.0
 20
0.0
  9
$PLIMMAX
 10
420.0
 20
297.0
  9
$UNITMODE
 70
     0
  9
$VISRETAIN
 70
     1
  9
$PLINEGEN
 70
     0
  9
$PSLTSCALE
 70
     1
  9
$TREEDEPTH
 70
  3020
  9
$CMLSTYLE
  2
Standard
  9
$CMLJUST
 70
     0
  9
$CMLSCALE
 40
20.0
  9
$PROXYGRAPHICS
 70
     1
  9
$MEASUREMENT
 70
     1
  9
$CELWEIGHT
370
    -1
  9
$ENDCAPS
280
     0
  9
$JOINSTYLE
280
     0
  9
$LWDISPLAY
290
     0
  9
$INSUNITS
 70
     4
  9
$HYPERLINKBASE
  1

  9
$STYLESHEET
  1

  9
$XEDIT
290
     1
  9
$CEPSNTYPE
380
     0
  9
$PSTYLEMODE
290
     1
  9
$FINGERPRINTGUID
  2
{42448BF6-9182-4105-BC9F-9FD052FA0A23}
  9
$VERSIONGUID
  2
{FAEB1C32-E019-11D5-929B-00C0DF256EC4}
  9
$EXTNAMES
290
     1
  9
$PSVPSCALE
 40
0.0
  9
$OLESTARTUP
290
     0
  9
$SORTENTS
280
   127
  9
$INDEXCTL
280
     0
  9
$HIDETEXT
280
     1
  9
$XCLIPFRAME
280
     2
  9
$HALOGAP
280
     0
  9
$OBSCOLOR
 70
   257
  9
$OBSLTYPE
280
     0
  9
$INTERSECTIONDISPLAY
280
     0
  9
$INTERSECTIONCOLOR
 70
   257
  9
$DIMASSOC
280
     2
  9
$PROJECTNAME
  1

  9
$CAMERADISPLAY
290
     0
  9
$LENSLENGTH
 40
50.0
  9
$CAMERAHEIGHT
 40
0.0
  9
$STEPSPERSEC
 40
2.0
  9
$STEPSIZE
 40
6.0
  9
$3DDWFPREC
 40
2.0
  9
$PSOLWIDTH
 40
5.0
  9
$PSOLHEIGHT
 40
80.0
  9
$LOFTANG1
 40
1.570796326794897
  9
$LOFTANG2
 40
1.570796326794897
  9
$LOFTMAG1
 40
0.0
  9
$LOFTMAG2
 40
0.0
  9
$LOFTPARAM
 70
     7
  9
$LOFTNORMALS
280
     1
  9
$LATITUDE
 40
37.795
  9
$LONGITUDE
 40
-122.394
  9
$NORTHDIRECTION
 40
0.0
  9
$TIMEZONE
 70
 -8000
  9
$LIGHTGLYPHDISPLAY
280
     1
  9
$TILEMODELIGHTSYNCH
280
     1
  9
$CMATERIAL
347
44
  9
$SOLIDHIST
280
     0
  9
$SHOWHIST
280
     1
  9
$DWFFRAME
280
     2
  9
$DGNFRAME
280
     2
  9
$REALWORLDSCALE
290
     1
  9
$INTERFERECOLOR
 62
   256
  9
$CSHADOW
280
     0
  9
$SHADOWPLANELOCATION
 40
0.0
  0
ENDSEC
  0
SECTION
  2
CLASSES
  0
CLASS
  1
ACDBDICTIONARYWDFLT
  2
AcDbDictionaryWithDefault
  3
ObjectDBX Classes
 90
        0
 91
        4
280
     0
281
     0
  0
CLASS
  1
VISUALSTYLE
  2
AcDbVisualStyle
  3
ObjectDBX Classes
 90
     4095
 91
        4
280
     0
281
     0
  0
CLASS
  1
MATERIAL
  2
AcDbMaterial
  3
ObjectDBX Classes
 90
     1153
 91
        4
280
     0
281
     0
  0
CLASS
  1
SCALE
  2
AcDbScale
  3
ObjectDBX Classes
 90
     1153
 91
        4
280
     0
281
     0
  0
CLASS
  1
TABLESTYLE
  2
AcDbTableStyle
  3
ObjectDBX Classes
 90
     4095
 91
        4
280
     0
281
     0
  0
CLASS
  1
MLEADERSTYLE
  2
AcDbMLeaderStyle
  3
ACDB_MLEADERSTYLE_CLASS
 90
     4095
 91
        4
280
     0
281
     0
  0
CLASS
  1
SUN
  2
AcDbSun
  3
SCENEOE
 90
     1153
 91
        4
280
     0
281
     0
  0
CLASS
  1
DICTIONARYVAR
  2
AcDbDictionaryVar
  3
ObjectDBX Classes
 90
        0
 91
        4
280
     0
281
     0
  0
CLASS
  1
CELLSTYLEMAP
  2
AcDbCellStyleMap
  3
ObjectDBX Classes
 90
     1152
 91
        4
280
     0
281
     0
  0
ENDSEC
  0
SECTION
  2
TABLES
  0
TABLE
  2
VPORT
  5
8
330
0
100
AcDbSymbolTable
 70
     1
  0
VPORT
  5
29
330
8
100
AcDbSymbolTableRecord
100
AcDbViewportTableRecord
  2
*Active
 70
     0
 10
0.0
 20
0.0
 11
1.0
 21
1.0
 12
-18.55000000000001
 22
0.0000001192092896
 13
0.0
 23
0.0
 14
10.0
 24
10.0
 15
10.0
 25
10.0
 16
0.0
 26
0.0
 36
1.0
 17
0.0
 27
0.0
 37
0.0
 40
126.6839997568131
 41
0.3285829313876024
 42
50.0
 43
0.0
 44
0.0
 50
0.0
 51
0.0
 71
     0
 72
   100
 73
     1
 74
     3
 75
     0
 76
     0
 77
     0
 78
     0
281
     0
 65
     1
110
0.0
120
0.0
130
0.0
111
1.0
121
0.0
131
0.0
112
0.0
122
1.0
132
0.0
 79
     0
146
0.0
348
2F
 60
     3
 61
     5
292
     1
282
     1
141
0.0
142
0.0
 63
   250
361
6D
  0
ENDTAB
  0
TABLE
  2
LTYPE
  5
5
330
0
100
AcDbSymbolTable
 70
     3
  0
LTYPE
  5
14
330
5
100
AcDbSymbolTableRecord
100
AcDbLinetypeTableRecord
  2
ByBlock
 70
     0
  3

 72
    65
 73
     0
 40
0.0
  0
LTYPE
  5
15
330
5
100
AcDbSymbolTableRecord
100
AcDbLinetypeTableRecord
  2
ByLayer
 70
     0
  3

 72
    65
 73
     0
 40
0.0
  0
LTYPE
  5
16
330
5
100
AcDbSymbolTableRecord
100
AcDbLinetypeTableRecord
  2
Continuous
 70
     0
  3
Solid line
 72
    65
 73
     0
 40
0.0
  0
LTYPE
  5
99
330
5
100
AcDbSymbolTableRecord
100
AcDbLinetypeTableRecord
  2
Dashed
 70
     0
  3

 72
    65
 73
     2
 40
2.0
 49
1.0
 74
     0
 49
-1.0
 74
     0
  0
LTYPE
  5
149
330
5
100
AcDbSymbolTableRecord
100
AcDbLinetypeTableRecord
  2
Center
 70
     0
  3

 72
    65
 73
     4
 40
1.5
 49
0.45
 74
     0
 49
-0.5
 74
     0
 49
0.05
 74
     0
 49
-0.5
 74
     0
  0
ENDTAB
  0
TABLE
  2
LAYER
  5
2
330
0
100
AcDbSymbolTable
 70
     6
  0
LAYER
  5
10
330
2
100
AcDbSymbolTableRecord
100
AcDbLayerTableRecord
  2
0
 70
     0
 62
     7
  6
Continuous
370
    -3
390
F
347
46
348
0
  0
LAYER
  5
72
330
2
100
AcDbSymbolTableRecord
100
AcDbLayerTableRecord
  2
AM_6
 70
     0
 62
    -2
  6
Continuous
370
    35
390
F
347
46
348
0
  0
LAYER
  5
9A
330
2
100
AcDbSymbolTableRecord
100
AcDbLayerTableRecord
  2
AM_9
 70
     0
 62
     6
  6
Dashed
370
    25
390
F
347
46
348
0
  0
LAYER
  5
BE
330
2
100
AcDbSymbolTableRecord
100
AcDbLayerTableRecord
  2
AM_4
 70
     0
 62
     7
  6
Continuous
370
    50
390
F
347
46
348
0
  0
LAYER
  5
14A
330
2
100
AcDbSymbolTableRecord
100
AcDbLayerTableRecord
  2
AM_7
 70
     0
 62
     7
  6
Center
370
    25
390
F
347
46
348
0
  0
LAYER
  5
162
330
2
100
AcDbSymbolTableRecord
100
AcDbLayerTableRecord
  2
ConnectionPoints
 70
     0
 62
     7
  6
Continuous
370
    50
390
F
347
46
348
0
  0
ENDTAB
  0
TABLE
  2
STYLE
  5
3
330
0
100
AcDbSymbolTable
 70
     1
  0
STYLE
  5
11
330
3
100
AcDbSymbolTableRecord
100
AcDbTextStyleTableRecord
  2
Standard
 70
     0
 40
0.0
 41
1.0
 50
0.0
 71
     0
 42
2.5
  3
txt
  4

  0
ENDTAB
  0
TABLE
  2
VIEW
  5
6
330
0
100
AcDbSymbolTable
 70
     0
  0
ENDTAB
  0
TABLE
  2
UCS
  5
7
330
0
100
AcDbSymbolTable
 70
     0
  0
ENDTAB
  0
TABLE
  2
APPID
  5
9
330
0
100
AcDbSymbolTable
 70
     1
  0
APPID
  5
12
330
9
100
AcDbSymbolTableRecord
100
AcDbRegAppTableRecord
  2
ACAD
 70
     0
  0
ENDTAB
  0
TABLE
  2
DIMSTYLE
  5
A
330
0
100
AcDbSymbolTable
 70
     1
100
AcDbDimStyleTable
  0
DIMSTYLE
105
27
330
A
100
AcDbSymbolTableRecord
100
AcDbDimStyleTableRecord
  2
ISO-25
 70
     0
 41
2.5
 42
0.625
 43
3.75
 44
1.25
 73
     0
 74
     0
 77
     1
 78
     8
140
2.5
141
2.5
143
0.03937007874016
147
0.625
171
     3
172
     1
178
     0
271
     2
272
     2
274
     3
278
    44
283
     0
284
     8
340
11
  0
ENDTAB
  0
TABLE
  2
BLOCK_RECORD
  5
1
330
0
100
AcDbSymbolTable
 70
     5
  0
BLOCK_RECORD
  5
1F
330
1
100
AcDbSymbolTableRecord
100
AcDbBlockTableRecord
  2
*Model_Space
340
22
 70
     0
280
     1
281
     0
  0
BLOCK_RECORD
  5
1B
330
1
100
AcDbSymbolTableRecord
100
AcDbBlockTableRecord
  2
*Paper_Space
340
1E
 70
     0
280
     1
281
     0
  0
BLOCK_RECORD
  5
23
330
1
100
AcDbSymbolTableRecord
100
AcDbBlockTableRecord
  2
*Paper_Space0
340
26
 70
     0
280
     1
281
     0
  0
BLOCK_RECORD
  5
6E
330
1
100
AcDbSymbolTableRecord
100
AcDbBlockTableRecord
  2
1_127746_2
340
0
102
{BLKREFS
331
6F
102
}
 70
     0
280
     1
281
     0
  0
BLOCK_RECORD
  5
87
330
1
100
AcDbSymbolTableRecord
100
AcDbBlockTableRecord
  2
2_405020c_M_0_in_127746_2
340
0
102
{BLKREFS
331
88
102
}
 70
     0
280
     1
281
     0
  0
BLOCK_RECORD
  5
E6
330
1
100
AcDbSymbolTableRecord
100
AcDbBlockTableRecord
  2
3_126630_0_in_127746_2
340
0
102
{BLKREFS
331
E7
102
}
 70
     0
280
     1
281
     0
  0
BLOCK_RECORD
  5
128
330
1
100
AcDbSymbolTableRecord
100
AcDbBlockTableRecord
  2
4_F2B_DLEZ_25M_SHCR_0_in_127746_2
340
0
102
{BLKREFS
331
129
102
}
 70
     0
280
     1
281
     0
  0
ENDTAB
  0
ENDSEC
  0
SECTION
  2
BLOCKS
  0
BLOCK
  5
20
330
1F
100
AcDbEntity
  8
0
100
AcDbBlockBegin
  2
*Model_Space
 70
     0
 10
0.0
 20
0.0
 30
0.0
  3
*Model_Space
  1

  0
ENDBLK
  5
21
330
1F
100
AcDbEntity
  8
0
100
AcDbBlockEnd
  0
BLOCK
  5
1C
330
1B
100
AcDbEntity
 67
     1
  8
0
100
AcDbBlockBegin
  2
*Paper_Space
 70
     0
 10
0.0
 20
0.0
 30
0.0
  3
*Paper_Space
  1

  0
ENDBLK
  5
1D
330
1B
100
AcDbEntity
 67
     1
  8
0
100
AcDbBlockEnd
  0
BLOCK
  5
24
330
23
100
AcDbEntity
  8
0
100
AcDbBlockBegin
  2
*Paper_Space0
 70
     0
 10
0.0
 20
0.0
 30
0.0
  3
*Paper_Space0
  1

  0
ENDBLK
  5
25
330
23
100
AcDbEntity
  8
0
100
AcDbBlockEnd
  0
BLOCK
  5
70
330
6E
100
AcDbEntity
  8
0
100
AcDbBlockBegin
  2
1_127746_2
 70
     2
 10
0.0
 20
0.0
 30
0.0
  3
1_127746_2
  1

  0
ATTDEF
  5
73
330
6E
100
AcDbEntity
  8
AM_6
100
AcDbText
 10
6.855
 20
62.1
 30
0.0
 40
0.5
  1
D-Lok Two-Bolt Flange Metric Bore - Stainless Housing, Corrosion Resistant Insert
100
AcDbAttributeDefinition
  3

  2
NN
 70
     8
280
     0
  0
ATTDEF
  5
74
330
6E
100
AcDbEntity
  8
AM_6
100
AcDbText
 10
6.855
 20
61.6
 30
0.0
 40
0.5
  1
DLEZ Normal Duty Stainless Steel 2 Bolt Flange Bearings
100
AcDbAttributeDefinition
  3

  2
NT
 70
     8
280
     0
  0
ATTDEF
  5
75
330
6E
100
AcDbEntity
  8
AM_6
100
AcDbText
 10
6.855
 20
61.1
 30
0.0
 40
0.5
  1
127746
100
AcDbAttributeDefinition
  3

  2
NB
 70
     8
280
     0
  0
ATTDEF
  5
76
330
6E
100
AcDbEntity
  8
AM_6
100
AcDbText
 10
6.855
 20
60.6
 30
0.0
 40
0.5
  1
$PN.
100
AcDbAttributeDefinition
  3

  2
NBSYN
 70
     8
280
     0
  0
ATTDEF
  5
77
330
6E
100
AcDbEntity
  8
AM_6
100
AcDbText
 10
6.855
 20
60.1
 30
0.0
 40
0.5
  1
127746
100
AcDbAttributeDefinition
  3

  2
LINA
 70
     8
280
     0
  0
ATTDEF
  5
78
330
6E
100
AcDbEntity
  8
AM_6
100
AcDbText
 10
6.855
 20
59.6
 30
0.0
 40
0.5
  1
205
100
AcDbAttributeDefinition
  3

  2
SERIES
 70
     8
280
     0
  0
ATTDEF
  5
79
330
6E
100
AcDbEntity
  8
AM_6
100
AcDbText
 10
6.855
 20
59.1
 30
0.0
 40
0.5
  1
25
100
AcDbAttributeDefinition
  3

  2
SS
 70
     8
280
     0
  0
ATTDEF
  5
7A
330
6E
100
AcDbEntity
  8
AM_6
100
AcDbText
 10
6.855
 20
58.6
 30
0.0
 40
0.5
  1
127746
100
AcDbAttributeDefinition
  3

  2
PN
 70
     8
280
     0
  0
ATTDEF
  5
7B
330
6E
100
AcDbEntity
  8
AM_6
100
AcDbText
 10
6.855
 20
58.1
 30
0.0
 40
0.5
  1
F2B-DLEZ-25M-SHCR
100
AcDbAttributeDefinition
  3

  2
DESCRIPTION
 70
     8
280
     0
  0
ATTDEF
  5
7C
330
6E
100
AcDbEntity
  8
AM_6
100
AcDbText
 10
6.855
 20
57.6
 30
0.0
 40
0.5
  1
0.65
100
AcDbAttributeDefinition
  3

  2
W
 70
     8
280
     0
  0
ATTDEF
  5
7D
330
6E
100
AcDbEntity
  8
AM_6
100
AcDbText
 10
6.855
 20
57.1
 30
0.0
 40
0.5
  1
36.6
100
AcDbAttributeDefinition
  3

  2
A
 70
     8
280
     0
  0
ATTDEF
  5
7E
330
6E
100
AcDbEntity
  8
AM_6
100
AcDbText
 10
6.855
 20
56.6
 30
0.0
 40
0.5
  1
124.2
100
AcDbAttributeDefinition
  3

  2
B
 70
     8
280
     0
  0
ATTDEF
  5
7F
330
6E
100
AcDbEntity
  8
AM_6
100
AcDbText
 10
6.855
 20
56.1
 30
0.0
 40
0.5
  1
37.1
100
AcDbAttributeDefinition
  3

  2
C
 70
     8
280
     0
  0
ATTDEF
  5
80
330
6E
100
AcDbEntity
  8
AM_6
100
AcDbText
 10
6.855
 20
55.6
 30
0.0
 40
0.5
  1
98.8
100
AcDbAttributeDefinition
  3

  2
D
 70
     8
280
     0
  0
ATTDEF
  5
81
330
6E
100
AcDbEntity
  8
AM_6
100
AcDbText
 10
6.855
 20
55.1
 30
0.0
 40
0.5
  1
M10
100
AcDbAttributeDefinition
  3

  2
F
 70
     8
280
     0
  0
ATTDEF
  5
82
330
6E
100
AcDbEntity
  8
AM_6
100
AcDbText
 10
6.855
 20
54.6
 30
0.0
 40
0.5
  1
8.9
100
AcDbAttributeDefinition
  3

  2
H
 70
     8
280
     0
  0
ATTDEF
  5
83
330
6E
100
AcDbEntity
  8
AM_6
100
AcDbText
 10
6.855
 20
54.1
 30
0.0
 40
0.5
  1
12.2
100
AcDbAttributeDefinition
  3

  2
J
 70
     8
280
     0
  0
ATTDEF
  5
84
330
6E
100
AcDbEntity
  8
AM_6
100
AcDbText
 10
6.855
 20
53.6
 30
0.0
 40
0.5
  1
50.5
100
AcDbAttributeDefinition
  3

  2
L
 70
     8
280
     0
  0
ATTDEF
  5
85
330
6E
100
AcDbEntity
  8
AM_6
100
AcDbText
 10
6.855
 20
53.1
 30
0.0
 40
0.5
  1
66.8
100
AcDbAttributeDefinition
  3

  2
M
 70
     8
280
     0
  0
ATTDEF
  5
86
330
6E
100
AcDbEntity
  8
AM_6
100
AcDbText
 10
6.855
 20
52.6
 30
0.0
 40
0.5
  1
baldor
100
AcDbAttributeDefinition
  3

  2
COMPANY
 70
     8
280
     0
  0
INSERT
  5
88
330
6E
100
AcDbEntity
  8
0
100
AcDbBlockReference
  2
2_405020c_M_0_in_127746_2
 10
0.0
 20
0.0
 30
0.0
  0
INSERT
  5
E7
330
6E
100
AcDbEntity
  8
0
100
AcDbBlockReference
  2
3_126630_0_in_127746_2
 10
0.0
 20
0.0
 30
0.0
  0
INSERT
  5
129
330
6E
100
AcDbEntity
  8
0
100
AcDbBlockReference
  2
4_F2B_DLEZ_25M_SHCR_0_in_127746_2
 10
0.0
 20
0.0
 30
0.0
  0
ENDBLK
  5
71
330
6E
100
AcDbEntity
  8
0
100
AcDbBlockEnd
  0
BLOCK
  5
89
330
87
100
AcDbEntity
  8
0
100
AcDbBlockBegin
  2
2_405020c_M_0_in_127746_2
 70
     2
 10
0.0
 20
0.0
 30
0.0
  3
2_405020c_M_0_in_127746_2
  1

  0
ATTDEF
  5
8B
330
87
100
AcDbEntity
  8
AM_6
100
AcDbText
 10
-4.30854811567262
 20
30.97804784510572
 30
0.0
 40
0.5
  1
405020C -Metric
100
AcDbAttributeDefinition
  3

  2
NN
 70
     8
280
     0
  0
ATTDEF
  5
8C
330
87
100
AcDbEntity
  8
AM_6
100
AcDbText
 10
-4.30854811567262
 20
30.47804784510572
 30
0.0
 40
0.5
  1
Grease fitting
100
AcDbAttributeDefinition
  3

  2
NT
 70
     8
280
     0
  0
ATTDEF
  5
8D
330
87
100
AcDbEntity
  8
AM_6
100
AcDbText
 10
-4.30854811567262
 20
29.97804784510572
 30
0.0
 40
0.5
  1
405020c-M
100
AcDbAttributeDefinition
  3

  2
NB
 70
     8
280
     0
  0
ATTDEF
  5
8E
330
87
100
AcDbEntity
  8
AM_6
100
AcDbText
 10
-4.30854811567262
 20
29.47804784510572
 30
0.0
 40
0.5
  1
$MN.-M
100
AcDbAttributeDefinition
  3

  2
NBSYN
 70
     8
280
     0
  0
ATTDEF
  5
8F
330
87
100
AcDbEntity
  8
AM_6
100
AcDbText
 10
-4.30854811567262
 20
28.97804784510572
 30
0.0
 40
0.5
  1
405020c
100
AcDbAttributeDefinition
  3

  2
LINA
 70
     8
280
     0
  0
ATTDEF
  5
90
330
87
100
AcDbEntity
  8
AM_6
100
AcDbText
 10
-4.30854811567262
 20
28.47804784510572
 30
0.0
 40
0.5
  1
405020c
100
AcDbAttributeDefinition
  3

  2
MN
 70
     8
280
     0
  0
ATTDEF
  5
91
330
87
100
AcDbEntity
  8
AM_6
100
AcDbText
 10
-4.30854811567262
 20
27.97804784510572
 30
0.0
 40
0.5
  1
5.842
100
AcDbAttributeDefinition
  3

  2
NDR
 70
     8
280
     0
  0
ATTDEF
  5
92
330
87
100
AcDbEntity
  8
AM_6
100
AcDbText
 10
-4.30854811567262
 20
27.47804784510572
 30
0.0
 40
0.5
  1
5.359
100
AcDbAttributeDefinition
  3

  2
KDR
 70
     8
280
     0
  0
ATTDEF
  5
93
330
87
100
AcDbEntity
  8
AM_6
100
AcDbText
 10
-4.30854811567262
 20
26.97804784510572
 30
0.0
 40
0.5
  1
4.000
100
AcDbAttributeDefinition
  3

  2
BZE
 70
     8
280
     0
  0
ATTDEF
  5
94
330
87
100
AcDbEntity
  8
AM_6
100
AcDbText
 10
-4.30854811567262
 20
26.47804784510572
 30
0.0
 40
0.5
  1
7
100
AcDbAttributeDefinition
  3

  2
WAF
 70
     8
280
     0
  0
ATTDEF
  5
95
330
87
100
AcDbEntity
  8
AM_6
100
AcDbText
 10
-4.30854811567262
 20
25.97804784510572
 30
0.0
 40
0.5
  1
7.0000
100
AcDbAttributeDefinition
  3

  2
WAF1
 70
     8
280
     0
  0
ATTDEF
  5
96
330
87
100
AcDbEntity
  8
AM_6
100
AcDbText
 10
-4.30854811567262
 20
25.47804784510572
 30
0.0
 40
0.5
  1
13.843
100
AcDbAttributeDefinition
  3

  2
BL
 70
     8
280
     0
  0
ATTDEF
  5
97
330
87
100
AcDbEntity
  8
AM_6
100
AcDbText
 10
-4.30854811567262
 20
24.97804784510572
 30
0.0
 40
0.5
  1
5.080
100
AcDbAttributeDefinition
  3

  2
TL
 70
     8
280
     0
  0
ATTDEF
  5
98
330
87
100
AcDbEntity
  8
AM_6
100
AcDbText
 10
-4.30854811567262
 20
24.47804784510572
 30
0.0
 40
0.5
  1
baldor
100
AcDbAttributeDefinition
  3

  2
COMPANY
 70
     8
280
     0
  0
ELLIPSE
  5
9B
330
87
100
AcDbEntity
  8
AM_9
100
AcDbEllipse
 10
-13.35
 20
19.55291671337043
 30
0.0
 11
2.554375850256109
 21
0.0
 31
0.0
210
0.0
220
0.0
230
1.0
 40
0.7071067811865477
 41
0.0
 42
6.283185307179586
  0
LINE
  5
9C
330
87
100
AcDbEntity
  8
AM_9
100
AcDbLine
 10
-15.37072594216369
 20
26.59210702360158
 30
0.0
 11
-15.37072594216369
 21
25.72248107570398
 31
0.0
  0
LINE
  5
9D
330
87
100
AcDbEntity
  8
AM_9
100
AcDbLine
 10
-11.32927405783631
 20
26.59210702360158
 30
0.0
 11
-11.32927405783631
 21
25.72248107570398
 31
0.0
  0
LWPOLYLINE
  5
9E
330
87
100
AcDbEntity
  8
AM_9
100
AcDbPolyline
 90
        3
 70
     0
 43
0.0
 10
-14.47463180910036
 20
25.65328630547274
 10
-14.36490583506299
 20
25.64721012739453
 10
-13.35
 20
25.61989289595101
  0
LINE
  5
9F
330
87
100
AcDbEntity
  8
AM_9
100
AcDbLine
 10
-15.37072594216369
 20
25.72248107570398
 30
0.0
 11
-14.47463180910036
 21
25.65328630547274
 31
0.0
  0
LWPOLYLINE
  5
A0
330
87
100
AcDbEntity
  8
AM_9
100
AcDbPolyline
 90
        3
 70
     0
 43
0.0
 10
-12.24832812462603
 20
25.65196783937432
 10
-11.80331110520254
 20
25.68175799573164
 10
-11.32927405783631
 20
25.72248107570398
  0
LWPOLYLINE
  5
A1
330
87
100
AcDbEntity
  8
AM_9
100
AcDbPolyline
 90
        3
 70
     0
 43
0.0
 10
-13.35
 20
25.61989289595101
 10
-12.57665555260127
 20
25.63588770799841
 10
-12.24832812462603
 20
25.65196783937432
  0
LWPOLYLINE
  5
A2
330
87
100
AcDbEntity
  8
AM_9
100
AcDbPolyline
 90
        3
 70
     0
 43
0.0
 10
-11.32927405783631
 20
25.72248107570398
 10
-10.82636400428596
 20
25.03127361853747
 10
-10.31891108675446
 20
24.38245602887455
  0
LWPOLYLINE
  5
A3
330
87
100
AcDbEntity
  8
AM_9
100
AcDbPolyline
 90
        3
 70
     0
 43
0.0
 10
-16.38108891324554
 20
24.38245602887455
 10
-15.87590742770461
 20
25.02825247494173
 10
-15.37072594216369
 20
25.72248107570398
  0
LWPOLYLINE
  5
A4
330
87
100
AcDbEntity
  8
AM_9
100
AcDbPolyline
 90
        3
 70
     0
 43
0.0
 10
-15.37072594216369
 20
26.59210702360158
 10
-15.87363599571404
 20
26.05144146305397
 10
-16.03259612644421
 20
25.8710520990136
  0
LWPOLYLINE
  5
A5
330
87
100
AcDbEntity
  8
AM_9
100
AcDbPolyline
 90
        3
 70
     0
 43
0.0
 10
-13.35
 20
26.69469520335456
 10
-14.36036297108185
 20
26.6676171908256
 10
-15.37072594216369
 20
26.59210702360158
  0
LWPOLYLINE
  5
A6
330
87
100
AcDbEntity
  8
AM_9
100
AcDbPolyline
 90
        3
 70
     0
 43
0.0
 10
-10.66736881480099
 20
25.87101175548413
 10
-10.82409257229539
 20
26.04889875728737
 10
-11.32927405783631
 20
26.59210702360158
  0
LWPOLYLINE
  5
A7
330
87
100
AcDbEntity
  8
AM_9
100
AcDbPolyline
 90
        4
 70
     0
 43
0.0
 10
-11.32927405783631
 20
26.59210702360158
 10
-11.80331110520254
 20
26.63283010357392
 10
-12.5743818331591
 20
26.67860731552267
 10
-13.35
 20
26.69469520335456
  0
LWPOLYLINE
  5
A8
330
87
100
AcDbEntity
  8
AM_9
100
AcDbPolyline
 90
        3
 70
     0
 43
0.0
 10
-10.31891108675446
 20
24.38245602887455
 10
-9.813729601213543
 20
23.79081560786527
 10
-9.30854811567262
 20
23.24760734155107
  0
LWPOLYLINE
  5
A9
330
87
100
AcDbEntity
  8
AM_9
100
AcDbPolyline
 90
        3
 70
     0
 43
0.0
 10
-17.39145188432738
 20
23.24760734155107
 10
-16.88854183077703
 20
23.78827290209868
 10
-16.38108891324554
 20
24.38245602887455
  0
LINE
  5
AA
330
87
100
AcDbEntity
  8
AM_9
100
AcDbLine
 10
-10.54758122739424
 20
19.66731928504152
 30
0.0
 11
-10.39669155988806
 21
23.07972449406739
 31
0.0
  0
LINE
  5
AB
330
87
100
AcDbEntity
  8
AM_9
100
AcDbLine
 10
-16.30330844011194
 20
23.07972449406739
 30
0.0
 11
-16.15241877260577
 21
19.66731928504152
 31
0.0
  0
ELLIPSE
  5
AC
330
87
100
AcDbEntity
  8
AM_9
100
AcDbEllipse
 10
-13.35
 20
24.21982146920165
 30
0.0
 11
-3.499999999999995
 21
4.286263797015730E-16
 31
0.0
210
0.0
220
0.0
230
1.0
 40
0.7071067811865451
 41
3.850326533439292
 42
5.574451427330085
  0
ELLIPSE
  5
AD
330
87
100
AcDbEntity
  8
AM_9
100
AcDbEllipse
 10
-13.34999999999994
 20
24.9362783876542
 30
0.0
 11
-2.486776909068391
 21
3.045423381884154E-16
 31
0.0
210
0.0
220
0.0
230
1.0
 40
0.7071067811865477
 41
5.407616767851168
 42
5.984242208656108
  0
ELLIPSE
  5
AE
330
87
100
AcDbEntity
  8
AM_9
100
AcDbEllipse
 10
-13.34999999999997
 20
24.93627838765424
 30
0.0
 11
-2.48677690906829
 21
3.045423381884030E-16
 31
0.0
210
0.0
220
0.0
230
1.0
 40
0.7071067811865479
 41
3.440535752113259
 42
4.026140614349229
  0
ELLIPSE
  5
AF
330
87
100
AcDbEntity
  8
AM_9
100
AcDbEllipse
 10
-13.34999999999975
 20
24.93627838765492
 30
0.0
 11
-2.486776909067713
 21
3.045423381883323E-16
 31
0.0
210
0.0
220
0.0
230
1.0
 40
0.7071067811864307
 41
4.199191763762739
 42
5.061227194617357
  0
LINE
  5
B0
330
87
100
AcDbEntity
  8
AM_9
100
AcDbLine
 10
-11.30370883780343
 20
25.01233777183912
 30
0.0
 11
-11.32329047062722
 21
24.98496896457593
 31
0.0
  0
LWPOLYLINE
  5
B1
330
87
100
AcDbEntity
  8
AM_9
100
AcDbPolyline
 90
        4
 70
     0
 43
0.0
 10
-11.15611630974513
 20
25.43627838765422
 10
-11.1575036492865
 20
25.39557252987704
 10
-11.17518646932608
 20
25.28502264343746
 10
-11.19492552725982
 20
25.22006578825192
  0
LWPOLYLINE
  5
B2
330
87
100
AcDbEntity
  8
AM_9
100
AcDbPolyline
 90
       16
 70
     0
 43
0.0
 10
-15.49980551565859
 20
25.20574753415265
 10
-15.52320556560268
 20
25.27874620167012
 10
-15.54155404614464
 20
25.3835229815961
 10
-15.54067748327022
 20
25.49817546109354
 10
-15.51964090251051
 20
25.60691617808367
 10
-15.48145894592657
 20
25.71101523566042
 10
-15.42614782212097
 20
25.8146331683781
 10
-15.35292201763185
 20
25.91868542617598
 10
-15.25164317912077
 20
26.03211343038397
 10
-15.12947398869937
 20
26.14213454224384
 10
-14.98682031929592
 20
26.24711131951219
 10
-14.8244790546756
 20
26.34519363118815
 10
-14.64378522155386
 20
26.4344229626611
 10
-14.44672936061846
 20
26.51285197835409
 10
-14.2354865192518
 20
26.57883535943656
 10
-14.15958851879551
 20
26.5984904632773
  0
LWPOLYLINE
  5
B3
330
87
100
AcDbEntity
  8
AM_9
100
AcDbPolyline
 90
        3
 70
     0
 43
0.0
 10
-15.37945876650688
 20
24.98870782285286
 10
-15.43455485414561
 20
25.07179036815925
 10
-15.4399467725185
 20
25.08096723081081
  0
LWPOLYLINE
  5
B4
330
87
100
AcDbEntity
  8
AM_9
100
AcDbPolyline
 90
       14
 70
     0
 43
0.0
 10
-12.47627378708372
 20
26.58201470671728
 10
-12.37963924020101
 20
26.55438808384126
 10
-12.17386148975777
 20
26.48337070544965
 10
-11.98359397926311
 20
26.40076473086545
 10
-11.81102766233633
 20
26.30852970433623
 10
-11.65789958900914
 20
26.20886319167417
 10
-11.52546739843642
 20
26.10416242585858
 10
-11.41441390792277
 20
25.99692326932626
 10
-11.3246310305155
 20
25.88939937152542
 10
-11.25531882786791
 20
25.78333337768954
 10
-11.20512594571298
 20
25.67946407070385
 10
-11.17257056213839
 20
25.57673500253352
 10
-11.15712509607036
 20
25.47098739489395
 10
-11.15611630974513
 20
25.43627838765422
  0
ELLIPSE
  5
B5
330
87
100
AcDbEntity
  8
AM_9
100
AcDbEllipse
 10
-13.35
 20
25.73511462638434
 30
0.0
 11
-2.287575903218221
 21
2.801472507682809E-16
 31
0.0
210
0.0
220
0.0
230
1.0
 40
0.7071067811865491
 41
2.656480407116016
 42
6.768297553653365
  0
ELLIPSE
  5
B6
330
87
100
AcDbEntity
  8
AM_9
100
AcDbEllipse
 10
-13.34999999999997
 20
27.28830128791511
 30
0.0
 11
-3.31183822693778
 21
4.055832083913198E-16
 31
0.0
210
0.0
220
0.0
230
1.0
 40
0.7071067811865445
 41
2.656480407116025
 42
3.141592653589793
  0
ELLIPSE
  5
B7
330
87
100
AcDbEntity
  8
AM_9
100
AcDbEllipse
 10
-13.34999999999404
 20
29.12598681003232
 30
0.0
 11
-2.568122605597718
 21
3.145043128763207E-16
 31
0.0
210
0.0
220
0.0
230
1.0
 40
0.7071067811866312
 41
3.591585507881645
 42
3.606754257613529
  0
ELLIPSE
  5
B8
330
87
100
AcDbEntity
  8
AM_9
100
AcDbEllipse
 10
-13.35
 20
29.12598681003026
 30
0.0
 11
-2.568122605604357
 21
3.145043128771336E-16
 31
0.0
210
0.0
220
0.0
230
1.0
 40
0.7071067811865478
 41
3.628599367492448
 42
5.759979951327295
  0
ELLIPSE
  5
B9
330
87
100
AcDbEntity
  8
AM_9
100
AcDbEllipse
 10
-13.35000000000434
 20
29.12598681003615
 30
0.0
 11
-2.56812260559947
 21
3.145043128765351E-16
 31
0.0
210
0.0
220
0.0
230
1.0
 40
0.7071067811857726
 41
-0.5099658116707637
 42
-0.4524406887409675
  0
ELLIPSE
  5
BA
330
87
100
AcDbEntity
  8
AM_9
100
AcDbEllipse
 10
-13.35
 20
27.86342615722071
 30
0.0
 11
-3.326035293353598
 21
4.073218475856612E-16
 31
0.0
210
0.0
220
0.0
230
1.0
 40
0.7071067811865481
 41
3.5799744285438
 42
5.844803532225581
  0
ELLIPSE
  5
BB
330
87
100
AcDbEntity
  8
AM_9
100
AcDbEllipse
 10
-13.35
 20
23.1450191617981
 30
0.0
 11
-3.500000000000004
 21
4.286263797015741E-16
 31
0.0
210
0.0
220
0.0
230
1.0
 40
0.7071067811865505
 41
0.0
 42
6.283185307179586
  0
ELLIPSE
  5
BC
330
87
100
AcDbEntity
  8
AM_9
100
AcDbEllipse
 10
-13.34999999998963
 20
23.14501916181258
 30
0.0
 11
-2.954751686630082
 21
3.618527195306774E-16
 31
0.0
210
0.0
220
0.0
230
1.0
 40
0.7071067811866253
 41
0.0
 42
6.283185307179586
  0
ELLIPSE
  5
BD
330
87
100
AcDbEntity
  8
AM_9
100
AcDbEllipse
 10
-13.34999999999435
 20
19.72927793456578
 30
0.0
 11
-2.803788281151965
 21
3.433650343999613E-16
 31
0.0
210
0.0
220
0.0
230
1.0
 40
0.7071067811864875
 41
0.0
 42
6.283185307179586
  0
LINE
  5
BF
330
87
100
AcDbEntity
  8
AM_4
100
AcDbLine
 10
-16.03259612644421
 20
25.8710520990136
 30
0.0
 11
-16.38108891324554
 21
25.4572583362781
 31
0.0
  0
LINE
  5
C0
330
87
100
AcDbEntity
  8
AM_4
100
AcDbLine
 10
-10.31891108675446
 20
25.4572583362781
 30
0.0
 11
-10.66736881480099
 21
25.87101175548413
 31
0.0
  0
LWPOLYLINE
  5
C1
330
87
100
AcDbEntity
  8
AM_4
100
AcDbPolyline
 90
        3
 70
     0
 43
0.0
 10
-9.30854811567262
 20
24.11723328944866
 10
-9.811458169222972
 20
24.80844074661518
 10
-10.31891108675446
 20
25.4572583362781
  0
LWPOLYLINE
  5
C2
330
87
100
AcDbEntity
  8
AM_4
100
AcDbPolyline
 90
        3
 70
     0
 43
0.0
 10
-16.38108891324554
 20
25.4572583362781
 10
-16.88627039878646
 20
24.81146189021091
 10
-17.39145188432738
 20
24.11723328944866
  0
LWPOLYLINE
  5
C3
330
87
100
AcDbEntity
  8
AM_4
100
AcDbPolyline
 90
        3
 70
     0
 43
0.0
 10
-13.35
 20
20.67014542764517
 10
-14.36036297108184
 20
20.69722344017412
 10
-15.37072594216369
 20
20.77273360739815
  0
LWPOLYLINE
  5
C4
330
87
100
AcDbEntity
  8
AM_4
100
AcDbPolyline
 90
        4
 70
     0
 43
0.0
 10
-11.32927405783631
 20
20.77273360739815
 10
-11.80331110520254
 20
20.7320105274258
 10
-12.5743818331591
 20
20.68623331547706
 10
-13.35
 20
20.67014542764517
  0
LWPOLYLINE
  5
C5
330
87
100
AcDbEntity
  8
AM_4
100
AcDbPolyline
 90
        4
 70
     0
 43
0.0
 10
-13.35
 20
21.74494773504872
 10
-12.57665555260127
 20
21.72895292300132
 10
-11.80331110520254
 20
21.68308263526809
 10
-11.32927405783631
 20
21.64235955529575
  0
LWPOLYLINE
  5
C6
330
87
100
AcDbEntity
  8
AM_4
100
AcDbPolyline
 90
        3
 70
     0
 43
0.0
 10
-15.37072594216369
 20
21.64235955529575
 10
-14.36490583506299
 20
21.7176305036052
 10
-13.35
 20
21.74494773504872
  0
LINE
  5
C7
330
87
100
AcDbEntity
  8
AM_4
100
AcDbLine
 10
-17.39145188432738
 20
24.11723328944866
 30
0.0
 11
-17.39145188432738
 21
23.24760734155107
 31
0.0
  0
LWPOLYLINE
  5
C8
330
87
100
AcDbEntity
  8
AM_4
100
AcDbPolyline
 90
        3
 70
     0
 43
0.0
 10
-16.38108891324554
 20
21.90758229472163
 10
-16.88627039878646
 20
22.55337874078881
 10
-17.39145188432738
 20
23.24760734155107
  0
LWPOLYLINE
  5
C9
330
87
100
AcDbEntity
  8
AM_4
100
AcDbPolyline
 90
        3
 70
     0
 43
0.0
 10
-15.37072594216369
 20
20.77273360739815
 10
-15.87363599571404
 20
21.31339916794576
 10
-16.38108891324554
 20
21.90758229472163
  0
LINE
  5
CA
330
87
100
AcDbEntity
  8
AM_4
100
AcDbLine
 10
-15.37072594216369
 20
21.64235955529575
 30
0.0
 11
-15.37072594216369
 21
20.77273360739815
 31
0.0
  0
LWPOLYLINE
  5
CB
330
87
100
AcDbEntity
  8
AM_4
100
AcDbPolyline
 90
        3
 70
     0
 43
0.0
 10
-16.38108891324554
 20
22.98238460212518
 10
-15.87590742770461
 20
22.336588156058
 10
-15.37072594216369
 20
21.64235955529575
  0
LWPOLYLINE
  5
CC
330
87
100
AcDbEntity
  8
AM_4
100
AcDbPolyline
 90
        3
 70
     0
 43
0.0
 10
-17.39145188432738
 20
24.11723328944866
 10
-16.88854183077703
 20
23.57656772890105
 10
-16.38108891324554
 20
22.98238460212518
  0
LINE
  5
CD
330
87
100
AcDbEntity
  8
AM_4
100
AcDbLine
 10
-11.32927405783631
 20
21.64235955529575
 30
0.0
 11
-11.32927405783631
 21
20.77273360739815
 31
0.0
  0
LWPOLYLINE
  5
CE
330
87
100
AcDbEntity
  8
AM_4
100
AcDbPolyline
 90
        3
 70
     0
 43
0.0
 10
-10.31891108675446
 20
21.90758229472163
 10
-10.82409257229539
 20
21.31594187371235
 10
-11.32927405783631
 20
20.77273360739815
  0
LWPOLYLINE
  5
CF
330
87
100
AcDbEntity
  8
AM_4
100
AcDbPolyline
 90
        3
 70
     0
 43
0.0
 10
-9.30854811567262
 20
23.24760734155107
 10
-9.811458169222972
 20
22.55639988438455
 10
-10.31891108675446
 20
21.90758229472163
  0
LINE
  5
D0
330
87
100
AcDbEntity
  8
AM_4
100
AcDbLine
 10
-9.30854811567262
 20
24.11723328944866
 30
0.0
 11
-9.30854811567262
 21
23.24760734155107
 31
0.0
  0
LWPOLYLINE
  5
D1
330
87
100
AcDbEntity
  8
AM_4
100
AcDbPolyline
 90
        3
 70
     0
 43
0.0
 10
-10.31891108675446
 20
22.98238460212518
 10
-9.813729601213543
 20
23.57402502313446
 10
-9.30854811567262
 20
24.11723328944866
  0
LWPOLYLINE
  5
D2
330
87
100
AcDbEntity
  8
AM_4
100
AcDbPolyline
 90
        3
 70
     0
 43
0.0
 10
-11.32927405783631
 20
21.64235955529575
 10
-10.82636400428596
 20
22.33356701246226
 10
-10.31891108675446
 20
22.98238460212518
  0
ELLIPSE
  5
D3
330
87
100
AcDbEntity
  8
AM_4
100
AcDbEllipse
 10
-13.35000000000001
 20
24.21982146920162
 30
0.0
 11
-3.500000000000007
 21
4.286263797015745E-16
 31
0.0
210
0.0
220
0.0
230
1.0
 40
0.7071067811865477
 41
5.574451427330076
 42
10.13351184061889
  0
ELLIPSE
  5
D4
330
87
100
AcDbEntity
  8
AM_4
100
AcDbEllipse
 10
-13.35
 20
24.93627838765423
 30
0.0
 11
-2.486776909068325
 21
3.045423381884073E-16
 31
0.0
210
0.0
220
0.0
230
1.0
 40
0.7071067811865478
 41
5.984242208656114
 42
9.72372105929285
  0
LINE
  5
D5
330
87
100
AcDbEntity
  8
AM_4
100
AcDbLine
 10
-11.32635862639331
 20
24.98083380864737
 30
0.0
 11
-10.42027301288886
 21
26.19629116378643
 31
0.0
  0
LINE
  5
D6
330
87
100
AcDbEntity
  8
AM_4
100
AcDbLine
 10
-16.27972698711114
 20
26.19629116378643
 30
0.0
 11
-15.37364137360669
 21
24.98083380864737
 31
0.0
  0
ELLIPSE
  5
D7
330
87
100
AcDbEntity
  8
AM_4
100
AcDbEllipse
 10
-13.35
 20
25.73511462638434
 30
0.0
 11
-2.287575903218219
 21
2.801472507682807E-16
 31
0.0
210
0.0
220
0.0
230
1.0
 40
0.7071067811865466
 41
0.4851122464737774
 42
2.656480407116016
  0
ELLIPSE
  5
D8
330
87
100
AcDbEntity
  8
AM_4
100
AcDbEllipse
 10
-13.35000000002861
 20
27.28830128792568
 30
0.0
 11
-3.311838226970064
 21
4.055832083952734E-16
 31
0.0
210
0.0
220
0.0
230
1.0
 40
0.7071067811865471
 41
-3.633299873520183
 42
-3.626704900063517
  0
LINE
  5
D9
330
87
100
AcDbEntity
  8
AM_4
100
AcDbLine
 10
-10.33064502265264
 20
28.84984946686505
 30
0.0
 11
-10.3392511962915
 21
28.86290175758972
 31
0.0
  0
LWPOLYLINE
  5
DA
330
87
100
AcDbEntity
  8
AM_4
100
AcDbPolyline
 90
        7
 70
     0
 43
0.0
 10
-9.94446956009884
 20
27.58713752664527
 10
-9.951234362128025
 20
27.75967529400828
 10
-9.983423180049913
 20
28.00006596451449
 10
-10.04152043407727
 20
28.23578120481108
 10
-10.12487723711718
 20
28.46536996070084
 10
-10.23288498408327
 20
28.68750244230245
 10
-10.30470234609046
 20
28.80940565783093
  0
LWPOLYLINE
  5
DB
330
87
100
AcDbEntity
  8
AM_4
100
AcDbPolyline
 90
       14
 70
     0
 43
0.0
 10
-16.35910579997313
 20
28.86537382850203
 10
-16.38662213071288
 20
28.82312013272379
 10
-16.51554676687485
 20
28.59498925353669
 10
-16.61703484507984
 20
28.3593264860153
 10
-16.69073386703825
 20
28.11856818750855
 10
-16.73666236482604
 20
27.87500078767941
 10
-16.75509900641248
 20
27.63073291690324
 10
-16.74648761215701
 20
27.38769072691289
 10
-16.71138207111991
 20
27.14772606097882
 10
-16.65044334591897
 20
26.91262412748207
 10
-16.56431472652368
 20
26.68380036826364
 10
-16.4536007730484
 20
26.46257742073967
 10
-16.31888719668284
 20
26.25025034771197
 10
-16.27992428827381
 20
26.19655586585518
  0
LWPOLYLINE
  5
DC
330
87
100
AcDbEntity
  8
AM_4
100
AcDbPolyline
 90
        8
 70
     0
 43
0.0
 10
-10.43240581361253
 20
26.18014603672677
 10
-10.29769836841878
 20
26.37608644155369
 10
-10.1717948354621
 20
26.60517915975095
 10
-10.07338895951117
 20
26.84152698488372
 10
-10.00278631402093
 20
27.08270774175485
 10
-9.959934139073674
 20
27.3264539715147
 10
-9.944686978817694
 20
27.55618901425685
 10
-9.94446956009884
 20
27.58713752664527
  0
ELLIPSE
  5
DD
330
87
100
AcDbEntity
  8
AM_4
100
AcDbEllipse
 10
-13.35
 20
27.28830128791515
 30
0.0
 11
-3.311838226937808
 21
4.935023567313012E-8
 31
0.0
210
0.0
220
0.0
230
1.0
 40
0.7071067811865469
 41
0.4848190111693933
 42
2.649885452383991
  0
ELLIPSE
  5
DE
330
87
100
AcDbEntity
  8
AM_4
100
AcDbEllipse
 10
-13.35
 20
29.3413958853358
 30
0.0
 11
2.107870178878143
 21
0.0
 31
0.0
210
0.0
220
0.0
230
1.0
 40
0.7071067811865478
 41
0.0
 42
6.283185307179586
  0
LWPOLYLINE
  5
DF
330
87
100
AcDbEntity
  8
AM_4
100
AcDbPolyline
 90
       23
 70
     0
 43
0.0
 10
-11.03926688601488
 20
29.91841724278125
 10
-11.15118935867805
 20
30.0662164143198
 10
-11.30407722074552
 20
30.23009367063126
 10
-11.47871708520018
 20
30.38153136215796
 10
-11.67340898635244
 20
30.51877700933313
 10
-11.8860333069186
 20
30.64020623082978
 10
-12.11415871353592
 20
30.74443220866225
 10
-12.35517682107638
 20
30.83035538140527
 10
-12.60635631011223
 20
30.89714444407808
 10
-12.86503692723053
 20
30.94424003854971
 10
-13.1286029819055
 20
30.97127788555061
 10
-13.39445983654748
 20
30.97804784510572
 10
-13.66003232426446
 20
30.96447413233881
 10
-13.92273268323465
 20
30.93060861269781
 10
-14.18000940985974
 20
30.87662463994669
 10
-14.42934340659484
 20
30.80280959561367
 10
-14.66821982602901
 20
30.70957360588639
 10
-14.89411001858763
 20
30.59747498459052
 10
-15.10439470127635
 20
30.4673121814784
 10
-15.29642734724217
 20
30.32020014911473
 10
-15.46763874067436
 20
30.15763420444103
 10
-15.61564486009069
 20
29.98156437239692
 10
-15.65765339459682
 20
29.92290993846877
  0
ELLIPSE
  5
E0
330
87
100
AcDbEntity
  8
AM_4
100
AcDbEllipse
 10
-13.34999999997324
 20
29.1259868100393
 30
0.0
 11
-2.568122605574695
 21
3.145043128735011E-16
 31
0.0
210
0.0
220
0.0
230
1.0
 40
0.7071067811865474
 41
3.579974428543705
 42
3.591585507881753
  0
ELLIPSE
  5
E1
330
87
100
AcDbEntity
  8
AM_4
100
AcDbEllipse
 10
-13.35
 20
27.86342615722071
 30
0.0
 11
-3.326035293353603
 21
4.956178845001027E-8
 31
0.0
210
0.0
220
0.0
230
1.0
 40
0.7071067811865481
 41
5.844803551400513
 42
9.863159754898314
  0
ELLIPSE
  5
E2
330
87
100
AcDbEntity
  8
AM_4
100
AcDbEllipse
 10
-13.35
 20
29.12598681003026
 30
0.0
 11
-2.568122605604366
 21
3.145043128771347E-16
 31
0.0
210
0.0
220
0.0
230
1.0
 40
0.7071067811865481
 41
5.844803532225583
 42
9.863159735723379
  0
LINE
  5
E3
330
87
100
AcDbEntity
  8
AM_4
100
AcDbLine
 10
-15.67528027513074
 20
29.89680629587114
 30
0.0
 11
-16.36152454526359
 21
28.86173239428144
 31
0.0
  0
LINE
  5
E4
330
87
100
AcDbEntity
  8
AM_4
100
AcDbLine
 10
-10.33847545473641
 20
28.86173239428144
 30
0.0
 11
-11.02471972486926
 21
29.89680629587114
 31
0.0
  0
ELLIPSE
  5
E5
330
87
100
AcDbEntity
  8
AM_4
100
AcDbEllipse
 10
-13.3499999999871
 20
29.12598681006185
 30
0.0
 11
-2.568122605618644
 21
3.145043128788833E-16
 31
0.0
210
0.0
220
0.0
230
1.0
 40
0.7071067811805624
 41
-0.4524406887282035
 42
-0.4383817749393728
  0
ENDBLK
  5
8A
330
87
100
AcDbEntity
  8
0
100
AcDbBlockEnd
  0
BLOCK
  5
E8
330
E6
100
AcDbEntity
  8
0
100
AcDbBlockBegin
  2
3_126630_0_in_127746_2
 70
     2
 10
0.0
 20
0.0
 30
0.0
  3
3_126630_0_in_127746_2
  1

  0
ATTDEF
  5
EA
330
E6
100
AcDbEntity
  8
AM_6
100
AcDbText
 10
4.499999999999996
 20
25.9898208311045
 30
0.0
 40
0.5
  1
D-Lok Insert Metric Bore
100
AcDbAttributeDefinition
  3

  2
NN
 70
     8
280
     0
  0
ATTDEF
  5
EB
330
E6
100
AcDbEntity
  8
AM_6
100
AcDbText
 10
4.499999999999996
 20
25.4898208311045
 30
0.0
 40
0.5
  1
D-LOK
100
AcDbAttributeDefinition
  3

  2
NT
 70
     8
280
     0
  0
ATTDEF
  5
EC
330
E6
100
AcDbEntity
  8
AM_6
100
AcDbText
 10
4.499999999999996
 20
24.9898208311045
 30
0.0
 40
0.5
  1
126630
100
AcDbAttributeDefinition
  3

  2
NB
 70
     8
280
     0
  0
ATTDEF
  5
ED
330
E6
100
AcDbEntity
  8
AM_6
100
AcDbText
 10
4.499999999999996
 20
24.4898208311045
 30
0.0
 40
0.5
  1
$PN.
100
AcDbAttributeDefinition
  3

  2
NBSYN
 70
     8
280
     0
  0
ATTDEF
  5
EE
330
E6
100
AcDbEntity
  8
AM_6
100
AcDbText
 10
4.499999999999996
 20
23.9898208311045
 30
0.0
 40
0.5
  1
126630
100
AcDbAttributeDefinition
  3

  2
LINA
 70
     8
280
     0
  0
ATTDEF
  5
EF
330
E6
100
AcDbEntity
  8
AM_6
100
AcDbText
 10
4.499999999999996
 20
23.4898208311045
 30
0.0
 40
0.5
  1
205
100
AcDbAttributeDefinition
  3

  2
SERIES
 70
     8
280
     0
  0
ATTDEF
  5
F0
330
E6
100
AcDbEntity
  8
AM_6
100
AcDbText
 10
4.499999999999996
 20
22.9898208311045
 30
0.0
 40
0.5
  1
25
100
AcDbAttributeDefinition
  3

  2
SS
 70
     8
280
     0
  0
ATTDEF
  5
F1
330
E6
100
AcDbEntity
  8
AM_6
100
AcDbText
 10
4.499999999999996
 20
22.4898208311045
 30
0.0
 40
0.5
  1
126630
100
AcDbAttributeDefinition
  3

  2
PN
 70
     8
280
     0
  0
ATTDEF
  5
F2
330
E6
100
AcDbEntity
  8
AM_6
100
AcDbText
 10
4.499999999999996
 20
21.9898208311045
 30
0.0
 40
0.5
  1
INS-DL-25M
100
AcDbAttributeDefinition
  3

  2
DESCRIPTION
 70
     8
280
     0
  0
ATTDEF
  5
F3
330
E6
100
AcDbEntity
  8
AM_6
100
AcDbText
 10
4.499999999999996
 20
21.4898208311045
 30
0.0
 40
0.5
  1
0.350
100
AcDbAttributeDefinition
  3

  2
WEIGHT
 70
     8
280
     0
  0
ATTDEF
  5
F4
330
E6
100
AcDbEntity
  8
AM_6
100
AcDbText
 10
4.499999999999996
 20
20.9898208311045
 30
0.0
 40
0.5
  1
36.6
100
AcDbAttributeDefinition
  3

  2
A
 70
     8
280
     0
  0
ATTDEF
  5
F5
330
E6
100
AcDbEntity
  8
AM_6
100
AcDbText
 10
4.499999999999996
 20
20.4898208311045
 30
0.0
 40
0.5
  1
15.0
100
AcDbAttributeDefinition
  3

  2
C
 70
     8
280
     0
  0
ATTDEF
  5
F6
330
E6
100
AcDbEntity
  8
AM_6
100
AcDbText
 10
4.499999999999996
 20
19.9898208311045
 30
0.0
 40
0.5
  1
52
100
AcDbAttributeDefinition
  3

  2
D
 70
     8
280
     0
  0
ATTDEF
  5
F7
330
E6
100
AcDbEntity
  8
AM_6
100
AcDbText
 10
4.499999999999996
 20
19.4898208311045
 30
0.0
 40
0.5
  1
4.1
100
AcDbAttributeDefinition
  3

  2
J
 70
     8
280
     0
  0
ATTDEF
  5
F8
330
E6
100
AcDbEntity
  8
AM_6
100
AcDbText
 10
4.499999999999996
 20
18.9898208311045
 30
0.0
 40
0.5
  1
50.5
100
AcDbAttributeDefinition
  3

  2
L
 70
     8
280
     0
  0
ATTDEF
  5
F9
330
E6
100
AcDbEntity
  8
AM_6
100
AcDbText
 10
4.499999999999996
 20
18.4898208311045
 30
0.0
 40
0.5
  1
M5x20
100
AcDbAttributeDefinition
  3

  2
N
 70
     8
280
     0
  0
ATTDEF
  5
FA
330
E6
100
AcDbEntity
  8
AM_6
100
AcDbText
 10
4.499999999999996
 20
17.9898208311045
 30
0.0
 40
0.5
  1
14.2
100
AcDbAttributeDefinition
  3

  2
W
 70
     8
280
     0
  0
ATTDEF
  5
FB
330
E6
100
AcDbEntity
  8
AM_6
100
AcDbText
 10
4.499999999999996
 20
17.4898208311045
 30
0.0
 40
0.5
  1
22.4
100
AcDbAttributeDefinition
  3

  2
Y
 70
     8
280
     0
  0
ATTDEF
  5
FC
330
E6
100
AcDbEntity
  8
AM_6
100
AcDbText
 10
4.499999999999996
 20
16.9898208311045
 30
0.0
 40
0.5
  1
33.5
100
AcDbAttributeDefinition
  3

  2
Z
 70
     8
280
     0
  0
ATTDEF
  5
FD
330
E6
100
AcDbEntity
  8
AM_6
100
AcDbText
 10
4.499999999999996
 20
16.4898208311045
 30
0.0
 40
0.5
  1
baldor
100
AcDbAttributeDefinition
  3

  2
COMPANY
 70
     8
280
     0
  0
LINE
  5
FE
330
E6
100
AcDbEntity
  8
AM_9
100
AcDbLine
 10
-36.09
 20
-12.50000000000001
 30
0.0
 11
-1.510000000000003
 21
-12.50000000000001
 31
0.0
  0
LINE
  5
FF
330
E6
100
AcDbEntity
  8
AM_9
100
AcDbLine
 10
-1.510000000000003
 20
12.50000000000001
 30
0.0
 11
-36.09
 21
12.50000000000001
 31
0.0
  0
LINE
  5
100
330
E6
100
AcDbEntity
  8
AM_9
100
AcDbLine
 10
-1.510000000000003
 20
-12.50000000000001
 30
0.0
 11
-0.5000000000000039
 21
-13.51000000000004
 31
0.0
  0
LINE
  5
101
330
E6
100
AcDbEntity
  8
AM_9
100
AcDbLine
 10
-0.5000000000000039
 20
13.51000000000004
 30
0.0
 11
-1.510000000000003
 21
12.50000000000001
 31
0.0
  0
LINE
  5
102
330
E6
100
AcDbEntity
  8
AM_9
100
AcDbLine
 10
-36.09
 20
12.50000000000001
 30
0.0
 11
-37.10000000000001
 21
13.51000000000004
 31
0.0
  0
LINE
  5
103
330
E6
100
AcDbEntity
  8
AM_9
100
AcDbLine
 10
-37.10000000000001
 20
-13.51000000000004
 30
0.0
 11
-36.09
 21
-12.50000000000001
 31
0.0
  0
LINE
  5
104
330
E6
100
AcDbEntity
  8
AM_9
100
AcDbLine
 10
-24.9
 20
-16.75000000000001
 30
0.0
 11
-22.2
 21
-16.75000000000001
 31
0.0
  0
LINE
  5
105
330
E6
100
AcDbEntity
  8
AM_9
100
AcDbLine
 10
-22.2
 20
16.75000000000001
 30
0.0
 11
-24.9
 21
16.75000000000001
 31
0.0
  0
LINE
  5
106
330
E6
100
AcDbEntity
  8
AM_9
100
AcDbLine
 10
-0.5000000000000039
 20
15.73999999999997
 30
0.0
 11
-1.510000000000003
 21
16.75000000000001
 31
0.0
  0
LINE
  5
107
330
E6
100
AcDbEntity
  8
AM_9
100
AcDbLine
 10
-1.510000000000003
 20
-16.75000000000001
 30
0.0
 11
-0.5000000000000039
 21
-15.73999999999997
 31
0.0
  0
LINE
  5
108
330
E6
100
AcDbEntity
  8
AM_9
100
AcDbLine
 10
-0.5000000000000039
 20
15.73999999999997
 30
0.0
 11
-0.5000000000000039
 21
-15.73999999999997
 31
0.0
  0
LINE
  5
109
330
E6
100
AcDbEntity
  8
AM_9
100
AcDbLine
 10
-7.200000000000003
 20
-16.75000000000001
 30
0.0
 11
-1.510000000000003
 21
-16.75000000000001
 31
0.0
  0
LINE
  5
10A
330
E6
100
AcDbEntity
  8
AM_9
100
AcDbLine
 10
-1.510000000000003
 20
16.75000000000001
 30
0.0
 11
-7.200000000000003
 21
16.75000000000001
 31
0.0
  0
LINE
  5
10B
330
E6
100
AcDbEntity
  8
AM_9
100
AcDbLine
 10
-1.510000000000003
 20
16.75000000000001
 30
0.0
 11
-1.510000000000003
 21
-16.75000000000001
 31
0.0
  0
LINE
  5
10C
330
E6
100
AcDbEntity
  8
AM_9
100
AcDbLine
 10
-19.39
 20
-24.5
 30
0.0
 11
-17.39
 21
-24.5
 31
0.0
  0
LINE
  5
10D
330
E6
100
AcDbEntity
  8
AM_9
100
AcDbLine
 10
-17.39
 20
24.5
 30
0.0
 11
-19.39
 21
24.5
 31
0.0
  0
LINE
  5
10E
330
E6
100
AcDbEntity
  8
AM_9
100
AcDbLine
 10
-22.2
 20
24.09545395833821
 30
0.0
 11
-22.2
 21
-24.09545395833821
 31
0.0
  0
ARC
  5
10F
330
E6
100
AcDbEntity
  8
AM_9
100
AcDbCircle
 10
-21.6
 20
-24.09545395833821
 30
0.0
 40
0.600000000000005
100
AcDbArc
 50
179.9999991462263
 51
248.5875329531156
  0
ARC
  5
110
330
E6
100
AcDbEntity
  8
AM_9
100
AcDbCircle
 10
-21.6
 20
24.09545395833821
 30
0.0
 40
0.600000000000009
100
AcDbArc
 50
111.4124670468844
 51
179.9999991462263
  0
LINE
  5
111
330
E6
100
AcDbEntity
  8
AM_9
100
AcDbLine
 10
-7.200000000000003
 20
24.09545395833821
 30
0.0
 11
-7.200000000000003
 21
-24.09545395833821
 31
0.0
  0
ARC
  5
112
330
E6
100
AcDbEntity
  8
AM_9
100
AcDbCircle
 10
-7.800000000000016
 20
-24.09545395833821
 30
0.0
 40
0.6000000000000125
100
AcDbArc
 50
291.4124670468852
 51
0.0000008537736463
  0
ARC
  5
113
330
E6
100
AcDbEntity
  8
AM_9
100
AcDbCircle
 10
-7.800000000000016
 20
24.09545395833821
 30
0.0
 40
0.600000000000013
100
AcDbArc
 50
0.0000008537736463
 51
68.58753295311476
  0
ARC
  5
114
330
E6
100
AcDbEntity
  8
AM_9
100
AcDbCircle
 10
-14.70000000000043
 20
-6.500000000001371
 30
0.0
 40
19.49999999999857
100
AcDbArc
 50
248.5875329531156
 51
256.083190589193
  0
ARC
  5
115
330
E6
100
AcDbEntity
  8
AM_9
100
AcDbCircle
 10
-14.70000000000058
 20
6.500000000001855
 30
0.0
 40
19.49999999999806
100
AcDbArc
 50
103.916809410807
 51
111.4124670468845
  0
LINE
  5
116
330
E6
100
AcDbEntity
  8
AM_9
100
AcDbLine
 10
-21.81904761904762
 20
24.65403979828546
 30
0.0
 11
-21.81904761904762
 21
-24.65403979828546
 31
0.0
  0
LINE
  5
117
330
E6
100
AcDbEntity
  8
AM_9
100
AcDbLine
 10
-19.39
 20
25.42759625520367
 30
0.0
 11
-19.39
 21
-25.42759625520367
 31
0.0
  0
ARC
  5
118
330
E6
100
AcDbEntity
  8
AM_9
100
AcDbCircle
 10
-14.7
 20
-6.500000000000096
 30
0.0
 40
19.49999999999991
100
AcDbArc
 50
262.0708352668855
 51
291.4124670468842
  0
ARC
  5
119
330
E6
100
AcDbEntity
  8
AM_9
100
AcDbCircle
 10
-14.70000000000041
 20
6.499999999996618
 30
0.0
 40
19.5000000000033
100
AcDbArc
 50
68.58753295311844
 51
97.9291647331119
  0
LINE
  5
11A
330
E6
100
AcDbEntity
  8
AM_9
100
AcDbLine
 10
-17.39000000000001
 20
25.81356776983476
 30
0.0
 11
-17.39000000000001
 21
-25.81356776983476
 31
0.0
  0
LINE
  5
11B
330
E6
100
AcDbEntity
  8
AM_9
100
AcDbLine
 10
-7.580952380952381
 20
24.65403979828546
 30
0.0
 11
-7.580952380952381
 21
-24.65403979828546
 31
0.0
  0
LINE
  5
11C
330
E6
100
AcDbEntity
  8
AM_4
100
AcDbLine
 10
-25.90000000000001
 20
-16.75000000000001
 30
0.0
 11
-24.9
 21
-16.75000000000001
 31
0.0
  0
LINE
  5
11D
330
E6
100
AcDbEntity
  8
AM_4
100
AcDbLine
 10
-24.9
 20
16.75000000000001
 30
0.0
 11
-25.90000000000001
 21
16.75000000000001
 31
0.0
  0
LINE
  5
11E
330
E6
100
AcDbEntity
  8
AM_4
100
AcDbLine
 10
-25.90000000000001
 20
24.24
 30
0.0
 11
-26.91
 21
25.25000000000001
 31
0.0
  0
LINE
  5
11F
330
E6
100
AcDbEntity
  8
AM_4
100
AcDbLine
 10
-26.91
 20
-25.25000000000001
 30
0.0
 11
-25.90000000000001
 21
-24.24
 31
0.0
  0
LINE
  5
120
330
E6
100
AcDbEntity
  8
AM_4
100
AcDbLine
 10
-25.90000000000001
 20
24.24
 30
0.0
 11
-25.90000000000001
 21
-24.24
 31
0.0
  0
LINE
  5
121
330
E6
100
AcDbEntity
  8
AM_4
100
AcDbLine
 10
-36.09
 20
-25.25000000000001
 30
0.0
 11
-26.91
 21
-25.25000000000001
 31
0.0
  0
LINE
  5
122
330
E6
100
AcDbEntity
  8
AM_4
100
AcDbLine
 10
-26.91
 20
25.25000000000001
 30
0.0
 11
-36.09
 21
25.25000000000001
 31
0.0
  0
LINE
  5
123
330
E6
100
AcDbEntity
  8
AM_4
100
AcDbLine
 10
-26.91
 20
25.25000000000001
 30
0.0
 11
-26.91
 21
-25.25000000000001
 31
0.0
  0
LINE
  5
124
330
E6
100
AcDbEntity
  8
AM_4
100
AcDbLine
 10
-37.10000000000001
 20
-24.24
 30
0.0
 11
-36.09
 21
-25.25000000000001
 31
0.0
  0
LINE
  5
125
330
E6
100
AcDbEntity
  8
AM_4
100
AcDbLine
 10
-36.09
 20
25.25000000000001
 30
0.0
 11
-37.10000000000001
 21
24.24
 31
0.0
  0
LINE
  5
126
330
E6
100
AcDbEntity
  8
AM_4
100
AcDbLine
 10
-37.10000000000001
 20
24.24
 30
0.0
 11
-37.10000000000001
 21
-24.24
 31
0.0
  0
LINE
  5
127
330
E6
100
AcDbEntity
  8
AM_4
100
AcDbLine
 10
-36.09
 20
25.25000000000001
 30
0.0
 11
-36.09
 21
-25.25000000000001
 31
0.0
  0
ENDBLK
  5
E9
330
E6
100
AcDbEntity
  8
0
100
AcDbBlockEnd
  0
BLOCK
  5
12A
330
128
100
AcDbEntity
  8
0
100
AcDbBlockBegin
  2
4_F2B_DLEZ_25M_SHCR_0_in_127746_2
 70
     2
 10
0.0
 20
0.0
 30
0.0
  3
4_F2B_DLEZ_25M_SHCR_0_in_127746_2
  1

  0
ATTDEF
  5
12C
330
128
100
AcDbEntity
  8
AM_6
100
AcDbText
 10
6.855
 20
62.1
 30
0.0
 40
0.5
  1
E-Z KLEEN® SHCR Flange Bearing 2B - Body - Metric
100
AcDbAttributeDefinition
  3

  2
NN
 70
     8
280
     0
  0
ATTDEF
  5
12D
330
128
100
AcDbEntity
  8
AM_6
100
AcDbText
 10
6.855
 20
61.6
 30
0.0
 40
0.5
  1
D-LOK
100
AcDbAttributeDefinition
  3

  2
NT
 70
     8
280
     0
  0
ATTDEF
  5
12E
330
128
100
AcDbEntity
  8
AM_6
100
AcDbText
 10
6.855
 20
61.1
 30
0.0
 40
0.5
  1
F2B-DLEZ-25M-SHCR
100
AcDbAttributeDefinition
  3

  2
NB
 70
     8
280
     0
  0
ATTDEF
  5
12F
330
128
100
AcDbEntity
  8
AM_6
100
AcDbText
 10
6.855
 20
60.6
 30
0.0
 40
0.5
  1
$PN.
100
AcDbAttributeDefinition
  3

  2
NBSYN
 70
     8
280
     0
  0
ATTDEF
  5
130
330
128
100
AcDbEntity
  8
AM_6
100
AcDbText
 10
6.855
 20
60.1
 30
0.0
 40
0.5
  1
F2B-DLEZ-25M-SHCR
100
AcDbAttributeDefinition
  3

  2
LINA
 70
     8
280
     0
  0
ATTDEF
  5
131
330
128
100
AcDbEntity
  8
AM_6
100
AcDbText
 10
6.855
 20
59.6
 30
0.0
 40
0.5
  1
25
100
AcDbAttributeDefinition
  3

  2
SS
 70
     8
280
     0
  0
ATTDEF
  5
132
330
128
100
AcDbEntity
  8
AM_6
100
AcDbText
 10
6.855
 20
59.1
 30
0.0
 40
0.5
  1
F2B-DLEZ-25M-SHCR
100
AcDbAttributeDefinition
  3

  2
PN
 70
     8
280
     0
  0
ATTDEF
  5
133
330
128
100
AcDbEntity
  8
AM_6
100
AcDbText
 10
6.855
 20
58.6
 30
0.0
 40
0.5
  1
F2B-DLEZ-25M-SHCR
100
AcDbAttributeDefinition
  3

  2
DESCRIPTION
 70
     8
280
     0
  0
ATTDEF
  5
134
330
128
100
AcDbEntity
  8
AM_6
100
AcDbText
 10
6.855
 20
58.1
 30
0.0
 40
0.5
  1
205
100
AcDbAttributeDefinition
  3

  2
RS
 70
     8
280
     0
  0
ATTDEF
  5
135
330
128
100
AcDbEntity
  8
AM_6
100
AcDbText
 10
6.855
 20
57.6
 30
0.0
 40
0.5
  1
36.600
100
AcDbAttributeDefinition
  3

  2
A
 70
     8
280
     0
  0
ATTDEF
  5
136
330
128
100
AcDbEntity
  8
AM_6
100
AcDbText
 10
6.855
 20
57.1
 30
0.0
 40
0.5
  1
124.200
100
AcDbAttributeDefinition
  3

  2
B
 70
     8
280
     0
  0
ATTDEF
  5
137
330
128
100
AcDbEntity
  8
AM_6
100
AcDbText
 10
6.855
 20
56.6
 30
0.0
 40
0.5
  1
37.100
100
AcDbAttributeDefinition
  3

  2
C
 70
     8
280
     0
  0
ATTDEF
  5
138
330
128
100
AcDbEntity
  8
AM_6
100
AcDbText
 10
6.855
 20
56.1
 30
0.0
 40
0.5
  1
98.800
100
AcDbAttributeDefinition
  3

  2
D
 70
     8
280
     0
  0
ATTDEF
  5
139
330
128
100
AcDbEntity
  8
AM_6
100
AcDbText
 10
6.855
 20
55.6
 30
0.0
 40
0.5
  1
M10
100
AcDbAttributeDefinition
  3

  2
F
 70
     8
280
     0
  0
ATTDEF
  5
13A
330
128
100
AcDbEntity
  8
AM_6
100
AcDbText
 10
6.855
 20
55.1
 30
0.0
 40
0.5
  1
10.000
100
AcDbAttributeDefinition
  3

  2
F1
 70
     8
280
     0
  0
ATTDEF
  5
13B
330
128
100
AcDbEntity
  8
AM_6
100
AcDbText
 10
6.855
 20
54.6
 30
0.0
 40
0.5
  1
8.900
100
AcDbAttributeDefinition
  3

  2
H
 70
     8
280
     0
  0
ATTDEF
  5
13C
330
128
100
AcDbEntity
  8
AM_6
100
AcDbText
 10
6.855
 20
54.1
 30
0.0
 40
0.5
  1
12.200
100
AcDbAttributeDefinition
  3

  2
J
 70
     8
280
     0
  0
ATTDEF
  5
13D
330
128
100
AcDbEntity
  8
AM_6
100
AcDbText
 10
6.855
 20
53.6
 30
0.0
 40
0.5
  1
50.500
100
AcDbAttributeDefinition
  3

  2
L
 70
     8
280
     0
  0
ATTDEF
  5
13E
330
128
100
AcDbEntity
  8
AM_6
100
AcDbText
 10
6.855
 20
53.1
 30
0.0
 40
0.5
  1
66.800
100
AcDbAttributeDefinition
  3

  2
M
 70
     8
280
     0
  0
ATTDEF
  5
13F
330
128
100
AcDbEntity
  8
AM_6
100
AcDbText
 10
6.855
 20
52.6
 30
0.0
 40
0.5
  1
52
100
AcDbAttributeDefinition
  3

  2
BOD
 70
     8
280
     0
  0
ATTDEF
  5
140
330
128
100
AcDbEntity
  8
AM_6
100
AcDbText
 10
6.855
 20
52.1
 30
0.0
 40
0.5
  1
baldor
100
AcDbAttributeDefinition
  3

  2
COMPANY
 70
     8
280
     0
  0
LINE
  5
141
330
128
100
AcDbEntity
  8
AM_9
100
AcDbLine
 10
-8.9
 20
-54.4
 30
0.0
 11
0.0
 21
-54.4
 31
0.0
  0
LINE
  5
142
330
128
100
AcDbEntity
  8
AM_9
100
AcDbLine
 10
0.0
 20
-44.4
 30
0.0
 11
-8.9
 21
-44.4
 31
0.0
  0
LINE
  5
143
330
128
100
AcDbEntity
  8
AM_9
100
AcDbLine
 10
-8.9
 20
44.4
 30
0.0
 11
0.0
 21
44.4
 31
0.0
  0
LINE
  5
144
330
128
100
AcDbEntity
  8
AM_9
100
AcDbLine
 10
0.0
 20
54.4
 30
0.0
 11
-8.9
 21
54.4
 31
0.0
  0
LINE
  5
145
330
128
100
AcDbEntity
  8
AM_9
100
AcDbLine
 10
-24.9
 20
-26.0
 30
0.0
 11
0.0
 21
-26.0
 31
0.0
  0
LINE
  5
146
330
128
100
AcDbEntity
  8
AM_9
100
AcDbLine
 10
0.0
 20
26.0
 30
0.0
 11
-24.9
 21
26.0
 31
0.0
  0
LINE
  5
147
330
128
100
AcDbEntity
  8
AM_9
100
AcDbLine
 10
-16.73894064506522
 20
27.84481575314115
 30
0.0
 11
-9.962634849222814
 21
27.84481575314115
 31
0.0
  0
LINE
  5
148
330
128
100
AcDbEntity
  8
AM_9
100
AcDbLine
 10
-22.9
 20
27.84481575314114
 30
0.0
 11
-22.9
 21
18.44522257045503
 31
0.0
  0
LINE
  5
14B
330
128
100
AcDbEntity
  8
AM_7
100
AcDbLine
 10
0.4450000000000001
 20
49.4
 30
0.0
 11
-9.345
 21
49.4
 31
0.0
  0
LINE
  5
14C
330
128
100
AcDbEntity
  8
AM_7
100
AcDbLine
 10
0.4450000000000001
 20
-49.4
 30
0.0
 11
-9.345
 21
-49.4
 31
0.0
  0
LINE
  5
14D
330
128
100
AcDbEntity
  8
AM_7
100
AcDbLine
 10
1.855
 20
0.0
 30
0.0
 11
-38.955
 21
0.0
 31
0.0
  0
LINE
  5
14E
330
128
100
AcDbEntity
  8
AM_4
100
AcDbLine
 10
-8.9
 20
29.17100231440416
 30
0.0
 11
-8.900000000000002
 21
62.1
 31
0.0
  0
LINE
  5
14F
330
128
100
AcDbEntity
  8
AM_4
100
AcDbLine
 10
0.0
 20
62.1
 30
0.0
 11
-8.900000000000002
 21
62.1
 31
0.0
  0
LINE
  5
150
330
128
100
AcDbEntity
  8
AM_4
100
AcDbLine
 10
-8.900000000000002
 20
-62.09999976158143
 30
0.0
 11
0.0
 21
-62.09999976158143
 31
0.0
  0
LINE
  5
151
330
128
100
AcDbEntity
  8
AM_4
100
AcDbLine
 10
-8.900000000000002
 20
-62.09999976158143
 30
0.0
 11
-8.9
 21
-29.17100231440415
 31
0.0
  0
LINE
  5
152
330
128
100
AcDbEntity
  8
AM_4
100
AcDbLine
 10
-8.900000000000002
 20
-49.39997786353241
 30
0.0
 11
0.0000000000000008
 21
-49.39997786353241
 31
0.0
  0
LINE
  5
153
330
128
100
AcDbEntity
  8
AM_4
100
AcDbLine
 10
-8.900000000000002
 20
49.40000000000001
 30
0.0
 11
0.0000000000000008
 21
49.40000000000001
 31
0.0
  0
LINE
  5
154
330
128
100
AcDbEntity
  8
AM_4
100
AcDbLine
 10
-8.9
 20
-29.17100231440415
 30
0.0
 11
0.000000000000001
 21
-29.17100231440415
 31
0.0
  0
LINE
  5
155
330
128
100
AcDbEntity
  8
AM_4
100
AcDbLine
 10
-22.9
 20
18.44522257045503
 30
0.0
 11
0.0000000000000017
 21
18.44522257045503
 31
0.0
  0
LINE
  5
156
330
128
100
AcDbEntity
  8
AM_4
100
AcDbLine
 10
-9.962634849222814
 20
27.84481575314115
 30
0.0
 11
0.0000000000000011
 21
27.84481575314115
 31
0.0
  0
LINE
  5
157
330
128
100
AcDbEntity
  8
AM_4
100
AcDbLine
 10
-22.9
 20
27.84481575314114
 30
0.0
 11
-16.73894064506522
 21
27.84481575314115
 31
0.0
  0
LINE
  5
158
330
128
100
AcDbEntity
  8
AM_4
100
AcDbLine
 10
0.0
 20
-62.09999976158143
 30
0.0
 11
0.0
 21
62.1
 31
0.0
  0
LINE
  5
159
330
128
100
AcDbEntity
  8
AM_4
100
AcDbLine
 10
-8.9
 20
29.17100231440416
 30
0.0
 11
0.000000000000001
 21
29.17100231440416
 31
0.0
  0
LINE
  5
15A
330
128
100
AcDbEntity
  8
AM_4
100
AcDbLine
 10
-8.900000000000002
 20
33.4
 30
0.0
 11
-22.9
 21
33.4
 31
0.0
  0
LINE
  5
15B
330
128
100
AcDbEntity
  8
AM_4
100
AcDbLine
 10
-22.9
 20
-33.4
 30
0.0
 11
-8.900000000000002
 21
-33.4
 31
0.0
  0
LWPOLYLINE
  5
15C
330
128
100
AcDbEntity
  8
AM_4
100
AcDbPolyline
 90
       25
 70
     0
 43
0.0
 10
-22.9
 20
27.84481575314114
 10
-23.0419791181514
 20
27.82685301695081
 10
-23.20321113279591
 20
27.76196824183673
 10
-23.31837364872655
 20
27.68497106851245
 10
-23.41905619566867
 20
27.59491481505074
 10
-23.54000686482367
 20
27.45559133662531
 10
-23.6425803267175
 20
27.30713832238287
 10
-23.81007522344028
 20
26.9915273010888
 10
-23.93216453031093
 20
26.68755861304966
 10
-24.03024890694223
 20
26.3791670633526
 10
-24.17764041134729
 20
25.75029572416187
 10
-24.27795996797538
 20
25.10841119249255
 10
-24.3427988511095
 20
24.46314688568589
 10
-24.39181532798244
 20
23.201866713992
 10
-24.35090474205926
 20
21.93711575304111
 10
-24.2922318290536
 20
21.29793310974875
 10
-24.19984839940587
 20
20.66082421639667
 10
-24.0618658901226
 20
20.02072588193847
 10
-23.85060069852847
 20
19.3914622321644
 10
-23.67317342332569
 20
19.03324559575282
 10
-23.55047403472423
 20
18.84824680644194
 10
-23.39607937700649
 20
18.67260006956994
 10
-23.24335340090728
 20
18.5518968900976
 10
-23.04767735376172
 20
18.46466103487469
 10
-22.9
 20
18.44522257045503
  0
LINE
  5
15D
330
128
100
AcDbEntity
  8
AM_4
100
AcDbLine
 10
-22.9
 20
27.84481575314114
 30
0.0
 11
-22.9
 21
33.4
 31
0.0
  0
LINE
  5
15E
330
128
100
AcDbEntity
  8
AM_4
100
AcDbLine
 10
-24.9
 20
-31.4
 30
0.0
 11
-24.9
 21
31.4
 31
0.0
  0
ARC
  5
15F
330
128
100
AcDbEntity
  8
AM_4
100
AcDbCircle
 10
-22.9
 20
31.39999999999999
 30
0.0
 40
2.000000000000007
100
AcDbArc
 50
90.0
 51
180.0
  0
ARC
  5
160
330
128
100
AcDbEntity
  8
AM_4
100
AcDbCircle
 10
-22.9
 20
-31.4
 30
0.0
 40
2.000000000000004
100
AcDbArc
 50
180.0
 51
270.0
  0
LINE
  5
161
330
128
100
AcDbEntity
  8
AM_4
100
AcDbLine
 10
-22.9
 20
-33.4
 30
0.0
 11
-22.9
 21
18.44522257045503
 31
0.0
  0
ENDBLK
  5
12B
330
128
100
AcDbEntity
  8
0
100
AcDbBlockEnd
  0
ENDSEC
  0
SECTION
  2
ENTITIES
  0
INSERT
  5
6F
330
1F
100
AcDbEntity
  8
0
100
AcDbBlockReference
  2
1_127746_2
 10
0.0
 20
0.0
 30
0.0
  0
POINT
  5
163
330
1F
100
AcDbEntity
  8
ConnectionPoints
100
AcDbPoint
 10
-37.1
 20
0.0
 30
0.0000000000000023
  0
POINT
  5
164
330
1F
100
AcDbEntity
  8
ConnectionPoints
100
AcDbPoint
 10
-0.5000000000000036
 20
0.0
 30
0.0
  0
POINT
  5
165
330
1F
100
AcDbEntity
  8
ConnectionPoints
100
AcDbPoint
 10
-18.8
 20
0.0
 30
0.0000000000000012
  0
POINT
  5
166
330
1F
100
AcDbEntity
  8
ConnectionPoints
100
AcDbPoint
 10
-14.7
 20
0.0
 30
0.0000000000000009
  0
POINT
  5
167
330
1F
100
AcDbEntity
  8
ConnectionPoints
100
AcDbPoint
 10
-37.1
 20
0.0
 30
0.0000000000000023
  0
POINT
  5
168
330
1F
100
AcDbEntity
  8
ConnectionPoints
100
AcDbPoint
 10
-13.35
 20
23.14501916179809
 30
23.14501916179806
  0
ENDSEC
  0
SECTION
  2
OBJECTS
  0
DICTIONARY
  5
C
330
0
100
AcDbDictionary
281
     1
  3
ACAD_DETAILVIEWSTYLE
350
170
  3
ACAD_GROUP
350
D
  3
ACAD_LAYOUT
350
1A
  3
ACAD_MATERIAL
350
43
  3
ACAD_MLEADERSTYLE
350
6B
  3
ACAD_MLINESTYLE
350
17
  3
ACAD_PLOTSETTINGS
350
19
  3
ACAD_PLOTSTYLENAME
350
E
  3
ACAD_SCALELIST
350
47
  3
ACAD_SECTIONVIEWSTYLE
350
171
  3
ACAD_TABLESTYLE
350
69
  3
ACAD_VISUALSTYLE
350
2A
  3
ACDB_RECOMPOSE_DATA
350
16D
  3
AcDbVariableDictionary
350
169
  0
SUN
  5
6D
330
29
100
AcDbSun
 90
        1
290
     0
 63
     7
421
 16777215
 40
1.0
291
     1
 91
  2455826
 92
 54000000
292
     0
 70
     2
 71
   256
280
     1
  0
DICTIONARY
  5
170
102
{ACAD_REACTORS
330
C
102
}
330
C
100
AcDbDictionary
281
     1
  0
DICTIONARY
  5
D
102
{ACAD_REACTORS
330
C
102
}
330
C
100
AcDbDictionary
281
     1
  0
DICTIONARY
  5
1A
102
{ACAD_REACTORS
330
C
102
}
330
C
100
AcDbDictionary
281
     1
  3
Layout1
350
1E
  3
Layout2
350
26
  3
Model
350
22
  0
DICTIONARY
  5
43
102
{ACAD_REACTORS
330
C
102
}
330
C
100
AcDbDictionary
281
     1
  3
ByBlock
350
45
  3
ByLayer
350
44
  3
Global
350
46
  0
DICTIONARY
  5
6B
102
{ACAD_REACTORS
330
C
102
}
330
C
100
AcDbDictionary
281
     1
  3
Standard
350
6C
  0
DICTIONARY
  5
17
102
{ACAD_REACTORS
330
C
102
}
330
C
100
AcDbDictionary
281
     1
  3
Standard
350
18
  0
DICTIONARY
  5
19
102
{ACAD_REACTORS
330
C
102
}
330
C
100
AcDbDictionary
281
     1
  0
ACDBDICTIONARYWDFLT
  5
E
102
{ACAD_REACTORS
330
C
102
}
330
C
100
AcDbDictionary
281
     1
  3
Normal
350
F
100
AcDbDictionaryWithDefault
340
F
  0
DICTIONARY
  5
47
102
{ACAD_REACTORS
330
C
102
}
330
C
100
AcDbDictionary
281
     1
  3
A0
350
48
  3
A1
350
49
  3
A2
350
4A
  3
A3
350
4B
  3
A4
350
4C
  3
A5
350
4D
  3
A6
350
4E
  3
A7
350
4F
  3
A8
350
50
  3
A9
350
51
  3
B0
350
52
  3
B1
350
53
  3
B2
350
54
  3
B3
350
55
  3
B4
350
56
  3
B5
350
57
  3
B6
350
58
  3
B7
350
59
  3
B8
350
5A
  3
B9
350
5B
  3
C0
350
5C
  3
C1
350
5D
  3
C2
350
5E
  3
C3
350
5F
  3
C4
350
60
  3
C5
350
61
  3
C6
350
62
  3
C7
350
63
  3
C8
350
64
  3
C9
350
65
  3
D0
350
66
  3
D1
350
67
  3
D2
350
68
  0
DICTIONARY
  5
171
102
{ACAD_REACTORS
330
C
102
}
330
C
100
AcDbDictionary
281
     1
  0
DICTIONARY
  5
69
102
{ACAD_REACTORS
330
C
102
}
330
C
100
AcDbDictionary
281
     1
  3
Standard
350
6A
  0
DICTIONARY
  5
2A
102
{ACAD_REACTORS
330
C
102
}
330
C
100
AcDbDictionary
281
     1
  3
2dWireframe
350
2F
  3
Basic
350
32
  3
Brighten
350
36
  3
ColorChange
350
3A
  3
Conceptual
350
34
  3
Dim
350
35
  3
EdgeColorOff
350
3D
  3
Facepattern
350
39
  3
Flat
350
2B
  3
FlatWithEdges
350
2C
  3
Gouraud
350
2D
  3
GouraudWithEdges
350
2E
  3
Hidden
350
31
  3
JitterOff
350
3B
  3
Linepattern
350
38
  3
OverhangOff
350
3C
  3
Realistic
350
33
  3
Shaded
350
42
  3
Shaded with edges
350
41
  3
Shades of Gray
350
3E
  3
Sketchy
350
3F
  3
Thicken
350
37
  3
Wireframe
350
30
  3
X-Ray
350
40
  0
XRECORD
  5
16D
102
{ACAD_REACTORS
330
C
102
}
330
C
100
AcDbXrecord
280
     1
 90
        1
330
6A
  0
DICTIONARY
  5
169
102
{ACAD_REACTORS
330
C
102
}
330
C
100
AcDbDictionary
281
     1
  3
CANNOSCALE
350
16A
  3
CMLEADERSTYLE
350
16F
  3
CTABLESTYLE
350
16E
  0
LAYOUT
  5
1E
102
{ACAD_REACTORS
330
1A
102
}
330
1A
100
AcDbPlotSettings
  1

  2
none_device
  4

  6

 40
0.0
 41
0.0
 42
0.0
 43
0.0
 44
0.0
 45
0.0
 46
0.0
 47
0.0
 48
0.0
 49
0.0
140
0.0
141
0.0
142
1.0
143
1.0
 70
   688
 72
     1
 73
     0
 74
     5
  7

 75
    16
 76
     0
 77
     2
 78
   300
147
1.0
148
0.0
149
0.0
100
AcDbLayout
  1
Layout1
 70
     1
 71
     1
 10
0.0
 20
0.0
 11
420.0
 21
297.0
 12
0.0
 22
0.0
 32
0.0
 14
1.000000000000000E+20
 24
1.000000000000000E+20
 34
1.000000000000000E+20
 15
-1.000000000000000E+20
 25
-1.000000000000000E+20
 35
-1.000000000000000E+20
146
0.0
 13
0.0
 23
0.0
 33
0.0
 16
1.0
 26
0.0
 36
0.0
 17
0.0
 27
1.0
 37
0.0
 76
     0
330
1B
  0
LAYOUT
  5
26
102
{ACAD_REACTORS
330
1A
102
}
330
1A
100
AcDbPlotSettings
  1

  2
none_device
  4

  6

 40
0.0
 41
0.0
 42
0.0
 43
0.0
 44
0.0
 45
0.0
 46
0.0
 47
0.0
 48
0.0
 49
0.0
140
0.0
141
0.0
142
1.0
143
1.0
 70
   688
 72
     1
 73
     0
 74
     5
  7

 75
    16
 76
     0
 77
     2
 78
   300
147
1.0
148
0.0
149
0.0
100
AcDbLayout
  1
Layout2
 70
     1
 71
     2
 10
0.0
 20
0.0
 11
0.0
 21
0.0
 12
0.0
 22
0.0
 32
0.0
 14
0.0
 24
0.0
 34
0.0
 15
0.0
 25
0.0
 35
0.0
146
0.0
 13
0.0
 23
0.0
 33
0.0
 16
1.0
 26
0.0
 36
0.0
 17
0.0
 27
1.0
 37
0.0
 76
     0
330
23
  0
LAYOUT
  5
22
102
{ACAD_REACTORS
330
1A
102
}
330
1A
100
AcDbPlotSettings
  1

  2
none_device
  4
Letter_(8.50_x_11.00_Inches)
  6

 40
6.35
 41
6.35
 42
6.35000508
 43
6.35000508
 44
215.9
 45
279.4
 46
0.0
 47
0.0
 48
0.0
 49
0.0
140
0.0
141
0.0
142
1.0
143
1.0
 70
  1712
 72
     1
 73
     0
 74
     0
  7

 75
     0
 76
     0
 77
     2
 78
   300
147
1.0
148
0.0
149
0.0
100
AcDbLayout
  1
Model
 70
     1
 71
     0
 10
0.0
 20
0.0
 11
420.0
 21
297.0
 12
0.0
 22
0.0
 32
0.0
 14
1.000000000000000E+20
 24
1.000000000000000E+20
 34
1.000000000000000E+20
 15
-1.000000000000000E+20
 25
-1.000000000000000E+20
 35
-1.000000000000000E+20
146
0.0
 13
0.0
 23
0.0
 33
0.0
 16
1.0
 26
0.0
 36
0.0
 17
0.0
 27
1.0
 37
0.0
 76
     0
330
1F
331
29
  0
MATERIAL
  5
45
102
{ACAD_REACTORS
330
43
102
}
330
43
100
AcDbMaterial
  1
ByBlock
 72
     1
 94
      127
  0
MATERIAL
  5
44
102
{ACAD_REACTORS
330
43
102
}
330
43
100
AcDbMaterial
  1
ByLayer
 72
     1
 94
      127
  0
MATERIAL
  5
46
102
{ACAD_REACTORS
330
43
102
}
330
43
100
AcDbMaterial
  1
Global
 72
     1
 94
      127
  0
MLEADERSTYLE
  5
6C
102
{ACAD_REACTORS
330
6B
102
}
330
6B
100
AcDbMLeaderStyle
179
     2
170
     2
171
     1
172
     0
 90
        2
 40
0.0
 41
0.0
173
     1
 91
-1056964608
340
14
 92
       -2
290
     1
 42
2.0
291
     1
 43
8.0
  3
Standard
341
0
 44
4.0
300

342
11
174
     1
178
     6
175
     1
176
     0
 93
-1056964608
 45
4.0
292
     0
297
     0
 46
4.0
343
0
 94
-1056964608
 47
1.0
 49
1.0
140
1.0
293
     1
141
0.0
294
     1
177
     0
142
1.0
295
     0
296
     0
143
3.75
271
     0
272
     9
273
     9
298
     0
  0
MLINESTYLE
  5
18
102
{ACAD_REACTORS
330
17
102
}
330
17
100
AcDbMlineStyle
  2
Standard
 70
     0
  3

 62
   256
 51
90.0
 52
90.0
 71
     2
 49
0.5
 62
   256
  6
BYLAYER
 49
-0.5
 62
   256
  6
BYLAYER
  0
ACDBPLACEHOLDER
  5
F
102
{ACAD_REACTORS
330
E
102
}
330
E
  0
SCALE
  5
48
102
{ACAD_REACTORS
330
47
102
}
330
47
100
AcDbScale
 70
     0
300
1:1
140
1.0
141
1.0
290
     1
  0
SCALE
  5
49
102
{ACAD_REACTORS
330
47
102
}
330
47
100
AcDbScale
 70
     0
300
1:2
140
1.0
141
2.0
290
     0
  0
SCALE
  5
4A
102
{ACAD_REACTORS
330
47
102
}
330
47
100
AcDbScale
 70
     0
300
1:4
140
1.0
141
4.0
290
     0
  0
SCALE
  5
4B
102
{ACAD_REACTORS
330
47
102
}
330
47
100
AcDbScale
 70
     0
300
1:5
140
1.0
141
5.0
290
     0
  0
SCALE
  5
4C
102
{ACAD_REACTORS
330
47
102
}
330
47
100
AcDbScale
 70
     0
300
1:8
140
1.0
141
8.0
290
     0
  0
SCALE
  5
4D
102
{ACAD_REACTORS
330
47
102
}
330
47
100
AcDbScale
 70
     0
300
1:10
140
1.0
141
10.0
290
     0
  0
SCALE
  5
4E
102
{ACAD_REACTORS
330
47
102
}
330
47
100
AcDbScale
 70
     0
300
1:16
140
1.0
141
16.0
290
     0
  0
SCALE
  5
4F
102
{ACAD_REACTORS
330
47
102
}
330
47
100
AcDbScale
 70
     0
300
1:20
140
1.0
141
20.0
290
     0
  0
SCALE
  5
50
102
{ACAD_REACTORS
330
47
102
}
330
47
100
AcDbScale
 70
     0
300
1:30
140
1.0
141
30.0
290
     0
  0
SCALE
  5
51
102
{ACAD_REACTORS
330
47
102
}
330
47
100
AcDbScale
 70
     0
300
1:40
140
1.0
141
40.0
290
     0
  0
SCALE
  5
52
102
{ACAD_REACTORS
330
47
102
}
330
47
100
AcDbScale
 70
     0
300
1:50
140
1.0
141
50.0
290
     0
  0
SCALE
  5
53
102
{ACAD_REACTORS
330
47
102
}
330
47
100
AcDbScale
 70
     0
300
1:100
140
1.0
141
100.0
290
     0
  0
SCALE
  5
54
102
{ACAD_REACTORS
330
47
102
}
330
47
100
AcDbScale
 70
     0
300
2:1
140
2.0
141
1.0
290
     0
  0
SCALE
  5
55
102
{ACAD_REACTORS
330
47
102
}
330
47
100
AcDbScale
 70
     0
300
4:1
140
4.0
141
1.0
290
     0
  0
SCALE
  5
56
102
{ACAD_REACTORS
330
47
102
}
330
47
100
AcDbScale
 70
     0
300
8:1
140
8.0
141
1.0
290
     0
  0
SCALE
  5
57
102
{ACAD_REACTORS
330
47
102
}
330
47
100
AcDbScale
 70
     0
300
10:1
140
10.0
141
1.0
290
     0
  0
SCALE
  5
58
102
{ACAD_REACTORS
330
47
102
}
330
47
100
AcDbScale
 70
     0
300
100:1
140
100.0
141
1.0
290
     0
  0
SCALE
  5
59
102
{ACAD_REACTORS
330
47
102
}
330
47
100
AcDbScale
 70
     0
300
1/128" = 1'-0"
140
0.0078125
141
12.0
290
     0
  0
SCALE
  5
5A
102
{ACAD_REACTORS
330
47
102
}
330
47
100
AcDbScale
 70
     0
300
1/64" = 1'-0"
140
0.015625
141
12.0
290
     0
  0
SCALE
  5
5B
102
{ACAD_REACTORS
330
47
102
}
330
47
100
AcDbScale
 70
     0
300
1/32" = 1'-0"
140
0.03125
141
12.0
290
     0
  0
SCALE
  5
5C
102
{ACAD_REACTORS
330
47
102
}
330
47
100
AcDbScale
 70
     0
300
1/16" = 1'-0"
140
0.0625
141
12.0
290
     0
  0
SCALE
  5
5D
102
{ACAD_REACTORS
330
47
102
}
330
47
100
AcDbScale
 70
     0
300
3/32" = 1'-0"
140
0.09375
141
12.0
290
     0
  0
SCALE
  5
5E
102
{ACAD_REACTORS
330
47
102
}
330
47
100
AcDbScale
 70
     0
300
1/8" = 1'-0"
140
0.125
141
12.0
290
     0
  0
SCALE
  5
5F
102
{ACAD_REACTORS
330
47
102
}
330
47
100
AcDbScale
 70
     0
300
3/16" = 1'-0"
140
0.1875
141
12.0
290
     0
  0
SCALE
  5
60
102
{ACAD_REACTORS
330
47
102
}
330
47
100
AcDbScale
 70
     0
300
1/4" = 1'-0"
140
0.25
141
12.0
290
     0
  0
SCALE
  5
61
102
{ACAD_REACTORS
330
47
102
}
330
47
100
AcDbScale
 70
     0
300
3/8" = 1'-0"
140
0.375
141
12.0
290
     0
  0
SCALE
  5
62
102
{ACAD_REACTORS
330
47
102
}
330
47
100
AcDbScale
 70
     0
300
1/2" = 1'-0"
140
0.5
141
12.0
290
     0
  0
SCALE
  5
63
102
{ACAD_REACTORS
330
47
102
}
330
47
100
AcDbScale
 70
     0
300
3/4" = 1'-0"
140
0.75
141
12.0
290
     0
  0
SCALE
  5
64
102
{ACAD_REACTORS
330
47
102
}
330
47
100
AcDbScale
 70
     0
300
1" = 1'-0"
140
1.0
141
12.0
290
     0
  0
SCALE
  5
65
102
{ACAD_REACTORS
330
47
102
}
330
47
100
AcDbScale
 70
     0
300
1-1/2" = 1'-0"
140
1.5
141
12.0
290
     0
  0
SCALE
  5
66
102
{ACAD_REACTORS
330
47
102
}
330
47
100
AcDbScale
 70
     0
300
3" = 1'-0"
140
3.0
141
12.0
290
     0
  0
SCALE
  5
67
102
{ACAD_REACTORS
330
47
102
}
330
47
100
AcDbScale
 70
     0
300
6" = 1'-0"
140
6.0
141
12.0
290
     0
  0
SCALE
  5
68
102
{ACAD_REACTORS
330
47
102
}
330
47
100
AcDbScale
 70
     0
300
1'-0" = 1'-0"
140
12.0
141
12.0
290
     0
  0
TABLESTYLE
  5
6A
102
{ACAD_REACTORS
330
69
102
}
102
{ACAD_XDICTIONARY
360
16B
102
}
330
69
100
AcDbTableStyle
  3
Standard
 70
     0
 71
     0
 40
0.06
 41
0.06
280
     0
281
     0
  7
Standard
140
4.5
170
     2
 62
     0
 63
   257
283
     0
 90
        4
 91
        0
  1

274
    -2
284
     1
 64
     0
275
    -2
285
     1
 65
     0
276
    -2
286
     1
 66
     0
277
    -2
287
     1
 67
     0
278
    -2
288
     1
 68
     0
279
    -2
289
     1
 69
     0
  7
Standard
140
6.0
170
     5
 62
     0
 63
   257
283
     0
 90
        4
 91
        0
  1

274
    -2
284
     1
 64
     0
275
    -2
285
     1
 65
     0
276
    -2
286
     1
 66
     0
277
    -2
287
     1
 67
     0
278
    -2
288
     1
 68
     0
279
    -2
289
     1
 69
     0
  7
Standard
140
4.5
170
     5
 62
     0
 63
   257
283
     0
 90
        4
 91
        0
  1

274
    -2
284
     1
 64
     0
275
    -2
285
     1
 65
     0
276
    -2
286
     1
 66
     0
277
    -2
287
     1
 67
     0
278
    -2
288
     1
 68
     0
279
    -2
289
     1
 69
     0
  0
VISUALSTYLE
  5
2F
102
{ACAD_REACTORS
330
2A
102
}
330
2A
100
AcDbVisualStyle
  2
2dWireframe
 70
     4
177
     3
291
     0
 70
    58
 90
        0
176
     1
 90
        2
176
     1
 90
        0
176
     1
 90
        0
176
     1
 40
0.6
176
     1
 40
30.0
176
     1
 62
     7
420
 16777215
176
     1
 90
        1
176
     1
 90
        4
176
     1
 62
     7
176
     1
 62
   257
176
     1
 90
        1
176
     1
 90
        1
176
     1
 40
1.0
176
     1
 90
        0
176
     1
 62
   257
176
     1
 40
1.0
176
     1
 90
        1
176
     1
 90
        6
176
     1
 90
        2
176
     1
 62
     7
176
     1
 90
        5
176
     1
 90
        0
176
     1
 90
        0
176
     1
290
     0
176
     1
 90
        1
176
     1
 40
0.0
176
     1
 90
        0
176
     1
290
     1
176
     1
290
     1
176
     1
290
     0
176
     1
290
     0
176
     1
290
     0
176
     1
290
     0
176
     1
290
     0
176
     1
290
     0
176
     1
290
     0
176
     1
 90
       50
176
     1
 40
0.0
176
     1
 40
1.0
176
     1
 90
        0
176
     1
 62
    18
420
        0
176
     1
 90
       50
176
     1
 90
        3
176
     1
 62
     5
420
      255
176
     1
290
     0
176
     1
 90
       50
176
     1
 90
       50
176
     1
 90
       50
176
     1
290
     0
176
     1
 90
       50
176
     1
 62
   256
176
     0
 40
1.0
176
     0
 90
        2
176
     1
  1
strokes_ogs.tif
176
     1
290
     0
176
     1
 40
1.0
176
     1
 40
1.0
176
     1
  0
VISUALSTYLE
  5
32
102
{ACAD_REACTORS
330
2A
102
}
330
2A
100
AcDbVisualStyle
  2
Basic
 70
     7
177
     3
291
     1
 70
    58
 90
        1
176
     1
 90
        0
176
     1
 90
        1
176
     1
 90
        0
176
     1
 40
0.6
176
     1
 40
30.0
176
     1
 62
     7
420
 16777215
176
     1
 90
        0
176
     1
 90
        4
176
     1
 62
     7
176
     1
 62
   257
176
     1
 90
        1
176
     1
 90
        1
176
     1
 40
1.0
176
     1
 90
        8
176
     1
 62
     7
176
     1
 40
1.0
176
     1
 90
        1
176
     1
 90
        6
176
     1
 90
        2
176
     1
 62
     7
176
     1
 90
        5
176
     1
 90
        0
176
     1
 90
        0
176
     1
290
     0
176
     1
 90
        1
176
     1
 40
0.0
176
     1
 90
        0
176
     1
290
     0
176
     1
290
     1
176
     1
290
     1
176
     1
290
     0
176
     1
290
     0
176
     1
290
     0
176
     1
290
     0
176
     1
290
     0
176
     1
290
     0
176
     1
 90
       50
176
     1
 40
0.0
176
     1
 40
1.0
176
     1
 90
        0
176
     1
 62
    18
420
        0
176
     1
 90
       50
176
     1
 90
        3
176
     1
 62
     5
420
      255
176
     1
290
     0
176
     1
 90
       50
176
     1
 90
       50
176
     1
 90
       50
176
     1
290
     0
176
     1
 90
       50
176
     1
 62
   256
176
     0
 40
1.0
176
     0
 90
        2
176
     1
  1
strokes_ogs.tif
176
     1
290
     0
176
     1
 40
1.0
176
     1
 40
1.0
176
     1
  0
VISUALSTYLE
  5
36
102
{ACAD_REACTORS
330
2A
102
}
330
2A
100
AcDbVisualStyle
  2
Brighten
 70
    12
177
     3
291
     1
 70
    58
 90
        2
176
     1
 90
        2
176
     1
 90
        0
176
     1
 90
        0
176
     1
 40
0.6
176
     1
 40
30.0
176
     1
 62
     7
420
 16777215
176
     1
 90
        1
176
     1
 90
        4
176
     1
 62
     7
176
     1
 62
   257
176
     1
 90
        1
176
     1
 90
        1
176
     1
 40
1.0
176
     1
 90
        8
176
     1
 62
     7
176
     1
 40
1.0
176
     1
 90
        1
176
     1
 90
        6
176
     1
 90
        2
176
     1
 62
     7
176
     1
 90
        5
176
     1
 90
        0
176
     1
 90
        0
176
     1
290
     0
176
     1
 90
        1
176
     1
 40
50.0
176
     1
 90
        0
176
     1
290
     0
176
     1
290
     1
176
     1
290
     1
176
     1
290
     0
176
     1
290
     0
176
     1
290
     0
176
     1
290
     0
176
     1
290
     0
176
     1
290
     0
176
     1
 90
       50
176
     1
 40
0.0
176
     1
 40
1.0
176
     1
 90
        0
176
     1
 62
    18
420
        0
176
     1
 90
       50
176
     1
 90
        3
176
     1
 62
     5
420
      255
176
     1
290
     0
176
     1
 90
       50
176
     1
 90
       50
176
     1
 90
       50
176
     1
290
     0
176
     1
 90
       50
176
     1
 62
   256
176
     0
 40
1.0
176
     0
 90
        2
176
     1
  1
strokes_ogs.tif
176
     1
290
     0
176
     1
 40
1.0
176
     1
 40
1.0
176
     1
  0
VISUALSTYLE
  5
3A
102
{ACAD_REACTORS
330
2A
102
}
330
2A
100
AcDbVisualStyle
  2
ColorChange
 70
    16
177
     3
291
     1
 70
    58
 90
        2
176
     1
 90
        2
176
     1
 90
        3
176
     1
 90
        0
176
     1
 40
0.6
176
     1
 40
30.0
176
     1
 62
     8
420
  8421504
176
     1
 90
        1
176
     1
 90
        4
176
     1
 62
     7
176
     1
 62
   257
176
     1
 90
        1
176
     1
 90
        1
176
     1
 40
1.0
176
     1
 90
        8
176
     1
 62
     8
420
  8421504
176
     1
 40
1.0
176
     1
 90
        1
176
     1
 90
        6
176
     1
 90
        2
176
     1
 62
     7
176
     1
 90
        5
176
     1
 90
        0
176
     1
 90
        0
176
     1
290
     0
176
     1
 90
        1
176
     1
 40
0.0
176
     1
 90
        0
176
     1
290
     0
176
     1
290
     1
176
     1
290
     1
176
     1
290
     0
176
     1
290
     0
176
     1
290
     0
176
     1
290
     0
176
     1
290
     0
176
     1
290
     0
176
     1
 90
       50
176
     1
 40
0.0
176
     1
 40
1.0
176
     1
 90
        0
176
     1
 62
    18
420
        0
176
     1
 90
       50
176
     1
 90
        3
176
     1
 62
     5
420
      255
176
     1
290
     0
176
     1
 90
       50
176
     1
 90
       50
176
     1
 90
       50
176
     1
290
     0
176
     1
 90
       50
176
     1
 62
   256
176
     0
 40
1.0
176
     0
 90
        2
176
     1
  1
strokes_ogs.tif
176
     1
290
     0
176
     1
 40
1.0
176
     1
 40
1.0
176
     1
  0
VISUALSTYLE
  5
34
102
{ACAD_REACTORS
330
2A
102
}
330
2A
100
AcDbVisualStyle
  2
Conceptual
 70
     9
177
     3
291
     0
 70
    58
 90
        3
176
     1
 90
        2
176
     1
 90
        0
176
     1
 90
        0
176
     1
 40
0.6
176
     1
 40
30.0
176
     1
 62
     7
420
 16777215
176
     1
 90
        2
176
     1
 90
        2
176
     1
 62
     7
176
     1
 62
   257
176
     1
 90
        1
176
     1
 90
        1
176
     1
 40
179.0
176
     1
 90
        8
176
     1
 62
     7
176
     1
 40
1.0
176
     1
 90
        1
176
     1
 90
        6
176
     1
 90
        2
176
     1
 62
     7
176
     1
 90
        3
176
     1
 90
        0
176
     1
 90
        0
176
     1
290
     0
176
     1
 90
        1
176
     1
 40
0.0
176
     1
 90
        0
176
     1
290
     0
176
     1
290
     1
176
     1
290
     1
176
     1
290
     0
176
     1
290
     0
176
     1
290
     0
176
     1
290
     0
176
     1
290
     0
176
     1
290
     0
176
     1
 90
       50
176
     1
 40
0.0
176
     1
 40
1.0
176
     1
 90
        0
176
     1
 62
    18
420
        0
176
     1
 90
       50
176
     1
 90
        3
176
     1
 62
     5
420
      255
176
     1
290
     0
176
     1
 90
       50
176
     1
 90
       50
176
     1
 90
       50
176
     1
290
     0
176
     1
 90
       50
176
     1
 62
   256
176
     0
 40
1.0
176
     0
 90
        2
176
     1
  1
strokes_ogs.tif
176
     1
290
     0
176
     1
 40
1.0
176
     1
 40
1.0
176
     1
  0
VISUALSTYLE
  5
35
102
{ACAD_REACTORS
330
2A
102
}
330
2A
100
AcDbVisualStyle
  2
Dim
 70
    11
177
     3
291
     1
 70
    58
 90
        2
176
     1
 90
        2
176
     1
 90
        0
176
     1
 90
        0
176
     1
 40
0.6
176
     1
 40
30.0
176
     1
 62
     7
420
 16777215
176
     1
 90
        1
176
     1
 90
        4
176
     1
 62
     7
176
     1
 62
   257
176
     1
 90
        1
176
     1
 90
        1
176
     1
 40
1.0
176
     1
 90
        8
176
     1
 62
     7
176
     1
 40
1.0
176
     1
 90
        1
176
     1
 90
        6
176
     1
 90
        2
176
     1
 62
     7
176
     1
 90
        5
176
     1
 90
        0
176
     1
 90
        0
176
     1
290
     0
176
     1
 90
        1
176
     1
 40
-50.0
176
     1
 90
        0
176
     1
290
     0
176
     1
290
     1
176
     1
290
     1
176
     1
290
     0
176
     1
290
     0
176
     1
290
     0
176
     1
290
     0
176
     1
290
     0
176
     1
290
     0
176
     1
 90
       50
176
     1
 40
0.0
176
     1
 40
1.0
176
     1
 90
        0
176
     1
 62
    18
420
        0
176
     1
 90
       50
176
     1
 90
        3
176
     1
 62
     5
420
      255
176
     1
290
     0
176
     1
 90
       50
176
     1
 90
       50
176
     1
 90
       50
176
     1
290
     0
176
     1
 90
       50
176
     1
 62
   256
176
     0
 40
1.0
176
     0
 90
        2
176
     1
  1
strokes_ogs.tif
176
     1
290
     0
176
     1
 40
1.0
176
     1
 40
1.0
176
     1
  0
VISUALSTYLE
  5
3D
102
{ACAD_REACTORS
330
2A
102
}
330
2A
100
AcDbVisualStyle
  2
EdgeColorOff
 70
    22
177
     3
291
     1
 70
    58
 90
        2
176
     0
 90
        2
176
     0
 90
        0
176
     0
 90
        0
176
     0
 40
0.6
176
     0
 40
30.0
176
     0
 62
     7
420
 16777215
176
     0
 90
        1
176
     0
 90
        4
176
     0
 62
     7
176
     0
 62
   257
176
     0
 90
        1
176
     0
 90
        1
176
     0
 40
1.0
176
     0
 90
        8
176
     2
 62
     7
176
     0
 40
1.0
176
     0
 90
        1
176
     0
 90
        6
176
     0
 90
        2
176
     0
 62
     7
176
     0
 90
        5
176
     0
 90
        0
176
     0
 90
        0
176
     0
290
     0
176
     0
 90
        1
176
     0
 40
0.0
176
     0
 90
        0
176
     0
290
     0
176
     0
290
     1
176
     0
290
     1
176
     0
290
     0
176
     0
290
     0
176
     0
290
     0
176
     0
290
     0
176
     0
290
     0
176
     0
290
     0
176
     0
 90
       50
176
     0
 40
0.0
176
     0
 40
1.0
176
     0
 90
        0
176
     0
 62
    18
420
        0
176
     0
 90
       50
176
     0
 90
        3
176
     0
 62
     5
420
      255
176
     0
290
     0
176
     0
 90
       50
176
     0
 90
       50
176
     0
 90
       50
176
     0
290
     0
176
     0
 90
       50
176
     0
 62
   256
176
     0
 40
1.0
176
     0
 90
        2
176
     0
  1
strokes_ogs.tif
176
     0
290
     0
176
     0
 40
1.0
176
     0
 40
1.0
176
     0
  0
VISUALSTYLE
  5
39
102
{ACAD_REACTORS
330
2A
102
}
330
2A
100
AcDbVisualStyle
  2
Facepattern
 70
    15
177
     3
291
     1
 70
    58
 90
        2
176
     1
 90
        2
176
     1
 90
        0
176
     1
 90
        0
176
     1
 40
0.6
176
     1
 40
30.0
176
     1
 62
     7
420
 16777215
176
     1
 90
        1
176
     1
 90
        4
176
     1
 62
     7
176
     1
 62
   257
176
     1
 90
        1
176
     1
 90
        1
176
     1
 40
1.0
176
     1
 90
        8
176
     1
 62
     7
176
     1
 40
1.0
176
     1
 90
        1
176
     1
 90
        6
176
     1
 90
        2
176
     1
 62
     7
176
     1
 90
        5
176
     1
 90
        0
176
     1
 90
        0
176
     1
290
     0
176
     1
 90
        1
176
     1
 40
0.0
176
     1
 90
        0
176
     1
290
     0
176
     1
290
     1
176
     1
290
     1
176
     1
290
     0
176
     1
290
     0
176
     1
290
     0
176
     1
290
     0
176
     1
290
     0
176
     1
290
     0
176
     1
 90
       50
176
     1
 40
0.0
176
     1
 40
1.0
176
     1
 90
        0
176
     1
 62
    18
420
        0
176
     1
 90
       50
176
     1
 90
        3
176
     1
 62
     5
420
      255
176
     1
290
     0
176
     1
 90
       50
176
     1
 90
       50
176
     1
 90
       50
176
     1
290
     0
176
     1
 90
       50
176
     1
 62
   256
176
     0
 40
1.0
176
     0
 90
        2
176
     1
  1
strokes_ogs.tif
176
     1
290
     0
176
     1
 40
1.0
176
     1
 40
1.0
176
     1
  0
VISUALSTYLE
  5
2B
102
{ACAD_REACTORS
330
2A
102
}
330
2A
100
AcDbVisualStyle
  2
Flat
 70
     0
177
     3
291
     1
 70
    58
 90
        2
176
     1
 90
        1
176
     1
 90
        1
176
     1
 90
        2
176
     1
 40
0.6
176
     1
 40
30.0
176
     1
 62
     7
420
 16777215
176
     1
 90
        0
176
     1
 90
        0
176
     1
 62
     7
176
     1
 62
   257
176
     1
 90
        1
176
     1
 90
        1
176
     1
 40
1.0
176
     1
 90
        8
176
     1
 62
     7
176
     1
 40
1.0
176
     1
 90
        1
176
     1
 90
        6
176
     1
 90
        2
176
     1
 62
     7
176
     1
 90
        5
176
     1
 90
        0
176
     1
 90
        0
176
     1
290
     0
176
     1
 90
       13
176
     1
 40
0.0
176
     1
 90
        0
176
     1
290
     0
176
     1
290
     1
176
     1
290
     1
176
     1
290
     0
176
     1
290
     0
176
     1
290
     0
176
     1
290
     0
176
     1
290
     0
176
     1
290
     0
176
     1
 90
       50
176
     1
 40
0.0
176
     1
 40
1.0
176
     1
 90
        0
176
     1
 62
    18
420
        0
176
     1
 90
       50
176
     1
 90
        3
176
     1
 62
     5
420
      255
176
     1
290
     0
176
     1
 90
       50
176
     1
 90
       50
176
     1
 90
       50
176
     1
290
     0
176
     1
 90
       50
176
     1
 62
   256
176
     0
 40
1.0
176
     0
 90
        2
176
     1
  1
strokes_ogs.tif
176
     1
290
     0
176
     1
 40
1.0
176
     1
 40
1.0
176
     1
  0
VISUALSTYLE
  5
2C
102
{ACAD_REACTORS
330
2A
102
}
330
2A
100
AcDbVisualStyle
  2
FlatWithEdges
 70
     1
177
     3
291
     1
 70
    58
 90
        2
176
     1
 90
        1
176
     1
 90
        1
176
     1
 90
        2
176
     1
 40
0.6
176
     1
 40
30.0
176
     1
 62
     7
420
 16777215
176
     1
 90
        1
176
     1
 90
        0
176
     1
 62
     7
176
     1
 62
   257
176
     1
 90
        1
176
     1
 90
        1
176
     1
 40
1.0
176
     1
 90
        0
176
     1
 62
   257
176
     1
 40
1.0
176
     1
 90
        1
176
     1
 90
        6
176
     1
 90
        2
176
     1
 62
     7
176
     1
 90
        5
176
     1
 90
        0
176
     1
 90
        0
176
     1
290
     0
176
     1
 90
       13
176
     1
 40
0.0
176
     1
 90
        0
176
     1
290
     0
176
     1
290
     1
176
     1
290
     1
176
     1
290
     0
176
     1
290
     0
176
     1
290
     0
176
     1
290
     0
176
     1
290
     0
176
     1
290
     0
176
     1
 90
       50
176
     1
 40
0.0
176
     1
 40
1.0
176
     1
 90
        0
176
     1
 62
    18
420
        0
176
     1
 90
       50
176
     1
 90
        3
176
     1
 62
     5
420
      255
176
     1
290
     0
176
     1
 90
       50
176
     1
 90
       50
176
     1
 90
       50
176
     1
290
     0
176
     1
 90
       50
176
     1
 62
   256
176
     0
 40
1.0
176
     0
 90
        2
176
     1
  1
strokes_ogs.tif
176
     1
290
     0
176
     1
 40
1.0
176
     1
 40
1.0
176
     1
  0
VISUALSTYLE
  5
2D
102
{ACAD_REACTORS
330
2A
102
}
330
2A
100
AcDbVisualStyle
  2
Gouraud
 70
     2
177
     3
291
     1
 70
    58
 90
        2
176
     1
 90
        2
176
     1
 90
        1
176
     1
 90
        2
176
     1
 40
0.6
176
     1
 40
30.0
176
     1
 62
     7
420
 16777215
176
     1
 90
        0
176
     1
 90
        0
176
     1
 62
     7
176
     1
 62
   257
176
     1
 90
        1
176
     1
 90
        1
176
     1
 40
1.0
176
     1
 90
        0
176
     1
 62
     7
176
     1
 40
1.0
176
     1
 90
        1
176
     1
 90
        6
176
     1
 90
        2
176
     1
 62
     7
176
     1
 90
        5
176
     1
 90
        0
176
     1
 90
        0
176
     1
290
     0
176
     1
 90
       13
176
     1
 40
0.0
176
     1
 90
        0
176
     1
290
     0
176
     1
290
     1
176
     1
290
     1
176
     1
290
     0
176
     1
290
     0
176
     1
290
     0
176
     1
290
     0
176
     1
290
     0
176
     1
290
     0
176
     1
 90
       50
176
     1
 40
0.0
176
     1
 40
1.0
176
     1
 90
        0
176
     1
 62
    18
420
        0
176
     1
 90
       50
176
     1
 90
        3
176
     1
 62
     5
420
      255
176
     1
290
     0
176
     1
 90
       50
176
     1
 90
       50
176
     1
 90
       50
176
     1
290
     0
176
     1
 90
       50
176
     1
 62
   256
176
     0
 40
1.0
176
     0
 90
        2
176
     1
  1
strokes_ogs.tif
176
     1
290
     0
176
     1
 40
1.0
176
     1
 40
1.0
176
     1
  0
VISUALSTYLE
  5
2E
102
{ACAD_REACTORS
330
2A
102
}
330
2A
100
AcDbVisualStyle
  2
GouraudWithEdges
 70
     3
177
     3
291
     1
 70
    58
 90
        2
176
     1
 90
        2
176
     1
 90
        1
176
     1
 90
        2
176
     1
 40
0.6
176
     1
 40
30.0
176
     1
 62
     7
420
 16777215
176
     1
 90
        1
176
     1
 90
        0
176
     1
 62
     7
176
     1
 62
   257
176
     1
 90
        1
176
     1
 90
        1
176
     1
 40
1.0
176
     1
 90
        0
176
     1
 62
   257
176
     1
 40
1.0
176
     1
 90
        1
176
     1
 90
        6
176
     1
 90
        2
176
     1
 62
     7
176
     1
 90
        5
176
     1
 90
        0
176
     1
 90
        0
176
     1
290
     0
176
     1
 90
       13
176
     1
 40
0.0
176
     1
 90
        0
176
     1
290
     0
176
     1
290
     1
176
     1
290
     1
176
     1
290
     0
176
     1
290
     0
176
     1
290
     0
176
     1
290
     0
176
     1
290
     0
176
     1
290
     0
176
     1
 90
       50
176
     1
 40
0.0
176
     1
 40
1.0
176
     1
 90
        0
176
     1
 62
    18
420
        0
176
     1
 90
       50
176
     1
 90
        3
176
     1
 62
     5
420
      255
176
     1
290
     0
176
     1
 90
       50
176
     1
 90
       50
176
     1
 90
       50
176
     1
290
     0
176
     1
 90
       50
176
     1
 62
   256
176
     0
 40
1.0
176
     0
 90
        2
176
     1
  1
strokes_ogs.tif
176
     1
290
     0
176
     1
 40
1.0
176
     1
 40
1.0
176
     1
  0
VISUALSTYLE
  5
31
102
{ACAD_REACTORS
330
2A
102
}
330
2A
100
AcDbVisualStyle
  2
Hidden
 70
     6
177
     3
291
     0
 70
    58
 90
        1
176
     1
 90
        2
176
     1
 90
        2
176
     1
 90
        0
176
     1
 40
0.6
176
     1
 40
30.0
176
     1
 62
     7
420
 16777215
176
     1
 90
        2
176
     1
 90
        2
176
     1
 62
     7
176
     1
 62
   257
176
     1
 90
        2
176
     1
 90
        1
176
     1
 40
40.0
176
     1
 90
        0
176
     1
 62
   257
176
     1
 40
1.0
176
     1
 90
        1
176
     1
 90
        6
176
     1
 90
        2
176
     1
 62
     7
176
     1
 90
        3
176
     1
 90
        0
176
     1
 90
        0
176
     1
290
     0
176
     1
 90
        1
176
     1
 40
0.0
176
     1
 90
        0
176
     1
290
     0
176
     1
290
     1
176
     1
290
     1
176
     1
290
     0
176
     1
290
     0
176
     1
290
     0
176
     1
290
     0
176
     1
290
     0
176
     1
290
     0
176
     1
 90
       50
176
     1
 40
0.0
176
     1
 40
1.0
176
     1
 90
        0
176
     1
 62
    18
420
        0
176
     1
 90
       50
176
     1
 90
        3
176
     1
 62
     5
420
      255
176
     1
290
     0
176
     1
 90
       50
176
     1
 90
       50
176
     1
 90
       50
176
     1
290
     0
176
     1
 90
       50
176
     1
 62
   256
176
     0
 40
1.0
176
     0
 90
        2
176
     1
  1
strokes_ogs.tif
176
     1
290
     0
176
     1
 40
1.0
176
     1
 40
1.0
176
     1
  0
VISUALSTYLE
  5
3B
102
{ACAD_REACTORS
330
2A
102
}
330
2A
100
AcDbVisualStyle
  2
JitterOff
 70
    20
177
     3
291
     1
 70
    58
 90
        2
176
     0
 90
        2
176
     0
 90
        0
176
     0
 90
        0
176
     0
 40
0.6
176
     0
 40
30.0
176
     0
 62
     7
420
 16777215
176
     0
 90
        1
176
     0
 90
        4
176
     0
 62
     7
176
     0
 62
   257
176
     0
 90
        1
176
     0
 90
        1
176
     0
 40
1.0
176
     0
 90
       10
176
     2
 62
     7
176
     0
 40
1.0
176
     0
 90
        1
176
     0
 90
        6
176
     0
 90
        2
176
     0
 62
     7
176
     0
 90
        5
176
     0
 90
        0
176
     0
 90
        0
176
     0
290
     0
176
     0
 90
        1
176
     0
 40
0.0
176
     0
 90
        0
176
     0
290
     0
176
     0
290
     1
176
     0
290
     1
176
     0
290
     0
176
     0
290
     0
176
     0
290
     0
176
     0
290
     0
176
     0
290
     0
176
     0
290
     0
176
     0
 90
       50
176
     0
 40
0.0
176
     0
 40
1.0
176
     0
 90
        0
176
     0
 62
    18
420
        0
176
     0
 90
       50
176
     0
 90
        3
176
     0
 62
     5
420
      255
176
     0
290
     0
176
     0
 90
       50
176
     0
 90
       50
176
     0
 90
       50
176
     0
290
     0
176
     0
 90
       50
176
     0
 62
   256
176
     0
 40
1.0
176
     0
 90
        2
176
     0
  1
strokes_ogs.tif
176
     0
290
     0
176
     0
 40
1.0
176
     0
 40
1.0
176
     0
  0
VISUALSTYLE
  5
38
102
{ACAD_REACTORS
330
2A
102
}
330
2A
100
AcDbVisualStyle
  2
Linepattern
 70
    14
177
     3
291
     1
 70
    58
 90
        2
176
     1
 90
        2
176
     1
 90
        0
176
     1
 90
        0
176
     1
 40
0.6
176
     1
 40
30.0
176
     1
 62
     7
420
 16777215
176
     1
 90
        1
176
     1
 90
        4
176
     1
 62
     7
176
     1
 62
   257
176
     1
 90
        7
176
     1
 90
        7
176
     1
 40
1.0
176
     1
 90
        8
176
     1
 62
     7
176
     1
 40
1.0
176
     1
 90
        1
176
     1
 90
        6
176
     1
 90
        2
176
     1
 62
     7
176
     1
 90
        5
176
     1
 90
        0
176
     1
 90
        0
176
     1
290
     0
176
     1
 90
        1
176
     1
 40
0.0
176
     1
 90
        0
176
     1
290
     0
176
     1
290
     1
176
     1
290
     1
176
     1
290
     0
176
     1
290
     0
176
     1
290
     0
176
     1
290
     0
176
     1
290
     0
176
     1
290
     0
176
     1
 90
       50
176
     1
 40
0.0
176
     1
 40
1.0
176
     1
 90
        0
176
     1
 62
    18
420
        0
176
     1
 90
       50
176
     1
 90
        3
176
     1
 62
     5
420
      255
176
     1
290
     0
176
     1
 90
       50
176
     1
 90
       50
176
     1
 90
       50
176
     1
290
     0
176
     1
 90
       50
176
     1
 62
   256
176
     0
 40
1.0
176
     0
 90
        2
176
     1
  1
strokes_ogs.tif
176
     1
290
     0
176
     1
 40
1.0
176
     1
 40
1.0
176
     1
  0
VISUALSTYLE
  5
3C
102
{ACAD_REACTORS
330
2A
102
}
330
2A
100
AcDbVisualStyle
  2
OverhangOff
 70
    21
177
     3
291
     1
 70
    58
 90
        2
176
     0
 90
        2
176
     0
 90
        0
176
     0
 90
        0
176
     0
 40
0.6
176
     0
 40
30.0
176
     0
 62
     7
420
 16777215
176
     0
 90
        1
176
     0
 90
        4
176
     0
 62
     7
176
     0
 62
   257
176
     0
 90
        1
176
     0
 90
        1
176
     0
 40
1.0
176
     0
 90
        9
176
     2
 62
     7
176
     0
 40
1.0
176
     0
 90
        1
176
     0
 90
        6
176
     0
 90
        2
176
     0
 62
     7
176
     0
 90
        5
176
     0
 90
        0
176
     0
 90
        0
176
     0
290
     0
176
     0
 90
        1
176
     0
 40
0.0
176
     0
 90
        0
176
     0
290
     0
176
     0
290
     1
176
     0
290
     1
176
     0
290
     0
176
     0
290
     0
176
     0
290
     0
176
     0
290
     0
176
     0
290
     0
176
     0
290
     0
176
     0
 90
       50
176
     0
 40
0.0
176
     0
 40
1.0
176
     0
 90
        0
176
     0
 62
    18
420
        0
176
     0
 90
       50
176
     0
 90
        3
176
     0
 62
     5
420
      255
176
     0
290
     0
176
     0
 90
       50
176
     0
 90
       50
176
     0
 90
       50
176
     0
290
     0
176
     0
 90
       50
176
     0
 62
   256
176
     0
 40
1.0
176
     0
 90
        2
176
     0
  1
strokes_ogs.tif
176
     0
290
     0
176
     0
 40
1.0
176
     0
 40
1.0
176
     0
  0
VISUALSTYLE
  5
33
102
{ACAD_REACTORS
330
2A
102
}
330
2A
100
AcDbVisualStyle
  2
Realistic
 70
     8
177
     3
291
     0
 70
    58
 90
        2
176
     1
 90
        3
176
     1
 90
        0
176
     1
 90
        2
176
     1
 40
0.6
176
     1
 40
30.0
176
     1
 62
     7
420
 16777215
176
     1
 90
        0
176
     1
 90
        0
176
     1
 62
     7
176
     1
 62
   257
176
     1
 90
        1
176
     1
 90
        1
176
     1
 40
1.0
176
     1
 90
        8
176
     1
 62
   257
176
     1
 40
1.0
176
     1
 90
        1
176
     1
 90
        6
176
     1
 90
        2
176
     1
 62
     7
176
     1
 90
        3
176
     1
 90
        0
176
     1
 90
        0
176
     1
290
     0
176
     1
 90
       13
176
     1
 40
0.0
176
     1
 90
        0
176
     1
290
     0
176
     1
290
     1
176
     1
290
     1
176
     1
290
     0
176
     1
290
     0
176
     1
290
     0
176
     1
290
     0
176
     1
290
     0
176
     1
290
     0
176
     1
 90
       50
176
     1
 40
0.0
176
     1
 40
1.0
176
     1
 90
        0
176
     1
 62
    18
420
        0
176
     1
 90
       50
176
     1
 90
        3
176
     1
 62
     5
420
      255
176
     1
290
     0
176
     1
 90
       50
176
     1
 90
       50
176
     1
 90
       50
176
     1
290
     0
176
     1
 90
       50
176
     1
 62
   256
176
     0
 40
1.0
176
     0
 90
        2
176
     1
  1
strokes_ogs.tif
176
     1
290
     0
176
     1
 40
1.0
176
     1
 40
1.0
176
     1
  0
VISUALSTYLE
  5
42
102
{ACAD_REACTORS
330
2A
102
}
330
2A
100
AcDbVisualStyle
  2
Shaded
 70
    27
177
     3
291
     0
 70
    58
 90
        2
176
     1
 90
        2
176
     1
 90
        1
176
     1
 90
        2
176
     1
 40
0.6
176
     1
 40
30.0
176
     1
 62
     7
420
 16777215
176
     1
 90
        0
176
     1
 90
        4
176
     1
 62
     7
176
     1
 62
   257
176
     1
 90
        1
176
     1
 90
        1
176
     1
 40
1.0
176
     1
 90
        8
176
     1
 62
   257
176
     1
 40
1.0
176
     1
 90
        1
176
     1
 90
        6
176
     1
 90
        2
176
     1
 62
     8
420
  7895160
176
     1
 90
        3
176
     1
 90
        0
176
     1
 90
        0
176
     1
290
     0
176
     1
 90
        5
176
     1
 40
0.0
176
     1
 90
        0
176
     1
290
     0
176
     1
290
     1
176
     1
290
     1
176
     1
290
     0
176
     1
290
     0
176
     1
290
     0
176
     1
290
     0
176
     1
290
     0
176
     1
290
     0
176
     1
 90
       50
176
     1
 40
0.0
176
     1
 40
1.0
176
     1
 90
        0
176
     1
 62
    18
420
        0
176
     1
 90
       50
176
     1
 90
        3
176
     1
 62
     5
420
      255
176
     1
290
     0
176
     1
 90
       50
176
     1
 90
       50
176
     1
 90
       50
176
     1
290
     0
176
     1
 90
       50
176
     1
 62
   256
176
     0
 40
1.0
176
     0
 90
        2
176
     1
  1
strokes_ogs.tif
176
     1
290
     0
176
     1
 40
1.0
176
     1
 40
1.0
176
     1
  0
VISUALSTYLE
  5
41
102
{ACAD_REACTORS
330
2A
102
}
330
2A
100
AcDbVisualStyle
  2
Shaded with edges
 70
    26
177
     3
291
     0
 70
    58
 90
        2
176
     1
 90
        2
176
     1
 90
        1
176
     1
 90
        2
176
     1
 40
0.6
176
     1
 40
30.0
176
     1
 62
     7
420
 16777215
176
     1
 90
        1
176
     1
 90
       10
176
     1
 62
     7
176
     1
 62
   257
176
     1
 90
        2
176
     1
 90
        1
176
     1
 40
1.0
176
     1
 90
        8
176
     1
 62
   257
176
     1
 40
1.0
176
     1
 90
        1
176
     1
 90
        6
176
     1
 90
        2
176
     1
 62
     7
176
     1
 90
        3
176
     1
 90
        0
176
     1
 90
        0
176
     1
290
     0
176
     1
 90
        5
176
     1
 40
0.0
176
     1
 90
        0
176
     1
290
     0
176
     1
290
     1
176
     1
290
     1
176
     1
290
     0
176
     1
290
     0
176
     1
290
     0
176
     1
290
     0
176
     1
290
     0
176
     1
290
     0
176
     1
 90
       50
176
     1
 40
0.0
176
     1
 40
1.0
176
     1
 90
        0
176
     1
 62
    18
420
        0
176
     1
 90
       50
176
     1
 90
        3
176
     1
 62
     5
420
      255
176
     1
290
     0
176
     1
 90
       50
176
     1
 90
       50
176
     1
 90
       50
176
     1
290
     0
176
     1
 90
       50
176
     1
 62
   256
176
     0
 40
1.0
176
     0
 90
        2
176
     1
  1
strokes_ogs.tif
176
     1
290
     0
176
     1
 40
1.0
176
     1
 40
1.0
176
     1
  0
VISUALSTYLE
  5
3E
102
{ACAD_REACTORS
330
2A
102
}
330
2A
100
AcDbVisualStyle
  2
Shades of Gray
 70
    23
177
     3
291
     0
 70
    58
 90
        2
176
     1
 90
        2
176
     1
 90
        3
176
     1
 90
        0
176
     1
 40
0.6
176
     1
 40
30.0
176
     1
 62
     7
420
 16777215
176
     1
 90
        2
176
     1
 90
        2
176
     1
 62
     7
176
     1
 62
     7
176
     1
 90
        1
176
     1
 90
        1
176
     1
 40
40.0
176
     1
 90
        8
176
     1
 62
     7
176
     1
 40
1.0
176
     1
 90
        1
176
     1
 90
        6
176
     1
 90
        2
176
     1
 62
     7
176
     1
 90
        3
176
     1
 90
        0
176
     1
 90
        0
176
     1
290
     0
176
     1
 90
        1
176
     1
 40
0.0
176
     1
 90
        0
176
     1
290
     0
176
     1
290
     1
176
     1
290
     1
176
     1
290
     0
176
     1
290
     0
176
     1
290
     0
176
     1
290
     0
176
     1
290
     0
176
     1
290
     0
176
     1
 90
       50
176
     1
 40
0.0
176
     1
 40
1.0
176
     1
 90
        0
176
     1
 62
    18
420
        0
176
     1
 90
       50
176
     1
 90
        3
176
     1
 62
     5
420
      255
176
     1
290
     0
176
     1
 90
       50
176
     1
 90
       50
176
     1
 90
       50
176
     1
290
     0
176
     1
 90
       50
176
     1
 62
   256
176
     0
 40
1.0
176
     0
 90
        2
176
     1
  1
strokes_ogs.tif
176
     1
290
     0
176
     1
 40
1.0
176
     1
 40
1.0
176
     1
  0
VISUALSTYLE
  5
3F
102
{ACAD_REACTORS
330
2A
102
}
330
2A
100
AcDbVisualStyle
  2
Sketchy
 70
    24
177
     3
291
     0
 70
    58
 90
        1
176
     1
 90
        2
176
     1
 90
        2
176
     1
 90
        0
176
     1
 40
0.6
176
     1
 40
30.0
176
     1
 62
     7
420
 16777215
176
     1
 90
        2
176
     1
 90
        2
176
     1
 62
     7
176
     1
 62
     7
176
     1
 90
        1
176
     1
 90
        1
176
     1
 40
40.0
176
     1
 90
       11
176
     1
 62
     7
176
     1
 40
1.0
176
     1
 90
        1
176
     1
 90
        6
176
     1
 90
        2
176
     1
 62
     7
176
     1
 90
        6
176
     1
 90
        0
176
     1
 90
        0
176
     1
290
     0
176
     1
 90
        1
176
     1
 40
0.0
176
     1
 90
        0
176
     1
290
     0
176
     1
290
     1
176
     1
290
     1
176
     1
290
     0
176
     1
290
     0
176
     1
290
     0
176
     1
290
     0
176
     1
290
     0
176
     1
290
     0
176
     1
 90
       50
176
     1
 40
0.0
176
     1
 40
1.0
176
     1
 90
        0
176
     1
 62
    18
420
        0
176
     1
 90
       50
176
     1
 90
        3
176
     1
 62
     5
420
      255
176
     1
290
     0
176
     1
 90
       50
176
     1
 90
       50
176
     1
 90
       50
176
     1
290
     0
176
     1
 90
       50
176
     1
 62
   256
176
     0
 40
1.0
176
     0
 90
        2
176
     1
  1
strokes_ogs.tif
176
     1
290
     0
176
     1
 40
1.0
176
     1
 40
1.0
176
     1
  0
VISUALSTYLE
  5
37
102
{ACAD_REACTORS
330
2A
102
}
330
2A
100
AcDbVisualStyle
  2
Thicken
 70
    13
177
     3
291
     1
 70
    58
 90
        2
176
     1
 90
        2
176
     1
 90
        0
176
     1
 90
        0
176
     1
 40
0.6
176
     1
 40
30.0
176
     1
 62
     7
420
 16777215
176
     1
 90
        1
176
     1
 90
        4
176
     1
 62
     7
176
     1
 62
   257
176
     1
 90
        1
176
     1
 90
        1
176
     1
 40
1.0
176
     1
 90
       12
176
     1
 62
     7
176
     1
 40
1.0
176
     1
 90
        1
176
     1
 90
        6
176
     1
 90
        2
176
     1
 62
     7
176
     1
 90
        5
176
     1
 90
        0
176
     1
 90
        0
176
     1
290
     0
176
     1
 90
        1
176
     1
 40
0.0
176
     1
 90
        0
176
     1
290
     0
176
     1
290
     1
176
     1
290
     1
176
     1
290
     0
176
     1
290
     0
176
     1
290
     0
176
     1
290
     0
176
     1
290
     0
176
     1
290
     0
176
     1
 90
       50
176
     1
 40
0.0
176
     1
 40
1.0
176
     1
 90
        0
176
     1
 62
    18
420
        0
176
     1
 90
       50
176
     1
 90
        3
176
     1
 62
     5
420
      255
176
     1
290
     0
176
     1
 90
       50
176
     1
 90
       50
176
     1
 90
       50
176
     1
290
     0
176
     1
 90
       50
176
     1
 62
   256
176
     0
 40
1.0
176
     0
 90
        2
176
     1
  1
strokes_ogs.tif
176
     1
290
     0
176
     1
 40
1.0
176
     1
 40
1.0
176
     1
  0
VISUALSTYLE
  5
30
102
{ACAD_REACTORS
330
2A
102
}
330
2A
100
AcDbVisualStyle
  2
Wireframe
 70
     5
177
     3
291
     0
 70
    58
 90
        0
176
     1
 90
        2
176
     1
 90
        0
176
     1
 90
        0
176
     1
 40
0.6
176
     1
 40
30.0
176
     1
 62
     7
420
 16777215
176
     1
 90
        1
176
     1
 90
        4
176
     1
 62
     7
176
     1
 62
   257
176
     1
 90
        1
176
     1
 90
        1
176
     1
 40
1.0
176
     1
 90
        0
176
     1
 62
   257
176
     1
 40
1.0
176
     1
 90
        1
176
     1
 90
        6
176
     1
 90
        2
176
     1
 62
     7
176
     1
 90
        3
176
     1
 90
        0
176
     1
 90
        0
176
     1
290
     0
176
     1
 90
        1
176
     1
 40
0.0
176
     1
 90
        0
176
     1
290
     0
176
     1
290
     1
176
     1
290
     1
176
     1
290
     0
176
     1
290
     0
176
     1
290
     0
176
     1
290
     0
176
     1
290
     0
176
     1
290
     0
176
     1
 90
       50
176
     1
 40
0.0
176
     1
 40
1.0
176
     1
 90
        0
176
     1
 62
    18
420
        0
176
     1
 90
       50
176
     1
 90
        3
176
     1
 62
     5
420
      255
176
     1
290
     0
176
     1
 90
       50
176
     1
 90
       50
176
     1
 90
       50
176
     1
290
     0
176
     1
 90
       50
176
     1
 62
   256
176
     0
 40
1.0
176
     0
 90
        2
176
     1
  1
strokes_ogs.tif
176
     1
290
     0
176
     1
 40
1.0
176
     1
 40
1.0
176
     1
  0
VISUALSTYLE
  5
40
102
{ACAD_REACTORS
330
2A
102
}
330
2A
100
AcDbVisualStyle
  2
X-Ray
 70
    25
177
     3
291
     0
 70
    58
 90
        2
176
     1
 90
        2
176
     1
 90
        1
176
     1
 90
        1
176
     1
 40
0.5
176
     1
 40
30.0
176
     1
 62
     7
420
 16777215
176
     1
 90
        1
176
     1
 90
        0
176
     1
 62
     7
176
     1
 62
   257
176
     1
 90
        1
176
     1
 90
        1
176
     1
 40
1.0
176
     1
 90
        8
176
     1
 62
     7
176
     1
 40
1.0
176
     1
 90
        1
176
     1
 90
        6
176
     1
 90
        2
176
     1
 62
     7
176
     1
 90
        3
176
     1
 90
        0
176
     1
 90
        0
176
     1
290
     0
176
     1
 90
       13
176
     1
 40
0.0
176
     1
 90
        0
176
     1
290
     0
176
     1
290
     1
176
     1
290
     1
176
     1
290
     0
176
     1
290
     0
176
     1
290
     0
176
     1
290
     0
176
     1
290
     0
176
     1
290
     0
176
     1
 90
       50
176
     1
 40
0.0
176
     1
 40
1.0
176
     1
 90
        0
176
     1
 62
    18
420
        0
176
     1
 90
       50
176
     1
 90
        3
176
     1
 62
     5
420
      255
176
     1
290
     0
176
     1
 90
       50
176
     1
 90
       50
176
     1
 90
       50
176
     1
290
     0
176
     1
 90
       50
176
     1
 62
   256
176
     0
 40
1.0
176
     0
 90
        2
176
     1
  1
strokes_ogs.tif
176
     1
290
     0
176
     1
 40
1.0
176
     1
 40
1.0
176
     1
  0
DICTIONARYVAR
  5
16A
102
{ACAD_REACTORS
330
169
102
}
330
169
100
DictionaryVariables
280
     0
  1
1:1
  0
DICTIONARYVAR
  5
16F
102
{ACAD_REACTORS
330
169
102
}
330
169
100
DictionaryVariables
280
     0
  1
Standard
  0
DICTIONARYVAR
  5
16E
102
{ACAD_REACTORS
330
169
102
}
330
169
100
DictionaryVariables
280
     0
  1
Standard
  0
DICTIONARY
  5
16B
330
6A
100
AcDbDictionary
280
     1
281
     1
  3
ACAD_ROUNDTRIP_2008_TABLESTYLE_CELLSTYLEMAP
360
16C
  0
CELLSTYLEMAP
  5
16C
102
{ACAD_REACTORS
330
16B
102
}
330
16B
100
AcDbCellStyleMap
 90
        3
300
CELLSTYLE
  1
TABLEFORMAT_BEGIN
 90
        5
170
     1
 91
        0
 92
    32768
 62
   257
 93
        1
300
CONTENTFORMAT
  1
CONTENTFORMAT_BEGIN
 90
        0
 91
        0
 92
        4
 93
        0
300

 40
0.0
140
1.0
 94
        5
 62
     0
340
11
144
6.0
309
CONTENTFORMAT_END
171
     1
301
MARGIN
  1
CELLMARGIN_BEGIN
 40
1.5
 40
1.5
 40
1.5
 40
1.5
 40
1.5
 40
1.5
309
CELLMARGIN_END
 94
        6
 95
        1
302
GRIDFORMAT
  1
GRIDFORMAT_BEGIN
 90
        0
 91
        1
 62
     0
 92
       -2
340
14
 93
        0
 40
0.045
309
GRIDFORMAT_END
 95
        2
302
GRIDFORMAT
  1
GRIDFORMAT_BEGIN
 90
        0
 91
        1
 62
     0
 92
       -2
340
14
 93
        0
 40
0.045
309
GRIDFORMAT_END
 95
        4
302
GRIDFORMAT
  1
GRIDFORMAT_BEGIN
 90
        0
 91
        1
 62
     0
 92
       -2
340
14
 93
        0
 40
0.045
309
GRIDFORMAT_END
 95
        8
302
GRIDFORMAT
  1
GRIDFORMAT_BEGIN
 90
        0
 91
        1
 62
     0
 92
       -2
340
14
 93
        0
 40
0.045
309
GRIDFORMAT_END
 95
       16
302
GRIDFORMAT
  1
GRIDFORMAT_BEGIN
 90
        0
 91
        1
 62
     0
 92
       -2
340
14
 93
        0
 40
0.045
309
GRIDFORMAT_END
 95
       32
302
GRIDFORMAT
  1
GRIDFORMAT_BEGIN
 90
        0
 91
        1
 62
     0
 92
       -2
340
14
 93
        0
 40
0.045
309
GRIDFORMAT_END
309
TABLEFORMAT_END
  1
CELLSTYLE_BEGIN
 90
        1
 91
        1
300
_TITLE
309
CELLSTYLE_END
300
CELLSTYLE
  1
TABLEFORMAT_BEGIN
 90
        5
170
     1
 91
        0
 92
        0
 62
   257
 93
        1
300
CONTENTFORMAT
  1
CONTENTFORMAT_BEGIN
 90
        0
 91
        0
 92
        4
 93
        0
300

 40
0.0
140
1.0
 94
        5
 62
     0
340
11
144
4.5
309
CONTENTFORMAT_END
171
     1
301
MARGIN
  1
CELLMARGIN_BEGIN
 40
1.5
 40
1.5
 40
1.5
 40
1.5
 40
1.5
 40
1.5
309
CELLMARGIN_END
 94
        6
 95
        1
302
GRIDFORMAT
  1
GRIDFORMAT_BEGIN
 90
        0
 91
        1
 62
     0
 92
       -2
340
14
 93
        0
 40
0.045
309
GRIDFORMAT_END
 95
        2
302
GRIDFORMAT
  1
GRIDFORMAT_BEGIN
 90
        0
 91
        1
 62
     0
 92
       -2
340
14
 93
        0
 40
0.045
309
GRIDFORMAT_END
 95
        4
302
GRIDFORMAT
  1
GRIDFORMAT_BEGIN
 90
        0
 91
        1
 62
     0
 92
       -2
340
14
 93
        0
 40
0.045
309
GRIDFORMAT_END
 95
        8
302
GRIDFORMAT
  1
GRIDFORMAT_BEGIN
 90
        0
 91
        1
 62
     0
 92
       -2
340
14
 93
        0
 40
0.045
309
GRIDFORMAT_END
 95
       16
302
GRIDFORMAT
  1
GRIDFORMAT_BEGIN
 90
        0
 91
        1
 62
     0
 92
       -2
340
14
 93
        0
 40
0.045
309
GRIDFORMAT_END
 95
       32
302
GRIDFORMAT
  1
GRIDFORMAT_BEGIN
 90
        0
 91
        1
 62
     0
 92
       -2
340
14
 93
        0
 40
0.045
309
GRIDFORMAT_END
309
TABLEFORMAT_END
  1
CELLSTYLE_BEGIN
 90
        2
 91
        1
300
_HEADER
309
CELLSTYLE_END
300
CELLSTYLE
  1
TABLEFORMAT_BEGIN
 90
        5
170
     1
 91
        0
 92
        0
 62
   257
 93
        1
300
CONTENTFORMAT
  1
CONTENTFORMAT_BEGIN
 90
        0
 91
        0
 92
        4
 93
        0
300

 40
0.0
140
1.0
 94
        2
 62
     0
340
11
144
4.5
309
CONTENTFORMAT_END
171
     1
301
MARGIN
  1
CELLMARGIN_BEGIN
 40
1.5
 40
1.5
 40
1.5
 40
1.5
 40
1.5
 40
1.5
309
CELLMARGIN_END
 94
        6
 95
        1
302
GRIDFORMAT
  1
GRIDFORMAT_BEGIN
 90
        0
 91
        1
 62
     0
 92
       -2
340
14
 93
        0
 40
0.045
309
GRIDFORMAT_END
 95
        2
302
GRIDFORMAT
  1
GRIDFORMAT_BEGIN
 90
        0
 91
        1
 62
     0
 92
       -2
340
14
 93
        0
 40
0.045
309
GRIDFORMAT_END
 95
        4
302
GRIDFORMAT
  1
GRIDFORMAT_BEGIN
 90
        0
 91
        1
 62
     0
 92
       -2
340
14
 93
        0
 40
0.045
309
GRIDFORMAT_END
 95
        8
302
GRIDFORMAT
  1
GRIDFORMAT_BEGIN
 90
        0
 91
        1
 62
     0
 92
       -2
340
14
 93
        0
 40
0.045
309
GRIDFORMAT_END
 95
       16
302
GRIDFORMAT
  1
GRIDFORMAT_BEGIN
 90
        0
 91
        1
 62
     0
 92
       -2
340
14
 93
        0
 40
0.045
309
GRIDFORMAT_END
 95
       32
302
GRIDFORMAT
  1
GRIDFORMAT_BEGIN
 90
        0
 91
        1
 62
     0
 92
       -2
340
14
 93
        0
 40
0.045
309
GRIDFORMAT_END
309
TABLEFORMAT_END
  1
CELLSTYLE_BEGIN
 90
        3
 91
        2
300
_DATA
309
CELLSTYLE_END
  0
ENDSEC
  0
EOF